  0
SECTION
  2
HEADER
  9
$ACADVER
  1
AC1003
  9
$EXTMIN
 10
-1.38399994E+02
 20
-9.48000031E+01
  9
$EXTMAX
 10
1.38350006E+02
 20
9.45000000E+01
  9
$LIMMIN
 10
-1.38400994E+02
 20
-9.48010031E+01
  9
$LIMMAX
 10
1.38351006E+02
 20
9.45010000E+01
  9
$SNAPUNIT
 10
1
 20
1
  9
$SNAPBASE
 10
0
 20
0
  9
$GRIDMODE
 70
0
  9
$GRIDUNIT
 10
0
 20
0
  9
$LTSCALE
 40
4.61250000E+00
  9
$TEXTSIZE
 40
3.2
  9
$DIMTAD
 70
0
  9
$LUNITS
 70
2
  9
$LUPREC
 70
4
  9
$FILLETRAD
 40
0
  9
$AUNITS
 70
0
  9
$AUPREC
 70
0
  0
ENDSEC
  0
SECTION
  2
TABLES
  0
TABLE
  2
LTYPE
 70
2
  0
LTYPE
  2
CONTINUOUS
 70
64
  3
Solid-Line
 72
65
 73
0
 40
0
  0
LTYPE
  2
DASHED
 70
64
  3
DASHED
 72
65
 73
2
 40
.75
 49
.5
 49
-.25
  0
LTYPE
  2
HIDDEN
 70
64
  3
HIDDEN
 72
65
 73
2
 40
.375
 49
.25
 49
-.125
  0
LTYPE
  2
CENTER
 70
64
  3
CENTER
 72
65
 73
4
 40
2
 49
1.25
 49
-.25
 49
.25
 49
-.25
  0
LTYPE
  2
PHANTOM
 70
64
  3
PHANTOM
 72
65
 73
6
 40
2.5
 49
1.25
 49
-.25
 49
.25
 49
-.25
 49
.25
 49
-.25
  0
ENDTAB
  0
TABLE
  2
LAYER
 70
1
  0
LAYER
  2
1
 70
0
 62
7
  6
CONTINUOUS
 0
ENDTAB
  0
TABLE
  2
STYLE
 70
2
  0
STYLE
  2
MONOTXT
 70
0
 40
0
 41
1
 50
0
 71
0
 42
.2
  3
monotxt
  0
STYLE
  2
BIGFONT
 70
0
 40
0
 41
1
 50
0
 71
0
 42
.2
  3
txt
  4
bigfont
  0
ENDTAB
  0
ENDSEC
  0
SECTION
  2
ENTITIES
  0
LINE
  8
0
  6
CENTER
 62
6
 10
-2.18333150E+01
 20
4.76190088E+01
 11
-2.18333852E+01
 21
1.37304755E+01
  0
LINE
  8
0
  6
PHANTOM
 10
2.31722070E+00
 20
5.27936799E+00
 11
2.31730841E+00
 21
4.76189587E+01
  0
LINE
  8
0
  6
CENTER
 62
6
 10
3.79166835E+01
 20
4.76188850E+01
 11
3.79166133E+01
 21
1.37303517E+01
  0
TEXT
  8
0
 62
7
 10
-1.51693161E+01
 20
1.69090104E+01
 40
1.50000000E+00
  1
PBDAUS16
 50
3.59999882E+02
 41
1.00000000E+00
  7
MONOTXT
  0
LINE
  8
0
 62
7
 10
4.49166528E+01
 20
3.28088705E+01
 11
6.26666528E+01
 21
3.28088337E+01
  0
LINE
  8
0
 62
7
 10
-1.48333457E+01
 20
3.28089943E+01
 11
3.09166528E+01
 21
3.28088995E+01
  0
LINE
  8
0
 62
7
 10
4.24166176E+01
 20
1.58088757E+01
 11
6.26666176E+01
 21
1.58088337E+01
  0
LINE
  8
0
 62
7
 10
-1.73333809E+01
 20
1.58089995E+01
 11
3.34166176E+01
 21
1.58088943E+01
  0
LINE
  8
0
 62
7
 10
-1.48333457E+01
 20
3.28089943E+01
 11
3.09166528E+01
 21
3.28088995E+01
  0
LINE
  8
0
 62
4
 10
-1.48333357E+01
 20
3.76089943E+01
 11
-9.33333571E+00
 21
3.76089829E+01
  0
LINE
  8
0
 62
4
 10
-1.48333440E+01
 20
3.36089943E+01
 11
-9.33334400E+00
 21
3.36089829E+01
  0
LINE
  8
0
 62
4
 10
-2.88333403E+01
 20
3.54090233E+01
 11
-2.88333466E+01
 21
3.23409055E+01
  0
LINE
  8
0
 62
4
 10
-1.48333403E+01
 20
3.54089943E+01
 11
-1.48333466E+01
 21
3.23408765E+01
  0
LINE
  8
0
 62
4
 10
-2.63333394E+01
 20
3.58090181E+01
 11
-1.73333394E+01
 21
3.58089995E+01
  0
LINE
  8
0
 62
4
 10
-2.88333466E+01
 20
3.23409055E+01
 11
-2.63333466E+01
 21
3.23409003E+01
  0
LINE
  8
0
 62
4
 10
-1.48333466E+01
 20
3.23408765E+01
 11
-1.73333466E+01
 21
3.23408817E+01
  0
LINE
  8
0
 62
4
 10
-1.73333401E+01
 20
3.55089995E+01
 11
-1.73333260E+01
 21
4.23089995E+01
  0
LINE
  8
0
 62
4
 10
-2.63333401E+01
 20
3.55090181E+01
 11
-2.63333260E+01
 21
4.23090181E+01
  0
LINE
  8
0
 62
4
 10
-1.73333403E+01
 20
3.54089995E+01
 11
-1.48333403E+01
 21
3.54089943E+01
  0
LINE
  8
0
 62
4
 10
-1.73333394E+01
 20
3.58089995E+01
 11
-1.48333394E+01
 21
3.58089943E+01
  0
LINE
  8
0
 62
4
 10
-1.73333336E+01
 20
3.86089995E+01
 11
-1.48333336E+01
 21
3.86089943E+01
  0
LINE
  8
0
 62
4
 10
-2.88333403E+01
 20
3.54090233E+01
 11
-2.63333403E+01
 21
3.54090181E+01
  0
LINE
  8
0
 62
4
 10
-2.88333394E+01
 20
3.58090233E+01
 11
-2.63333394E+01
 21
3.58090181E+01
  0
LINE
  8
0
 62
4
 10
-2.88333336E+01
 20
3.86090233E+01
 11
-2.63333336E+01
 21
3.86090181E+01
  0
LINE
  8
0
 62
4
 10
-2.63333812E+01
 20
1.56590335E+01
 11
-1.73333812E+01
 21
1.56590148E+01
  0
LINE
  8
0
 62
4
 10
-1.48333336E+01
 20
3.86089943E+01
 11
-1.48333394E+01
 21
3.58089943E+01
  0
ARC
  8
0
 62
4
 10
-2.03349885E+01
 20
4.38073400E+01
 40
1.00166704E+00
 50
9.51576081E-02
 51
8.99046050E+01
  0
ARC
  8
0
 62
4
 10
-2.33325314E+01
 20
4.38082204E+01
 40
1.00079180E+00
 50
9.00000002E+01
 51
1.79954568E+02
  0
LINE
  8
0
 62
4
 10
-2.88333336E+01
 20
3.86090233E+01
 11
-2.88333394E+01
 21
3.58090233E+01
  0
LINE
  8
0
 62
4
 10
-3.43333378E+01
 20
3.66090347E+01
 11
-3.33333357E+01
 21
3.76090326E+01
  0
LINE
  8
0
 62
6
 10
-2.30633239E+01
 20
4.33090113E+01
 11
-2.30633260E+01
 21
4.23090113E+01
  0
LINE
  8
0
 62
6
 10
-2.06033239E+01
 20
4.33090062E+01
 11
-2.06033260E+01
 21
4.23090062E+01
  0
LINE
  8
0
 62
4
 10
-2.33333239E+01
 20
4.33090119E+01
 11
-2.33333260E+01
 21
4.23090119E+01
  0
LINE
  8
0
 62
4
 10
-2.03333239E+01
 20
4.33090057E+01
 11
-2.03333260E+01
 21
4.23090057E+01
  0
LINE
  8
0
 62
4
 10
-2.33333208E+01
 20
4.48090119E+01
 11
-2.03333208E+01
 21
4.48090057E+01
  0
LINE
  8
0
 62
4
 10
-2.43333239E+01
 20
4.33090140E+01
 11
-1.93333239E+01
 21
4.33090036E+01
  0
LINE
  8
0
 62
4
 10
-3.43333378E+01
 20
3.66090347E+01
 11
-3.43333419E+01
 21
3.46090347E+01
  0
LINE
  8
0
 62
4
 10
-2.63333260E+01
 20
4.23090181E+01
 11
-1.73333260E+01
 21
4.23089995E+01
  0
LINE
  8
0
 62
4
 10
-3.33333440E+01
 20
3.36090326E+01
 11
-2.88333440E+01
 21
3.36090233E+01
  0
LINE
  8
0
 62
4
 10
-3.33333357E+01
 20
3.76090326E+01
 11
-2.88333357E+01
 21
3.76090233E+01
  0
LINE
  8
0
 62
4
 10
-1.93333229E+01
 20
4.38090036E+01
 11
-1.93333239E+01
 21
4.33090036E+01
  0
LINE
  8
0
 62
4
 10
-2.43333229E+01
 20
4.38090140E+01
 11
-2.43333239E+01
 21
4.33090140E+01
  0
LINE
  8
0
 62
4
 10
-3.43333419E+01
 20
3.46090347E+01
 11
-3.33333440E+01
 21
3.36090326E+01
  0
LINE
  8
0
 62
4
 10
-3.33333357E+01
 20
3.76090326E+01
 11
-3.33333440E+01
 21
3.36090326E+01
  0
LINE
  8
0
 62
4
 10
-1.73333401E+01
 20
3.55089995E+01
 11
-1.73333812E+01
 21
1.56590148E+01
  0
LINE
  8
0
 62
4
 10
-2.63333401E+01
 20
3.55090181E+01
 11
-2.63333812E+01
 21
1.56590335E+01
  0
LINE
  8
0
 62
4
 10
-9.33333571E+00
 20
3.76089829E+01
 11
-6.33333716E+00
 21
3.69089767E+01
  0
LINE
  8
0
 62
4
 10
-9.33334400E+00
 20
3.36089829E+01
 11
-6.33334256E+00
 21
3.43089767E+01
  0
LINE
  8
0
 62
4
 10
-9.33333571E+00
 20
3.76089829E+01
 11
-9.33334400E+00
 21
3.36089829E+01
  0
LINE
  8
0
 62
6
 10
-1.39633808E+00
 20
3.69089665E+01
 11
-3.99634347E+00
 21
3.43089718E+01
  0
LINE
  8
0
 62
4
 10
-6.33334256E+00
 20
3.43089767E+01
 11
-3.99634347E+00
 21
3.43089718E+01
  0
LINE
  8
0
 62
4
 10
-6.33333716E+00
 20
3.69089767E+01
 11
-6.33334255E+00
 21
3.43089767E+01
  0
LINE
  8
0
 62
4
 10
-6.33333717E+00
 20
3.69089767E+01
 11
-1.39633808E+00
 21
3.69089665E+01
  0
LINE
  8
0
 62
4
 10
4.49166627E+01
 20
3.76088705E+01
 11
5.04166627E+01
 21
3.76088591E+01
  0
LINE
  8
0
 62
4
 10
4.49166545E+01
 20
3.36088705E+01
 11
5.04166545E+01
 21
3.36088591E+01
  0
LINE
  8
0
 62
4
 10
3.09166582E+01
 20
3.54088995E+01
 11
3.09166518E+01
 21
3.23407817E+01
  0
LINE
  8
0
 62
4
 10
4.49166582E+01
 20
3.54088705E+01
 11
4.49166518E+01
 21
3.23407527E+01
  0
LINE
  8
0
 62
4
 10
3.34166590E+01
 20
3.58088943E+01
 11
4.24166590E+01
 21
3.58088757E+01
  0
LINE
  8
0
 62
4
 10
3.09166519E+01
 20
3.23407817E+01
 11
3.34166519E+01
 21
3.23407765E+01
  0
LINE
  8
0
 62
4
 10
4.49166518E+01
 20
3.23407527E+01
 11
4.24166518E+01
 21
3.23407579E+01
  0
LINE
  8
0
 62
4
 10
4.24166584E+01
 20
3.55088757E+01
 11
4.24166725E+01
 21
4.23088757E+01
  0
LINE
  8
0
 62
4
 10
3.34166584E+01
 20
3.55088943E+01
 11
3.34166725E+01
 21
4.23088943E+01
  0
LINE
  8
0
 62
4
 10
4.24166582E+01
 20
3.54088757E+01
 11
4.49166582E+01
 21
3.54088705E+01
  0
LINE
  8
0
 62
4
 10
4.24166590E+01
 20
3.58088757E+01
 11
4.49166590E+01
 21
3.58088705E+01
  0
LINE
  8
0
 62
4
 10
4.24166648E+01
 20
3.86088757E+01
 11
4.49166648E+01
 21
3.86088705E+01
  0
LINE
  8
0
 62
4
 10
3.09166582E+01
 20
3.54088995E+01
 11
3.34166582E+01
 21
3.54088943E+01
  0
LINE
  8
0
 62
4
 10
3.09166590E+01
 20
3.58088995E+01
 11
3.34166590E+01
 21
3.58088943E+01
  0
LINE
  8
0
 62
4
 10
3.09166648E+01
 20
3.86088995E+01
 11
3.34166648E+01
 21
3.86088943E+01
  0
LINE
  8
0
 62
4
 10
3.34166173E+01
 20
1.56589097E+01
 11
4.24166173E+01
 21
1.56588910E+01
  0
LINE
  8
0
 62
4
 10
4.49166648E+01
 20
3.86088705E+01
 11
4.49166590E+01
 21
3.58088705E+01
  0
ARC
  8
0
 62
4
 10
3.94150099E+01
 20
4.38072163E+01
 40
1.00166704E+00
 50
9.51576081E-02
 51
8.99046050E+01
  0
ARC
  8
0
 62
4
 10
3.64174671E+01
 20
4.38080966E+01
 40
1.00079180E+00
 50
9.00000002E+01
 51
1.79954568E+02
  0
LINE
  8
0
 62
4
 10
3.09166648E+01
 20
3.86088995E+01
 11
3.09166590E+01
 21
3.58088995E+01
  0
LINE
  8
0
 62
4
 10
2.54166607E+01
 20
3.66089109E+01
 11
2.64166627E+01
 21
3.76089088E+01
  0
LINE
  8
0
 62
6
 10
3.66866746E+01
 20
4.33088876E+01
 11
3.66866725E+01
 21
4.23088876E+01
  0
LINE
  8
0
 62
6
 10
3.91466746E+01
 20
4.33088825E+01
 11
3.91466725E+01
 21
4.23088825E+01
  0
LINE
  8
0
 62
4
 10
3.64166746E+01
 20
4.33088881E+01
 11
3.64166725E+01
 21
4.23088881E+01
  0
LINE
  8
0
 62
4
 10
3.94166746E+01
 20
4.33088819E+01
 11
3.94166725E+01
 21
4.23088819E+01
  0
LINE
  8
0
 62
4
 10
3.64166777E+01
 20
4.48088881E+01
 11
3.94166777E+01
 21
4.48088819E+01
  0
LINE
  8
0
 62
4
 10
3.54166746E+01
 20
4.33088902E+01
 11
4.04166746E+01
 21
4.33088798E+01
  0
LINE
  8
0
 62
4
 10
2.54166607E+01
 20
3.66089109E+01
 11
2.54166565E+01
 21
3.46089109E+01
  0
LINE
  8
0
 62
4
 10
3.34166725E+01
 20
4.23088943E+01
 11
4.24166725E+01
 21
4.23088757E+01
  0
LINE
  8
0
 62
4
 10
2.64166545E+01
 20
3.36089088E+01
 11
3.09166545E+01
 21
3.36088995E+01
  0
LINE
  8
0
 62
4
 10
2.64166627E+01
 20
3.76089088E+01
 11
3.09166627E+01
 21
3.76088995E+01
  0
LINE
  8
0
 62
4
 10
4.04166756E+01
 20
4.38088798E+01
 11
4.04166746E+01
 21
4.33088798E+01
  0
LINE
  8
0
 62
4
 10
3.54166756E+01
 20
4.38088902E+01
 11
3.54166746E+01
 21
4.33088902E+01
  0
LINE
  8
0
 62
4
 10
2.54166565E+01
 20
3.46089109E+01
 11
2.64166545E+01
 21
3.36089088E+01
  0
LINE
  8
0
 62
4
 10
2.64166627E+01
 20
3.76089088E+01
 11
2.64166545E+01
 21
3.36089088E+01
  0
LINE
  8
0
 62
4
 10
4.24166584E+01
 20
3.55088757E+01
 11
4.24166173E+01
 21
1.56588910E+01
  0
LINE
  8
0
 62
4
 10
3.34166584E+01
 20
3.55088943E+01
 11
3.34166173E+01
 21
1.56589097E+01
  0
LINE
  8
0
 62
4
 10
5.04166627E+01
 20
3.76088591E+01
 11
5.34166613E+01
 21
3.69088529E+01
  0
LINE
  8
0
 62
4
 10
5.04166545E+01
 20
3.36088591E+01
 11
5.34166559E+01
 21
3.43088529E+01
  0
LINE
  8
0
 62
4
 10
5.04166627E+01
 20
3.76088591E+01
 11
5.04166545E+01
 21
3.36088591E+01
  0
LINE
  8
0
 62
6
 10
5.83536604E+01
 20
3.69088427E+01
 11
5.57536550E+01
 21
3.43088481E+01
  0
LINE
  8
0
 62
4
 10
5.34166559E+01
 20
3.43088529E+01
 11
5.57536550E+01
 21
3.43088481E+01
  0
LINE
  8
0
 62
4
 10
5.34166613E+01
 20
3.69088529E+01
 11
5.34166559E+01
 21
3.43088529E+01
  0
LINE
  8
0
 62
4
 10
5.34166613E+01
 20
3.69088529E+01
 11
5.83536604E+01
 21
3.69088427E+01
  0
CIRCLE
  8
0
 62
7
 10
5.76666352E+01
 20
2.43088441E+01
 40
2.06700000E+00
  0
CIRCLE
  8
0
 62
7
 10
-4.68333648E+01
 20
2.43090606E+01
 40
2.06700000E+00
  0
LINE
  8
0
  6
CENTER
 62
2
 10
-4.68333560E+01
 20
2.85490606E+01
 11
-4.68333736E+01
 21
2.00690606E+01
  0
CIRCLE
  8
0
 62
2
 10
-4.68391931E+01
 20
2.43090621E+01
 40
2.50000000E+00
  0
ARC
  8
0
 62
4
 10
-7.57611640E+01
 20
2.43134120E+01
 40
1.99577996E+01
 50
3.59987561E+02
 51
1.14903987E+01
  0
ARC
  8
0
 62
4
 10
-7.57601681E+01
 20
2.43147304E+01
 40
1.99568041E+01
 50
3.48509071E+02
 51
3.59983775E+02
  0
ARC
  8
0
 62
4
 10
-3.98550824E+01
 20
2.43137975E+01
 40
1.99482829E+01
 50
1.80013528E+02
 51
1.91493150E+02
  0
ARC
  8
0
 62
4
 10
-5.45444263E+01
 20
1.83273202E+01
 40
5.25895115E+00
 50
1.57508809E+02
 51
1.79980746E+02
  0
ARC
  8
0
 62
4
 10
-6.10696017E+01
 20
1.83223028E+01
 40
5.26622888E+00
 50
3.37524441E+02
 51
7.37253300E-02
  0
ARC
  8
0
 62
4
 10
-5.45454351E+01
 20
1.83206492E+01
 40
5.25794885E+00
 50
1.79908049E+02
 51
2.02493309E+02
  0
ARC
  8
0
 62
4
 10
-6.10686684E+01
 20
3.03021131E+01
 40
5.26531686E+00
 50
3.37522570E+02
 51
3.59966985E+02
  0
ARC
  8
0
 62
4
 10
-6.10695780E+01
 20
3.02958860E+01
 40
5.26622655E+00
 50
3.47413914E-02
 51
2.24752292E+01
  0
ARC
  8
0
 62
4
 10
-5.45454061E+01
 20
3.02975201E+01
 40
5.25794651E+00
 50
1.57506634E+02
 51
1.79982920E+02
  0
ARC
  8
0
 62
4
 10
-5.45463171E+01
 20
3.03004517E+01
 40
5.25703545E+00
 50
1.80014869E+02
 51
2.02495101E+02
  0
ARC
  8
0
 62
4
 10
-3.98540865E+01
 20
2.43141940E+01
 40
1.99492789E+01
 50
1.68506899E+02
 51
1.80014666E+02
  0
ARC
  8
0
 62
4
 10
-6.10706058E+01
 20
1.83256864E+01
 40
5.26722966E+00
 50
3.69059643E-02
 51
2.24730646E+01
  0
ARC
  8
0
 62
4
 10
-7.53622246E+01
 20
2.76915670E+01
 40
1.49888586E+00
 50
2.88585986E-01
 51
4.82095854E+01
  0
ARC
  8
0
 62
4
 10
-7.53622580E+01
 20
2.09266581E+01
 40
1.49888818E+00
 50
3.11791089E+02
 51
9.39748880E-02
  0
ARC
  8
0
 62
4
 10
-7.53628222E+01
 20
2.09213042E+01
 40
1.49947071E+00
 50
2.98517008E-01
 51
4.81996544E+01
  0
ARC
  8
0
 62
4
 10
-7.92815091E+01
 20
2.43124856E+01
 40
5.41814532E+00
 50
3.35191663E+02
 51
3.59964374E+02
  0
ARC
  8
0
 62
4
 10
-7.53590976E+01
 20
2.77052637E+01
 40
1.49575246E+00
 50
3.11736826E+02
 51
3.59764528E+02
  0
ARC
  8
0
 62
4
 10
-7.92836049E+01
 20
2.43153032E+01
 40
5.42024357E+00
 50
3.59934603E+02
 51
2.48032830E+01
  0
ARC
  8
0
 62
4
 10
-7.63792532E+01
 20
2.76982188E+01
 40
1.48410487E+00
 50
1.31536333E+02
 51
1.79965021E+02
  0
ARC
  8
0
 62
4
 10
-7.63824114E+01
 20
2.76986021E+01
 40
1.48094647E+00
 50
1.79979777E+02
 51
2.28518395E+02
  0
ARC
  8
0
 62
4
 10
-7.63792923E+01
 20
2.09200501E+01
 40
1.48410722E+00
 50
1.79649657E+02
 51
2.28464805E+02
  0
ARC
  8
0
 62
4
 10
-7.63786779E+01
 20
2.09279533E+01
 40
1.48469438E+00
 50
1.31546563E+02
 51
1.79954791E+02
  0
ARC
  8
0
 62
4
 10
-7.24621720E+01
 20
2.43087376E+01
 40
5.40119281E+00
 50
1.79995892E+02
 51
2.04847596E+02
  0
ARC
  8
0
 62
4
 10
-7.24600765E+01
 20
2.43190066E+01
 40
5.40329733E+00
 50
1.55156855E+02
 51
1.80104785E+02
  0
LINE
  8
0
 62
4
 10
-5.58033524E+01
 20
3.02990792E+01
 11
-5.58033772E+01
 21
1.83290792E+01
  0
LINE
  8
0
 62
4
 10
-5.94033814E+01
 20
1.63090866E+01
 11
-5.62033814E+01
 21
1.63090800E+01
  0
LINE
  8
0
 62
4
 10
-5.94033730E+01
 20
2.03390866E+01
 11
-5.62033730E+01
 21
2.03390800E+01
  0
LINE
  8
0
 62
4
 10
-5.98033524E+01
 20
3.02990874E+01
 11
-5.98033772E+01
 21
1.83290874E+01
  0
LINE
  8
0
 62
4
 10
-5.94033566E+01
 20
2.82890866E+01
 11
-5.62033566E+01
 21
2.82890800E+01
  0
LINE
  8
0
 62
4
 10
-5.94033482E+01
 20
3.23090866E+01
 11
-5.62033482E+01
 21
3.23090800E+01
  0
LINE
  8
0
 62
4
 10
-7.73633695E+01
 20
2.20391238E+01
 11
-7.43633695E+01
 21
2.20391176E+01
  0
LINE
  8
0
 62
4
 10
-7.73633601E+01
 20
2.65891238E+01
 11
-7.43633601E+01
 21
2.65891176E+01
  0
LINE
  8
0
 62
7
 10
-7.38633596E+01
 20
2.68091166E+01
 11
-6.18333596E+01
 21
2.68090916E+01
  0
LINE
  8
0
 62
7
 10
-7.38633700E+01
 20
2.18091166E+01
 11
-6.18333700E+01
 21
2.18090916E+01
  0
LINE
  8
0
 62
4
 10
-7.73633555E+01
 20
2.88091238E+01
 11
-7.43633555E+01
 21
2.88091176E+01
  0
LINE
  8
0
 62
4
 10
-7.73633741E+01
 20
1.98091238E+01
 11
-7.43633741E+01
 21
1.98091176E+01
  0
LINE
  8
0
 62
4
 10
-7.38633578E+01
 20
2.76991166E+01
 11
-7.38633718E+01
 21
2.09291166E+01
  0
LINE
  8
0
 62
4
 10
-7.78633578E+01
 20
2.76991249E+01
 11
-7.78633718E+01
 21
2.09291249E+01
  0
LINE
  8
0
 62
7
 10
-8.13333596E+01
 20
2.68091320E+01
 11
-8.13333700E+01
 21
2.18091320E+01
  0
LINE
  8
0
 62
7
 10
-8.18333690E+01
 20
2.23091331E+01
 11
-8.13333700E+01
 21
2.18091320E+01
  0
LINE
  8
0
 62
7
 10
-8.18333607E+01
 20
2.63091331E+01
 11
-8.13333596E+01
 21
2.68091320E+01
  0
LINE
  8
0
 62
7
 10
-6.68333596E+01
 20
2.68091020E+01
 11
-6.68333700E+01
 21
2.18091020E+01
  0
LINE
  8
0
 62
7
 10
-8.18333607E+01
 20
2.63091331E+01
 11
-8.18333690E+01
 21
2.23091331E+01
  0
LINE
  8
0
 62
7
 10
-8.13333700E+01
 20
2.18091320E+01
 11
-7.78633700E+01
 21
2.18091249E+01
  0
LINE
  8
0
 62
7
 10
-8.13333596E+01
 20
2.68091320E+01
 11
-7.78633596E+01
 21
2.68091249E+01
  0
LINE
  8
0
 62
7
 10
-6.08333545E+01
 20
2.93090896E+01
 11
-6.08333752E+01
 21
1.93090896E+01
  0
LINE
  8
0
 62
7
 10
-5.53333545E+01
 20
2.93090782E+01
 11
-5.53333752E+01
 21
1.93090782E+01
  0
LINE
  8
0
 62
7
 10
-6.18333731E+01
 20
2.03090916E+01
 11
-6.08333752E+01
 21
1.93090896E+01
  0
LINE
  8
0
 62
7
 10
-6.18333565E+01
 20
2.83090916E+01
 11
-6.08333545E+01
 21
2.93090896E+01
  0
LINE
  8
0
 62
7
 10
-6.08333545E+01
 20
2.93090896E+01
 11
-5.98033545E+01
 21
2.93090874E+01
  0
LINE
  8
0
 62
7
 10
-6.08333752E+01
 20
1.93090896E+01
 11
-5.98033752E+01
 21
1.93090874E+01
  0
LINE
  8
0
 62
7
 10
-6.18333565E+01
 20
2.83090916E+01
 11
-6.18333731E+01
 21
2.03090916E+01
  0
LINE
  8
0
 62
2
 10
-8.17663691E+01
 20
2.22421329E+01
 11
-7.78633691E+01
 21
2.22421249E+01
  0
LINE
  8
0
 62
2
 10
-8.17663605E+01
 20
2.63761329E+01
 11
-7.78633605E+01
 21
2.63761249E+01
  0
LINE
  8
0
 62
2
 10
-7.38633605E+01
 20
2.63761166E+01
 11
-6.68333605E+01
 21
2.63761020E+01
  0
LINE
  8
0
 62
2
 10
-7.38633691E+01
 20
2.22421166E+01
 11
-6.68333691E+01
 21
2.22421020E+01
  0
LINE
  8
0
 62
2
 10
-6.16453561E+01
 20
2.84970913E+01
 11
-5.98033561E+01
 21
2.84970874E+01
  0
LINE
  8
0
 62
2
 10
-6.16453735E+01
 20
2.01210913E+01
 11
-5.98033735E+01
 21
2.01210874E+01
  0
LINE
  8
0
 62
2
 10
-5.58033561E+01
 20
2.84970792E+01
 11
-5.53333561E+01
 21
2.84970782E+01
  0
LINE
  8
0
 62
2
 10
-5.58033735E+01
 20
2.01210792E+01
 11
-5.53333735E+01
 21
2.01210782E+01
  0
LINE
  8
0
  6
CENTER
 62
2
 10
-8.40059298E+01
 20
2.43091376E+01
 11
6.51484269E+01
 21
2.43088286E+01
  0
LINE
  8
0
 62
7
 10
-5.58033545E+01
 20
2.93090792E+01
 11
-5.38333545E+01
 21
2.93090751E+01
  0
LINE
  8
0
 62
7
 10
-5.58033752E+01
 20
1.93090792E+01
 11
-5.38333752E+01
 21
1.93090751E+01
  0
LINE
  8
0
 62
7
 10
6.26666528E+01
 20
3.28088337E+01
 11
6.26666176E+01
 21
1.58088337E+01
  0
LINE
  8
0
  6
CENTER
 62
2
 10
5.76666441E+01
 20
2.85888441E+01
 11
5.76666267E+01
 21
2.01888441E+01
  0
LINE
  8
0
 62
7
 10
5.32166263E+01
 20
2.00288533E+01
 11
6.09166263E+01
 21
2.00288374E+01
  0
LINE
  8
0
 62
7
 10
4.86666528E+01
 20
3.28088627E+01
 11
4.86666176E+01
 21
1.58088627E+01
  0
LINE
  8
0
 62
7
 10
-5.38333824E+01
 20
1.58090751E+01
 11
-2.63333809E+01
 21
1.58090181E+01
  0
LINE
  8
0
 62
7
 10
-5.38333472E+01
 20
3.28090751E+01
 11
-2.88333457E+01
 21
3.28090233E+01
  0
LINE
  8
0
 62
7
 10
-5.20833736E+01
 20
2.00690714E+01
 11
-5.20833824E+01
 21
1.58090714E+01
  0
LINE
  8
0
 62
7
 10
-3.90833736E+01
 20
2.00690445E+01
 11
-3.90833824E+01
 21
1.58090445E+01
  0
LINE
  8
0
 62
7
 10
5.04166221E+01
 20
1.79888591E+01
 11
5.04166176E+01
 21
1.58088591E+01
  0
LINE
  8
0
 62
7
 10
6.09166263E+01
 20
2.00288374E+01
 11
6.09166176E+01
 21
1.58088374E+01
  0
LINE
  8
0
 62
7
 10
-5.20833736E+01
 20
2.00690714E+01
 11
-4.28633736E+01
 21
2.00690524E+01
  0
LINE
  8
0
 62
7
 10
-4.25433760E+01
 20
1.89090517E+01
 11
-4.01233760E+01
 21
1.89090467E+01
  0
LINE
  8
0
 62
7
 10
-4.25433748E+01
 20
1.95090517E+01
 11
-4.01233748E+01
 21
1.95090467E+01
  0
LINE
  8
0
  6
CENTER
 62
2
 10
-4.13333705E+01
 20
2.15390492E+01
 11
-4.13333805E+01
 21
1.67490492E+01
  0
LINE
  8
0
 62
2
 10
-4.37964687E+01
 20
1.92090543E+01
 11
-3.91033754E+01
 21
1.92090446E+01
  0
LINE
  8
0
 62
7
 10
5.04566240E+01
 20
1.89088590E+01
 11
5.28766240E+01
 21
1.89088540E+01
  0
LINE
  8
0
 62
7
 10
5.04566252E+01
 20
1.95088590E+01
 11
5.28766252E+01
 21
1.95088540E+01
  0
LINE
  8
0
  6
CENTER
 62
2
 10
5.16666295E+01
 20
2.15388565E+01
 11
5.16666195E+01
 21
1.67488565E+01
  0
LINE
  8
0
 62
2
 10
4.96366246E+01
 20
1.92088607E+01
 11
5.38966246E+01
 21
1.92088519E+01
  0
LINE
  8
0
 62
7
 10
-3.98133736E+01
 20
2.00690460E+01
 11
-3.90833736E+01
 21
2.00690445E+01
  0
LINE
  8
0
 62
7
 10
-5.20833560E+01
 20
2.85490714E+01
 11
-5.20833472E+01
 21
3.28090714E+01
  0
LINE
  8
0
 62
7
 10
-5.38333824E+01
 20
1.58090751E+01
 11
-5.38333472E+01
 21
3.28090751E+01
  0
LINE
  8
0
 62
7
 10
-5.20833560E+01
 20
2.85490714E+01
 11
-3.90833560E+01
 21
2.85490445E+01
  0
LINE
  8
0
 62
7
 10
-3.90833560E+01
 20
2.85490445E+01
 11
-3.90833472E+01
 21
3.28090445E+01
  0
LINE
  8
0
 62
7
 10
5.04166441E+01
 20
2.85888591E+01
 11
5.04166528E+01
 21
3.28088591E+01
  0
LINE
  8
0
 62
7
 10
5.04166441E+01
 20
2.85888591E+01
 11
6.09166441E+01
 21
2.85888374E+01
  0
LINE
  8
0
 62
7
 10
6.09166441E+01
 20
2.85888374E+01
 11
6.09166528E+01
 21
3.28088374E+01
  0
CIRCLE
  8
0
 62
7
 10
-4.13392036E+01
 20
1.92090503E+01
 40
1.75000000E+00
  0
CIRCLE
  8
0
 62
7
 10
-4.13392036E+01
 20
1.92090503E+01
 40
1.25000000E+00
  0
CIRCLE
  8
0
 62
7
 10
5.16707964E+01
 20
1.92088577E+01
 40
1.75000000E+00
  0
CIRCLE
  8
0
 62
7
 10
5.16707964E+01
 20
1.92088577E+01
 40
1.25000000E+00
  0
CIRCLE
  8
0
 62
2
 10
5.76707917E+01
 20
2.43088456E+01
 40
2.50000000E+00
  0
ARC
  8
0
 62
7
 10
-4.78214234E+01
 20
2.43088627E+01
 40
6.01194142E+00
 50
1.35146397E+02
 51
2.24850665E+02
  0
ARC
  8
0
 62
7
 10
5.47846184E+01
 20
2.43051070E+01
 40
6.11798432E+00
 50
1.35557741E+02
 51
2.21986946E+02
  0
ARC
  8
0
 62
7
 10
5.65557754E+01
 20
2.43080159E+01
 40
6.11085986E+00
 50
3.15541589E+02
 51
4.44692896E+01
  0
LINE
  8
0
 62
7
 10
-3.73333824E+01
 20
1.58090409E+01
 11
-3.73333472E+01
 21
3.28090409E+01
  0
ARC
  8
0
 62
7
 10
-4.33448220E+01
 20
2.43090533E+01
 40
6.01145714E+00
 50
3.15144492E+02
 51
4.48552707E+01
  0
LINE
  8
0
  6
CENTER
 62
2
 10
-1.06693365E+02
 20
4.69110478E+01
 11
-1.06693365E+02
 21
1.33865567E+01
  0
LINE
  8
0
 62
4
 10
-1.05643365E+02
 20
3.46090751E+01
 11
-1.04643365E+02
 21
3.36090751E+01
  0
LINE
  8
0
 62
4
 10
-1.05643365E+02
 20
3.66090751E+01
 11
-1.04643365E+02
 21
3.76090751E+01
  0
LINE
  8
0
 62
4
 10
-1.08743365E+02
 20
3.36090751E+01
 11
-1.07743365E+02
 21
3.46090751E+01
  0
LINE
  8
0
 62
4
 10
-1.08743365E+02
 20
3.76090751E+01
 11
-1.07743365E+02
 21
3.66090751E+01
  0
LINE
  8
0
 62
4
 10
-1.05643365E+02
 20
3.46090751E+01
 11
-1.07743365E+02
 21
3.46090751E+01
  0
LINE
  8
0
 62
4
 10
-1.05643365E+02
 20
3.66090751E+01
 11
-1.05643365E+02
 21
3.46090751E+01
  0
LINE
  8
0
 62
4
 10
-1.05643365E+02
 20
3.66090751E+01
 11
-1.07743365E+02
 21
3.66090751E+01
  0
LINE
  8
0
 62
4
 10
-1.07743365E+02
 20
3.66090751E+01
 11
-1.07743365E+02
 21
3.46090751E+01
  0
ARC
  8
0
 62
4
 10
-1.06693365E+02
 20
2.43090751E+01
 40
8.65000000E+00
 50
1.69314255E+02
 51
1.90685745E+02
  0
ARC
  8
0
 62
4
 10
-1.06693365E+02
 20
2.43090751E+01
 40
8.65000000E+00
 50
2.59314255E+02
 51
2.80685745E+02
  0
LINE
  8
0
 62
4
 10
-1.05193365E+02
 20
3.96090751E+01
 11
-1.05493365E+02
 21
3.93090751E+01
  0
LINE
  8
0
 62
4
 10
-1.08193365E+02
 20
3.96090751E+01
 11
-1.07893365E+02
 21
3.93090751E+01
  0
LINE
  8
0
 62
4
 10
-1.05193365E+02
 20
3.96090751E+01
 11
-1.05493365E+02
 21
3.93090751E+01
  0
LINE
  8
0
 62
4
 10
-1.08193365E+02
 20
3.96090751E+01
 11
-1.07893365E+02
 21
3.93090751E+01
  0
LINE
  8
0
 62
4
 10
-1.05693365E+02
 20
3.33090751E+01
 11
-1.07693365E+02
 21
3.33090751E+01
  0
LINE
  8
0
 62
4
 10
-1.13599756E+02
 20
3.10286365E+01
 11
-1.14075096E+02
 21
3.11837235E+01
  0
LINE
  8
0
 62
4
 10
-1.12359061E+02
 20
3.48313558E+01
 11
-1.12216459E+02
 21
3.47848297E+01
  0
LINE
  8
0
 62
4
 10
-1.11618365E+02
 20
3.87135791E+01
 11
-1.14075096E+02
 21
3.11837235E+01
  0
LINE
  8
0
 62
4
 10
-1.12216473E+02
 20
3.47847849E+01
 11
-1.13457418E+02
 21
3.09813012E+01
  0
LINE
  8
0
 62
4
 10
-1.11118365E+02
 20
3.86340751E+01
 11
-1.13697425E+02
 21
3.07292831E+01
  0
LINE
  8
0
 62
4
 10
-1.03193365E+02
 20
3.58090751E+01
 11
-1.01048351E+02
 21
3.19540944E+01
  0
LINE
  8
0
 62
4
 10
-1.03343365E+02
 20
3.58090751E+01
 11
-1.01314628E+02
 21
3.21437218E+01
  0
ARC
  8
0
 62
4
 10
-1.06693365E+02
 20
2.43090751E+01
 40
8.65000000E+00
 50
3.49314255E+02
 51
1.06857449E+01
  0
ARC
  8
0
 62
4
 10
-1.06693365E+02
 20
2.43090751E+01
 40
8.50000000E+00
 50
1.61930287E+02
 51
2.89640969E+01
  0
LINE
  8
0
 62
4
 10
-1.03193365E+02
 20
4.23090751E+01
 11
-1.10193365E+02
 21
4.23090751E+01
  0
LINE
  8
0
 62
4
 10
-1.10193365E+02
 20
4.10090751E+01
 11
-1.10193365E+02
 21
3.51090751E+01
  0
LINE
  8
0
 62
4
 10
-1.03193365E+02
 20
4.10090751E+01
 11
-1.03193365E+02
 21
3.58090751E+01
  0
LINE
  8
0
 62
4
 10
-1.10993365E+02
 20
3.73068529E+01
 11
-1.11462883E+02
 21
3.75781301E+01
  0
LINE
  8
0
 62
4
 10
-1.11693365E+02
 20
4.06090751E+01
 11
-1.11693365E+02
 21
3.89240751E+01
  0
LINE
  8
0
 62
4
 10
-1.11693365E+02
 20
4.06090751E+01
 11
-1.12493365E+02
 21
4.06090751E+01
  0
LINE
  8
0
 62
4
 10
-1.08978365E+02
 20
4.15090751E+01
 11
-1.08838365E+02
 21
4.07090751E+01
  0
LINE
  8
0
 62
4
 10
-1.04408365E+02
 20
4.15090751E+01
 11
-1.04548365E+02
 21
4.07090751E+01
  0
LINE
  8
0
 62
4
 10
-1.04548365E+02
 20
4.07090751E+01
 11
-1.08838365E+02
 21
4.07090751E+01
  0
LINE
  8
0
 62
6
 10
-1.07923365E+02
 20
4.28090751E+01
 11
-1.07923365E+02
 21
4.23090751E+01
  0
LINE
  8
0
 62
6
 10
-1.05463365E+02
 20
4.28090751E+01
 11
-1.05463365E+02
 21
4.23090751E+01
  0
LINE
  8
0
 62
4
 10
-1.02393365E+02
 20
4.15090751E+01
 11
-1.02393365E+02
 21
3.58090751E+01
  0
LINE
  8
0
 62
4
 10
-1.10993365E+02
 20
3.51090751E+01
 11
-1.10993365E+02
 21
4.15090751E+01
  0
LINE
  8
0
 62
4
 10
-1.03693365E+02
 20
4.15090751E+01
 11
-1.09693365E+02
 21
4.15090751E+01
  0
LINE
  8
0
 62
4
 10
-1.12493365E+02
 20
4.06090751E+01
 11
-1.12493365E+02
 21
3.84640751E+01
  0
LINE
  8
0
 62
4
 10
-1.10993365E+02
 20
3.82330751E+01
 11
-1.11207470E+02
 21
3.83572558E+01
  0
LINE
  8
0
 62
4
 10
-1.03343365E+02
 20
4.10090751E+01
 11
-1.03343365E+02
 21
3.58090751E+01
  0
LINE
  8
0
 62
4
 10
-1.03193365E+02
 20
4.10090751E+01
 11
-1.03343365E+02
 21
4.10090751E+01
  0
LINE
  8
0
 62
4
 10
-1.03443365E+02
 20
3.93090751E+01
 11
-1.09943365E+02
 21
3.93090751E+01
  0
LINE
  8
0
 62
4
 10
-1.03443365E+02
 20
3.86090751E+01
 11
-1.09943365E+02
 21
3.86090751E+01
  0
LINE
  8
0
 62
4
 10
-1.11118365E+02
 20
4.11340751E+01
 11
-1.11118365E+02
 21
3.86340751E+01
  0
LINE
  8
0
 62
4
 10
-1.11618365E+02
 20
4.11340751E+01
 11
-1.11618365E+02
 21
3.87135791E+01
  0
LINE
  8
0
 62
4
 10
-1.11118365E+02
 20
4.11340751E+01
 11
-1.11618365E+02
 21
4.11340751E+01
  0
LINE
  8
0
 62
4
 10
-1.08193365E+02
 20
4.33090751E+01
 11
-1.08193365E+02
 21
4.23090751E+01
  0
LINE
  8
0
 62
4
 10
-1.05193365E+02
 20
4.33090751E+01
 11
-1.05193365E+02
 21
4.23090751E+01
  0
LINE
  8
0
 62
4
 10
-1.02393365E+02
 20
3.58090751E+01
 11
-1.03193365E+02
 21
3.58090751E+01
  0
LINE
  8
0
 62
4
 10
-1.10193365E+02
 20
3.51090751E+01
 11
-1.10993365E+02
 21
3.51090751E+01
  0
LINE
  8
0
 62
4
 10
-1.04193365E+02
 20
4.33090751E+01
 11
-1.09193365E+02
 21
4.33090751E+01
  0
LINE
  8
0
 62
4
 10
-1.05193365E+02
 20
4.48090751E+01
 11
-1.08193365E+02
 21
4.48090751E+01
  0
LINE
  8
0
 62
4
 10
-1.04193365E+02
 20
4.38090751E+01
 11
-1.04193365E+02
 21
4.33090751E+01
  0
LINE
  8
0
 62
4
 10
-1.09193365E+02
 20
4.38090751E+01
 11
-1.09193365E+02
 21
4.33090751E+01
  0
LINE
  8
0
 62
4
 10
-1.05193365E+02
 20
4.28090751E+01
 11
-1.08193365E+02
 21
4.28090751E+01
  0
ARC
  8
0
 62
4
 10
-1.03193368E+02
 20
4.15090718E+01
 40
8.00003254E-01
 50
2.33015759E-04
 51
9.00000002E+01
  0
ARC
  8
0
 62
4
 10
-1.10195027E+02
 20
4.15107377E+01
 40
7.98339134E-01
 50
8.98806771E+01
 51
1.80119323E+02
  0
ARC
  8
0
 62
4
 10
-1.03693369E+02
 20
4.10090708E+01
 40
5.00004290E-01
 50
4.91607912E-04
 51
9.00000002E+01
  0
ARC
  8
0
 62
4
 10
-1.09695027E+02
 20
4.10107377E+01
 40
4.98340176E-01
 50
8.98088454E+01
 51
1.80191155E+02
  0
ARC
  8
0
 62
4
 10
-1.11993161E+02
 20
3.84622094E+01
 40
5.00207143E-01
 50
1.79786293E+02
 51
2.39986760E+02
  0
ARC
  8
0
 62
4
 10
-1.11194513E+02
 20
3.89264308E+01
 40
4.98857363E-01
 50
1.80270562E+02
 51
2.09445368E+02
  0
ARC
  8
0
 62
4
 10
-1.08194777E+02
 20
4.38104874E+01
 40
9.98588677E-01
 50
8.99189656E+01
 51
1.80081034E+02
  0
ARC
  8
0
 62
4
 10
-1.05193618E+02
 20
4.38088223E+01
 40
1.00025280E+00
 50
1.44788446E-02
 51
9.00000002E+01
  0
LINE
  8
0
 62
4
 10
-1.09943365E+02
 20
3.93090751E+01
 11
-1.09943365E+02
 21
3.28090751E+01
  0
LINE
  8
0
 62
4
 10
-1.03443365E+02
 20
3.54090751E+01
 11
-1.03443365E+02
 21
3.28090751E+01
  0
LINE
  8
0
 62
4
 10
-1.03443365E+02
 20
3.54090751E+01
 11
-1.04643365E+02
 21
3.54090751E+01
  0
LINE
  8
0
 62
4
 10
-1.03443365E+02
 20
3.58090751E+01
 11
-1.04643365E+02
 21
3.58090751E+01
  0
LINE
  8
0
 62
4
 10
-1.03443365E+02
 20
3.93090751E+01
 11
-1.03443365E+02
 21
3.58090751E+01
  0
LINE
  8
0
 62
4
 10
-1.04643365E+02
 20
3.36090751E+01
 11
-1.08743365E+02
 21
3.36090751E+01
  0
LINE
  8
0
 62
4
 10
-1.04643365E+02
 20
3.76090751E+01
 11
-1.08743365E+02
 21
3.76090751E+01
  0
LINE
  8
0
 62
4
 10
-1.05693365E+02
 20
3.79090751E+01
 11
-1.07693365E+02
 21
3.79090751E+01
  0
LINE
  8
0
 62
4
 10
-1.05693365E+02
 20
3.79090751E+01
 11
-1.05693365E+02
 21
3.76090751E+01
  0
LINE
  8
0
 62
4
 10
-1.05693365E+02
 20
3.36090751E+01
 11
-1.05693365E+02
 21
3.33090751E+01
  0
LINE
  8
0
 62
4
 10
-1.04643365E+02
 20
3.76090751E+01
 11
-1.04643365E+02
 21
3.36090751E+01
  0
LINE
  8
0
 62
4
 10
-1.08743365E+02
 20
3.76090751E+01
 11
-1.08743365E+02
 21
3.36090751E+01
  0
LINE
  8
0
 62
4
 10
-1.07693365E+02
 20
3.79090751E+01
 11
-1.07693365E+02
 21
3.76090751E+01
  0
LINE
  8
0
 62
4
 10
-1.07693365E+02
 20
3.36090751E+01
 11
-1.07693365E+02
 21
3.33090751E+01
  0
LINE
  8
0
 62
4
 10
-1.05193365E+02
 20
4.07090751E+01
 11
-1.05193365E+02
 21
3.96090751E+01
  0
LINE
  8
0
 62
4
 10
-1.08193365E+02
 20
4.07090751E+01
 11
-1.08193365E+02
 21
3.96090751E+01
  0
LINE
  8
0
 62
6
 10
-1.05463365E+02
 20
4.07090751E+01
 11
-1.05463365E+02
 21
3.93390751E+01
  0
LINE
  8
0
 62
6
 10
-1.07923365E+02
 20
4.07090751E+01
 11
-1.07923365E+02
 21
3.93390751E+01
  0
LINE
  8
0
 62
4
 10
-1.11905404E+02
 20
3.78338086E+01
 11
-1.12243365E+02
 21
3.80290751E+01
  0
CIRCLE
  8
0
 62
4
 10
-1.06693365E+02
 20
2.43090766E+01
 40
4.00000000E+00
  0
CIRCLE
  8
0
 62
4
 10
-1.06693365E+02
 20
2.43090766E+01
 40
7.00000000E+00
  0
ARC
  8
0
 62
7
 10
-1.06698350E+02
 20
2.43040835E+01
 40
9.50105596E+00
 50
2.96605401E+02
 51
3.33529254E+02
  0
ARC
  8
0
 62
7
 10
-1.06693364E+02
 20
2.43090758E+01
 40
9.49882200E+00
 50
2.06511102E+02
 51
2.43488897E+02
  0
ARC
  8
0
 62
7
 10
-1.06698358E+02
 20
2.43040917E+01
 40
9.50105392E+00
 50
1.16470741E+02
 51
1.53394604E+02
  0
ARC
  8
0
 62
7
 10
-1.06693364E+02
 20
2.43090758E+01
 40
9.50328788E+00
 50
2.65650491E+01
 51
6.34349507E+01
  0
CIRCLE
  8
0
 62
7
 10
-1.06693365E+02
 20
2.43090766E+01
 40
8.50000000E+00
  0
CIRCLE
  8
0
 62
7
 10
-1.06693365E+02
 20
2.43090766E+01
 40
2.50000000E+00
  0
LINE
  8
0
  6
CENTER
 62
2
 10
-1.17433553E+02
 20
2.43090751E+01
 11
-9.59110621E+01
 21
2.43090751E+01
  0
LINE
  8
0
 62
7
 10
-1.10933365E+02
 20
3.28090751E+01
 11
-1.02443365E+02
 21
3.28090751E+01
  0
LINE
  8
0
 62
7
 10
-1.10933365E+02
 20
1.58090751E+01
 11
-1.02443365E+02
 21
1.58090751E+01
  0
LINE
  8
0
 62
7
 10
-1.15193365E+02
 20
2.85590751E+01
 11
-1.15193365E+02
 21
2.00690751E+01
  0
LINE
  8
0
 62
7
 10
-9.81933648E+01
 20
2.85590751E+01
 11
-9.81933648E+01
 21
2.00690751E+01
  0
CIRCLE
  8
0
 62
2
 10
-1.06693365E+02
 20
2.43090751E+01
 40
2.06700000E+00
  0
LINE
  8
0
 62
4
 10
-1.10693366E+02
 20
2.66184769E+01
 11
-1.06693365E+02
 21
2.89278788E+01
  0
LINE
  8
0
 62
4
 10
-1.06693365E+02
 20
2.89278787E+01
 11
-1.02693363E+02
 21
2.66184769E+01
  0
LINE
  8
0
 62
4
 10
-1.02693363E+02
 20
2.66184769E+01
 11
-1.02693363E+02
 21
2.19996732E+01
  0
LINE
  8
0
 62
4
 10
-1.02693363E+02
 20
2.19996732E+01
 11
-1.06693365E+02
 21
1.96902714E+01
  0
LINE
  8
0
 62
4
 10
-1.06693365E+02
 20
1.96902714E+01
 11
-1.10693366E+02
 21
2.19996732E+01
  0
LINE
  8
0
 62
4
 10
-1.10693366E+02
 20
2.19996732E+01
 11
-1.10693366E+02
 21
2.66184769E+01
  0
LINE
  8
0
 62
4
 10
-1.13693366E+02
 20
2.83505277E+01
 11
-1.06693365E+02
 21
3.23919804E+01
  0
LINE
  8
0
 62
4
 10
-1.13693366E+02
 20
2.02676224E+01
 11
-1.13693366E+02
 21
2.83505277E+01
  0
LINE
  8
0
 62
4
 10
-1.06693365E+02
 20
1.62261698E+01
 11
-1.13693366E+02
 21
2.02676224E+01
  0
LINE
  8
0
 62
4
 10
-9.96933635E+01
 20
2.02676224E+01
 11
-1.06693365E+02
 21
1.62261698E+01
  0
LINE
  8
0
 62
4
 10
-9.96933635E+01
 20
2.83505277E+01
 11
-9.96933635E+01
 21
2.02676224E+01
  0
LINE
  8
0
 62
4
 10
-1.06693365E+02
 20
3.23919804E+01
 11
-9.96933635E+01
 21
2.83505277E+01
  0
CIRCLE
  8
0
 62
7
 10
-1.06693365E+02
 20
2.43090751E+01
 40
5.00000000E+00
  0
ARC
  8
0
 62
2
 10
-1.06693365E+02
 20
2.43090751E+01
 40
4.18800000E+00
 50
1.02767437E+02
 51
1.37232563E+02
  0
ARC
  8
0
 62
2
 10
-1.06693365E+02
 20
2.43090751E+01
 40
4.18800000E+00
 50
1.62767437E+02
 51
1.97232563E+02
  0
ARC
  8
0
 62
2
 10
-1.06693365E+02
 20
2.43090751E+01
 40
4.18800000E+00
 50
2.22767437E+02
 51
2.57232563E+02
  0
ARC
  8
0
 62
2
 10
-1.06693365E+02
 20
2.43090751E+01
 40
4.18800000E+00
 50
2.82767437E+02
 51
3.17232564E+02
  0
ARC
  8
0
 62
2
 10
-1.06693365E+02
 20
2.43090751E+01
 40
4.18800000E+00
 50
3.42767437E+02
 51
1.72325634E+01
  0
ARC
  8
0
 62
2
 10
-1.06693365E+02
 20
2.43090751E+01
 40
4.18800000E+00
 50
4.27674369E+01
 51
7.72325633E+01
  0
LINE
  8
0
  6
CENTER
 62
2
 10
9.71566352E+01
 20
4.69110478E+01
 11
9.71566352E+01
 21
1.32317411E+01
  0
ARC
  8
0
 62
4
 10
9.71566352E+01
 20
2.43082445E+01
 40
8.65000000E+00
 50
2.59314255E+02
 51
2.80685745E+02
  0
ARC
  8
0
 62
4
 10
9.71566352E+01
 20
2.43082445E+01
 40
8.65000000E+00
 50
3.49314255E+02
 51
1.06857449E+01
  0
LINE
  8
0
 62
4
 10
9.56566352E+01
 20
3.96082445E+01
 11
9.59566352E+01
 21
3.93082445E+01
  0
LINE
  8
0
 62
4
 10
9.86566352E+01
 20
3.96082445E+01
 11
9.83566352E+01
 21
3.93082445E+01
  0
LINE
  8
0
 62
4
 10
9.56566352E+01
 20
3.96082445E+01
 11
9.59566352E+01
 21
3.93082445E+01
  0
LINE
  8
0
 62
4
 10
9.86566352E+01
 20
3.96082445E+01
 11
9.83566352E+01
 21
3.93082445E+01
  0
LINE
  8
0
 62
4
 10
9.61566352E+01
 20
3.33082445E+01
 11
9.81566352E+01
 21
3.33082445E+01
  0
LINE
  8
0
 62
4
 10
9.58566352E+01
 20
3.43082445E+01
 11
9.84566352E+01
 21
3.43082445E+01
  0
LINE
  8
0
 62
4
 10
9.58566352E+01
 20
3.43082445E+01
 11
9.51066352E+01
 21
3.36082445E+01
  0
LINE
  8
0
 62
4
 10
1.04063027E+02
 20
3.10278060E+01
 11
1.04538367E+02
 21
3.11828929E+01
  0
LINE
  8
0
 62
4
 10
1.02822331E+02
 20
3.48305253E+01
 11
1.02679729E+02
 21
3.47839992E+01
  0
LINE
  8
0
 62
4
 10
1.02081635E+02
 20
3.87127486E+01
 11
1.04538367E+02
 21
3.11828929E+01
  0
LINE
  8
0
 62
4
 10
1.02679744E+02
 20
3.47839543E+01
 11
1.03919174E+02
 21
3.09851125E+01
  0
LINE
  8
0
 62
4
 10
1.01581635E+02
 20
3.86332445E+01
 11
1.04159254E+02
 21
3.07328720E+01
  0
LINE
  8
0
 62
4
 10
9.36566352E+01
 20
3.58082445E+01
 11
9.15077729E+01
 21
3.19463474E+01
  0
LINE
  8
0
 62
4
 10
9.38066352E+01
 20
3.58082445E+01
 11
9.17740894E+01
 21
3.21360099E+01
  0
ARC
  8
0
 62
4
 10
9.71566352E+01
 20
2.43082445E+01
 40
8.65000000E+00
 50
1.69314255E+02
 51
1.90685745E+02
  0
CIRCLE
  8
0
 62
4
 10
9.71566352E+01
 20
3.56082445E+01
 40
1.30000000E+00
  0
LINE
  8
0
 62
4
 10
9.36566352E+01
 20
4.23082445E+01
 11
1.00656635E+02
 21
4.23082445E+01
  0
LINE
  8
0
 62
4
 10
1.00656635E+02
 20
4.10082445E+01
 11
1.00656635E+02
 21
3.51082445E+01
  0
LINE
  8
0
 62
4
 10
9.36566352E+01
 20
4.10082445E+01
 11
9.36566352E+01
 21
3.58082445E+01
  0
LINE
  8
0
 62
4
 10
1.01456635E+02
 20
3.73060223E+01
 11
1.01926154E+02
 21
3.75772996E+01
  0
LINE
  8
0
 62
4
 10
1.02156635E+02
 20
4.06082445E+01
 11
1.02156635E+02
 21
3.89232445E+01
  0
LINE
  8
0
 62
4
 10
1.02156635E+02
 20
4.06082445E+01
 11
1.02956635E+02
 21
4.06082445E+01
  0
LINE
  8
0
 62
4
 10
9.94416352E+01
 20
4.15082445E+01
 11
9.93016352E+01
 21
4.07082445E+01
  0
LINE
  8
0
 62
4
 10
9.48716352E+01
 20
4.15082445E+01
 11
9.50116352E+01
 21
4.07082445E+01
  0
LINE
  8
0
 62
4
 10
9.50116352E+01
 20
4.07082445E+01
 11
9.93016352E+01
 21
4.07082445E+01
  0
LINE
  8
0
 62
6
 10
9.83866352E+01
 20
4.28082445E+01
 11
9.83866352E+01
 21
4.23082445E+01
  0
LINE
  8
0
 62
6
 10
9.59266352E+01
 20
4.28082445E+01
 11
9.59266352E+01
 21
4.23082445E+01
  0
LINE
  8
0
 62
4
 10
9.28566352E+01
 20
4.15082445E+01
 11
9.28566352E+01
 21
3.58082445E+01
  0
LINE
  8
0
 62
4
 10
1.01456635E+02
 20
3.51082445E+01
 11
1.01456635E+02
 21
4.15082445E+01
  0
LINE
  8
0
 62
4
 10
9.41566352E+01
 20
4.15082445E+01
 11
1.00156635E+02
 21
4.15082445E+01
  0
LINE
  8
0
 62
4
 10
1.02956635E+02
 20
4.06082445E+01
 11
1.02956635E+02
 21
3.84632445E+01
  0
LINE
  8
0
 62
4
 10
1.01456635E+02
 20
3.82322445E+01
 11
1.01670740E+02
 21
3.83564253E+01
  0
LINE
  8
0
 62
4
 10
9.38066352E+01
 20
4.10082445E+01
 11
9.38066352E+01
 21
3.58082445E+01
  0
LINE
  8
0
 62
4
 10
9.36566352E+01
 20
4.10082445E+01
 11
9.38066352E+01
 21
4.10082445E+01
  0
LINE
  8
0
 62
4
 10
9.39066352E+01
 20
3.93082445E+01
 11
1.00406635E+02
 21
3.93082445E+01
  0
LINE
  8
0
 62
4
 10
9.39066352E+01
 20
3.86082445E+01
 11
1.00406635E+02
 21
3.86082445E+01
  0
LINE
  8
0
 62
4
 10
1.01581635E+02
 20
4.11332445E+01
 11
1.01581635E+02
 21
3.86332445E+01
  0
LINE
  8
0
 62
4
 10
1.02081635E+02
 20
4.11332445E+01
 11
1.02081635E+02
 21
3.87127486E+01
  0
LINE
  8
0
 62
4
 10
1.01581635E+02
 20
4.11332445E+01
 11
1.02081635E+02
 21
4.11332445E+01
  0
LINE
  8
0
 62
4
 10
9.86566352E+01
 20
4.33082445E+01
 11
9.86566352E+01
 21
4.23082445E+01
  0
LINE
  8
0
 62
4
 10
9.56566352E+01
 20
4.33082445E+01
 11
9.56566352E+01
 21
4.23082445E+01
  0
LINE
  8
0
 62
4
 10
9.28566352E+01
 20
3.58082445E+01
 11
9.36566352E+01
 21
3.58082445E+01
  0
LINE
  8
0
 62
4
 10
1.00656635E+02
 20
3.51082445E+01
 11
1.01456635E+02
 21
3.51082445E+01
  0
LINE
  8
0
 62
4
 10
9.46566352E+01
 20
4.33082445E+01
 11
9.96566352E+01
 21
4.33082445E+01
  0
LINE
  8
0
 62
4
 10
9.56566352E+01
 20
4.48082445E+01
 11
9.86566352E+01
 21
4.48082445E+01
  0
LINE
  8
0
 62
4
 10
9.46566352E+01
 20
4.38082445E+01
 11
9.46566352E+01
 21
4.33082445E+01
  0
LINE
  8
0
 62
4
 10
9.96566352E+01
 20
4.38082445E+01
 11
9.96566352E+01
 21
4.33082445E+01
  0
LINE
  8
0
 62
4
 10
9.56566352E+01
 20
4.28082445E+01
 11
9.86566352E+01
 21
4.28082445E+01
  0
ARC
  8
0
 62
4
 10
9.36566384E+01
 20
4.15082413E+01
 40
8.00003254E-01
 50
9.00000002E+01
 51
1.79999767E+02
  0
ARC
  8
0
 62
4
 10
1.00658298E+02
 20
4.15099071E+01
 40
7.98339134E-01
 50
3.59880678E+02
 51
9.01193227E+01
  0
ARC
  8
0
 62
4
 10
9.41566395E+01
 20
4.10082403E+01
 40
5.00004290E-01
 50
9.00000002E+01
 51
1.79999508E+02
  0
ARC
  8
0
 62
4
 10
1.00158298E+02
 20
4.10099071E+01
 40
4.98340176E-01
 50
3.59808845E+02
 51
9.01911544E+01
  0
ARC
  8
0
 62
4
 10
1.02456432E+02
 20
3.84613788E+01
 40
5.00207143E-01
 50
3.00013240E+02
 51
2.13706628E-01
  0
ARC
  8
0
 62
4
 10
1.01657783E+02
 20
3.89256002E+01
 40
4.98857363E-01
 50
3.30554632E+02
 51
3.59729437E+02
  0
ARC
  8
0
 62
4
 10
9.86580475E+01
 20
4.38096569E+01
 40
9.98588677E-01
 50
3.59918966E+02
 51
9.00810348E+01
  0
ARC
  8
0
 62
4
 10
9.56568880E+01
 20
4.38079918E+01
 40
1.00025280E+00
 50
9.00000002E+01
 51
1.79985521E+02
  0
LINE
  8
0
 62
4
 10
1.00406635E+02
 20
3.93082445E+01
 11
1.00406635E+02
 21
3.28082445E+01
  0
LINE
  8
0
 62
4
 10
9.39066352E+01
 20
3.54082445E+01
 11
9.39066352E+01
 21
3.28082445E+01
  0
LINE
  8
0
 62
4
 10
9.39066352E+01
 20
3.54082445E+01
 11
9.51066352E+01
 21
3.54082445E+01
  0
LINE
  8
0
 62
4
 10
9.39066352E+01
 20
3.58082445E+01
 11
9.51066352E+01
 21
3.58082445E+01
  0
LINE
  8
0
 62
4
 10
9.39066352E+01
 20
3.93082445E+01
 11
9.39066352E+01
 21
3.58082445E+01
  0
LINE
  8
0
 62
4
 10
9.51066352E+01
 20
3.36082445E+01
 11
9.92066352E+01
 21
3.36082445E+01
  0
LINE
  8
0
 62
4
 10
9.51066352E+01
 20
3.76082445E+01
 11
9.92066352E+01
 21
3.76082445E+01
  0
LINE
  8
0
 62
4
 10
9.61566352E+01
 20
3.79082445E+01
 11
9.81566352E+01
 21
3.79082445E+01
  0
LINE
  8
0
 62
4
 10
9.58566352E+01
 20
3.69082445E+01
 11
9.84566352E+01
 21
3.69082445E+01
  0
LINE
  8
0
 62
4
 10
9.61566352E+01
 20
3.79082445E+01
 11
9.61566352E+01
 21
3.76082445E+01
  0
LINE
  8
0
 62
4
 10
9.61566352E+01
 20
3.36082445E+01
 11
9.61566352E+01
 21
3.33082445E+01
  0
LINE
  8
0
 62
4
 10
9.51066352E+01
 20
3.76082445E+01
 11
9.51066352E+01
 21
3.36082445E+01
  0
LINE
  8
0
 62
4
 10
9.58566352E+01
 20
3.69082445E+01
 11
9.58566352E+01
 21
3.43082445E+01
  0
LINE
  8
0
 62
4
 10
9.51066352E+01
 20
3.76082445E+01
 11
9.58566352E+01
 21
3.69082445E+01
  0
LINE
  8
0
 62
4
 10
9.92066352E+01
 20
3.76082445E+01
 11
9.92066352E+01
 21
3.36082445E+01
  0
LINE
  8
0
 62
4
 10
9.81566352E+01
 20
3.79082445E+01
 11
9.81566352E+01
 21
3.76082445E+01
  0
LINE
  8
0
 62
4
 10
9.81566352E+01
 20
3.36082445E+01
 11
9.81566352E+01
 21
3.33082445E+01
  0
LINE
  8
0
 62
4
 10
9.84566352E+01
 20
3.69082445E+01
 11
9.84566352E+01
 21
3.43082445E+01
  0
LINE
  8
0
 62
4
 10
9.84566352E+01
 20
3.69082445E+01
 11
9.92066352E+01
 21
3.76082445E+01
  0
LINE
  8
0
 62
4
 10
9.84566352E+01
 20
3.43082445E+01
 11
9.92066352E+01
 21
3.36082445E+01
  0
LINE
  8
0
 62
4
 10
9.56566352E+01
 20
4.07082445E+01
 11
9.56566352E+01
 21
3.96082445E+01
  0
LINE
  8
0
 62
4
 10
9.86566352E+01
 20
4.07082445E+01
 11
9.86566352E+01
 21
3.96082445E+01
  0
LINE
  8
0
 62
6
 10
9.59266352E+01
 20
4.07082445E+01
 11
9.59266352E+01
 21
3.93382445E+01
  0
LINE
  8
0
 62
6
 10
9.83866352E+01
 20
4.07082445E+01
 11
9.83866352E+01
 21
3.93382445E+01
  0
LINE
  8
0
 62
4
 10
1.02368674E+02
 20
3.78329780E+01
 11
1.02706635E+02
 21
3.80282445E+01
  0
LINE
  8
0
 62
7
 10
8.86566352E+01
 20
2.85582445E+01
 11
8.86566352E+01
 21
2.00682445E+01
  0
ARC
  8
0
 62
7
 10
9.71566360E+01
 20
2.43082453E+01
 40
9.49882200E+00
 50
2.06511102E+02
 51
2.43488897E+02
  0
LINE
  8
0
 62
7
 10
9.29166352E+01
 20
1.58082445E+01
 11
1.01406635E+02
 21
1.58082445E+01
  0
ARC
  8
0
 62
7
 10
9.71516503E+01
 20
2.43032530E+01
 40
9.50105596E+00
 50
2.96605401E+02
 51
3.33529254E+02
  0
LINE
  8
0
 62
7
 10
1.05656635E+02
 20
2.85582445E+01
 11
1.05656635E+02
 21
2.00682445E+01
  0
ARC
  8
0
 62
7
 10
9.71566360E+01
 20
2.43082453E+01
 40
9.50328788E+00
 50
2.65650491E+01
 51
6.34349507E+01
  0
LINE
  8
0
 62
7
 10
9.29166352E+01
 20
3.28082445E+01
 11
1.01406635E+02
 21
3.28082445E+01
  0
CIRCLE
  8
0
 62
7
 10
9.71566352E+01
 20
2.43082461E+01
 40
8.50000000E+00
  0
ARC
  8
0
 62
7
 10
9.71516421E+01
 20
2.43032612E+01
 40
9.50105392E+00
 50
1.16470741E+02
 51
1.53394604E+02
  0
LINE
  8
0
  6
CENTER
 62
2
 10
8.62653033E+01
 20
2.43082445E+01
 11
1.07910040E+02
 21
2.43082445E+01
  0
LINE
  8
0
 62
4
 10
-3.43333633E+01
 20
7.36190751E+01
 11
-3.33333633E+01
 21
7.46190751E+01
  0
LINE
  8
0
 62
4
 10
-2.88333633E+01
 20
6.93690751E+01
 11
-2.88333633E+01
 21
7.58690751E+01
  0
LINE
  8
0
 62
4
 10
-3.33333633E+01
 20
7.46190751E+01
 11
-3.33333633E+01
 21
7.06190751E+01
  0
LINE
  8
0
 62
4
 10
-3.33333633E+01
 20
7.46190751E+01
 11
-2.88333633E+01
 21
7.46190751E+01
  0
LINE
  8
0
 62
4
 10
-2.88333633E+01
 20
7.58690751E+01
 11
-2.63333633E+01
 21
7.58690751E+01
  0
LINE
  8
0
 62
4
 10
-3.43333633E+01
 20
7.36190751E+01
 11
-3.43333633E+01
 21
7.16190751E+01
  0
LINE
  8
0
 62
4
 10
-3.43333633E+01
 20
7.16190751E+01
 11
-3.33333633E+01
 21
7.06190751E+01
  0
LINE
  8
0
 62
4
 10
-3.33333633E+01
 20
7.06190751E+01
 11
-2.88333633E+01
 21
7.06190751E+01
  0
LINE
  8
0
 62
4
 10
-2.88333633E+01
 20
6.93690751E+01
 11
-2.63333633E+01
 21
6.93690751E+01
  0
CIRCLE
  8
0
 62
4
 10
-2.18342385E+01
 20
7.26166166E+01
 40
2.50000000E+00
  0
LINE
  8
0
 62
4
 10
-2.28959298E+01
 20
7.15565085E+01
 11
-2.07759298E+01
 21
7.36765085E+01
  0
LINE
  8
0
 62
4
 10
-2.08259298E+01
 20
7.16165085E+01
 11
-2.28959298E+01
 21
7.36765085E+01
  0
LINE
  8
0
 62
4
 10
-2.38333633E+01
 20
7.75440751E+01
 11
-2.38333633E+01
 21
7.84190751E+01
  0
LINE
  8
0
 62
4
 10
-2.63333633E+01
 20
6.39690751E+01
 11
-2.63333633E+01
 21
8.12690751E+01
  0
LINE
  8
0
 62
4
 10
-1.73333633E+01
 20
6.93690751E+01
 11
-1.48333633E+01
 21
6.93690751E+01
  0
LINE
  8
0
 62
4
 10
-1.48333633E+01
 20
7.06190751E+01
 11
-9.33336326E+00
 21
7.06190751E+01
  0
LINE
  8
0
 62
4
 10
-1.48333633E+01
 20
7.46190751E+01
 11
-9.33336326E+00
 21
7.46190751E+01
  0
LINE
  8
0
 62
4
 10
-1.48333633E+01
 20
6.93690751E+01
 11
-1.48333633E+01
 21
7.58690751E+01
  0
LINE
  8
0
 62
4
 10
-1.73333633E+01
 20
7.58690751E+01
 11
-1.48333633E+01
 21
7.58690751E+01
  0
LINE
  8
0
 62
4
 10
-9.33336326E+00
 20
7.46190751E+01
 11
-9.33336326E+00
 21
7.06190751E+01
  0
LINE
  8
0
 62
4
 10
-9.33336326E+00
 20
7.46190751E+01
 11
-6.33336326E+00
 21
7.39190751E+01
  0
LINE
  8
0
 62
4
 10
-6.33336327E+00
 20
7.39190751E+01
 11
-1.39636418E+00
 21
7.39190751E+01
  0
LINE
  8
0
 62
4
 10
-6.33336326E+00
 20
7.39190751E+01
 11
-6.33336326E+00
 21
7.13190751E+01
  0
LINE
  8
0
 62
4
 10
-9.33336326E+00
 20
7.06190751E+01
 11
-6.33336327E+00
 21
7.13190751E+01
  0
LINE
  8
0
 62
4
 10
-6.33336327E+00
 20
7.13190751E+01
 11
-3.99636418E+00
 21
7.13190751E+01
  0
LINE
  8
0
 62
6
 10
-1.39636418E+00
 20
7.39190751E+01
 11
-3.99636418E+00
 21
7.13190751E+01
  0
LINE
  8
0
 62
4
 10
-2.63333633E+01
 20
6.39690751E+01
 11
-1.73333633E+01
 21
6.39690751E+01
  0
LINE
  8
0
 62
4
 10
-2.63333632E+01
 20
6.83190751E+01
 11
-1.73333633E+01
 21
6.83190751E+01
  0
LINE
  8
0
 62
4
 10
-1.98333633E+01
 20
7.84190751E+01
 11
-1.98333633E+01
 21
7.75440751E+01
  0
LINE
  8
0
 62
4
 10
-2.63333633E+01
 20
8.12690751E+01
 11
-1.73333633E+01
 21
8.12690751E+01
  0
LINE
  8
0
 62
4
 10
-2.38333632E+01
 20
7.76190751E+01
 11
-1.98333633E+01
 21
7.76190751E+01
  0
LINE
  8
0
 62
4
 10
-2.38333632E+01
 20
7.84190751E+01
 11
-1.98333632E+01
 21
7.84190751E+01
  0
LINE
  8
0
 62
4
 10
-2.63333632E+01
 20
7.99940751E+01
 11
-1.73333633E+01
 21
7.99940751E+01
  0
LINE
  8
0
 62
4
 10
-2.63333632E+01
 20
7.70440751E+01
 11
-1.73333632E+01
 21
7.70440751E+01
  0
LINE
  8
0
 62
4
 10
-2.63333632E+01
 20
7.75440751E+01
 11
-1.73333632E+01
 21
7.75440751E+01
  0
LINE
  8
0
 62
4
 10
-2.63333632E+01
 20
7.69190751E+01
 11
-1.73333632E+01
 21
7.69190751E+01
  0
LINE
  8
0
 62
4
 10
-1.73333633E+01
 20
6.39690751E+01
 11
-1.73333633E+01
 21
8.12690751E+01
  0
LINE
  8
0
  6
CENTER
 62
6
 10
-3.60595680E+01
 20
7.26190751E+01
 11
4.09687084E-01
 21
7.26190751E+01
  0
LINE
  8
0
  6
CENTER
 62
6
 10
-2.18333633E+01
 20
8.26190738E+01
 11
-2.18333633E+01
 21
6.26190751E+01
  0
LINE
  8
0
  6
CENTER
 62
6
 10
-1.24326312E+02
 20
-5.70748853E+01
 11
-1.24326312E+02
 21
-6.33890238E+01
  0
LINE
  8
0
  6
CENTER
 62
6
 10
-9.51263117E+01
 20
-5.70748853E+01
 11
-9.51263117E+01
 21
-6.33890238E+01
  0
LINE
  8
0
 62
4
 10
-8.87263117E+01
 20
-5.93294654E+01
 11
-8.87263117E+01
 21
-6.16294654E+01
  0
LINE
  8
0
 62
4
 10
-1.30726312E+02
 20
-5.93294654E+01
 11
-1.30726312E+02
 21
-6.16294654E+01
  0
LINE
  8
0
  6
CENTER
 62
6
 10
-1.09726312E+02
 20
-3.92307565E+01
 11
-1.09726312E+02
 21
-5.59052023E+01
  0
LINE
  8
0
  6
CENTER
 62
6
 10
-1.17226312E+02
 20
-4.76294654E+01
 11
-1.02226312E+02
 21
-4.76294654E+01
  0
CIRCLE
  8
0
 62
4
 10
-1.09726312E+02
 20
-4.76294654E+01
 40
5.00000000E+00
  0
LINE
  8
0
 62
4
 10
-1.30726312E+02
 20
-6.16294654E+01
 11
-8.87263117E+01
 21
-6.16294654E+01
  0
LINE
  8
0
 62
4
 10
-1.30726312E+02
 20
-5.93294654E+01
 11
-8.87263117E+01
 21
-5.93294654E+01
  0
ARC
  8
0
 62
4
 10
-1.09726312E+02
 20
-4.76294654E+01
 40
1.00000000E+01
 50
3.62946002E+01
 51
1.43705400E+02
  0
LINE
  8
0
 62
4
 10
-8.87263117E+01
 20
-5.93294654E+01
 11
-1.01666471E+02
 21
-4.17100932E+01
  0
LINE
  8
0
 62
4
 10
-1.30726312E+02
 20
-5.93294654E+01
 11
-1.17786152E+02
 21
-4.17100932E+01
  0
LINE
  8
0
 62
4
 10
-7.84263117E+01
 20
-5.93294654E+01
 11
-7.84263117E+01
 21
-6.16294654E+01
  0
LINE
  8
0
 62
4
 10
-7.32263117E+01
 20
-5.93294654E+01
 11
-7.32263117E+01
 21
-6.16294654E+01
  0
LINE
  8
0
  6
CENTER
 62
6
 10
-7.58263117E+01
 20
-5.69767000E+01
 11
-7.58263117E+01
 21
-6.32908384E+01
  0
LINE
  8
0
 62
4
 10
-8.18263117E+01
 20
-5.93294654E+01
 11
-8.18263117E+01
 21
-6.16294654E+01
  0
LINE
  8
0
 62
4
 10
-6.68263117E+01
 20
-3.76294654E+01
 11
-6.68263117E+01
 21
-5.81794654E+01
  0
LINE
  8
0
 62
4
 10
-6.91263117E+01
 20
-3.76294654E+01
 11
-6.68263117E+01
 21
-3.76294654E+01
  0
LINE
  8
0
 62
4
 10
-8.18263117E+01
 20
-5.93294654E+01
 11
-7.02763117E+01
 21
-5.93294654E+01
  0
LINE
  8
0
  6
CENTER
 62
6
 10
-7.16744785E+01
 20
-4.76294654E+01
 11
-6.43263117E+01
 21
-4.76294654E+01
  0
LINE
  8
0
 62
4
 10
-8.18263117E+01
 20
-6.16294654E+01
 11
-7.02763117E+01
 21
-6.16294654E+01
  0
LINE
  8
0
 62
4
 10
-6.91263117E+01
 20
-3.76294654E+01
 11
-6.91263117E+01
 21
-5.81794654E+01
  0
ARC
  8
0
 62
4
 10
-7.02763117E+01
 20
-5.81794654E+01
 40
3.45000000E+00
 50
2.70000000E+02
 51
0.00000000E+00
  0
ARC
  8
0
 62
4
 10
-7.02763117E+01
 20
-5.81794654E+01
 40
1.15000000E+00
 50
2.70000000E+02
 51
0.00000000E+00
  0
LINE
  8
0
 62
4
 10
-1.30726312E+02
 20
-1.00294654E+01
 11
-8.87263117E+01
 21
-1.00294654E+01
  0
LINE
  8
0
 62
4
 10
-8.87263117E+01
 20
-7.72946544E+00
 11
-8.87263117E+01
 21
-1.41294654E+01
  0
LINE
  8
0
 62
4
 10
-1.30726312E+02
 20
-7.72946544E+00
 11
-8.87263117E+01
 21
-7.72946544E+00
  0
LINE
  8
0
 62
4
 10
-1.30726312E+02
 20
-2.27294654E+01
 11
-8.87263117E+01
 21
-2.27294654E+01
  0
LINE
  8
0
  6
CENTER
 62
6
 10
-1.09726312E+02
 20
-6.33946544E+00
 11
-1.09726312E+02
 21
-2.39694654E+01
  0
LINE
  8
0
  6
CENTER
 62
6
 10
-1.27629276E+02
 20
-1.67294654E+01
 11
-9.22916887E+01
 21
-1.67294654E+01
  0
LINE
  8
0
 62
4
 10
-8.87263117E+01
 20
-1.93294654E+01
 11
-8.87263117E+01
 21
-2.27294654E+01
  0
ARC
  8
0
 62
4
 10
-9.51263117E+01
 20
-1.67294654E+01
 40
2.60000000E+00
 50
9.00000002E+01
 51
2.70000000E+02
  0
LINE
  8
0
  6
CENTER
 62
6
 10
-9.51263117E+01
 20
-2.04024351E+01
 11
-9.51263117E+01
 21
-1.31829211E+01
  0
LINE
  8
0
 62
4
 10
-9.51263117E+01
 20
-1.93294654E+01
 11
-8.87263117E+01
 21
-1.93294654E+01
  0
LINE
  8
0
 62
4
 10
-9.51263117E+01
 20
-1.41294654E+01
 11
-8.87263117E+01
 21
-1.41294654E+01
  0
ARC
  8
0
 62
4
 10
-1.24326312E+02
 20
-1.67294654E+01
 40
2.60000000E+00
 50
2.70000000E+02
 51
9.00000002E+01
  0
LINE
  8
0
  6
CENTER
 62
6
 10
-1.24326312E+02
 20
-2.05628688E+01
 11
-1.24326312E+02
 21
-1.30759653E+01
  0
LINE
  8
0
 62
4
 10
-1.24326312E+02
 20
-1.93294654E+01
 11
-1.30726312E+02
 21
-1.93294654E+01
  0
LINE
  8
0
 62
4
 10
-1.24326312E+02
 20
-1.41294654E+01
 11
-1.30726312E+02
 21
-1.41294654E+01
  0
LINE
  8
0
 62
4
 10
-1.30726312E+02
 20
-1.93294654E+01
 11
-1.30726312E+02
 21
-2.27294654E+01
  0
LINE
  8
0
 62
4
 10
-1.30726312E+02
 20
-7.72946544E+00
 11
-1.30726312E+02
 21
-1.41294654E+01
  0
LINE
  8
0
  6
CENTER
 62
6
 10
-1.47263117E+01
 20
-4.49294654E+01
 11
-1.47263117E+01
 21
-5.94394654E+01
  0
ARC
  8
0
 62
4
 10
-1.26311703E-01
 20
-5.21294654E+01
 40
2.60000000E+00
 50
9.00000002E+01
 51
2.70000000E+02
  0
ARC
  8
0
 62
4
 10
-2.93263117E+01
 20
-5.21294654E+01
 40
2.60000000E+00
 50
2.70000000E+02
 51
9.00000002E+01
  0
CIRCLE
  8
0
 62
4
 10
-1.47263117E+01
 20
-5.21294654E+01
 40
5.00000000E+00
  0
LINE
  8
0
  6
CENTER
 62
6
 10
-2.93263117E+01
 20
-4.83694202E+01
 11
-2.93263117E+01
 21
-5.60723884E+01
  0
LINE
  8
0
  6
CENTER
 62
6
 10
-1.26311703E-01
 20
-4.83694202E+01
 11
-1.26311703E-01
 21
-5.60723884E+01
  0
LINE
  8
0
  6
CENTER
 62
6
 10
-3.23663117E+01
 20
-5.21294654E+01
 11
2.54378496E+00
 21
-5.21294654E+01
  0
LINE
  8
0
 62
4
 10
-3.57263117E+01
 20
-5.47294654E+01
 11
-2.93263117E+01
 21
-5.47294654E+01
  0
LINE
  8
0
 62
4
 10
-1.26311703E-01
 20
-5.47294654E+01
 11
6.27368830E+00
 21
-5.47294654E+01
  0
LINE
  8
0
 62
4
 10
-3.57263117E+01
 20
-6.21294654E+01
 11
6.27368830E+00
 21
-6.21294654E+01
  0
LINE
  8
0
 62
4
 10
6.27368830E+00
 20
-5.47294654E+01
 11
6.27368830E+00
 21
-6.21294654E+01
  0
LINE
  8
0
 62
4
 10
-3.57263117E+01
 20
-5.47294654E+01
 11
-3.57263117E+01
 21
-6.21294654E+01
  0
LINE
  8
0
 62
4
 10
6.27368830E+00
 20
-4.21294654E+01
 11
6.27368830E+00
 21
-4.95294654E+01
  0
LINE
  8
0
 62
4
 10
-3.57263117E+01
 20
-4.21294654E+01
 11
-3.57263117E+01
 21
-4.95294654E+01
  0
LINE
  8
0
 62
4
 10
-3.57263117E+01
 20
-4.95294654E+01
 11
-2.93263117E+01
 21
-4.95294654E+01
  0
LINE
  8
0
 62
4
 10
-1.26311703E-01
 20
-4.95294654E+01
 11
6.27368830E+00
 21
-4.95294654E+01
  0
LINE
  8
0
 62
4
 10
-3.57263117E+01
 20
-4.21294654E+01
 11
6.27368830E+00
 21
-4.21294654E+01
  0
LINE
  8
0
 62
4
 10
1.62736883E+01
 20
-4.21294654E+01
 11
1.62736883E+01
 21
-6.21294654E+01
  0
LINE
  8
0
 62
4
 10
1.85736883E+01
 20
-4.21294654E+01
 11
1.85736883E+01
 21
-6.21294654E+01
  0
LINE
  8
0
 62
4
 10
1.62736883E+01
 20
-5.47294654E+01
 11
1.85736883E+01
 21
-5.47294654E+01
  0
LINE
  8
0
 62
4
 10
1.62736883E+01
 20
-6.21294654E+01
 11
1.85736883E+01
 21
-6.21294654E+01
  0
LINE
  8
0
 62
4
 10
1.62736883E+01
 20
-4.95294654E+01
 11
1.85736883E+01
 21
-4.95294654E+01
  0
LINE
  8
0
 62
4
 10
1.62736883E+01
 20
-4.21294654E+01
 11
1.85736883E+01
 21
-4.21294654E+01
  0
LINE
  8
0
  6
CENTER
 62
6
 10
1.38709590E+01
 20
-5.21294654E+01
 11
2.08100080E+01
 21
-5.21294654E+01
  0
LINE
  8
0
  6
CENTER
 62
6
 10
-1.26311674E-01
 20
-1.66930513E+01
 11
-1.26311674E-01
 21
-2.28945288E+01
  0
LINE
  8
0
  6
CENTER
 62
6
 10
-2.93263117E+01
 20
-1.66930513E+01
 11
-2.93263117E+01
 21
-2.28945288E+01
  0
LINE
  8
0
 62
4
 10
-3.57263117E+01
 20
-2.09294654E+01
 11
6.27368833E+00
 21
-2.09294654E+01
  0
LINE
  8
0
 62
4
 10
-3.57263117E+01
 20
-1.86294654E+01
 11
6.27368833E+00
 21
-1.86294654E+01
  0
LINE
  8
0
 62
4
 10
-3.57263117E+01
 20
-1.86294654E+01
 11
-3.57263117E+01
 21
-2.09294654E+01
  0
LINE
  8
0
 62
4
 10
6.27368833E+00
 20
-1.86294654E+01
 11
6.27368833E+00
 21
-2.09294654E+01
  0
LINE
  8
0
  6
CENTER
 62
6
 10
-1.47263117E+01
 20
-1.66930513E+01
 11
-1.47263117E+01
 21
-2.28945288E+01
  0
LINE
  8
0
  6
CENTER
 62
6
 10
5.04947429E+01
 20
-2.08403787E+01
 11
9.68706174E+01
 21
-2.08403787E+01
  0
ARC
  8
0
 62
4
 10
9.33881800E+01
 20
-2.68269085E+01
 40
5.26756375E+00
 50
1.80037745E+02
 51
2.02472463E+02
  0
ARC
  8
0
 62
4
 10
9.33881814E+01
 20
-1.48538567E+01
 40
5.26756798E+00
 50
1.57527464E+02
 51
1.80070940E+02
  0
ARC
  8
0
 62
4
 10
8.68640135E+01
 20
-1.48516864E+01
 40
5.25661112E+00
 50
3.59905256E+02
 51
2.24963394E+01
  0
ARC
  8
0
 62
4
 10
8.68640107E+01
 20
-2.68290888E+01
 40
5.25660688E+00
 50
3.37503852E+02
 51
3.59985940E+02
  0
LINE
  8
0
 62
6
 10
9.21206174E+01
 20
-2.50283787E+01
 11
9.27606174E+01
 21
-2.50283787E+01
  0
LINE
  8
0
 62
6
 10
9.21206174E+01
 20
-1.66523787E+01
 11
9.27606174E+01
 21
-1.66523787E+01
  0
LINE
  8
0
 62
6
 10
8.72606174E+01
 20
-1.66523787E+01
 11
8.81206174E+01
 21
-1.66523787E+01
  0
LINE
  8
0
 62
6
 10
8.72606174E+01
 20
-2.50283787E+01
 11
8.81206174E+01
 21
-2.50283787E+01
  0
LINE
  8
0
 62
4
 10
8.81206174E+01
 20
-1.48603787E+01
 11
8.81206174E+01
 21
-2.68303787E+01
  0
LINE
  8
0
 62
4
 10
9.21206174E+01
 20
-1.48603787E+01
 11
9.21206174E+01
 21
-2.68303787E+01
  0
LINE
  8
0
 62
4
 10
8.85206174E+01
 20
-2.48203787E+01
 11
9.17206174E+01
 21
-2.48203787E+01
  0
LINE
  8
0
 62
4
 10
8.85206174E+01
 20
-1.68703787E+01
 11
9.17206174E+01
 21
-1.68703787E+01
  0
LINE
  8
0
 62
4
 10
8.57606174E+01
 20
-1.58403787E+01
 11
8.81206174E+01
 21
-1.58403787E+01
  0
LINE
  8
0
 62
4
 10
8.57606174E+01
 20
-2.58403787E+01
 11
8.81206174E+01
 21
-2.58403787E+01
  0
LINE
  8
0
 62
4
 10
9.37606174E+01
 20
-1.68403787E+01
 11
9.37606174E+01
 21
-2.48403787E+01
  0
LINE
  8
0
 62
4
 10
9.27606174E+01
 20
-1.58403787E+01
 11
9.37606174E+01
 21
-1.68403787E+01
  0
LINE
  8
0
 62
4
 10
9.27606174E+01
 20
-2.58403787E+01
 11
9.37606174E+01
 21
-2.48403787E+01
  0
LINE
  8
0
 62
4
 10
9.27606174E+01
 20
-1.58403787E+01
 11
9.27606174E+01
 21
-2.58403787E+01
  0
LINE
  8
0
 62
4
 10
9.21206174E+01
 20
-1.58403787E+01
 11
9.27606174E+01
 21
-1.58403787E+01
  0
LINE
  8
0
 62
4
 10
9.21206174E+01
 20
-2.58403787E+01
 11
9.27606174E+01
 21
-2.58403787E+01
  0
LINE
  8
0
 62
4
 10
8.72606174E+01
 20
-1.58403787E+01
 11
8.72606174E+01
 21
-2.58403787E+01
  0
ARC
  8
0
 62
4
 10
1.08078775E+02
 20
-2.08461250E+01
 40
1.99581583E+01
 50
1.68509581E+02
 51
1.79983503E+02
  0
ARC
  8
0
 62
4
 10
1.08079772E+02
 20
-2.08445340E+01
 40
1.99591548E+01
 50
1.79988071E+02
 51
1.91490126E+02
  0
ARC
  8
0
 62
4
 10
9.33872726E+01
 20
-2.68336683E+01
 40
5.26665618E+00
 50
1.57525579E+02
 51
1.79964213E+02
  0
ARC
  8
0
 62
4
 10
9.33891835E+01
 20
-1.48567088E+01
 40
5.26856735E+00
 50
1.80039910E+02
 51
2.02470298E+02
  0
ARC
  8
0
 62
4
 10
8.68630051E+01
 20
-1.48588887E+01
 40
5.25761248E+00
 50
3.37506029E+02
 51
3.59983763E+02
  0
ARC
  8
0
 62
4
 10
7.21737129E+01
 20
-2.08449912E+01
 40
1.99469051E+01
 50
1.32491591E-02
 51
1.14936665E+01
  0
ARC
  8
0
 62
4
 10
7.21727160E+01
 20
-2.08456650E+01
 40
1.99479021E+01
 50
3.48506619E+02
 51
1.51836672E-02
  0
ARC
  8
0
 62
4
 10
8.68649200E+01
 20
-2.68314876E+01
 40
5.25569749E+00
 50
1.20891728E-02
 51
2.24981188E+01
  0
LINE
  8
0
 62
4
 10
8.85206174E+01
 20
-1.28403787E+01
 11
9.17206174E+01
 21
-1.28403787E+01
  0
LINE
  8
0
 62
4
 10
8.85206174E+01
 20
-2.88403787E+01
 11
9.17206174E+01
 21
-2.88403787E+01
  0
ARC
  8
0
 62
4
 10
7.96497400E+01
 20
-2.08411966E+01
 40
6.11085986E+00
 50
3.15541589E+02
 51
4.44692896E+01
  0
ARC
  8
0
 62
4
 10
7.78785830E+01
 20
-2.08441055E+01
 40
6.11798432E+00
 50
1.35557741E+02
 51
2.21986946E+02
  0
CIRCLE
  8
0
 62
6
 10
8.07647563E+01
 20
-2.08403668E+01
 40
2.50000000E+00
  0
CIRCLE
  8
0
 62
4
 10
7.47647610E+01
 20
-2.59403548E+01
 40
1.25000000E+00
  0
CIRCLE
  8
0
 62
4
 10
7.47647610E+01
 20
-2.59403548E+01
 40
1.75000000E+00
  0
LINE
  8
0
 62
4
 10
8.40106087E+01
 20
-1.65603751E+01
 11
8.40106174E+01
 21
-1.23403751E+01
  0
LINE
  8
0
 62
4
 10
7.35106087E+01
 20
-1.65603533E+01
 11
8.40106087E+01
 21
-1.65603751E+01
  0
LINE
  8
0
 62
4
 10
7.35106087E+01
 20
-1.65603533E+01
 11
7.35106174E+01
 21
-1.23403533E+01
  0
LINE
  8
0
 62
6
 10
7.27305892E+01
 20
-2.59403517E+01
 11
7.69905892E+01
 21
-2.59403605E+01
  0
LINE
  8
0
  6
CENTER
 62
6
 10
7.47605941E+01
 20
-2.36103559E+01
 11
7.47605842E+01
 21
-2.84003559E+01
  0
LINE
  8
0
 62
4
 10
7.35505899E+01
 20
-2.56403534E+01
 11
7.59705899E+01
 21
-2.56403584E+01
  0
LINE
  8
0
 62
4
 10
7.35505886E+01
 20
-2.62403534E+01
 11
7.59705886E+01
 21
-2.62403584E+01
  0
LINE
  8
0
 62
4
 10
8.40105909E+01
 20
-2.51203751E+01
 11
8.40105822E+01
 21
-2.93403751E+01
  0
LINE
  8
0
 62
4
 10
7.35105867E+01
 20
-2.71603533E+01
 11
7.35105822E+01
 21
-2.93403533E+01
  0
LINE
  8
0
 62
4
 10
7.17606174E+01
 20
-1.23403497E+01
 11
7.17605822E+01
 21
-2.93403497E+01
  0
LINE
  8
0
 62
4
 10
7.63105909E+01
 20
-2.51203591E+01
 11
8.40105909E+01
 21
-2.51203751E+01
  0
LINE
  8
0
  6
CENTER
 62
6
 10
8.07606087E+01
 20
-1.65603683E+01
 11
8.07605913E+01
 21
-2.49603683E+01
  0
LINE
  8
0
 62
4
 10
8.57606174E+01
 20
-1.23403787E+01
 11
8.57605822E+01
 21
-2.93403787E+01
  0
CIRCLE
  8
0
 62
4
 10
8.07605998E+01
 20
-2.08403683E+01
 40
2.06700000E+00
  0
LINE
  8
0
 62
4
 10
7.17605822E+01
 20
-2.93403497E+01
 11
8.57605822E+01
 21
-2.93403787E+01
  0
LINE
  8
0
 62
4
 10
7.17606174E+01
 20
-1.23403497E+01
 11
8.57606174E+01
 21
-1.23403787E+01
  0
LINE
  8
0
  6
CENTER
 62
6
 10
1.14750600E+02
 20
-9.99034969E+00
 11
1.14750600E+02
 21
-3.06403497E+01
  0
CIRCLE
  8
0
 62
6
 10
1.14750600E+02
 20
-2.08403497E+01
 40
4.18800000E+00
  0
LINE
  8
0
 62
4
 10
1.06250600E+02
 20
-1.66003497E+01
 11
1.06250600E+02
 21
-2.50903497E+01
  0
LINE
  8
0
 62
4
 10
1.23250600E+02
 20
-1.66003497E+01
 11
1.23250600E+02
 21
-2.50903497E+01
  0
LINE
  8
0
  6
CENTER
 62
6
 10
1.03900600E+02
 20
-2.08403497E+01
 11
1.25950600E+02
 21
-2.08403497E+01
  0
LINE
  8
0
 62
4
 10
1.10510600E+02
 20
-1.23403497E+01
 11
1.18990600E+02
 21
-1.23403497E+01
  0
LINE
  8
0
 62
4
 10
1.10510600E+02
 20
-2.93403497E+01
 11
1.18990600E+02
 21
-2.93403497E+01
  0
CIRCLE
  8
0
 62
4
 10
1.14760589E+02
 20
-2.08403466E+01
 40
5.00000000E+00
  0
CIRCLE
  8
0
 62
4
 10
1.14750600E+02
 20
-2.08403497E+01
 40
8.50000000E+00
  0
LINE
  8
0
 62
4
 10
1.14750600E+02
 20
-1.27574444E+01
 11
1.21750601E+02
 21
-1.67988970E+01
  0
LINE
  8
0
 62
4
 10
1.21750601E+02
 20
-1.67988970E+01
 11
1.21750601E+02
 21
-2.48818023E+01
  0
LINE
  8
0
 62
4
 10
1.21750601E+02
 20
-2.48818023E+01
 11
1.14750600E+02
 21
-2.89232550E+01
  0
LINE
  8
0
 62
4
 10
1.14750600E+02
 20
-2.89232550E+01
 11
1.07750598E+02
 21
-2.48818023E+01
  0
LINE
  8
0
 62
4
 10
1.07750598E+02
 20
-2.48818023E+01
 11
1.07750598E+02
 21
-1.67988971E+01
  0
LINE
  8
0
 62
4
 10
1.07750598E+02
 20
-1.67988971E+01
 11
1.14750600E+02
 21
-1.27574444E+01
  0
CIRCLE
  8
0
 62
4
 10
1.14750600E+02
 20
-2.08403482E+01
 40
7.00000000E+00
  0
ARC
  8
0
 62
4
 10
1.14750600E+02
 20
-2.08403497E+01
 40
9.50000000E+00
 50
1.16525352E+02
 51
1.53474648E+02
  0
ARC
  8
0
 62
4
 10
1.14750600E+02
 20
-2.08403497E+01
 40
9.50000000E+00
 50
2.06525352E+02
 51
2.43474648E+02
  0
ARC
  8
0
 62
4
 10
1.14750600E+02
 20
-2.08403497E+01
 40
9.50000000E+00
 50
2.96525352E+02
 51
3.33474648E+02
  0
ARC
  8
0
 62
4
 10
1.14750600E+02
 20
-2.08403497E+01
 40
9.50000000E+00
 50
2.65253520E+01
 51
6.34746480E+01
  0
LINE
  8
0
 62
7
 10
5.87255544E+01
 20
-1.23403497E+01
 11
7.17605998E+01
 21
-1.23403497E+01
  0
LINE
  8
0
 62
2
 10
4.89105998E+01
 20
-2.93403497E+01
 11
5.87255544E+01
 21
-1.23403497E+01
  0
LINE
  8
0
 62
7
 10
4.89105998E+01
 20
-2.93403497E+01
 11
7.17605998E+01
 21
-2.93403497E+01
  0
TEXT
  8
0
 62
7
 10
-1.05449994E+02
 20
-8.24000031E+01
 40
3.20000005E+00
  1
15
 41
1.00000000E+00
  7
MONOTXT
  0
TEXT
  8
0
 62
7
 10
-1.07049994E+02
 20
-8.84000031E+01
 40
3.20000005E+00
  1
-45
 41
1.00000000E+00
  7
MONOTXT
  0
TEXT
  8
0
 62
7
 10
-9.58499939E+01
 20
-8.24000031E+01
 40
3.20000005E+00
  1
30
 41
1.00000000E+00
  7
MONOTXT
  0
TEXT
  8
0
 62
7
 10
-9.74499940E+01
 20
-8.84000031E+01
 40
3.20000005E+00
  1
-30
 41
1.00000000E+00
  7
MONOTXT
  0
TEXT
  8
0
 62
7
 10
-8.62499939E+01
 20
-8.24000031E+01
 40
3.20000005E+00
  1
45
 41
1.00000000E+00
  7
MONOTXT
  0
TEXT
  8
0
 62
7
 10
-8.78499940E+01
 20
-8.84000031E+01
 40
3.20000005E+00
  1
-15
 41
1.00000000E+00
  7
MONOTXT
  0
TEXT
  8
0
 62
7
 10
-7.66499939E+01
 20
-8.24000031E+01
 40
3.20000005E+00
  1
60
 41
1.00000000E+00
  7
MONOTXT
  0
TEXT
  8
0
 62
7
 10
-7.50499939E+01
 20
-8.84000031E+01
 40
3.20000005E+00
  1
0
 41
1.00000000E+00
  7
MONOTXT
  0
TEXT
  8
0
 62
7
 10
-1.20049994E+02
 20
-7.59181426E+01
 40
3.20000005E+00
  1
STRETCH LIST
 41
1.05263158E+00
  7
MONOTXT
  0
LINE
  8
0
 62
7
 10
-1.33399994E+02
 20
-8.98000031E+01
 11
-6.89999939E+01
 21
-8.98000031E+01
  0
LINE
  8
0
 62
7
 10
-1.33399994E+02
 20
-7.78000031E+01
 11
-6.89999939E+01
 21
-7.78000031E+01
  0
TEXT
  8
0
 62
7
 10
-1.29649994E+02
 20
-8.24000031E+01
 40
3.20000005E+00
  1
STROKE
 41
1.00000000E+00
  7
MONOTXT
  0
TEXT
  8
0
 62
7
 10
-1.31249994E+02
 20
-8.84000031E+01
 40
3.20000005E+00
  1
STRETCH
 41
1.00000000E+00
  7
MONOTXT
  0
TEXT
  8
0
 62
7
 10
-7.66499939E+01
 20
-8.24000031E+01
 40
3.20000005E+00
  1
60
 41
1.00000000E+00
  7
MONOTXT
  0
LINE
  8
0
 62
7
 10
-6.89999939E+01
 20
-8.98000031E+01
 11
-6.89999939E+01
 21
-7.78000031E+01
  0
TEXT
  8
0
 62
7
 10
-8.62499939E+01
 20
-8.24000031E+01
 40
3.20000005E+00
  1
45
 41
1.00000000E+00
  7
MONOTXT
  0
LINE
  8
0
 62
7
 10
-7.85999939E+01
 20
-8.98000031E+01
 11
-7.85999939E+01
 21
-7.78000031E+01
  0
TEXT
  8
0
 62
7
 10
-9.58499939E+01
 20
-8.24000031E+01
 40
3.20000005E+00
  1
30
 41
1.00000000E+00
  7
MONOTXT
  0
LINE
  8
0
 62
7
 10
-8.81999939E+01
 20
-8.98000031E+01
 11
-8.81999939E+01
 21
-7.78000031E+01
  0
TEXT
  8
0
 62
7
 10
-1.05449994E+02
 20
-8.24000031E+01
 40
3.20000005E+00
  1
15
 41
1.00000000E+00
  7
MONOTXT
  0
LINE
  8
0
 62
7
 10
-9.77999939E+01
 20
-8.98000031E+01
 11
-9.77999939E+01
 21
-7.78000031E+01
  0
LINE
  8
0
 62
7
 10
-1.07399994E+02
 20
-8.98000031E+01
 11
-1.07399994E+02
 21
-7.78000031E+01
  0
LINE
  8
0
 62
7
 10
-1.33399994E+02
 20
-8.98000031E+01
 11
-1.33399994E+02
 21
-7.78000031E+01
  0
LINE
  8
0
 62
7
 10
-1.33399994E+02
 20
-8.38000031E+01
 11
-6.89999939E+01
 21
-8.38000031E+01
  0
TEXT
  8
0
 62
7
 10
-7.91067721E+01
 20
-7.59181426E+01
 40
3.20000005E+00
  1
(mm)
 41
1.00000000E+00
  7
MONOTXT
  0
TEXT
  8
0
 10
-1.69208494E+01
 20
5.14278159E+01
 40
3.20000005E+00
  1
STRETCH LINE
 41
1.05263158E+00
  7
MONOTXT
  0
LINE
  8
0
 62
7
 10
-1.38399994E+02
 20
9.45000000E+01
 11
1.38350006E+02
 21
9.45000000E+01
  0
LINE
  8
0
 62
7
 10
1.38350006E+02
 20
9.45000000E+01
 11
1.38350006E+02
 21
-9.48000031E+01
  0
LINE
  8
0
 62
7
 10
-1.38399994E+02
 20
-9.48000031E+01
 11
1.38350006E+02
 21
-9.48000031E+01
  0
LINE
  8
0
 62
7
 10
-1.38399994E+02
 20
9.45000000E+01
 11
-1.38399994E+02
 21
-9.48000031E+01
  0
LINE
  8
0
 62
7
 10
7.33500061E+01
 20
-8.48000031E+01
 11
1.38350006E+02
 21
-8.48000031E+01
  0
LINE
  8
0
 62
7
 10
-1.38399994E+02
 20
8.45000000E+01
 11
-7.33999939E+01
 21
8.45000000E+01
  0
LINE
  8
0
 62
7
 10
7.33500061E+01
 20
8.45000000E+01
 11
1.38350006E+02
 21
8.45000000E+01
  0
LINE
  8
0
 62
7
 10
7.33500061E+01
 20
-8.48000031E+01
 11
7.33500061E+01
 21
-9.48000031E+01
  0
LINE
  8
0
 62
7
 10
7.33500061E+01
 20
9.45000000E+01
 11
7.33500061E+01
 21
8.45000000E+01
  0
LINE
  8
0
 62
7
 10
-7.33999939E+01
 20
9.45000000E+01
 11
-7.33999939E+01
 21
8.45000000E+01
  0
TEXT
  8
0
 62
7
 10
7.72426624E+01
 20
-9.20500031E+01
 40
4.50000000E+00
  1
KOGANEI CORP.
 41
1.04838710E+00
  7
MONOTXT
  0
TEXT
  8
0
 62
7
 10
9.35071483E+01
 20
8.79000000E+01
 40
3.20000005E+00
  1
Ver. 1.1
 41
1.08108108E+00
  7
MONOTXT
  0
TEXT
  8
0
 62
7
 10
-1.31042852E+02
 20
8.79000000E+01
 40
3.20000005E+00
  1
NEW PEN CYLINDER
 41
1.08108108E+00
  7
MONOTXT
  0
TEXT
  8
0
 62
7
 10
-1.29085994E+02
 20
7.29000000E+01
 40
3.20000005E+00
  1
MODEL:PBDAUS16*ST(60)-A-ZC230
 41
1.00000000E+00
  7
MONOTXT
  0
ENDSEC
  0
EOF
