  0
SECTION
  2
HEADER
  9
$ACADVER
  1
AC1003
  9
$EXTMIN
 10
-1.38399994E+02
 20
-9.48000031E+01
  9
$EXTMAX
 10
1.38350006E+02
 20
9.45000000E+01
  9
$LIMMIN
 10
-1.38400994E+02
 20
-9.48010031E+01
  9
$LIMMAX
 10
1.38351006E+02
 20
9.45010000E+01
  9
$SNAPUNIT
 10
1
 20
1
  9
$SNAPBASE
 10
0
 20
0
  9
$GRIDMODE
 70
0
  9
$GRIDUNIT
 10
0
 20
0
  9
$LTSCALE
 40
4.61250000E+00
  9
$TEXTSIZE
 40
3.2
  9
$DIMTAD
 70
0
  9
$LUNITS
 70
2
  9
$LUPREC
 70
4
  9
$FILLETRAD
 40
0
  9
$AUNITS
 70
0
  9
$AUPREC
 70
0
  0
ENDSEC
  0
SECTION
  2
TABLES
  0
TABLE
  2
LTYPE
 70
2
  0
LTYPE
  2
CONTINUOUS
 70
64
  3
Solid-Line
 72
65
 73
0
 40
0
  0
LTYPE
  2
DASHED
 70
64
  3
DASHED
 72
65
 73
2
 40
.75
 49
.5
 49
-.25
  0
LTYPE
  2
HIDDEN
 70
64
  3
HIDDEN
 72
65
 73
2
 40
.375
 49
.25
 49
-.125
  0
LTYPE
  2
CENTER
 70
64
  3
CENTER
 72
65
 73
4
 40
2
 49
1.25
 49
-.25
 49
.25
 49
-.25
  0
LTYPE
  2
PHANTOM
 70
64
  3
PHANTOM
 72
65
 73
6
 40
2.5
 49
1.25
 49
-.25
 49
.25
 49
-.25
 49
.25
 49
-.25
  0
ENDTAB
  0
TABLE
  2
LAYER
 70
1
  0
LAYER
  2
1
 70
0
 62
7
  6
CONTINUOUS
 0
ENDTAB
  0
TABLE
  2
STYLE
 70
2
  0
STYLE
  2
MONOTXT
 70
0
 40
0
 41
1
 50
0
 71
0
 42
.2
  3
monotxt
  0
STYLE
  2
BIGFONT
 70
0
 40
0
 41
1
 50
0
 71
0
 42
.2
  3
txt
  4
bigfont
  0
ENDTAB
  0
ENDSEC
  0
SECTION
  2
ENTITIES
  0
LINE
  8
0
  6
CENTER
 62
6
 10
-2.49194220E+01
 20
4.32407750E+01
 11
-2.49194220E+01
 21
1.01961159E+01
  0
LINE
  8
0
  6
CENTER
 62
6
 10
2.05705780E+01
 20
4.32407750E+01
 11
2.05705780E+01
 21
1.01961159E+01
  0
LINE
  8
0
  6
PHANTOM
 10
-2.34757522E+00
 20
6.91633329E+00
 11
-2.34757522E+00
 21
4.00179523E+01
  0
LINE
  8
0
 62
7
 10
-2.04194220E+01
 20
1.14307750E+01
 11
1.60705780E+01
 21
1.14307750E+01
  0
TEXT
  8
0
 62
7
 10
-1.97553595E+01
 20
1.25307903E+01
 40
1.50000000E+00
  1
PBDAUS16-7
 41
1.00000000E+00
  7
MONOTXT
  0
LINE
  8
0
 62
7
 10
2.50705780E+01
 20
1.14307750E+01
 11
6.25705780E+01
 21
1.14307750E+01
  0
LINE
  8
0
 62
7
 10
2.75705780E+01
 20
2.84307750E+01
 11
6.25705780E+01
 21
2.84307750E+01
  0
LINE
  8
0
 62
4
 10
2.75705780E+01
 20
3.32307750E+01
 11
3.30705780E+01
 21
3.32307750E+01
  0
LINE
  8
0
 62
4
 10
2.75705780E+01
 20
2.92307750E+01
 11
3.30705780E+01
 21
2.92307750E+01
  0
LINE
  8
0
 62
4
 10
1.35705780E+01
 20
3.10307750E+01
 11
1.35705780E+01
 21
2.79626572E+01
  0
LINE
  8
0
 62
4
 10
2.75705780E+01
 20
3.10307750E+01
 11
2.75705780E+01
 21
2.79626572E+01
  0
LINE
  8
0
 62
4
 10
1.60705780E+01
 20
3.14307750E+01
 11
2.50705780E+01
 21
3.14307750E+01
  0
LINE
  8
0
 62
4
 10
1.35705780E+01
 20
2.79626572E+01
 11
1.60705780E+01
 21
2.79626572E+01
  0
LINE
  8
0
 62
4
 10
2.75705780E+01
 20
2.79626572E+01
 11
2.50705780E+01
 21
2.79626572E+01
  0
LINE
  8
0
 62
4
 10
2.50705780E+01
 20
3.11307750E+01
 11
2.50705780E+01
 21
3.79307750E+01
  0
LINE
  8
0
 62
4
 10
1.60705780E+01
 20
3.11307750E+01
 11
1.60705780E+01
 21
3.79307750E+01
  0
LINE
  8
0
 62
4
 10
2.50705780E+01
 20
3.10307750E+01
 11
2.75705780E+01
 21
3.10307750E+01
  0
LINE
  8
0
 62
4
 10
2.50705780E+01
 20
3.14307750E+01
 11
2.75705780E+01
 21
3.14307750E+01
  0
LINE
  8
0
 62
4
 10
2.50705780E+01
 20
3.42307750E+01
 11
2.75705780E+01
 21
3.42307750E+01
  0
LINE
  8
0
 62
4
 10
1.35705780E+01
 20
3.10307750E+01
 11
1.60705780E+01
 21
3.10307750E+01
  0
LINE
  8
0
 62
4
 10
1.35705780E+01
 20
3.14307750E+01
 11
1.60705780E+01
 21
3.14307750E+01
  0
LINE
  8
0
 62
4
 10
1.35705780E+01
 20
3.42307750E+01
 11
1.60705780E+01
 21
3.42307750E+01
  0
LINE
  8
0
 62
4
 10
1.60705780E+01
 20
1.12807903E+01
 11
2.50705780E+01
 21
1.12807903E+01
  0
LINE
  8
0
 62
4
 10
2.75705780E+01
 20
3.42307750E+01
 11
2.75705780E+01
 21
3.14307750E+01
  0
ARC
  8
0
 62
4
 10
2.20689123E+01
 20
3.94291093E+01
 40
1.00166704E+00
 50
9.52762946E-02
 51
8.99047236E+01
  0
ARC
  8
0
 62
4
 10
1.90713695E+01
 20
3.94299835E+01
 40
1.00079180E+00
 50
9.00000002E+01
 51
1.79954687E+02
  0
LINE
  8
0
 62
4
 10
1.35705780E+01
 20
3.42307750E+01
 11
1.35705780E+01
 21
3.14307750E+01
  0
LINE
  8
0
 62
4
 10
8.07057799E+00
 20
3.22307750E+01
 11
9.07057799E+00
 21
3.32307750E+01
  0
LINE
  8
0
 62
6
 10
1.93405780E+01
 20
3.89307750E+01
 11
1.93405780E+01
 21
3.79307750E+01
  0
LINE
  8
0
 62
6
 10
2.18005780E+01
 20
3.89307750E+01
 11
2.18005780E+01
 21
3.79307750E+01
  0
LINE
  8
0
 62
4
 10
1.90705780E+01
 20
3.89307750E+01
 11
1.90705780E+01
 21
3.79307750E+01
  0
LINE
  8
0
 62
4
 10
2.20705780E+01
 20
3.89307750E+01
 11
2.20705780E+01
 21
3.79307750E+01
  0
LINE
  8
0
 62
4
 10
1.90705780E+01
 20
4.04307750E+01
 11
2.20705780E+01
 21
4.04307750E+01
  0
LINE
  8
0
 62
4
 10
1.80705780E+01
 20
3.89307750E+01
 11
2.30705780E+01
 21
3.89307750E+01
  0
LINE
  8
0
 62
4
 10
8.07057799E+00
 20
3.22307750E+01
 11
8.07057799E+00
 21
3.02307750E+01
  0
LINE
  8
0
 62
4
 10
1.60705780E+01
 20
3.79307750E+01
 11
2.50705780E+01
 21
3.79307750E+01
  0
LINE
  8
0
 62
4
 10
9.07057799E+00
 20
2.92307750E+01
 11
1.35705780E+01
 21
2.92307750E+01
  0
LINE
  8
0
 62
4
 10
9.07057799E+00
 20
3.32307750E+01
 11
1.35705780E+01
 21
3.32307750E+01
  0
LINE
  8
0
 62
4
 10
2.30705780E+01
 20
3.94307750E+01
 11
2.30705780E+01
 21
3.89307750E+01
  0
LINE
  8
0
 62
4
 10
1.80705780E+01
 20
3.94307750E+01
 11
1.80705780E+01
 21
3.89307750E+01
  0
LINE
  8
0
 62
4
 10
8.07057799E+00
 20
3.02307750E+01
 11
9.07057799E+00
 21
2.92307750E+01
  0
LINE
  8
0
 62
4
 10
9.07057799E+00
 20
3.32307750E+01
 11
9.07057799E+00
 21
2.92307750E+01
  0
LINE
  8
0
 62
4
 10
2.50705780E+01
 20
3.11307750E+01
 11
2.50705780E+01
 21
1.12807903E+01
  0
LINE
  8
0
 62
4
 10
1.60705780E+01
 20
3.11307750E+01
 11
1.60705780E+01
 21
1.12807903E+01
  0
LINE
  8
0
 62
4
 10
3.30705780E+01
 20
3.32307750E+01
 11
3.60705780E+01
 21
3.25307750E+01
  0
LINE
  8
0
 62
4
 10
3.30705780E+01
 20
2.92307750E+01
 11
3.60705780E+01
 21
2.99307750E+01
  0
LINE
  8
0
 62
4
 10
3.30705780E+01
 20
3.32307750E+01
 11
3.30705780E+01
 21
2.92307750E+01
  0
LINE
  8
0
 62
6
 10
4.10075771E+01
 20
3.25307750E+01
 11
3.84075771E+01
 21
2.99307750E+01
  0
LINE
  8
0
 62
4
 10
3.60705780E+01
 20
2.99307750E+01
 11
3.84075771E+01
 21
2.99307750E+01
  0
LINE
  8
0
 62
4
 10
3.60705780E+01
 20
3.25307750E+01
 11
3.60705780E+01
 21
2.99307750E+01
  0
LINE
  8
0
 62
4
 10
3.60705780E+01
 20
3.25307750E+01
 11
4.10075771E+01
 21
3.25307750E+01
  0
ARC
  8
0
 62
7
 10
-5.09073960E+01
 20
1.99357750E+01
 40
6.01538783E+00
 50
1.81915637E+02
 51
2.24885328E+02
  0
ARC
  8
0
 62
7
 10
5.65568802E+01
 20
1.99357750E+01
 40
6.01657241E+00
 50
1.77122186E+00
 51
4.48740934E+01
  0
LINE
  8
0
 62
7
 10
-1.79194220E+01
 20
2.84307750E+01
 11
1.35705780E+01
 21
2.84307750E+01
  0
LINE
  8
0
 62
4
 10
-1.79194220E+01
 20
3.32307750E+01
 11
-1.24194220E+01
 21
3.32307750E+01
  0
LINE
  8
0
 62
4
 10
-1.79194220E+01
 20
2.92307750E+01
 11
-1.24194220E+01
 21
2.92307750E+01
  0
LINE
  8
0
 62
4
 10
-3.19194220E+01
 20
3.10307750E+01
 11
-3.19194220E+01
 21
2.79626572E+01
  0
LINE
  8
0
 62
4
 10
-1.79194220E+01
 20
3.10307750E+01
 11
-1.79194220E+01
 21
2.79626572E+01
  0
LINE
  8
0
 62
4
 10
-2.94194220E+01
 20
3.14307750E+01
 11
-2.04194220E+01
 21
3.14307750E+01
  0
LINE
  8
0
 62
4
 10
-3.19194220E+01
 20
2.79626572E+01
 11
-2.94194220E+01
 21
2.79626572E+01
  0
LINE
  8
0
 62
4
 10
-1.79194220E+01
 20
2.79626572E+01
 11
-2.04194220E+01
 21
2.79626572E+01
  0
LINE
  8
0
 62
4
 10
-2.04194220E+01
 20
3.11307750E+01
 11
-2.04194220E+01
 21
3.79307750E+01
  0
LINE
  8
0
 62
4
 10
-2.94194220E+01
 20
3.11307750E+01
 11
-2.94194220E+01
 21
3.79307750E+01
  0
LINE
  8
0
 62
4
 10
-2.04194220E+01
 20
3.10307750E+01
 11
-1.79194220E+01
 21
3.10307750E+01
  0
LINE
  8
0
 62
4
 10
-2.04194220E+01
 20
3.14307750E+01
 11
-1.79194220E+01
 21
3.14307750E+01
  0
LINE
  8
0
 62
4
 10
-2.04194220E+01
 20
3.42307750E+01
 11
-1.79194220E+01
 21
3.42307750E+01
  0
LINE
  8
0
 62
4
 10
-3.19194220E+01
 20
3.10307750E+01
 11
-2.94194220E+01
 21
3.10307750E+01
  0
LINE
  8
0
 62
4
 10
-3.19194220E+01
 20
3.14307750E+01
 11
-2.94194220E+01
 21
3.14307750E+01
  0
LINE
  8
0
 62
4
 10
-3.19194220E+01
 20
3.42307750E+01
 11
-2.94194220E+01
 21
3.42307750E+01
  0
LINE
  8
0
 62
4
 10
-2.94194220E+01
 20
1.12807903E+01
 11
-2.04194220E+01
 21
1.12807903E+01
  0
LINE
  8
0
 62
4
 10
-1.79194220E+01
 20
3.42307750E+01
 11
-1.79194220E+01
 21
3.14307750E+01
  0
ARC
  8
0
 62
4
 10
-2.34210877E+01
 20
3.94291093E+01
 40
1.00166704E+00
 50
9.52762946E-02
 51
8.99047236E+01
  0
ARC
  8
0
 62
4
 10
-2.64186305E+01
 20
3.94299835E+01
 40
1.00079180E+00
 50
9.00000002E+01
 51
1.79954687E+02
  0
LINE
  8
0
 62
4
 10
-3.19194220E+01
 20
3.42307750E+01
 11
-3.19194220E+01
 21
3.14307750E+01
  0
LINE
  8
0
 62
4
 10
-3.74194220E+01
 20
3.22307750E+01
 11
-3.64194220E+01
 21
3.32307750E+01
  0
LINE
  8
0
 62
6
 10
-2.61494220E+01
 20
3.89307750E+01
 11
-2.61494220E+01
 21
3.79307750E+01
  0
LINE
  8
0
 62
6
 10
-2.36894220E+01
 20
3.89307750E+01
 11
-2.36894220E+01
 21
3.79307750E+01
  0
LINE
  8
0
 62
4
 10
-2.64194220E+01
 20
3.89307750E+01
 11
-2.64194220E+01
 21
3.79307750E+01
  0
LINE
  8
0
 62
4
 10
-2.34194220E+01
 20
3.89307750E+01
 11
-2.34194220E+01
 21
3.79307750E+01
  0
LINE
  8
0
 62
4
 10
-2.64194220E+01
 20
4.04307750E+01
 11
-2.34194220E+01
 21
4.04307750E+01
  0
LINE
  8
0
 62
4
 10
-2.74194220E+01
 20
3.89307750E+01
 11
-2.24194220E+01
 21
3.89307750E+01
  0
LINE
  8
0
 62
4
 10
-3.74194220E+01
 20
3.22307750E+01
 11
-3.74194220E+01
 21
3.02307750E+01
  0
LINE
  8
0
 62
4
 10
-2.94194220E+01
 20
3.79307750E+01
 11
-2.04194220E+01
 21
3.79307750E+01
  0
LINE
  8
0
 62
4
 10
-3.64194220E+01
 20
2.92307750E+01
 11
-3.19194220E+01
 21
2.92307750E+01
  0
LINE
  8
0
 62
4
 10
-3.64194220E+01
 20
3.32307750E+01
 11
-3.19194220E+01
 21
3.32307750E+01
  0
LINE
  8
0
 62
4
 10
-2.24194220E+01
 20
3.94307750E+01
 11
-2.24194220E+01
 21
3.89307750E+01
  0
LINE
  8
0
 62
4
 10
-2.74194220E+01
 20
3.94307750E+01
 11
-2.74194220E+01
 21
3.89307750E+01
  0
LINE
  8
0
 62
4
 10
-3.74194220E+01
 20
3.02307750E+01
 11
-3.64194220E+01
 21
2.92307750E+01
  0
LINE
  8
0
 62
4
 10
-3.64194220E+01
 20
3.32307750E+01
 11
-3.64194220E+01
 21
2.92307750E+01
  0
LINE
  8
0
 62
4
 10
-2.04194220E+01
 20
3.11307750E+01
 11
-2.04194220E+01
 21
1.12807903E+01
  0
LINE
  8
0
 62
4
 10
-2.94194220E+01
 20
3.11307750E+01
 11
-2.94194220E+01
 21
1.12807903E+01
  0
LINE
  8
0
 62
4
 10
-1.24194220E+01
 20
3.32307750E+01
 11
-9.41942202E+00
 21
3.25307750E+01
  0
LINE
  8
0
 62
4
 10
-1.24194220E+01
 20
2.92307750E+01
 11
-9.41942203E+00
 21
2.99307750E+01
  0
LINE
  8
0
 62
4
 10
-1.24194220E+01
 20
3.32307750E+01
 11
-1.24194220E+01
 21
2.92307750E+01
  0
LINE
  8
0
 62
6
 10
-4.48242294E+00
 20
3.25307750E+01
 11
-7.08242294E+00
 21
2.99307750E+01
  0
LINE
  8
0
 62
4
 10
-9.41942203E+00
 20
2.99307750E+01
 11
-7.08242294E+00
 21
2.99307750E+01
  0
LINE
  8
0
 62
4
 10
-9.41942202E+00
 20
3.25307750E+01
 11
-9.41942202E+00
 21
2.99307750E+01
  0
LINE
  8
0
 62
4
 10
-9.41942203E+00
 20
3.25307750E+01
 11
-4.48242294E+00
 21
3.25307750E+01
  0
LINE
  8
0
  6
CENTER
 62
2
 10
3.40705780E+01
 20
3.15386312E+01
 11
3.40705780E+01
 21
2.41484007E+01
  0
LINE
  8
0
  6
CENTER
 62
2
 10
-4.44194220E+01
 20
3.05806384E+01
 11
-4.44194220E+01
 21
2.41807750E+01
  0
LINE
  8
0
 62
7
 10
3.28205780E+01
 20
1.56904125E+01
 11
3.28205780E+01
 21
1.14404125E+01
  0
ARC
  8
0
 62
7
 10
3.70910650E+01
 20
1.99366855E+01
 40
6.02048817E+00
 50
1.35180079E+02
 51
2.24819921E+02
  0
LINE
  8
0
 62
7
 10
3.28205780E+01
 20
2.41804125E+01
 11
3.28205780E+01
 21
2.84404125E+01
  0
LINE
  8
0
 62
2
 10
-6.47314220E+01
 20
2.41187750E+01
 11
-5.84194220E+01
 21
2.41187750E+01
  0
LINE
  8
0
 62
2
 10
-6.47314220E+01
 20
1.57427750E+01
 11
-5.84194220E+01
 21
1.57427750E+01
  0
LINE
  8
0
 62
2
 10
-7.69494220E+01
 20
2.19977750E+01
 11
-6.99194220E+01
 21
2.19977750E+01
  0
LINE
  8
0
 62
2
 10
-7.69494220E+01
 20
1.78637750E+01
 11
-6.99194220E+01
 21
1.78637750E+01
  0
LINE
  8
0
 62
2
 10
-8.48524220E+01
 20
2.19977750E+01
 11
-8.09494220E+01
 21
2.19977750E+01
  0
LINE
  8
0
 62
2
 10
-8.49194220E+01
 20
1.78637750E+01
 11
-8.09494220E+01
 21
1.78637750E+01
  0
LINE
  8
0
 62
7
 10
-6.49194220E+01
 20
2.39307750E+01
 11
-6.49194220E+01
 21
1.59307750E+01
  0
LINE
  8
0
 62
7
 10
-5.69194220E+01
 20
2.84307750E+01
 11
-5.69194220E+01
 21
1.14307750E+01
  0
LINE
  8
0
 62
7
 10
-6.39194220E+01
 20
1.49307750E+01
 11
-5.69194220E+01
 21
1.49307750E+01
  0
LINE
  8
0
 62
7
 10
-6.39194220E+01
 20
2.49307750E+01
 11
-5.69194220E+01
 21
2.49307750E+01
  0
LINE
  8
0
 62
7
 10
-4.04194220E+01
 20
2.84307750E+01
 11
-4.04194220E+01
 21
1.14307750E+01
  0
LINE
  8
0
 62
7
 10
-6.49194220E+01
 20
2.39307750E+01
 11
-6.39194220E+01
 21
2.49307750E+01
  0
LINE
  8
0
 62
7
 10
-6.49194220E+01
 20
1.59307750E+01
 11
-6.39194220E+01
 21
1.49307750E+01
  0
LINE
  8
0
  6
CENTER
 62
2
 10
-4.99194220E+01
 20
3.05806384E+01
 11
-4.99194220E+01
 21
2.41807750E+01
  0
LINE
  8
0
  6
CENTER
 62
2
 10
-8.83294220E+01
 20
1.99307750E+01
 11
6.40905780E+01
 21
1.99307750E+01
  0
LINE
  8
0
 62
7
 10
-5.69194220E+01
 20
1.14307750E+01
 11
-2.94194220E+01
 21
1.14307750E+01
  0
LINE
  8
0
 62
7
 10
-5.84194220E+01
 20
2.49307750E+01
 11
-5.84194220E+01
 21
1.49307750E+01
  0
LINE
  8
0
 62
7
 10
-5.69194220E+01
 20
2.84307750E+01
 11
-3.19194220E+01
 21
2.84307750E+01
  0
LINE
  8
0
 62
7
 10
-6.39194220E+01
 20
2.49307750E+01
 11
-6.39194220E+01
 21
1.49307750E+01
  0
LINE
  8
0
 62
7
 10
-5.51694220E+01
 20
2.41807750E+01
 11
-4.21694220E+01
 21
2.41807750E+01
  0
LINE
  8
0
 62
7
 10
-5.51694220E+01
 20
1.56907750E+01
 11
-4.21694220E+01
 21
1.56907750E+01
  0
LINE
  8
0
 62
7
 10
-8.44194220E+01
 20
2.24307750E+01
 11
-8.09494220E+01
 21
2.24307750E+01
  0
LINE
  8
0
 62
7
 10
-8.44194220E+01
 20
1.74307750E+01
 11
-8.09494220E+01
 21
1.74307750E+01
  0
LINE
  8
0
 62
7
 10
-8.49194220E+01
 20
2.19307750E+01
 11
-8.49194220E+01
 21
1.79307750E+01
  0
LINE
  8
0
 62
7
 10
-6.99194220E+01
 20
2.24307750E+01
 11
-6.99194220E+01
 21
1.74307750E+01
  0
LINE
  8
0
 62
7
 10
-8.49194220E+01
 20
2.19307750E+01
 11
-8.44194220E+01
 21
2.24307750E+01
  0
LINE
  8
0
 62
7
 10
-8.49194220E+01
 20
1.79307750E+01
 11
-8.44194220E+01
 21
1.74307750E+01
  0
LINE
  8
0
 62
7
 10
-8.44194220E+01
 20
2.24307750E+01
 11
-8.44194220E+01
 21
1.74307750E+01
  0
LINE
  8
0
 62
4
 10
-8.09494220E+01
 20
2.33207750E+01
 11
-8.09494220E+01
 21
1.65507750E+01
  0
LINE
  8
0
 62
4
 10
-7.69494220E+01
 20
2.33207750E+01
 11
-7.69494220E+01
 21
1.65507750E+01
  0
LINE
  8
0
 62
4
 10
-8.04494220E+01
 20
1.54307750E+01
 11
-7.74494220E+01
 21
1.54307750E+01
  0
LINE
  8
0
 62
4
 10
-8.04494220E+01
 20
2.44307750E+01
 11
-7.74494220E+01
 21
2.44307750E+01
  0
LINE
  8
0
 62
7
 10
-7.69494220E+01
 20
1.74307750E+01
 11
-6.49194220E+01
 21
1.74307750E+01
  0
LINE
  8
0
 62
7
 10
-7.69494220E+01
 20
2.24307750E+01
 11
-6.49194220E+01
 21
2.24307750E+01
  0
LINE
  8
0
 62
4
 10
-8.04494220E+01
 20
2.22107750E+01
 11
-7.74494220E+01
 21
2.22107750E+01
  0
LINE
  8
0
 62
4
 10
-8.04494220E+01
 20
1.76607750E+01
 11
-7.74494220E+01
 21
1.76607750E+01
  0
LINE
  8
0
 62
7
 10
6.25705780E+01
 20
2.84307750E+01
 11
6.25705780E+01
 21
1.14307750E+01
  0
LINE
  8
0
  6
CENTER
 62
2
 10
4.00705780E+01
 20
3.15386312E+01
 11
4.00705780E+01
 21
2.41484007E+01
  0
LINE
  8
0
  6
CENTER
 62
2
 10
5.45705780E+01
 20
2.41807750E+01
 11
5.45705780E+01
 21
1.56907750E+01
  0
LINE
  8
0
 62
7
 10
3.10705780E+01
 20
2.84307750E+01
 11
3.10705780E+01
 21
1.14307750E+01
  0
LINE
  8
0
 62
7
 10
3.28205780E+01
 20
1.56907750E+01
 11
6.08205780E+01
 21
1.56907750E+01
  0
LINE
  8
0
 62
7
 10
3.28205780E+01
 20
2.41807750E+01
 11
6.08205780E+01
 21
2.41807750E+01
  0
LINE
  8
0
 62
7
 10
6.08205780E+01
 20
2.84307750E+01
 11
6.08205780E+01
 21
2.41807750E+01
  0
LINE
  8
0
 62
7
 10
6.08205780E+01
 20
1.56907750E+01
 11
6.08205780E+01
 21
1.14307750E+01
  0
LINE
  8
0
 62
7
 10
-5.51694220E+01
 20
2.84307750E+01
 11
-5.51694220E+01
 21
2.41807750E+01
  0
LINE
  8
0
 62
7
 10
-4.21694220E+01
 20
2.84307750E+01
 11
-4.21694220E+01
 21
2.41807750E+01
  0
LINE
  8
0
 62
7
 10
-5.51694220E+01
 20
1.56907750E+01
 11
-5.51694220E+01
 21
1.14307750E+01
  0
LINE
  8
0
 62
7
 10
-4.21694220E+01
 20
1.56907750E+01
 11
-4.21694220E+01
 21
1.14307750E+01
  0
ARC
  8
0
 62
4
 10
-7.55461333E+01
 20
1.99406678E+01
 40
5.40329773E+00
 50
1.55156975E+02
 51
1.80104902E+02
  0
ARC
  8
0
 62
4
 10
-7.55482296E+01
 20
1.99303988E+01
 40
5.40119241E+00
 50
1.79996010E+02
 51
2.04847715E+02
  0
ARC
  8
0
 62
4
 10
-7.94647285E+01
 20
1.65496067E+01
 40
1.48469402E+00
 50
1.31546676E+02
 51
1.79954915E+02
  0
ARC
  8
0
 62
4
 10
-7.94653422E+01
 20
1.65417035E+01
 40
1.48410757E+00
 50
1.79649782E+02
 51
2.28464917E+02
  0
ARC
  8
0
 62
4
 10
-7.94684756E+01
 20
2.33202553E+01
 40
1.48094647E+00
 50
1.79979895E+02
 51
2.28518513E+02
  0
ARC
  8
0
 62
4
 10
-7.94653174E+01
 20
2.33198720E+01
 40
1.48410487E+00
 50
1.31536451E+02
 51
1.79965140E+02
  0
ARC
  8
0
 62
4
 10
-8.23696625E+01
 20
1.99369503E+01
 40
5.42024398E+00
 50
3.59934723E+02
 51
2.48034007E+01
  0
ARC
  8
0
 62
4
 10
-7.84451619E+01
 20
2.33269190E+01
 40
1.49575246E+00
 50
3.11736944E+02
 51
3.59764647E+02
  0
ARC
  8
0
 62
4
 10
-8.23675659E+01
 20
1.99341327E+01
 40
5.41814492E+00
 50
3.35191781E+02
 51
3.59964493E+02
  0
ARC
  8
0
 62
4
 10
-7.84488720E+01
 20
1.65429597E+01
 40
1.49947035E+00
 50
2.98629638E-01
 51
4.81997792E+01
  0
ARC
  8
0
 62
4
 10
-7.84483085E+01
 20
1.65483136E+01
 40
1.49888853E+00
 50
3.11791214E+02
 51
9.40875246E-02
  0
ARC
  8
0
 62
4
 10
-7.84482888E+01
 20
2.33132223E+01
 40
1.49888586E+00
 50
2.88704672E-01
 51
4.82097042E+01
  0
CIRCLE
  8
0
 62
7
 10
5.45747345E+01
 20
1.99307746E+01
 40
2.50000000E+00
  0
ARC
  8
0
 62
7
 10
5.65568802E+01
 20
1.99357750E+01
 40
6.01657241E+00
 50
3.15125907E+02
 51
3.58228778E+02
  0
ARC
  8
0
 62
7
 10
-5.09073960E+01
 20
1.99357750E+01
 40
6.01538783E+00
 50
1.35114672E+02
 51
1.78084364E+02
  0
ARC
  8
0
 62
7
 10
-4.64431045E+01
 20
1.99357750E+01
 40
6.02365231E+00
 50
3.15192915E+02
 51
4.48070852E+01
  0
LINE
  8
0
 62
4
 10
-1.06729422E+02
 20
3.02307750E+01
 11
-1.05729422E+02
 21
2.92307750E+01
  0
LINE
  8
0
 62
4
 10
-1.09829422E+02
 20
2.92307750E+01
 11
-1.08829422E+02
 21
3.02307750E+01
  0
LINE
  8
0
 62
4
 10
-1.05729422E+02
 20
3.32307750E+01
 11
-1.06729422E+02
 21
3.22307750E+01
  0
LINE
  8
0
 62
4
 10
-1.09829422E+02
 20
3.32307750E+01
 11
-1.08829422E+02
 21
3.22307750E+01
  0
LINE
  8
0
 62
4
 10
-1.06729422E+02
 20
3.02307750E+01
 11
-1.08829422E+02
 21
3.02307750E+01
  0
LINE
  8
0
 62
4
 10
-1.06729422E+02
 20
3.22307750E+01
 11
-1.08829422E+02
 21
3.22307750E+01
  0
LINE
  8
0
 62
4
 10
-1.06729422E+02
 20
3.22307750E+01
 11
-1.06729422E+02
 21
3.02307750E+01
  0
LINE
  8
0
 62
4
 10
-1.08829422E+02
 20
3.22307750E+01
 11
-1.08829422E+02
 21
3.02307750E+01
  0
ARC
  8
0
 62
4
 10
-1.07779422E+02
 20
1.99307750E+01
 40
8.65000000E+00
 50
1.69314255E+02
 51
1.90685745E+02
  0
ARC
  8
0
 62
4
 10
-1.07779422E+02
 20
1.99307750E+01
 40
8.65000000E+00
 50
2.59314255E+02
 51
2.80685745E+02
  0
LINE
  8
0
 62
4
 10
-1.06279422E+02
 20
3.52307750E+01
 11
-1.06579422E+02
 21
3.49307750E+01
  0
LINE
  8
0
 62
4
 10
-1.09279422E+02
 20
3.52307750E+01
 11
-1.08979422E+02
 21
3.49307750E+01
  0
LINE
  8
0
 62
4
 10
-1.06279422E+02
 20
3.52307750E+01
 11
-1.06579422E+02
 21
3.49307750E+01
  0
LINE
  8
0
 62
4
 10
-1.09279422E+02
 20
3.52307750E+01
 11
-1.08979422E+02
 21
3.49307750E+01
  0
LINE
  8
0
 62
4
 10
-1.06779422E+02
 20
2.89307750E+01
 11
-1.08779422E+02
 21
2.89307750E+01
  0
LINE
  8
0
 62
4
 10
-1.14685814E+02
 20
2.66503364E+01
 11
-1.15161154E+02
 21
2.68054234E+01
  0
LINE
  8
0
 62
4
 10
-1.13445118E+02
 20
3.04530557E+01
 11
-1.13302516E+02
 21
3.04065296E+01
  0
LINE
  8
0
 62
4
 10
-1.12704422E+02
 20
3.43352790E+01
 11
-1.15161154E+02
 21
2.68054234E+01
  0
LINE
  8
0
 62
4
 10
-1.13302530E+02
 20
3.04064848E+01
 11
-1.14543476E+02
 21
2.66030009E+01
  0
LINE
  8
0
 62
4
 10
-1.12204422E+02
 20
3.42557750E+01
 11
-1.14783482E+02
 21
2.63509829E+01
  0
LINE
  8
0
 62
4
 10
-1.04279422E+02
 20
3.14307750E+01
 11
-1.02134408E+02
 21
2.75757942E+01
  0
LINE
  8
0
 62
4
 10
-1.04429422E+02
 20
3.14307750E+01
 11
-1.02400685E+02
 21
2.77654216E+01
  0
ARC
  8
0
 62
4
 10
-1.07779422E+02
 20
1.99307750E+01
 40
8.65000000E+00
 50
3.49314255E+02
 51
1.06857449E+01
  0
LINE
  8
0
 62
4
 10
-1.04279422E+02
 20
3.79307750E+01
 11
-1.11279422E+02
 21
3.79307750E+01
  0
LINE
  8
0
 62
4
 10
-1.11279422E+02
 20
3.66307750E+01
 11
-1.11279422E+02
 21
3.07307750E+01
  0
LINE
  8
0
 62
4
 10
-1.04279422E+02
 20
3.66307750E+01
 11
-1.04279422E+02
 21
3.14307750E+01
  0
LINE
  8
0
 62
4
 10
-1.12079422E+02
 20
3.29285527E+01
 11
-1.12548940E+02
 21
3.31998300E+01
  0
LINE
  8
0
 62
4
 10
-1.12779422E+02
 20
3.62307750E+01
 11
-1.12779422E+02
 21
3.45457750E+01
  0
LINE
  8
0
 62
4
 10
-1.12779422E+02
 20
3.62307750E+01
 11
-1.13579422E+02
 21
3.62307750E+01
  0
LINE
  8
0
 62
4
 10
-1.10064422E+02
 20
3.71307750E+01
 11
-1.09924422E+02
 21
3.63307750E+01
  0
LINE
  8
0
 62
4
 10
-1.05494422E+02
 20
3.71307750E+01
 11
-1.05634422E+02
 21
3.63307750E+01
  0
LINE
  8
0
 62
4
 10
-1.05634422E+02
 20
3.63307750E+01
 11
-1.09924422E+02
 21
3.63307750E+01
  0
LINE
  8
0
 62
6
 10
-1.09009422E+02
 20
3.84307750E+01
 11
-1.09009422E+02
 21
3.79307750E+01
  0
LINE
  8
0
 62
6
 10
-1.06549422E+02
 20
3.84307750E+01
 11
-1.06549422E+02
 21
3.79307750E+01
  0
LINE
  8
0
 62
4
 10
-1.03479422E+02
 20
3.71307750E+01
 11
-1.03479422E+02
 21
3.14307750E+01
  0
LINE
  8
0
 62
4
 10
-1.12079422E+02
 20
3.07307750E+01
 11
-1.12079422E+02
 21
3.71307750E+01
  0
LINE
  8
0
 62
4
 10
-1.04779422E+02
 20
3.71307750E+01
 11
-1.10779422E+02
 21
3.71307750E+01
  0
LINE
  8
0
 62
4
 10
-1.13579422E+02
 20
3.62307750E+01
 11
-1.13579422E+02
 21
3.40857750E+01
  0
LINE
  8
0
 62
4
 10
-1.12079422E+02
 20
3.38547750E+01
 11
-1.12293527E+02
 21
3.39789557E+01
  0
LINE
  8
0
 62
4
 10
-1.04429422E+02
 20
3.66307750E+01
 11
-1.04429422E+02
 21
3.14307750E+01
  0
LINE
  8
0
 62
4
 10
-1.04279422E+02
 20
3.66307750E+01
 11
-1.04429422E+02
 21
3.66307750E+01
  0
LINE
  8
0
 62
4
 10
-1.04529422E+02
 20
3.49307750E+01
 11
-1.11029422E+02
 21
3.49307750E+01
  0
LINE
  8
0
 62
4
 10
-1.04529422E+02
 20
3.42307750E+01
 11
-1.11029422E+02
 21
3.42307750E+01
  0
LINE
  8
0
 62
4
 10
-1.12204422E+02
 20
3.67557750E+01
 11
-1.12204422E+02
 21
3.42557750E+01
  0
LINE
  8
0
 62
4
 10
-1.12704422E+02
 20
3.67557750E+01
 11
-1.12704422E+02
 21
3.43352790E+01
  0
LINE
  8
0
 62
4
 10
-1.12204422E+02
 20
3.67557750E+01
 11
-1.12704422E+02
 21
3.67557750E+01
  0
LINE
  8
0
 62
4
 10
-1.09279422E+02
 20
3.89307750E+01
 11
-1.09279422E+02
 21
3.79307750E+01
  0
LINE
  8
0
 62
4
 10
-1.06279422E+02
 20
3.89307750E+01
 11
-1.06279422E+02
 21
3.79307750E+01
  0
LINE
  8
0
 62
4
 10
-1.03479422E+02
 20
3.14307750E+01
 11
-1.04279422E+02
 21
3.14307750E+01
  0
LINE
  8
0
 62
4
 10
-1.11279422E+02
 20
3.07307750E+01
 11
-1.12079422E+02
 21
3.07307750E+01
  0
LINE
  8
0
 62
4
 10
-1.05279422E+02
 20
3.89307750E+01
 11
-1.10279422E+02
 21
3.89307750E+01
  0
LINE
  8
0
 62
4
 10
-1.06279422E+02
 20
4.04307750E+01
 11
-1.09279422E+02
 21
4.04307750E+01
  0
LINE
  8
0
 62
4
 10
-1.05279422E+02
 20
3.94307750E+01
 11
-1.05279422E+02
 21
3.89307750E+01
  0
LINE
  8
0
 62
4
 10
-1.10279422E+02
 20
3.94307750E+01
 11
-1.10279422E+02
 21
3.89307750E+01
  0
LINE
  8
0
 62
4
 10
-1.06279422E+02
 20
3.84307750E+01
 11
-1.09279422E+02
 21
3.84307750E+01
  0
ARC
  8
0
 62
4
 10
-1.04279425E+02
 20
3.71307717E+01
 40
8.00003254E-01
 50
2.33015759E-04
 51
9.00000002E+01
  0
ARC
  8
0
 62
4
 10
-1.11281085E+02
 20
3.71324376E+01
 40
7.98339134E-01
 50
8.98806771E+01
 51
1.80119323E+02
  0
ARC
  8
0
 62
4
 10
-1.04779426E+02
 20
3.66307707E+01
 40
5.00004290E-01
 50
4.91607912E-04
 51
9.00000002E+01
  0
ARC
  8
0
 62
4
 10
-1.10781085E+02
 20
3.66324376E+01
 40
4.98340176E-01
 50
8.98088454E+01
 51
1.80191155E+02
  0
ARC
  8
0
 62
4
 10
-1.13079218E+02
 20
3.40839093E+01
 40
5.00207143E-01
 50
1.79786293E+02
 51
2.39986760E+02
  0
ARC
  8
0
 62
4
 10
-1.12280570E+02
 20
3.45481307E+01
 40
4.98857363E-01
 50
1.80270562E+02
 51
2.09445368E+02
  0
ARC
  8
0
 62
4
 10
-1.09280834E+02
 20
3.94321873E+01
 40
9.98588677E-01
 50
8.99189656E+01
 51
1.80081034E+02
  0
ARC
  8
0
 62
4
 10
-1.06279675E+02
 20
3.94305222E+01
 40
1.00025280E+00
 50
1.44788446E-02
 51
9.00000002E+01
  0
LINE
  8
0
 62
4
 10
-1.11029422E+02
 20
3.49307750E+01
 11
-1.11029422E+02
 21
2.84307750E+01
  0
LINE
  8
0
 62
4
 10
-1.04529422E+02
 20
3.10307750E+01
 11
-1.04529422E+02
 21
2.84307750E+01
  0
LINE
  8
0
 62
4
 10
-1.04529422E+02
 20
3.10307750E+01
 11
-1.05729422E+02
 21
3.10307750E+01
  0
LINE
  8
0
 62
4
 10
-1.04529422E+02
 20
3.14307750E+01
 11
-1.05729422E+02
 21
3.14307750E+01
  0
LINE
  8
0
 62
4
 10
-1.04529422E+02
 20
3.49307750E+01
 11
-1.04529422E+02
 21
3.14307750E+01
  0
LINE
  8
0
 62
4
 10
-1.05729422E+02
 20
2.92307750E+01
 11
-1.09829422E+02
 21
2.92307750E+01
  0
LINE
  8
0
 62
4
 10
-1.05729422E+02
 20
3.32307750E+01
 11
-1.09829422E+02
 21
3.32307750E+01
  0
LINE
  8
0
 62
4
 10
-1.06779422E+02
 20
3.35307750E+01
 11
-1.08779422E+02
 21
3.35307750E+01
  0
LINE
  8
0
 62
4
 10
-1.06779422E+02
 20
3.35307750E+01
 11
-1.06779422E+02
 21
3.32307750E+01
  0
LINE
  8
0
 62
4
 10
-1.06779422E+02
 20
2.92307750E+01
 11
-1.06779422E+02
 21
2.89307750E+01
  0
LINE
  8
0
 62
4
 10
-1.05729422E+02
 20
3.32307750E+01
 11
-1.05729422E+02
 21
2.92307750E+01
  0
LINE
  8
0
 62
4
 10
-1.09829422E+02
 20
3.32307750E+01
 11
-1.09829422E+02
 21
2.92307750E+01
  0
LINE
  8
0
 62
4
 10
-1.08779422E+02
 20
3.35307750E+01
 11
-1.08779422E+02
 21
3.32307750E+01
  0
LINE
  8
0
 62
4
 10
-1.08779422E+02
 20
2.92307750E+01
 11
-1.08779422E+02
 21
2.89307750E+01
  0
LINE
  8
0
 62
4
 10
-1.06279422E+02
 20
3.63307750E+01
 11
-1.06279422E+02
 21
3.52307750E+01
  0
LINE
  8
0
 62
4
 10
-1.09279422E+02
 20
3.63307750E+01
 11
-1.09279422E+02
 21
3.52307750E+01
  0
LINE
  8
0
 62
6
 10
-1.06549422E+02
 20
3.63307750E+01
 11
-1.06549422E+02
 21
3.49607750E+01
  0
LINE
  8
0
 62
6
 10
-1.09009422E+02
 20
3.63307750E+01
 11
-1.09009422E+02
 21
3.49607750E+01
  0
LINE
  8
0
 62
4
 10
-1.12991461E+02
 20
3.34555084E+01
 11
-1.13329422E+02
 21
3.36507750E+01
  0
ARC
  8
0
 62
2
 10
-1.07779422E+02
 20
1.99307750E+01
 40
4.18800000E+00
 50
4.27673618E+01
 51
7.72326384E+01
  0
ARC
  8
0
 62
2
 10
-1.07779422E+02
 20
1.99307750E+01
 40
4.18800000E+00
 50
3.42767362E+02
 51
1.72326382E+01
  0
ARC
  8
0
 62
2
 10
-1.07779422E+02
 20
1.99307750E+01
 40
4.18800000E+00
 50
2.82767362E+02
 51
3.17232638E+02
  0
ARC
  8
0
 62
2
 10
-1.07779422E+02
 20
1.99307750E+01
 40
4.18800000E+00
 50
2.22767362E+02
 51
2.57232638E+02
  0
ARC
  8
0
 62
2
 10
-1.07779422E+02
 20
1.99307750E+01
 40
4.18800000E+00
 50
1.62767362E+02
 51
1.97232638E+02
  0
ARC
  8
0
 62
2
 10
-1.07779422E+02
 20
1.99307750E+01
 40
4.18800000E+00
 50
1.02767362E+02
 51
1.37232638E+02
  0
CIRCLE
  8
0
 62
2
 10
-1.07779422E+02
 20
1.99307750E+01
 40
2.06700000E+00
  0
LINE
  8
0
 62
4
 10
-1.11779422E+02
 20
1.76213737E+01
 11
-1.11779422E+02
 21
2.22401759E+01
  0
LINE
  8
0
 62
4
 10
-1.11779422E+02
 20
2.22401757E+01
 11
-1.07779422E+02
 21
2.45495767E+01
  0
LINE
  8
0
 62
4
 10
-1.07779422E+02
 20
2.45495769E+01
 11
-1.03779422E+02
 21
2.22401759E+01
  0
LINE
  8
0
 62
4
 10
-1.03779422E+02
 20
2.22401762E+01
 11
-1.03779422E+02
 21
1.76213741E+01
  0
LINE
  8
0
 62
4
 10
-1.03779422E+02
 20
1.76213743E+01
 11
-1.07779422E+02
 21
1.53119732E+01
  0
LINE
  8
0
 62
4
 10
-1.07779422E+02
 20
1.53119730E+01
 11
-1.11779422E+02
 21
1.76213741E+01
  0
LINE
  8
0
 62
7
 10
-9.92794220E+01
 20
2.41807750E+01
 11
-9.92794220E+01
 21
1.56907750E+01
  0
LINE
  8
0
 62
7
 10
-1.16279422E+02
 20
2.41807750E+01
 11
-1.16279422E+02
 21
1.56907750E+01
  0
LINE
  8
0
 62
7
 10
-1.12019422E+02
 20
1.14307750E+01
 11
-1.03529422E+02
 21
1.14307750E+01
  0
LINE
  8
0
 62
7
 10
-1.12019422E+02
 20
2.84307750E+01
 11
-1.03529422E+02
 21
2.84307750E+01
  0
LINE
  8
0
  6
CENTER
 62
2
 10
-1.07779422E+02
 20
4.19019408E+01
 11
-1.07779422E+02
 21
9.65440469E+00
  0
LINE
  8
0
  6
CENTER
 62
2
 10
-1.17839234E+02
 20
1.99307750E+01
 11
-9.78170343E+01
 21
1.99307750E+01
  0
CIRCLE
  8
0
 62
7
 10
-1.07779422E+02
 20
1.99307746E+01
 40
2.50000000E+00
  0
CIRCLE
  8
0
 62
7
 10
-1.07779422E+02
 20
1.99307746E+01
 40
8.50000000E+00
  0
ARC
  8
0
 62
7
 10
-1.07779422E+02
 20
1.99307748E+01
 40
9.50328916E+00
 50
2.65650517E+01
 51
6.34349484E+01
  0
ARC
  8
0
 62
7
 10
-1.07784414E+02
 20
1.99257906E+01
 40
9.50105520E+00
 50
1.16470744E+02
 51
1.53394601E+02
  0
ARC
  8
0
 62
7
 10
-1.07779422E+02
 20
1.99307748E+01
 40
9.49882072E+00
 50
2.06511100E+02
 51
2.43488900E+02
  0
ARC
  8
0
 62
7
 10
-1.07784406E+02
 20
1.99257824E+01
 40
9.50105469E+00
 50
2.96605398E+02
 51
3.33529257E+02
  0
CIRCLE
  8
0
 62
4
 10
-1.07779422E+02
 20
1.99307746E+01
 40
4.00000000E+00
  0
CIRCLE
  8
0
 62
7
 10
-1.07779422E+02
 20
1.99307746E+01
 40
5.00000000E+00
  0
LINE
  8
0
  6
CENTER
 62
2
 10
9.48805780E+01
 20
9.59077497E+00
 11
9.48805780E+01
 21
4.18593949E+01
  0
ARC
  8
0
 62
4
 10
9.48805780E+01
 20
1.99307750E+01
 40
8.65000000E+00
 50
2.59314255E+02
 51
2.80685745E+02
  0
ARC
  8
0
 62
4
 10
9.48805780E+01
 20
1.99307750E+01
 40
8.65000000E+00
 50
3.49314256E+02
 51
1.06857436E+01
  0
LINE
  8
0
 62
4
 10
9.33805780E+01
 20
3.52307750E+01
 11
9.36805780E+01
 21
3.49307750E+01
  0
LINE
  8
0
 62
4
 10
9.63805780E+01
 20
3.52307750E+01
 11
9.60805780E+01
 21
3.49307750E+01
  0
LINE
  8
0
 62
4
 10
9.33805780E+01
 20
3.52307750E+01
 11
9.36805780E+01
 21
3.49307750E+01
  0
LINE
  8
0
 62
4
 10
9.63805780E+01
 20
3.52307750E+01
 11
9.60805780E+01
 21
3.49307750E+01
  0
LINE
  8
0
 62
4
 10
9.38805780E+01
 20
2.89307750E+01
 11
9.58805780E+01
 21
2.89307750E+01
  0
LINE
  8
0
 62
4
 10
9.35805780E+01
 20
2.99307750E+01
 11
9.61805780E+01
 21
2.99307750E+01
  0
LINE
  8
0
 62
4
 10
9.35805780E+01
 20
2.99307750E+01
 11
9.28305780E+01
 21
2.92307750E+01
  0
LINE
  8
0
 62
4
 10
1.01786970E+02
 20
2.66503364E+01
 11
1.02262309E+02
 21
2.68054234E+01
  0
LINE
  8
0
 62
4
 10
1.00546274E+02
 20
3.04530557E+01
 11
1.00403672E+02
 21
3.04065296E+01
  0
LINE
  8
0
 62
4
 10
9.98055780E+01
 20
3.43352790E+01
 11
1.02262309E+02
 21
2.68054234E+01
  0
LINE
  8
0
 62
4
 10
1.00403686E+02
 20
3.04064848E+01
 11
1.01647776E+02
 21
2.65933632E+01
  0
LINE
  8
0
 62
4
 10
9.93055780E+01
 20
3.42557750E+01
 11
1.01887705E+02
 21
2.63415821E+01
  0
LINE
  8
0
 62
4
 10
9.13805780E+01
 20
3.14307750E+01
 11
8.92314919E+01
 21
2.75684755E+01
  0
LINE
  8
0
 62
4
 10
9.15305780E+01
 20
3.14307750E+01
 11
8.94978546E+01
 21
2.77582195E+01
  0
ARC
  8
0
 62
4
 10
9.48805780E+01
 20
1.99307750E+01
 40
8.65000000E+00
 50
1.69314255E+02
 51
1.90685745E+02
  0
CIRCLE
  8
0
 62
4
 10
9.48805780E+01
 20
3.12307750E+01
 40
1.30000000E+00
  0
LINE
  8
0
 62
4
 10
9.13805780E+01
 20
3.79307750E+01
 11
9.83805780E+01
 21
3.79307750E+01
  0
LINE
  8
0
 62
4
 10
9.83805780E+01
 20
3.66307750E+01
 11
9.83805780E+01
 21
3.07307750E+01
  0
LINE
  8
0
 62
4
 10
9.13805780E+01
 20
3.66307750E+01
 11
9.13805780E+01
 21
3.14307750E+01
  0
LINE
  8
0
 62
4
 10
9.91805780E+01
 20
3.29285527E+01
 11
9.96500963E+01
 21
3.31998300E+01
  0
LINE
  8
0
 62
4
 10
9.98805780E+01
 20
3.62307750E+01
 11
9.98805780E+01
 21
3.45457750E+01
  0
LINE
  8
0
 62
4
 10
9.98805780E+01
 20
3.62307750E+01
 11
1.00680578E+02
 21
3.62307750E+01
  0
LINE
  8
0
 62
4
 10
9.71655780E+01
 20
3.71307750E+01
 11
9.70255780E+01
 21
3.63307750E+01
  0
LINE
  8
0
 62
4
 10
9.25955780E+01
 20
3.71307750E+01
 11
9.27355780E+01
 21
3.63307750E+01
  0
LINE
  8
0
 62
4
 10
9.27355780E+01
 20
3.63307750E+01
 11
9.70255780E+01
 21
3.63307750E+01
  0
LINE
  8
0
 62
6
 10
9.61105780E+01
 20
3.84307750E+01
 11
9.61105780E+01
 21
3.79307750E+01
  0
LINE
  8
0
 62
6
 10
9.36505780E+01
 20
3.84307750E+01
 11
9.36505780E+01
 21
3.79307750E+01
  0
LINE
  8
0
 62
4
 10
9.05805780E+01
 20
3.71307750E+01
 11
9.05805780E+01
 21
3.14307750E+01
  0
LINE
  8
0
 62
4
 10
9.91805780E+01
 20
3.07307750E+01
 11
9.91805780E+01
 21
3.71307750E+01
  0
LINE
  8
0
 62
4
 10
9.18805780E+01
 20
3.71307750E+01
 11
9.78805780E+01
 21
3.71307750E+01
  0
LINE
  8
0
 62
4
 10
1.00680578E+02
 20
3.62307750E+01
 11
1.00680578E+02
 21
3.40857750E+01
  0
LINE
  8
0
 62
4
 10
9.91805780E+01
 20
3.38547750E+01
 11
9.93946828E+01
 21
3.39789557E+01
  0
LINE
  8
0
 62
4
 10
9.15305780E+01
 20
3.66307750E+01
 11
9.15305780E+01
 21
3.14307750E+01
  0
LINE
  8
0
 62
4
 10
9.13805780E+01
 20
3.66307750E+01
 11
9.15305780E+01
 21
3.66307750E+01
  0
LINE
  8
0
 62
4
 10
9.16305780E+01
 20
3.49307750E+01
 11
9.81305780E+01
 21
3.49307750E+01
  0
LINE
  8
0
 62
4
 10
9.16305780E+01
 20
3.42307750E+01
 11
9.81305780E+01
 21
3.42307750E+01
  0
LINE
  8
0
 62
4
 10
9.93055780E+01
 20
3.67557750E+01
 11
9.93055780E+01
 21
3.42557750E+01
  0
LINE
  8
0
 62
4
 10
9.98055780E+01
 20
3.67557750E+01
 11
9.98055780E+01
 21
3.43352790E+01
  0
LINE
  8
0
 62
4
 10
9.93055780E+01
 20
3.67557750E+01
 11
9.98055780E+01
 21
3.67557750E+01
  0
LINE
  8
0
 62
4
 10
9.63805780E+01
 20
3.89307750E+01
 11
9.63805780E+01
 21
3.79307750E+01
  0
LINE
  8
0
 62
4
 10
9.33805780E+01
 20
3.89307750E+01
 11
9.33805780E+01
 21
3.79307750E+01
  0
LINE
  8
0
 62
4
 10
9.05805780E+01
 20
3.14307750E+01
 11
9.13805780E+01
 21
3.14307750E+01
  0
LINE
  8
0
 62
4
 10
9.83805780E+01
 20
3.07307750E+01
 11
9.91805780E+01
 21
3.07307750E+01
  0
LINE
  8
0
 62
4
 10
9.23805780E+01
 20
3.89307750E+01
 11
9.73805780E+01
 21
3.89307750E+01
  0
LINE
  8
0
 62
4
 10
9.33805780E+01
 20
4.04307750E+01
 11
9.63805780E+01
 21
4.04307750E+01
  0
LINE
  8
0
 62
4
 10
9.23805780E+01
 20
3.94307750E+01
 11
9.23805780E+01
 21
3.89307750E+01
  0
LINE
  8
0
 62
4
 10
9.73805780E+01
 20
3.94307750E+01
 11
9.73805780E+01
 21
3.89307750E+01
  0
LINE
  8
0
 62
4
 10
9.33805780E+01
 20
3.84307750E+01
 11
9.63805780E+01
 21
3.84307750E+01
  0
ARC
  8
0
 62
4
 10
9.13805812E+01
 20
3.71307717E+01
 40
8.00003254E-01
 50
9.00000002E+01
 51
1.79999767E+02
  0
ARC
  8
0
 62
4
 10
9.83822406E+01
 20
3.71324376E+01
 40
7.98339134E-01
 50
3.59880678E+02
 51
9.01193227E+01
  0
ARC
  8
0
 62
4
 10
9.18805823E+01
 20
3.66307707E+01
 40
5.00004290E-01
 50
9.00000002E+01
 51
1.79999508E+02
  0
ARC
  8
0
 62
4
 10
9.78822406E+01
 20
3.66324376E+01
 40
4.98340176E-01
 50
3.59808845E+02
 51
9.01911544E+01
  0
ARC
  8
0
 62
4
 10
1.00180374E+02
 20
3.40839093E+01
 40
5.00207143E-01
 50
3.00013240E+02
 51
2.13706628E-01
  0
ARC
  8
0
 62
4
 10
9.93817262E+01
 20
3.45481307E+01
 40
4.98857363E-01
 50
3.30554632E+02
 51
3.59729437E+02
  0
ARC
  8
0
 62
4
 10
9.63819903E+01
 20
3.94321873E+01
 40
9.98588677E-01
 50
3.59918966E+02
 51
9.00810348E+01
  0
ARC
  8
0
 62
4
 10
9.33808307E+01
 20
3.94305222E+01
 40
1.00025280E+00
 50
9.00000002E+01
 51
1.79985521E+02
  0
LINE
  8
0
 62
4
 10
9.81305780E+01
 20
3.49307750E+01
 11
9.81305780E+01
 21
2.84307750E+01
  0
LINE
  8
0
 62
4
 10
9.16305780E+01
 20
3.10307750E+01
 11
9.16305780E+01
 21
2.84307750E+01
  0
LINE
  8
0
 62
4
 10
9.16305780E+01
 20
3.10307750E+01
 11
9.28305780E+01
 21
3.10307750E+01
  0
LINE
  8
0
 62
4
 10
9.16305780E+01
 20
3.14307750E+01
 11
9.28305780E+01
 21
3.14307750E+01
  0
LINE
  8
0
 62
4
 10
9.16305780E+01
 20
3.49307750E+01
 11
9.16305780E+01
 21
3.14307750E+01
  0
LINE
  8
0
 62
4
 10
9.28305780E+01
 20
2.92307750E+01
 11
9.69305780E+01
 21
2.92307750E+01
  0
LINE
  8
0
 62
4
 10
9.28305780E+01
 20
3.32307750E+01
 11
9.69305780E+01
 21
3.32307750E+01
  0
LINE
  8
0
 62
4
 10
9.38805780E+01
 20
3.35307750E+01
 11
9.58805780E+01
 21
3.35307750E+01
  0
LINE
  8
0
 62
4
 10
9.35805780E+01
 20
3.25307750E+01
 11
9.61805780E+01
 21
3.25307750E+01
  0
LINE
  8
0
 62
4
 10
9.38805780E+01
 20
3.35307750E+01
 11
9.38805780E+01
 21
3.32307750E+01
  0
LINE
  8
0
 62
4
 10
9.38805780E+01
 20
2.92307750E+01
 11
9.38805780E+01
 21
2.89307750E+01
  0
LINE
  8
0
 62
4
 10
9.28305780E+01
 20
3.32307750E+01
 11
9.28305780E+01
 21
2.92307750E+01
  0
LINE
  8
0
 62
4
 10
9.35805780E+01
 20
3.25307750E+01
 11
9.35805780E+01
 21
2.99307750E+01
  0
LINE
  8
0
 62
4
 10
9.28305780E+01
 20
3.32307750E+01
 11
9.35805780E+01
 21
3.25307750E+01
  0
LINE
  8
0
 62
4
 10
9.69305780E+01
 20
3.32307750E+01
 11
9.69305780E+01
 21
2.92307750E+01
  0
LINE
  8
0
 62
4
 10
9.58805780E+01
 20
3.35307750E+01
 11
9.58805780E+01
 21
3.32307750E+01
  0
LINE
  8
0
 62
4
 10
9.58805780E+01
 20
2.92307750E+01
 11
9.58805780E+01
 21
2.89307750E+01
  0
LINE
  8
0
 62
4
 10
9.61805780E+01
 20
3.25307750E+01
 11
9.61805780E+01
 21
2.99307750E+01
  0
LINE
  8
0
 62
4
 10
9.61805780E+01
 20
3.25307750E+01
 11
9.69305780E+01
 21
3.32307750E+01
  0
LINE
  8
0
 62
4
 10
9.61805780E+01
 20
2.99307750E+01
 11
9.69305780E+01
 21
2.92307750E+01
  0
LINE
  8
0
 62
4
 10
9.33805780E+01
 20
3.63307750E+01
 11
9.33805780E+01
 21
3.52307750E+01
  0
LINE
  8
0
 62
4
 10
9.63805780E+01
 20
3.63307750E+01
 11
9.63805780E+01
 21
3.52307750E+01
  0
LINE
  8
0
 62
6
 10
9.36505780E+01
 20
3.63307750E+01
 11
9.36505780E+01
 21
3.49607750E+01
  0
LINE
  8
0
 62
6
 10
9.61105780E+01
 20
3.63307750E+01
 11
9.61105780E+01
 21
3.49607750E+01
  0
LINE
  8
0
 62
4
 10
1.00092617E+02
 20
3.34555084E+01
 11
1.00430578E+02
 21
3.36507750E+01
  0
LINE
  8
0
 62
7
 10
1.03380578E+02
 20
1.56907750E+01
 11
1.03380578E+02
 21
2.41786997E+01
  0
LINE
  8
0
 62
7
 10
8.63805780E+01
 20
1.56907750E+01
 11
8.63805780E+01
 21
2.41807750E+01
  0
LINE
  8
0
 62
7
 10
9.06405780E+01
 20
2.84307750E+01
 11
9.91205780E+01
 21
2.84307750E+01
  0
LINE
  8
0
 62
7
 10
9.06405780E+01
 20
1.14307750E+01
 11
9.91205780E+01
 21
1.14307750E+01
  0
LINE
  8
0
 62
7
 10
9.81805780E+01
 20
1.14307750E+01
 11
9.81805780E+01
 21
2.84307750E+01
  0
LINE
  8
0
 62
7
 10
9.15805780E+01
 20
1.14307750E+01
 11
9.15805780E+01
 21
2.84307750E+01
  0
LINE
  8
0
  6
CENTER
 62
2
 10
8.43013610E+01
 20
1.99307750E+01
 11
1.05329441E+02
 21
1.99307750E+01
  0
ARC
  8
0
 62
7
 10
9.48789094E+01
 20
1.99224593E+01
 40
9.50551887E+00
 50
1.16479727E+02
 51
1.53385619E+02
  0
ARC
  8
0
 62
7
 10
9.48839068E+01
 20
1.99341038E+01
 40
9.50328580E+00
 50
2.06520101E+02
 51
2.43479899E+02
  0
ARC
  8
0
 62
7
 10
9.48839056E+01
 20
1.99274473E+01
 40
9.49435798E+00
 50
2.96502094E+02
 51
3.33497906E+02
  0
ARC
  8
0
 62
7
 10
9.48956034E+01
 20
1.99188186E+01
 40
9.49428151E+00
 50
2.66589370E+01
 51
6.36021455E+01
  0
ARC
  8
0
 62
7
 10
9.48867008E+01
 20
1.99315781E+01
 40
8.49387723E+00
 50
3.59994582E+02
 51
6.71826762E+01
  0
ARC
  8
0
 62
7
 10
9.48872345E+01
 20
1.99307750E+01
 40
8.49958100E+00
 50
1.12894629E+02
 51
2.47105371E+02
  0
ARC
  8
0
 62
7
 10
9.48867011E+01
 20
1.99299716E+01
 40
8.49387688E+00
 50
2.92817322E+02
 51
5.41920565E-03
  0
LINE
  8
0
  6
CENTER
 62
2
 10
5.45705780E+01
 20
6.80707750E+01
 11
5.45705780E+01
 21
4.69107750E+01
  0
LINE
  8
0
  6
PHANTOM
 10
-2.34757522E+00
 20
4.00179523E+01
 11
-2.34757522E+00
 21
7.46980362E+01
  0
LINE
  8
0
 62
7
 10
2.20705780E+01
 20
4.94307750E+01
 11
6.25705780E+01
 21
4.94307750E+01
  0
LINE
  8
0
 62
7
 10
2.20705780E+01
 20
6.64307750E+01
 11
6.25705780E+01
 21
6.64307750E+01
  0
LINE
  8
0
 62
7
 10
3.10705780E+01
 20
5.61641083E+01
 11
3.10705780E+01
 21
4.94307750E+01
  0
LINE
  8
0
 62
4
 10
2.20705780E+01
 20
4.92807750E+01
 11
2.20705780E+01
 21
6.65807750E+01
  0
LINE
  8
0
  6
CENTER
 62
6
 10
1.75705780E+01
 20
6.79307736E+01
 11
1.75705780E+01
 21
4.79307750E+01
  0
LINE
  8
0
 62
4
 10
1.30705780E+01
 20
6.22307750E+01
 11
2.20705780E+01
 21
6.22307750E+01
  0
LINE
  8
0
 62
4
 10
1.30705780E+01
 20
6.28557750E+01
 11
2.20705780E+01
 21
6.28557750E+01
  0
LINE
  8
0
 62
4
 10
1.30705780E+01
 20
6.23557750E+01
 11
2.20705780E+01
 21
6.23557750E+01
  0
LINE
  8
0
 62
4
 10
1.30705780E+01
 20
6.53057750E+01
 11
2.20705780E+01
 21
6.53057750E+01
  0
LINE
  8
0
 62
4
 10
1.55705780E+01
 20
6.37307750E+01
 11
1.95705780E+01
 21
6.37307750E+01
  0
LINE
  8
0
 62
4
 10
1.55705780E+01
 20
6.29307750E+01
 11
1.95705780E+01
 21
6.29307750E+01
  0
LINE
  8
0
 62
4
 10
1.30705780E+01
 20
6.65807750E+01
 11
2.20705780E+01
 21
6.65807750E+01
  0
LINE
  8
0
 62
4
 10
1.95705780E+01
 20
6.37307750E+01
 11
1.95705780E+01
 21
6.28557750E+01
  0
LINE
  8
0
 62
4
 10
1.30705780E+01
 20
5.36307750E+01
 11
2.20705780E+01
 21
5.36307750E+01
  0
LINE
  8
0
 62
4
 10
1.30705780E+01
 20
4.92807750E+01
 11
2.20705780E+01
 21
4.92807750E+01
  0
LINE
  8
0
 62
6
 10
3.80075771E+01
 20
5.92307750E+01
 11
3.54075771E+01
 21
5.66307750E+01
  0
LINE
  8
0
 62
4
 10
3.30705780E+01
 20
5.66307750E+01
 11
3.54075771E+01
 21
5.66307750E+01
  0
LINE
  8
0
 62
4
 10
3.00705780E+01
 20
5.59307750E+01
 11
3.30705780E+01
 21
5.66307750E+01
  0
LINE
  8
0
 62
4
 10
3.30705780E+01
 20
5.92307750E+01
 11
3.30705780E+01
 21
5.66307750E+01
  0
LINE
  8
0
 62
4
 10
3.30705780E+01
 20
5.92307750E+01
 11
3.80075771E+01
 21
5.92307750E+01
  0
LINE
  8
0
 62
4
 10
3.00705780E+01
 20
5.99307750E+01
 11
3.30705780E+01
 21
5.92307750E+01
  0
LINE
  8
0
 62
4
 10
3.00705780E+01
 20
5.99307750E+01
 11
3.00705780E+01
 21
5.59307750E+01
  0
LINE
  8
0
 62
4
 10
2.20705780E+01
 20
6.11807750E+01
 11
2.45705780E+01
 21
6.11807750E+01
  0
LINE
  8
0
 62
4
 10
2.45705780E+01
 20
5.46807750E+01
 11
2.45705780E+01
 21
6.11807750E+01
  0
LINE
  8
0
 62
4
 10
2.45705780E+01
 20
5.99307750E+01
 11
3.00705780E+01
 21
5.99307750E+01
  0
LINE
  8
0
 62
4
 10
2.45705780E+01
 20
5.59307750E+01
 11
3.00705780E+01
 21
5.59307750E+01
  0
LINE
  8
0
 62
4
 10
2.20705780E+01
 20
5.46807750E+01
 11
2.45705780E+01
 21
5.46807750E+01
  0
LINE
  8
0
 62
4
 10
1.30705780E+01
 20
4.92807750E+01
 11
1.30705780E+01
 21
6.65807750E+01
  0
LINE
  8
0
 62
4
 10
1.55705780E+01
 20
6.28557750E+01
 11
1.55705780E+01
 21
6.37307750E+01
  0
LINE
  8
0
 62
4
 10
1.85805780E+01
 20
5.69307750E+01
 11
1.65105780E+01
 21
5.89907750E+01
  0
LINE
  8
0
 62
4
 10
1.65105780E+01
 20
5.68707750E+01
 11
1.86305780E+01
 21
5.89907750E+01
  0
CIRCLE
  8
0
 62
4
 10
1.75697027E+01
 20
5.79283165E+01
 40
2.50000000E+00
  0
LINE
  8
0
 62
4
 10
1.05705780E+01
 20
5.46807750E+01
 11
1.30705780E+01
 21
5.46807750E+01
  0
LINE
  8
0
 62
4
 10
6.07057799E+00
 20
5.59307750E+01
 11
1.05705780E+01
 21
5.59307750E+01
  0
LINE
  8
0
 62
4
 10
5.07057799E+00
 20
5.69307750E+01
 11
6.07057799E+00
 21
5.59307750E+01
  0
LINE
  8
0
 62
4
 10
5.07057799E+00
 20
5.89307750E+01
 11
5.07057799E+00
 21
5.69307750E+01
  0
LINE
  8
0
 62
4
 10
1.05705780E+01
 20
6.11807750E+01
 11
1.30705780E+01
 21
6.11807750E+01
  0
LINE
  8
0
 62
4
 10
6.07057799E+00
 20
5.99307750E+01
 11
1.05705780E+01
 21
5.99307750E+01
  0
LINE
  8
0
 62
4
 10
6.07057799E+00
 20
5.99307750E+01
 11
6.07057799E+00
 21
5.59307750E+01
  0
LINE
  8
0
 62
4
 10
1.05705780E+01
 20
5.46807750E+01
 11
1.05705780E+01
 21
6.11807750E+01
  0
LINE
  8
0
 62
4
 10
5.07057799E+00
 20
5.89307750E+01
 11
6.07057799E+00
 21
5.99307750E+01
  0
LINE
  8
0
 62
7
 10
-2.04194220E+01
 20
6.64307750E+01
 11
1.30705780E+01
 21
6.64307750E+01
  0
LINE
  8
0
 62
7
 10
-2.04194220E+01
 20
4.94307750E+01
 11
1.30705780E+01
 21
4.94307750E+01
  0
LINE
  8
0
 62
4
 10
-2.04194220E+01
 20
4.92807750E+01
 11
-2.04194220E+01
 21
6.65807750E+01
  0
LINE
  8
0
  6
CENTER
 62
6
 10
-2.49194220E+01
 20
6.79307736E+01
 11
-2.49194220E+01
 21
4.79307750E+01
  0
LINE
  8
0
 62
4
 10
-2.94194220E+01
 20
6.22307750E+01
 11
-2.04194220E+01
 21
6.22307750E+01
  0
LINE
  8
0
 62
4
 10
-2.94194220E+01
 20
6.28557750E+01
 11
-2.04194220E+01
 21
6.28557750E+01
  0
LINE
  8
0
 62
4
 10
-2.94194220E+01
 20
6.23557750E+01
 11
-2.04194220E+01
 21
6.23557750E+01
  0
LINE
  8
0
 62
4
 10
-2.94194220E+01
 20
6.53057750E+01
 11
-2.04194220E+01
 21
6.53057750E+01
  0
LINE
  8
0
 62
4
 10
-2.69194220E+01
 20
6.37307750E+01
 11
-2.29194220E+01
 21
6.37307750E+01
  0
LINE
  8
0
 62
4
 10
-2.69194220E+01
 20
6.29307750E+01
 11
-2.29194220E+01
 21
6.29307750E+01
  0
LINE
  8
0
 62
4
 10
-2.94194220E+01
 20
6.65807750E+01
 11
-2.04194220E+01
 21
6.65807750E+01
  0
LINE
  8
0
 62
4
 10
-2.29194220E+01
 20
6.37307750E+01
 11
-2.29194220E+01
 21
6.28557750E+01
  0
LINE
  8
0
 62
4
 10
-2.94194220E+01
 20
5.36307750E+01
 11
-2.04194220E+01
 21
5.36307750E+01
  0
LINE
  8
0
 62
4
 10
-2.94194220E+01
 20
4.92807750E+01
 11
-2.04194220E+01
 21
4.92807750E+01
  0
LINE
  8
0
 62
6
 10
-4.48242294E+00
 20
5.92307750E+01
 11
-7.08242294E+00
 21
5.66307750E+01
  0
LINE
  8
0
 62
4
 10
-9.41942203E+00
 20
5.66307750E+01
 11
-7.08242294E+00
 21
5.66307750E+01
  0
LINE
  8
0
 62
4
 10
-1.24194220E+01
 20
5.59307750E+01
 11
-9.41942203E+00
 21
5.66307750E+01
  0
LINE
  8
0
 62
4
 10
-9.41942202E+00
 20
5.92307750E+01
 11
-9.41942202E+00
 21
5.66307750E+01
  0
LINE
  8
0
 62
4
 10
-9.41942203E+00
 20
5.92307750E+01
 11
-4.48242294E+00
 21
5.92307750E+01
  0
LINE
  8
0
 62
4
 10
-1.24194220E+01
 20
5.99307750E+01
 11
-9.41942202E+00
 21
5.92307750E+01
  0
LINE
  8
0
 62
4
 10
-1.24194220E+01
 20
5.99307750E+01
 11
-1.24194220E+01
 21
5.59307750E+01
  0
LINE
  8
0
 62
4
 10
-2.04194220E+01
 20
6.11807750E+01
 11
-1.79194220E+01
 21
6.11807750E+01
  0
LINE
  8
0
 62
4
 10
-1.79194220E+01
 20
5.46807750E+01
 11
-1.79194220E+01
 21
6.11807750E+01
  0
LINE
  8
0
 62
4
 10
-1.79194220E+01
 20
5.99307750E+01
 11
-1.24194220E+01
 21
5.99307750E+01
  0
LINE
  8
0
 62
4
 10
-1.79194220E+01
 20
5.59307750E+01
 11
-1.24194220E+01
 21
5.59307750E+01
  0
LINE
  8
0
 62
4
 10
-2.04194220E+01
 20
5.46807750E+01
 11
-1.79194220E+01
 21
5.46807750E+01
  0
LINE
  8
0
 62
4
 10
-2.94194220E+01
 20
4.92807750E+01
 11
-2.94194220E+01
 21
6.65807750E+01
  0
LINE
  8
0
 62
4
 10
-2.69194220E+01
 20
6.28557750E+01
 11
-2.69194220E+01
 21
6.37307750E+01
  0
LINE
  8
0
 62
4
 10
-2.39094220E+01
 20
5.69307750E+01
 11
-2.59794220E+01
 21
5.89907750E+01
  0
LINE
  8
0
 62
4
 10
-2.59794220E+01
 20
5.68707750E+01
 11
-2.38594220E+01
 21
5.89907750E+01
  0
CIRCLE
  8
0
 62
4
 10
-2.49202973E+01
 20
5.79283165E+01
 40
2.50000000E+00
  0
LINE
  8
0
 62
4
 10
-3.19194220E+01
 20
5.46807750E+01
 11
-2.94194220E+01
 21
5.46807750E+01
  0
LINE
  8
0
 62
4
 10
-3.64194220E+01
 20
5.59307750E+01
 11
-3.19194220E+01
 21
5.59307750E+01
  0
LINE
  8
0
 62
4
 10
-3.74194220E+01
 20
5.69307750E+01
 11
-3.64194220E+01
 21
5.59307750E+01
  0
LINE
  8
0
 62
4
 10
-3.74194220E+01
 20
5.89307750E+01
 11
-3.74194220E+01
 21
5.69307750E+01
  0
LINE
  8
0
 62
4
 10
-3.19194220E+01
 20
6.11807750E+01
 11
-2.94194220E+01
 21
6.11807750E+01
  0
LINE
  8
0
 62
4
 10
-3.64194220E+01
 20
5.99307750E+01
 11
-3.19194220E+01
 21
5.99307750E+01
  0
LINE
  8
0
 62
4
 10
-3.64194220E+01
 20
5.99307750E+01
 11
-3.64194220E+01
 21
5.59307750E+01
  0
LINE
  8
0
 62
4
 10
-3.19194220E+01
 20
5.46807750E+01
 11
-3.19194220E+01
 21
6.11807750E+01
  0
LINE
  8
0
 62
4
 10
-3.74194220E+01
 20
5.89307750E+01
 11
-3.64194220E+01
 21
5.99307750E+01
  0
CIRCLE
  8
0
 62
7
 10
4.00705780E+01
 20
5.79307750E+01
 40
2.06700000E+00
  0
CIRCLE
  8
0
 62
7
 10
-4.99194220E+01
 20
5.79307750E+01
 40
2.06700000E+00
  0
ARC
  8
0
 62
4
 10
-7.51727134E+01
 20
5.59307750E+01
 40
5.77670860E+00
 50
1.59743845E+02
 51
2.00256101E+02
  0
ARC
  8
0
 62
4
 10
-7.51727134E+01
 20
5.99307750E+01
 40
5.77670860E+00
 50
1.59743845E+02
 51
2.00256101E+02
  0
ARC
  8
0
 62
4
 10
-8.27261306E+01
 20
5.99307750E+01
 40
5.77670860E+00
 50
3.39743808E+02
 51
2.02560648E+01
  0
ARC
  8
0
 62
4
 10
-8.27261306E+01
 20
5.59307750E+01
 40
5.77670860E+00
 50
3.39743863E+02
 51
2.02561194E+01
  0
LINE
  8
0
 62
4
 10
-8.09494220E+01
 20
5.39307750E+01
 11
-8.09494220E+01
 21
6.19307750E+01
  0
LINE
  8
0
 62
4
 10
-7.69494220E+01
 20
6.19307750E+01
 11
-8.09494220E+01
 21
6.19307750E+01
  0
LINE
  8
0
 62
4
 10
-7.69494220E+01
 20
5.39307750E+01
 11
-7.69494220E+01
 21
6.19307750E+01
  0
LINE
  8
0
 62
4
 10
-7.73066876E+01
 20
5.79307750E+01
 11
-8.05921575E+01
 21
5.79307750E+01
  0
LINE
  8
0
 62
4
 10
-7.69494220E+01
 20
5.39307750E+01
 11
-8.09494220E+01
 21
5.39307750E+01
  0
LINE
  8
0
 62
7
 10
-7.69494220E+01
 20
5.54307750E+01
 11
-6.49194220E+01
 21
5.54307750E+01
  0
LINE
  8
0
 62
7
 10
-8.49194220E+01
 20
5.59307750E+01
 11
-8.44194220E+01
 21
5.54307750E+01
  0
LINE
  8
0
 62
7
 10
-8.44194220E+01
 20
5.54307750E+01
 11
-8.09494220E+01
 21
5.54307750E+01
  0
LINE
  8
0
 62
7
 10
-6.49194220E+01
 20
5.39307750E+01
 11
-6.39194220E+01
 21
5.29307750E+01
  0
LINE
  8
0
 62
2
 10
-8.49194220E+01
 20
5.58637750E+01
 11
-8.09494220E+01
 21
5.58637750E+01
  0
LINE
  8
0
 62
2
 10
-7.69494220E+01
 20
5.58637750E+01
 11
-6.99194220E+01
 21
5.58637750E+01
  0
LINE
  8
0
 62
2
 10
-6.47314220E+01
 20
5.37427750E+01
 11
-5.84194220E+01
 21
5.37427750E+01
  0
LINE
  8
0
 62
7
 10
-6.39194220E+01
 20
5.29307750E+01
 11
-5.69194220E+01
 21
5.29307750E+01
  0
LINE
  8
0
 62
7
 10
-7.69494220E+01
 20
6.04307750E+01
 11
-6.49194220E+01
 21
6.04307750E+01
  0
LINE
  8
0
 62
7
 10
-8.49194220E+01
 20
5.99307750E+01
 11
-8.44194220E+01
 21
6.04307750E+01
  0
LINE
  8
0
 62
7
 10
-8.44194220E+01
 20
6.04307750E+01
 11
-8.09494220E+01
 21
6.04307750E+01
  0
LINE
  8
0
 62
7
 10
-6.49194220E+01
 20
6.19307750E+01
 11
-6.39194220E+01
 21
6.29307750E+01
  0
LINE
  8
0
 62
2
 10
-8.48524220E+01
 20
5.99977750E+01
 11
-8.09494220E+01
 21
5.99977750E+01
  0
LINE
  8
0
 62
2
 10
-7.69494220E+01
 20
5.99977750E+01
 11
-6.99194220E+01
 21
5.99977750E+01
  0
LINE
  8
0
 62
2
 10
-6.47314220E+01
 20
6.21187750E+01
 11
-5.84194220E+01
 21
6.21187750E+01
  0
LINE
  8
0
 62
7
 10
-6.49194220E+01
 20
6.19307750E+01
 11
-6.49194220E+01
 21
5.39307750E+01
  0
LINE
  8
0
 62
7
 10
-6.39194220E+01
 20
6.29307750E+01
 11
-5.69194220E+01
 21
6.29307750E+01
  0
LINE
  8
0
 62
7
 10
-5.84194220E+01
 20
6.29307750E+01
 11
-5.84194220E+01
 21
5.29307750E+01
  0
LINE
  8
0
 62
7
 10
-6.39194220E+01
 20
6.29307750E+01
 11
-6.39194220E+01
 21
5.29307750E+01
  0
LINE
  8
0
 62
7
 10
-8.49194220E+01
 20
5.99307750E+01
 11
-8.49194220E+01
 21
5.59307750E+01
  0
LINE
  8
0
 62
7
 10
-6.99194220E+01
 20
6.04307750E+01
 11
-6.99194220E+01
 21
5.54307750E+01
  0
LINE
  8
0
 62
7
 10
-8.44194220E+01
 20
6.04307750E+01
 11
-8.44194220E+01
 21
5.54307750E+01
  0
LINE
  8
0
  6
CENTER
 62
2
 10
4.00705780E+01
 20
6.21707750E+01
 11
4.00705780E+01
 21
5.36507750E+01
  0
LINE
  8
0
 62
7
 10
3.56205780E+01
 20
5.36507750E+01
 11
6.08205780E+01
 21
5.36507750E+01
  0
LINE
  8
0
 62
7
 10
-4.04194220E+01
 20
5.79307750E+01
 11
-4.04194220E+01
 21
4.94307750E+01
  0
LINE
  8
0
  6
CENTER
 62
2
 10
-8.64794220E+01
 20
5.79307750E+01
 11
6.52207411E+01
 21
5.79307750E+01
  0
LINE
  8
0
 62
7
 10
-5.69194220E+01
 20
6.64307750E+01
 11
-2.94194220E+01
 21
6.64307750E+01
  0
LINE
  8
0
 62
7
 10
3.10705780E+01
 20
6.64307750E+01
 11
3.10705780E+01
 21
5.96974416E+01
  0
LINE
  8
0
 62
7
 10
-5.69194220E+01
 20
4.94307750E+01
 11
-2.94194220E+01
 21
4.94307750E+01
  0
LINE
  8
0
  6
CENTER
 62
2
 10
-4.99194220E+01
 20
6.21707750E+01
 11
-4.99194220E+01
 21
5.36907750E+01
  0
LINE
  8
0
 62
7
 10
-5.51694220E+01
 20
5.36907750E+01
 11
-5.51694220E+01
 21
4.94307750E+01
  0
LINE
  8
0
 62
7
 10
-4.21694220E+01
 20
5.36907750E+01
 11
-4.21694220E+01
 21
4.94307750E+01
  0
LINE
  8
0
 62
7
 10
3.28205780E+01
 20
5.16107750E+01
 11
3.28205780E+01
 21
4.94307750E+01
  0
LINE
  8
0
 62
7
 10
-5.51694220E+01
 20
5.36907750E+01
 11
-4.59494220E+01
 21
5.36907750E+01
  0
LINE
  8
0
 62
7
 10
-4.56294220E+01
 20
5.25307750E+01
 11
-4.32094220E+01
 21
5.25307750E+01
  0
LINE
  8
0
 62
7
 10
-4.56294220E+01
 20
5.31307750E+01
 11
-4.32094220E+01
 21
5.31307750E+01
  0
LINE
  8
0
  6
CENTER
 62
2
 10
-4.44194220E+01
 20
5.51607750E+01
 11
-4.44194220E+01
 21
5.03707750E+01
  0
LINE
  8
0
 62
2
 10
-4.69523493E+01
 20
5.28307750E+01
 11
-4.17610315E+01
 21
5.28307750E+01
  0
LINE
  8
0
 62
7
 10
3.28605780E+01
 20
5.25307750E+01
 11
3.52805780E+01
 21
5.25307750E+01
  0
LINE
  8
0
 62
7
 10
3.28605780E+01
 20
5.31307750E+01
 11
3.52805780E+01
 21
5.31307750E+01
  0
LINE
  8
0
  6
CENTER
 62
2
 10
3.40705780E+01
 20
5.51607750E+01
 11
3.40705780E+01
 21
5.03707750E+01
  0
LINE
  8
0
 62
2
 10
3.16836749E+01
 20
5.28307750E+01
 11
3.63005780E+01
 21
5.28307750E+01
  0
LINE
  8
0
 62
7
 10
-4.28994220E+01
 20
5.36907750E+01
 11
-4.21694220E+01
 21
5.36907750E+01
  0
LINE
  8
0
 62
7
 10
6.08205780E+01
 20
5.36907750E+01
 11
6.08205780E+01
 21
4.94307750E+01
  0
LINE
  8
0
 62
7
 10
4.45705780E+01
 20
6.11807750E+01
 11
4.45705780E+01
 21
5.46807750E+01
  0
LINE
  8
0
 62
7
 10
6.25705780E+01
 20
6.64307750E+01
 11
6.25705780E+01
 21
6.11807750E+01
  0
LINE
  8
0
 62
7
 10
4.45705780E+01
 20
5.46807750E+01
 11
6.25705780E+01
 21
5.46807750E+01
  0
LINE
  8
0
 62
7
 10
4.45705780E+01
 20
6.11807750E+01
 11
6.25705780E+01
 21
6.11807750E+01
  0
LINE
  8
0
 62
7
 10
6.25705780E+01
 20
5.46807750E+01
 11
6.25705780E+01
 21
4.94307750E+01
  0
LINE
  8
0
 62
7
 10
-5.69194220E+01
 20
4.94307750E+01
 11
-5.69194220E+01
 21
6.64307750E+01
  0
LINE
  8
0
 62
7
 10
-5.51694220E+01
 20
6.21707750E+01
 11
-5.51694220E+01
 21
6.64307750E+01
  0
LINE
  8
0
 62
7
 10
-5.51694220E+01
 20
6.21707750E+01
 11
-4.21694220E+01
 21
6.21707750E+01
  0
LINE
  8
0
 62
7
 10
-4.21694220E+01
 20
6.21707750E+01
 11
-4.21694220E+01
 21
6.64307750E+01
  0
LINE
  8
0
 62
7
 10
-4.04194220E+01
 20
5.79307750E+01
 11
-4.04194220E+01
 21
6.64307750E+01
  0
LINE
  8
0
 62
7
 10
3.27805780E+01
 20
6.21707750E+01
 11
6.08205780E+01
 21
6.21707750E+01
  0
LINE
  8
0
 62
7
 10
3.28205780E+01
 20
6.21707750E+01
 11
3.28205780E+01
 21
6.64307750E+01
  0
LINE
  8
0
 62
7
 10
6.08205780E+01
 20
6.21707750E+01
 11
6.08205780E+01
 21
6.64307750E+01
  0
ARC
  8
0
 62
7
 10
-5.09074795E+01
 20
5.79309753E+01
 40
6.01194249E+00
 50
1.80001909E+02
 51
2.24853480E+02
  0
ARC
  8
0
 62
7
 10
-4.64413389E+01
 20
5.79350921E+01
 40
6.02191845E+00
 50
3.15185686E+02
 51
3.59958925E+02
  0
ARC
  8
0
 62
7
 10
3.71891810E+01
 20
5.79331483E+01
 40
6.11860349E+00
 50
1.96248552E+02
 51
2.21977680E+02
  0
CIRCLE
  8
0
 62
7
 10
-4.44252503E+01
 20
5.28307761E+01
 40
1.75000000E+00
  0
CIRCLE
  8
0
 62
7
 10
-4.44252503E+01
 20
5.28307761E+01
 40
1.25000000E+00
  0
CIRCLE
  8
0
 62
7
 10
3.40747497E+01
 20
5.28307761E+01
 40
1.75000000E+00
  0
CIRCLE
  8
0
 62
7
 10
3.40747497E+01
 20
5.28307761E+01
 40
1.25000000E+00
  0
CIRCLE
  8
0
 62
2
 10
-4.99252503E+01
 20
5.79307765E+01
 40
2.50000000E+00
  0
ARC
  8
0
 62
2
 10
4.00747345E+01
 20
5.79307765E+01
 40
2.50000000E+00
 50
1.52753814E+02
 51
1.48667790E+02
  0
ARC
  8
0
 62
7
 10
5.65684175E+01
 20
5.79450966E+01
 40
6.01499133E+00
 50
3.14985444E+02
 51
3.27132532E+02
  0
ARC
  8
0
 62
7
 10
-5.09074806E+01
 20
5.79305751E+01
 40
6.01194142E+00
 50
1.35146516E+02
 51
1.79998095E+02
  0
ARC
  8
0
 62
7
 10
-4.64413378E+01
 20
5.79264583E+01
 40
6.02191737E+00
 50
4.10711680E-02
 51
4.48143182E+01
  0
ARC
  8
0
 62
7
 10
3.71889852E+01
 20
5.79280329E+01
 40
6.11840778E+00
 50
1.36097051E+02
 51
1.63747563E+02
  0
ARC
  8
0
 62
7
 10
5.65684190E+01
 20
5.79164546E+01
 40
6.01498943E+00
 50
3.28674663E+01
 51
4.50145583E+01
  0
TEXT
  8
0
 62
7
 10
-1.97553595E+01
 20
5.05307750E+01
 40
1.50000000E+00
  1
PBDAUS16-7
 41
1.00000000E+00
  7
MONOTXT
  0
LINE
  8
0
  6
CENTER
 62
6
 10
-9.57498438E+01
 20
-4.35813808E+01
 11
-6.83129691E+01
 21
-4.35813808E+01
  0
LINE
  8
0
 62
4
 10
-9.39914273E+01
 20
-3.39613808E+01
 11
-8.79914273E+01
 21
-3.39613808E+01
  0
LINE
  8
0
 62
4
 10
-9.39914273E+01
 20
-5.34791789E+01
 11
-8.79914273E+01
 21
-5.34791789E+01
  0
LINE
  8
0
 62
4
 10
-9.39914273E+01
 20
-5.34791790E+01
 11
-9.39914273E+01
 21
-3.39613808E+01
  0
LINE
  8
0
 62
4
 10
-8.79914273E+01
 20
-5.34791790E+01
 11
-8.79914273E+01
 21
-3.39613808E+01
  0
LINE
  8
0
 62
4
 10
-9.39914273E+01
 20
-3.42513808E+01
 11
-8.79914273E+01
 21
-3.42513808E+01
  0
LINE
  8
0
 62
4
 10
-9.39914273E+01
 20
-3.69270799E+01
 11
-8.79914273E+01
 21
-3.69270799E+01
  0
LINE
  8
0
 62
4
 10
-7.99914273E+01
 20
-3.95813808E+01
 11
-7.39914273E+01
 21
-3.95813808E+01
  0
LINE
  8
0
 62
4
 10
-7.99914273E+01
 20
-4.75813808E+01
 11
-7.39914273E+01
 21
-4.75813808E+01
  0
CIRCLE
  8
0
 62
4
 10
-7.49914273E+01
 20
-4.35813808E+01
 40
2.00000000E+00
  0
CIRCLE
  8
0
 62
4
 10
-7.49914273E+01
 20
-4.35813808E+01
 40
2.50000000E+00
  0
LINE
  8
0
  6
CENTER
 62
6
 10
-7.49914273E+01
 20
-3.95813808E+01
 11
-7.49914273E+01
 21
-4.75813808E+01
  0
LINE
  8
0
 62
4
 10
-7.99914273E+01
 20
-4.75813808E+01
 11
-7.99914273E+01
 21
-4.60813808E+01
  0
LINE
  8
0
 62
4
 10
-8.79914273E+01
 20
-4.10813808E+01
 11
-7.99914273E+01
 21
-4.10813808E+01
  0
LINE
  8
0
 62
4
 10
-8.79914273E+01
 20
-4.60813808E+01
 11
-7.99914273E+01
 21
-4.60813808E+01
  0
LINE
  8
0
 62
4
 10
-7.99914273E+01
 20
-4.10813808E+01
 11
-7.99914273E+01
 21
-3.95813808E+01
  0
ARC
  8
0
 62
4
 10
-7.39914273E+01
 20
-4.35813808E+01
 40
4.00000000E+00
 50
2.70000000E+02
 51
9.00000002E+01
  0
LINE
  8
0
  6
CENTER
 62
6
 10
-3.04914273E+01
 20
-3.39173251E+01
 11
-3.04914273E+01
 21
-5.57992877E+01
  0
ARC
  8
0
 62
4
 10
-3.04896669E+01
 20
-4.35879916E+01
 40
9.89118734E+00
 50
1.94600742E+02
 51
3.48373449E+02
  0
ARC
  8
0
 62
4
 10
-3.91254619E+01
 20
-3.69270799E+01
 40
1.00392057E+00
 50
3.22272848E+02
 51
4.46636107E+01
  0
ARC
  8
0
 62
4
 10
-3.91252827E+01
 20
-3.69301105E+01
 40
1.40190405E+00
 50
3.22610924E+02
 51
4.48518702E+01
  0
ARC
  8
0
 62
4
 10
-2.18575670E+01
 20
-3.69301108E+01
 40
1.40190777E+00
 50
1.35148263E+02
 51
2.17388943E+02
  0
ARC
  8
0
 62
4
 10
-2.18573878E+01
 20
-3.69270802E+01
 40
1.00392430E+00
 50
1.35336575E+02
 51
2.17726966E+02
  0
ARC
  8
0
 62
4
 10
-3.04825248E+01
 20
-4.35698699E+01
 40
9.89686572E+00
 50
1.42473295E+02
 51
1.65437133E+02
  0
ARC
  8
0
 62
4
 10
-3.04963461E+01
 20
-4.35773089E+01
 40
9.89824120E+00
 50
1.16331547E+01
 51
3.75749018E+01
  0
ARC
  8
0
 62
4
 10
-3.04880991E+01
 20
-4.35847090E+01
 40
9.49435721E+00
 50
1.95245994E+02
 51
3.33497907E+02
  0
ARC
  8
0
 62
4
 10
-3.04823260E+01
 20
-4.35641434E+01
 40
9.49929101E+00
 50
1.53606440E+02
 51
1.64849050E+02
  0
ARC
  8
0
 62
4
 10
-3.04831111E+01
 20
-4.35797128E+01
 40
9.50551964E+00
 50
1.41899873E+02
 51
1.53520272E+02
  0
ARC
  8
0
 62
4
 10
-3.04947556E+01
 20
-4.35847091E+01
 40
9.50328503E+00
 50
2.65200996E+01
 51
3.80087786E+01
  0
LINE
  8
0
 62
4
 10
-2.19914273E+01
 20
-4.75813808E+01
 11
-2.15914273E+01
 21
-4.75813808E+01
  0
LINE
  8
0
 62
4
 10
-4.04914273E+01
 20
-4.10813808E+01
 11
-4.04914273E+01
 21
-4.60813808E+01
  0
LINE
  8
0
 62
4
 10
-4.09914273E+01
 20
-4.55813808E+01
 11
-4.04914273E+01
 21
-4.60813808E+01
  0
LINE
  8
0
 62
4
 10
-4.04914273E+01
 20
-4.10813808E+01
 11
-4.09914273E+01
 21
-4.15813808E+01
  0
LINE
  8
0
 62
4
 10
-4.09914273E+01
 20
-4.55813808E+01
 11
-4.09914273E+01
 21
-4.15813808E+01
  0
LINE
  8
0
 62
4
 10
-4.01014273E+01
 20
-3.39613808E+01
 11
-4.03914273E+01
 21
-3.42513808E+01
  0
LINE
  8
0
 62
4
 10
-3.84114273E+01
 20
-3.62213808E+01
 11
-4.03914273E+01
 21
-3.42513808E+01
  0
LINE
  8
0
 62
4
 10
-3.81314273E+01
 20
-3.59413808E+01
 11
-4.01014273E+01
 21
-3.39613808E+01
  0
LINE
  8
0
 62
4
 10
-2.08814273E+01
 20
-3.39613808E+01
 11
-2.05914273E+01
 21
-3.42513808E+01
  0
LINE
  8
0
 62
4
 10
-2.28514273E+01
 20
-3.59413808E+01
 11
-2.08814273E+01
 21
-3.39713808E+01
  0
LINE
  8
0
 62
4
 10
-2.19914273E+01
 20
-3.95813808E+01
 11
-2.15914273E+01
 21
-3.95813808E+01
  0
LINE
  8
0
 62
4
 10
-2.25714273E+01
 20
-3.62213808E+01
 11
-2.05914273E+01
 21
-3.42513808E+01
  0
LINE
  8
0
 62
4
 10
-2.05914273E+01
 20
-4.55813808E+01
 11
-2.05914273E+01
 21
-4.15813808E+01
  0
LINE
  8
0
 62
4
 10
-2.15914273E+01
 20
-4.15813808E+01
 11
-2.05914273E+01
 21
-4.15813808E+01
  0
LINE
  8
0
 62
4
 10
-2.15914273E+01
 20
-4.55813808E+01
 11
-2.05914273E+01
 21
-4.55813808E+01
  0
LINE
  8
0
 62
4
 10
-2.15914273E+01
 20
-4.75813808E+01
 11
-2.15914273E+01
 21
-3.95813808E+01
  0
LINE
  8
0
 62
4
 10
-4.04914273E+01
 20
-4.60813808E+01
 11
-2.19914273E+01
 21
-4.60813808E+01
  0
LINE
  8
0
 62
4
 10
-4.04914273E+01
 20
-4.10813808E+01
 11
-2.19914273E+01
 21
-4.10813808E+01
  0
LINE
  8
0
 62
4
 10
-2.19914273E+01
 20
-3.93413808E+01
 11
-2.19914273E+01
 21
-4.78213808E+01
  0
LINE
  8
0
  6
CENTER
 62
6
 10
-4.32378173E+01
 20
-4.35813808E+01
 11
-1.87214273E+01
 21
-4.35813808E+01
  0
LINE
  8
0
 62
4
 10
9.54506619E+01
 20
-3.20426143E+01
 11
9.54506619E+01
 21
-5.30426143E+01
  0
LINE
  8
0
 62
4
 10
8.90506619E+01
 20
-3.20426143E+01
 11
8.90506619E+01
 21
-5.30426143E+01
  0
LINE
  8
0
  6
CENTER
 62
6
 10
9.22506619E+01
 20
-3.01184544E+01
 11
9.22506619E+01
 21
-7.70426143E+01
  0
ARC
  8
0
 62
4
 10
9.92506619E+01
 20
-6.70426143E+01
 40
3.00000000E+00
 50
0.00000000E+00
 51
9.00000002E+01
  0
ARC
  8
0
 62
4
 10
1.03250662E+02
 20
-7.10426143E+01
 40
3.00000000E+00
 50
1.80000000E+02
 51
2.70000000E+02
  0
ARC
  8
0
 62
4
 10
9.92506619E+01
 20
-6.70426143E+01
 40
1.00000000E+00
 50
0.00000000E+00
 51
9.00000002E+01
  0
ARC
  8
0
 62
4
 10
1.03250662E+02
 20
-7.10426143E+01
 40
1.00000000E+00
 50
1.80000000E+02
 51
2.70000000E+02
  0
LINE
  8
0
 62
4
 10
1.03250662E+02
 20
-7.20426143E+01
 11
1.16250662E+02
 21
-7.20426143E+01
  0
LINE
  8
0
 62
4
 10
1.03250662E+02
 20
-7.40426143E+01
 11
1.16250662E+02
 21
-7.40426143E+01
  0
LINE
  8
0
 62
4
 10
1.16250662E+02
 20
-7.20426143E+01
 11
1.16250662E+02
 21
-7.40426143E+01
  0
LINE
  8
0
 62
4
 10
1.02250662E+02
 20
-6.70426143E+01
 11
1.02250662E+02
 21
-7.10426143E+01
  0
LINE
  8
0
 62
4
 10
1.00250662E+02
 20
-6.70426143E+01
 11
1.00250662E+02
 21
-7.10426143E+01
  0
LINE
  8
0
  6
CENTER
 62
6
 10
1.09850662E+02
 20
-6.90426143E+01
 11
1.09850662E+02
 21
-7.70426143E+01
  0
LINE
  8
0
 62
4
 10
9.82506619E+01
 20
-5.30426143E+01
 11
9.82506619E+01
 21
-6.40426143E+01
  0
ARC
  8
0
 62
4
 10
8.52506619E+01
 20
-6.70426143E+01
 40
3.00000000E+00
 50
9.00000002E+01
 51
1.80000000E+02
  0
ARC
  8
0
 62
4
 10
8.12506619E+01
 20
-7.10426143E+01
 40
3.00000000E+00
 50
2.70000000E+02
 51
0.00000000E+00
  0
ARC
  8
0
 62
4
 10
8.52506619E+01
 20
-6.70426143E+01
 40
1.00000000E+00
 50
9.00000002E+01
 51
1.80000000E+02
  0
ARC
  8
0
 62
4
 10
8.12506619E+01
 20
-7.10426143E+01
 40
1.00000000E+00
 50
2.70000000E+02
 51
0.00000000E+00
  0
LINE
  8
0
 62
4
 10
6.82506619E+01
 20
-7.20426143E+01
 11
6.82506619E+01
 21
-7.40426143E+01
  0
LINE
  8
0
 62
4
 10
8.42506619E+01
 20
-6.70426143E+01
 11
8.42506619E+01
 21
-7.10426143E+01
  0
LINE
  8
0
 62
4
 10
8.22506619E+01
 20
-6.70426143E+01
 11
8.22506619E+01
 21
-7.10426143E+01
  0
LINE
  8
0
 62
4
 10
6.82506619E+01
 20
-7.20426143E+01
 11
8.12506619E+01
 21
-7.20426143E+01
  0
LINE
  8
0
 62
4
 10
6.82506619E+01
 20
-7.40426143E+01
 11
8.12506619E+01
 21
-7.40426143E+01
  0
LINE
  8
0
 62
4
 10
8.90506619E+01
 20
-3.36526143E+01
 11
9.54506619E+01
 21
-3.36526143E+01
  0
LINE
  8
0
 62
4
 10
8.81506619E+01
 20
-6.70426143E+01
 11
9.63506619E+01
 21
-6.70426143E+01
  0
LINE
  8
0
 62
4
 10
9.63506619E+01
 20
-6.60426143E+01
 11
9.63506619E+01
 21
-7.20426143E+01
  0
LINE
  8
0
 62
4
 10
8.81506619E+01
 20
-6.60426143E+01
 11
8.81506619E+01
 21
-7.20426143E+01
  0
LINE
  8
0
 62
4
 10
8.81506619E+01
 20
-7.20426143E+01
 11
9.63506619E+01
 21
-7.20426143E+01
  0
LINE
  8
0
 62
4
 10
8.62506619E+01
 20
-5.30426143E+01
 11
8.62506619E+01
 21
-6.40426143E+01
  0
LINE
  8
0
 62
4
 10
8.90506619E+01
 20
-5.30426143E+01
 11
8.62506619E+01
 21
-5.30426143E+01
  0
LINE
  8
0
  6
CENTER
 62
6
 10
8.77006619E+01
 20
-3.90426143E+01
 11
9.68006619E+01
 21
-3.90426143E+01
  0
LINE
  8
0
 62
4
 10
9.54506619E+01
 20
-5.30426143E+01
 11
9.82506619E+01
 21
-5.30426143E+01
  0
LINE
  8
0
 62
4
 10
8.52506619E+01
 20
-6.40426143E+01
 11
9.92506619E+01
 21
-6.40426143E+01
  0
LINE
  8
0
 62
4
 10
8.52506619E+01
 20
-6.60426143E+01
 11
9.92506619E+01
 21
-6.60426143E+01
  0
LINE
  8
0
  6
CENTER
 62
6
 10
7.46506619E+01
 20
-6.90426143E+01
 11
7.46506619E+01
 21
-7.70426143E+01
  0
LINE
  8
0
 62
4
 10
8.90506619E+01
 20
-3.20426143E+01
 11
9.54506619E+01
 21
-3.20426143E+01
  0
LINE
  8
0
  6
CENTER
 62
6
 10
3.92506619E+01
 20
-3.01184544E+01
 11
3.92506619E+01
 21
-7.70426143E+01
  0
LINE
  8
0
  6
CENTER
 62
6
 10
3.12506619E+01
 20
-6.90426143E+01
 11
3.12506619E+01
 21
-7.70426143E+01
  0
LINE
  8
0
  6
CENTER
 62
6
 10
4.72506619E+01
 20
-6.90426143E+01
 11
4.72506619E+01
 21
-7.70426143E+01
  0
LINE
  8
0
  6
CENTER
 62
6
 10
3.02506619E+01
 20
-3.90426143E+01
 11
4.82506619E+01
 21
-3.90426143E+01
  0
LINE
  8
0
 62
4
 10
2.52506619E+01
 20
-6.40426143E+01
 11
5.32506619E+01
 21
-6.40426143E+01
  0
LINE
  8
0
 62
4
 10
2.52506619E+01
 20
-7.40426143E+01
 11
5.32506619E+01
 21
-7.40426143E+01
  0
LINE
  8
0
 62
4
 10
2.52506619E+01
 20
-7.20426143E+01
 11
5.32506619E+01
 21
-7.20426143E+01
  0
LINE
  8
0
 62
4
 10
4.98506619E+01
 20
-7.20426143E+01
 11
4.98506619E+01
 21
-7.40426143E+01
  0
LINE
  8
0
 62
4
 10
5.32506619E+01
 20
-6.40426143E+01
 11
5.32506619E+01
 21
-7.40426143E+01
  0
ARC
  8
0
 62
4
 10
3.92506619E+01
 20
-4.40426162E+01
 40
1.19980057E+01
 50
5.99945013E+01
 51
1.20005499E+02
  0
CIRCLE
  8
0
 62
4
 10
3.92506619E+01
 20
-3.90426143E+01
 40
2.54999924E+00
  0
LINE
  8
0
 62
4
 10
2.86506619E+01
 20
-7.20426143E+01
 11
2.86506619E+01
 21
-7.40426143E+01
  0
LINE
  8
0
 62
4
 10
3.38506619E+01
 20
-7.20426143E+01
 11
3.38506619E+01
 21
-7.40426143E+01
  0
LINE
  8
0
 62
4
 10
4.46506619E+01
 20
-7.20426143E+01
 11
4.46506619E+01
 21
-7.40426143E+01
  0
LINE
  8
0
 62
4
 10
2.52506619E+01
 20
-6.40426143E+01
 11
2.52506619E+01
 21
-7.40426143E+01
  0
LINE
  8
0
 62
4
 10
3.32506619E+01
 20
-3.36526143E+01
 11
3.32506619E+01
 21
-6.40426143E+01
  0
LINE
  8
0
 62
4
 10
4.52506619E+01
 20
-3.36526143E+01
 11
4.52506619E+01
 21
-6.40426143E+01
  0
LINE
  8
0
 62
4
 10
3.32506619E+01
 20
-5.30426143E+01
 11
4.52506619E+01
 21
-5.30426143E+01
  0
LINE
  8
0
  6
CENTER
 62
6
 10
9.22506619E+01
 20
3.67466677E+00
 11
9.22506619E+01
 21
-2.79911449E+01
  0
ARC
  8
0
 62
4
 10
1.09850662E+02
 20
-2.02426200E+01
 40
2.60000000E+00
 50
9.00000002E+01
 51
2.70000000E+02
  0
ARC
  8
0
 62
4
 10
1.09850662E+02
 20
-4.24262005E+00
 40
2.60000000E+00
 50
9.00000002E+01
 51
2.70000000E+02
  0
LINE
  8
0
 62
4
 10
1.16250662E+02
 20
-6.84262005E+00
 11
1.16250662E+02
 21
-1.76426200E+01
  0
LINE
  8
0
 62
4
 10
1.16250662E+02
 20
-2.28426200E+01
 11
1.16250662E+02
 21
-2.62426200E+01
  0
LINE
  8
0
  6
CENTER
 62
6
 10
1.09850662E+02
 20
-9.84262005E+00
 11
1.09850662E+02
 21
1.35737995E+00
  0
LINE
  8
0
 62
4
 10
1.16250662E+02
 20
-1.64262005E+00
 11
1.09850662E+02
 21
-1.64262005E+00
  0
LINE
  8
0
  6
CENTER
 62
6
 10
1.16777510E+02
 20
-4.24262005E+00
 11
1.04250662E+02
 21
-4.24262005E+00
  0
LINE
  8
0
 62
4
 10
1.16250662E+02
 20
-6.84262005E+00
 11
1.09850662E+02
 21
-6.84262005E+00
  0
LINE
  8
0
 62
4
 10
1.16250662E+02
 20
1.75737995E+00
 11
1.16250662E+02
 21
-1.64262005E+00
  0
LINE
  8
0
 62
4
 10
1.16250662E+02
 20
-2.28426200E+01
 11
1.09850662E+02
 21
-2.28426200E+01
  0
LINE
  8
0
 62
4
 10
1.16250662E+02
 20
-1.76426200E+01
 11
1.09850662E+02
 21
-1.76426200E+01
  0
LINE
  8
0
  6
CENTER
 62
6
 10
1.09850662E+02
 20
-1.46426200E+01
 11
1.09850662E+02
 21
-2.58426200E+01
  0
LINE
  8
0
  6
CENTER
 62
6
 10
1.16777510E+02
 20
-2.02426200E+01
 11
1.04250662E+02
 21
-2.02426200E+01
  0
LINE
  8
0
 62
4
 10
1.02250662E+02
 20
1.75737995E+00
 11
1.02250662E+02
 21
-2.62426200E+01
  0
LINE
  8
0
 62
4
 10
9.82506619E+01
 20
-6.24262005E+00
 11
9.82506619E+01
 21
-1.82426200E+01
  0
ARC
  8
0
 62
4
 10
7.46506619E+01
 20
-4.24262005E+00
 40
2.60000000E+00
 50
2.70000000E+02
 51
9.00000002E+01
  0
ARC
  8
0
 62
4
 10
7.46506619E+01
 20
-2.02426200E+01
 40
2.60000000E+00
 50
2.70000000E+02
 51
9.00000002E+01
  0
LINE
  8
0
 62
4
 10
6.82506619E+01
 20
-2.28426200E+01
 11
6.82506619E+01
 21
-2.62426200E+01
  0
LINE
  8
0
 62
4
 10
6.82506619E+01
 20
-6.84262005E+00
 11
6.82506619E+01
 21
-1.76426200E+01
  0
LINE
  8
0
 62
4
 10
6.82506619E+01
 20
1.75737995E+00
 11
6.82506619E+01
 21
-1.64262005E+00
  0
LINE
  8
0
  6
CENTER
 62
6
 10
7.46506619E+01
 20
-9.84262005E+00
 11
7.46506619E+01
 21
1.35737995E+00
  0
LINE
  8
0
 62
4
 10
6.82506619E+01
 20
-1.64262005E+00
 11
7.46506619E+01
 21
-1.64262005E+00
  0
LINE
  8
0
  6
CENTER
 62
6
 10
6.79994451E+01
 20
-4.24262005E+00
 11
8.02506619E+01
 21
-4.24262005E+00
  0
LINE
  8
0
 62
4
 10
6.82506619E+01
 20
-6.84262005E+00
 11
7.46506619E+01
 21
-6.84262005E+00
  0
LINE
  8
0
  6
CENTER
 62
6
 10
7.46506619E+01
 20
-1.46426200E+01
 11
7.46506619E+01
 21
-2.58426200E+01
  0
LINE
  8
0
 62
4
 10
6.82506619E+01
 20
-2.28426200E+01
 11
7.46506619E+01
 21
-2.28426200E+01
  0
LINE
  8
0
  6
CENTER
 62
6
 10
6.79994451E+01
 20
-2.02426200E+01
 11
8.02506619E+01
 21
-2.02426200E+01
  0
LINE
  8
0
 62
4
 10
6.82506619E+01
 20
-1.76426200E+01
 11
7.46506619E+01
 21
-1.76426200E+01
  0
LINE
  8
0
 62
4
 10
8.90506619E+01
 20
-6.24262005E+00
 11
8.90506619E+01
 21
-1.82426200E+01
  0
LINE
  8
0
 62
4
 10
9.54506619E+01
 20
-6.24262005E+00
 11
9.54506619E+01
 21
-1.82426200E+01
  0
LINE
  8
0
 62
4
 10
8.62506619E+01
 20
-6.24262005E+00
 11
8.62506619E+01
 21
-1.82426200E+01
  0
LINE
  8
0
 62
4
 10
8.22506619E+01
 20
1.75737995E+00
 11
8.22506619E+01
 21
-2.62426200E+01
  0
LINE
  8
0
  6
CENTER
 62
6
 10
1.19250662E+02
 20
-1.22426200E+01
 11
6.52506619E+01
 21
-1.22426200E+01
  0
LINE
  8
0
 62
4
 10
9.82506619E+01
 20
-1.82426200E+01
 11
8.62506619E+01
 21
-1.82426200E+01
  0
LINE
  8
0
 62
4
 10
1.16250662E+02
 20
-2.62426200E+01
 11
6.82506619E+01
 21
-2.62426200E+01
  0
LINE
  8
0
 62
4
 10
9.82506619E+01
 20
-6.24262005E+00
 11
8.62506619E+01
 21
-6.24262005E+00
  0
LINE
  8
0
 62
4
 10
1.16250662E+02
 20
1.75737995E+00
 11
6.82506619E+01
 21
1.75737995E+00
  0
TEXT
  8
0
 10
-2.15812061E+01
 20
7.64718033E+01
 40
3.20000005E+00
  1
STRETCH LINE
 41
1.05263158E+00
  7
MONOTXT
  0
TEXT
  8
0
 62
7
 10
-7.66499939E+01
 20
-8.84000031E+01
 40
3.20000005E+00
  1
15
 41
1.00000000E+00
  7
MONOTXT
  0
TEXT
  8
0
 62
7
 10
-8.46499939E+01
 20
-8.84000031E+01
 40
3.20000005E+00
  1
0
 41
1.00000000E+00
  7
MONOTXT
  0
TEXT
  8
0
 62
7
 10
-9.74499940E+01
 20
-8.84000031E+01
 40
3.20000005E+00
  1
-15
 41
1.00000000E+00
  7
MONOTXT
  0
TEXT
  8
0
 62
7
 10
-1.07049994E+02
 20
-8.84000031E+01
 40
3.20000005E+00
  1
-30
 41
1.00000000E+00
  7
MONOTXT
  0
LINE
  8
0
 62
7
 10
-1.33399994E+02
 20
-8.38000031E+01
 11
-6.89999939E+01
 21
-8.38000031E+01
  0
LINE
  8
0
 62
7
 10
-1.33399994E+02
 20
-8.98000031E+01
 11
-1.33399994E+02
 21
-7.78000031E+01
  0
LINE
  8
0
 62
7
 10
-1.07399994E+02
 20
-8.98000031E+01
 11
-1.07399994E+02
 21
-7.78000031E+01
  0
LINE
  8
0
 62
7
 10
-9.77999939E+01
 20
-8.98000031E+01
 11
-9.77999939E+01
 21
-7.78000031E+01
  0
TEXT
  8
0
 62
7
 10
-1.05449994E+02
 20
-8.24000031E+01
 40
3.20000005E+00
  1
15
 41
1.00000000E+00
  7
MONOTXT
  0
LINE
  8
0
 62
7
 10
-8.81999939E+01
 20
-8.98000031E+01
 11
-8.81999939E+01
 21
-7.78000031E+01
  0
TEXT
  8
0
 62
7
 10
-9.58499939E+01
 20
-8.24000031E+01
 40
3.20000005E+00
  1
30
 41
1.00000000E+00
  7
MONOTXT
  0
LINE
  8
0
 62
7
 10
-7.85999939E+01
 20
-8.98000031E+01
 11
-7.85999939E+01
 21
-7.78000031E+01
  0
TEXT
  8
0
 62
7
 10
-8.62499939E+01
 20
-8.24000031E+01
 40
3.20000005E+00
  1
45
 41
1.00000000E+00
  7
MONOTXT
  0
LINE
  8
0
 62
7
 10
-6.89999939E+01
 20
-8.98000031E+01
 11
-6.89999939E+01
 21
-7.78000031E+01
  0
TEXT
  8
0
 62
7
 10
-7.66499939E+01
 20
-8.24000031E+01
 40
3.20000005E+00
  1
60
 41
1.00000000E+00
  7
MONOTXT
  0
TEXT
  8
0
 62
7
 10
-1.31249994E+02
 20
-8.84000031E+01
 40
3.20000005E+00
  1
STRETCH
 41
1.00000000E+00
  7
MONOTXT
  0
TEXT
  8
0
 62
7
 10
-1.29649994E+02
 20
-8.24000031E+01
 40
3.20000005E+00
  1
STROKE
 41
1.00000000E+00
  7
MONOTXT
  0
LINE
  8
0
 62
7
 10
-1.33399994E+02
 20
-7.78000031E+01
 11
-6.89999939E+01
 21
-7.78000031E+01
  0
LINE
  8
0
 62
7
 10
-1.33399994E+02
 20
-8.98000031E+01
 11
-6.89999939E+01
 21
-8.98000031E+01
  0
TEXT
  8
0
 62
7
 10
-1.20049994E+02
 20
-7.59181426E+01
 40
3.20000005E+00
  1
STRETCH LIST
 41
1.05263158E+00
  7
MONOTXT
  0
TEXT
  8
0
 62
7
 10
-7.91067721E+01
 20
-7.67181426E+01
 40
3.20000005E+00
  1
(mm)
 41
1.00000000E+00
  7
MONOTXT
  0
LINE
  8
0
 62
7
 10
-1.38399994E+02
 20
9.45000000E+01
 11
1.38350006E+02
 21
9.45000000E+01
  0
LINE
  8
0
 62
7
 10
1.38350006E+02
 20
9.45000000E+01
 11
1.38350006E+02
 21
-9.48000031E+01
  0
LINE
  8
0
 62
7
 10
-1.38399994E+02
 20
-9.48000031E+01
 11
1.38350006E+02
 21
-9.48000031E+01
  0
LINE
  8
0
 62
7
 10
-1.38399994E+02
 20
9.45000000E+01
 11
-1.38399994E+02
 21
-9.48000031E+01
  0
LINE
  8
0
 62
7
 10
7.33500061E+01
 20
-8.48000031E+01
 11
1.38350006E+02
 21
-8.48000031E+01
  0
LINE
  8
0
 62
7
 10
-1.38399994E+02
 20
8.45000000E+01
 11
-7.33999939E+01
 21
8.45000000E+01
  0
LINE
  8
0
 62
7
 10
7.33500061E+01
 20
8.45000000E+01
 11
1.38350006E+02
 21
8.45000000E+01
  0
LINE
  8
0
 62
7
 10
7.33500061E+01
 20
-8.48000031E+01
 11
7.33500061E+01
 21
-9.48000031E+01
  0
LINE
  8
0
 62
7
 10
7.33500061E+01
 20
9.45000000E+01
 11
7.33500061E+01
 21
8.45000000E+01
  0
LINE
  8
0
 62
7
 10
-7.33999939E+01
 20
9.45000000E+01
 11
-7.33999939E+01
 21
8.45000000E+01
  0
TEXT
  8
0
 62
7
 10
7.72426624E+01
 20
-9.20500031E+01
 40
4.50000000E+00
  1
KOGANEI CORP.
 41
1.04838710E+00
  7
MONOTXT
  0
TEXT
  8
0
 62
7
 10
9.35071483E+01
 20
8.79000000E+01
 40
3.20000005E+00
  1
Ver. 1.1
 41
1.08108108E+00
  7
MONOTXT
  0
TEXT
  8
0
 62
7
 10
-1.31042852E+02
 20
8.79000000E+01
 40
3.20000005E+00
  1
NEW PEN CYLINDER
 41
1.08108108E+00
  7
MONOTXT
  0
TEXT
  8
0
 62
7
 10
-1.29085994E+02
 20
7.29000000E+01
 40
3.20000005E+00
  1
MODEL:PBDAUS16*ST(45)-7-ZC230
 41
1.00000000E+00
  7
MONOTXT
  0
ENDSEC
  0
EOF
