  0
SECTION
  2
HEADER
  9
$ACADVER
  1
AC1003
  9
$EXTMIN
 10
-1.94250000E+02
 20
-1.33500000E+02
  9
$EXTMAX
 10
1.94800003E+02
 20
1.32600006E+02
  9
$LIMMIN
 10
-1.94251000E+02
 20
-1.33501000E+02
  9
$LIMMAX
 10
1.94801003E+02
 20
1.32601006E+02
  9
$SNAPUNIT
 10
1
 20
1
  9
$SNAPBASE
 10
0
 20
0
  9
$GRIDMODE
 70
0
  9
$GRIDUNIT
 10
0
 20
0
  9
$LTSCALE
 40
6.48416672E+00
  9
$TEXTSIZE
 40
3.2
  9
$DIMTAD
 70
0
  9
$LUNITS
 70
2
  9
$LUPREC
 70
4
  9
$FILLETRAD
 40
0
  9
$AUNITS
 70
0
  9
$AUPREC
 70
0
  0
ENDSEC
  0
SECTION
  2
TABLES
  0
TABLE
  2
LTYPE
 70
2
  0
LTYPE
  2
CONTINUOUS
 70
64
  3
Solid-Line
 72
65
 73
0
 40
0
  0
LTYPE
  2
DASHED
 70
64
  3
DASHED
 72
65
 73
2
 40
.75
 49
.5
 49
-.25
  0
LTYPE
  2
HIDDEN
 70
64
  3
HIDDEN
 72
65
 73
2
 40
.375
 49
.25
 49
-.125
  0
LTYPE
  2
CENTER
 70
64
  3
CENTER
 72
65
 73
4
 40
2
 49
1.25
 49
-.25
 49
.25
 49
-.25
  0
LTYPE
  2
PHANTOM
 70
64
  3
PHANTOM
 72
65
 73
6
 40
2.5
 49
1.25
 49
-.25
 49
.25
 49
-.25
 49
.25
 49
-.25
  0
ENDTAB
  0
TABLE
  2
LAYER
 70
1
  0
LAYER
  2
1
 70
0
 62
7
  6
CONTINUOUS
 0
ENDTAB
  0
TABLE
  2
STYLE
 70
2
  0
STYLE
  2
MONOTXT
 70
0
 40
0
 41
1
 50
0
 71
0
 42
.2
  3
monotxt
  0
STYLE
  2
BIGFONT
 70
0
 40
0
 41
1
 50
0
 71
0
 42
.2
  3
txt
  4
bigfont
  0
ENDTAB
  0
ENDSEC
  0
SECTION
  2
ENTITIES
  0
LINE
  8
0
  6
CENTER
 62
6
 10
-6.05185906E+01
 20
5.19058584E+01
 11
-6.05185906E+01
 21
2.44758584E+01
  0
LINE
  8
0
  6
CENTER
 62
6
 10
-2.05285906E+01
 20
5.19058584E+01
 11
-2.05285906E+01
 21
2.44758584E+01
  0
LINE
  8
0
  6
CENTER
 62
6
 10
2.24714094E+01
 20
5.18958584E+01
 11
2.24714094E+01
 21
2.44658584E+01
  0
LINE
  8
0
  6
CENTER
 62
6
 10
6.24614094E+01
 20
5.18958584E+01
 11
6.24614094E+01
 21
2.44658584E+01
  0
LINE
  8
0
  6
PHANTOM
 10
4.58654388E+01
 20
1.17234384E+01
 11
4.58654388E+01
 21
6.43146177E+01
  0
LINE
  8
0
  6
PHANTOM
 10
-3.71345612E+01
 20
1.17234384E+01
 11
-3.71345612E+01
 21
6.43146177E+01
  0
TEXT
  8
0
 62
7
 10
-5.38545281E+01
 20
2.74958584E+01
 40
1.50000000E+00
  1
PBDAWS10
 41
1.00000000E+00
  7
MONOTXT
  0
ARC
  8
0
 62
7
 10
-8.33997718E+01
 20
3.18958584E+01
 40
4.62356726E+00
 50
1.82596938E+02
 51
2.31332268E+02
  0
LINE
  8
0
 62
4
 10
-4.80185906E+01
 20
3.81958584E+01
 11
-5.35185906E+01
 21
3.81958584E+01
  0
LINE
  8
0
 62
4
 10
-5.35185906E+01
 20
3.68958584E+01
 11
-5.60185906E+01
 21
3.68958584E+01
  0
LINE
  8
0
 62
4
 10
-5.35185906E+01
 20
3.99958584E+01
 11
-5.60185906E+01
 21
3.99958584E+01
  0
LINE
  8
0
 62
4
 10
-5.35185906E+01
 20
3.99958584E+01
 11
-5.35185906E+01
 21
3.68958584E+01
  0
LINE
  8
0
 62
4
 10
-5.35185906E+01
 20
4.31958584E+01
 11
-5.35185906E+01
 21
4.03958584E+01
  0
LINE
  8
0
 62
4
 10
-5.35185906E+01
 20
4.31958584E+01
 11
-5.60185906E+01
 21
4.31958584E+01
  0
LINE
  8
0
 62
7
 10
-5.35185906E+01
 20
3.73958584E+01
 11
-2.75285906E+01
 21
3.73958584E+01
  0
ARC
  8
0
 62
4
 10
-9.31850721E+01
 20
2.67108584E+01
 40
3.07310324E+00
 50
3.25627155E+02
 51
3.43728456E+01
  0
ARC
  8
0
 62
4
 10
-1.01582177E+02
 20
3.19008584E+01
 40
1.14664876E+01
 50
3.42463527E+02
 51
1.75364728E+01
  0
ARC
  8
0
 62
4
 10
-9.31850721E+01
 20
3.70908584E+01
 40
3.07310324E+00
 50
3.25627155E+02
 51
3.43728456E+01
  0
ARC
  8
0
 62
4
 10
-9.10510898E+01
 20
2.67108584E+01
 40
3.06569493E+00
 50
1.45532394E+02
 51
2.14467606E+02
  0
ARC
  8
0
 62
4
 10
-8.26539696E+01
 20
3.19008584E+01
 40
1.14579391E+01
 50
1.62450019E+02
 51
1.97549981E+02
  0
ARC
  8
0
 62
4
 10
-9.10510898E+01
 20
3.70908584E+01
 40
3.06569493E+00
 50
1.45532394E+02
 51
2.14467606E+02
  0
ARC
  8
0
 62
4
 10
-1.09808733E+02
 20
2.88758584E+01
 40
1.56857978E+00
 50
3.19917156E+02
 51
4.00828446E+01
  0
ARC
  8
0
 62
4
 10
-1.09881912E+02
 20
2.88758584E+01
 40
1.55830260E+00
 50
1.39598403E+02
 51
2.20401597E+02
  0
ARC
  8
0
 62
4
 10
-1.09808733E+02
 20
3.49258584E+01
 40
1.56857978E+00
 50
3.19917156E+02
 51
4.00828446E+01
  0
ARC
  8
0
 62
4
 10
-1.13943414E+02
 20
3.19008584E+01
 40
5.70268020E+00
 50
3.39308098E+02
 51
2.06919019E+01
  0
ARC
  8
0
 62
4
 10
-1.05747231E+02
 20
3.19008584E+01
 40
5.69008693E+00
 50
1.59260195E+02
 51
2.00739805E+02
  0
ARC
  8
0
 62
4
 10
-1.09881912E+02
 20
3.49258584E+01
 40
1.55830260E+00
 50
1.39598403E+02
 51
2.20401597E+02
  0
LINE
  8
0
 62
4
 10
-9.01085906E+01
 20
2.59058584E+01
 11
-9.06485906E+01
 21
2.49758584E+01
  0
LINE
  8
0
 62
4
 10
-9.41085906E+01
 20
2.59058584E+01
 11
-9.35785906E+01
 21
2.49758584E+01
  0
LINE
  8
0
 62
4
 10
-9.01085906E+01
 20
3.78958584E+01
 11
-9.06485906E+01
 21
3.88258584E+01
  0
LINE
  8
0
 62
7
 10
-9.01085906E+01
 20
2.79058584E+01
 11
-8.80185906E+01
 21
2.79058584E+01
  0
LINE
  8
0
 62
4
 10
-9.41085906E+01
 20
3.78958584E+01
 11
-9.35785906E+01
 21
3.88258584E+01
  0
LINE
  8
0
 62
4
 10
-9.35785906E+01
 20
3.88258584E+01
 11
-9.06485906E+01
 21
3.88258584E+01
  0
LINE
  8
0
 62
4
 10
-9.35785906E+01
 20
2.49758584E+01
 11
-9.06485906E+01
 21
2.49758584E+01
  0
LINE
  8
0
 62
4
 10
-9.35785906E+01
 20
2.84458584E+01
 11
-9.06485906E+01
 21
2.84458584E+01
  0
LINE
  8
0
 62
4
 10
-9.35785906E+01
 20
3.53558584E+01
 11
-9.06485906E+01
 21
3.53558584E+01
  0
LINE
  8
0
 62
4
 10
-9.01085906E+01
 20
3.78958584E+01
 11
-9.01085906E+01
 21
2.59058584E+01
  0
LINE
  8
0
 62
4
 10
-9.41085906E+01
 20
3.78958584E+01
 11
-9.41085906E+01
 21
2.59058584E+01
  0
LINE
  8
0
 62
4
 10
-1.08608591E+02
 20
2.78658584E+01
 11
-1.08238591E+02
 21
2.85058584E+01
  0
LINE
  8
0
 62
4
 10
-1.11438591E+02
 20
2.85058584E+01
 11
-1.11068591E+02
 21
2.78658584E+01
  0
LINE
  8
0
 62
4
 10
-1.08608591E+02
 20
3.59358584E+01
 11
-1.08238591E+02
 21
3.52958584E+01
  0
LINE
  8
0
 62
4
 10
-1.11438591E+02
 20
3.52958584E+01
 11
-1.11068591E+02
 21
3.59358584E+01
  0
LINE
  8
0
 62
7
 10
-1.08238591E+02
 20
2.99058584E+01
 11
-9.60185906E+01
 21
2.99058584E+01
  0
LINE
  8
0
 62
7
 10
-1.08238591E+02
 20
3.38958584E+01
 11
-9.60185906E+01
 21
3.38958584E+01
  0
LINE
  8
0
 62
4
 10
-1.11068591E+02
 20
2.98858584E+01
 11
-1.08608591E+02
 21
2.98858584E+01
  0
LINE
  8
0
 62
4
 10
-1.11068591E+02
 20
3.39158584E+01
 11
-1.08608591E+02
 21
3.39158584E+01
  0
LINE
  8
0
 62
4
 10
-1.11068591E+02
 20
2.78658584E+01
 11
-1.08608591E+02
 21
2.78658584E+01
  0
LINE
  8
0
 62
4
 10
-1.11068591E+02
 20
3.59358584E+01
 11
-1.08608591E+02
 21
3.59358584E+01
  0
LINE
  8
0
 62
4
 10
-1.08238591E+02
 20
3.52958584E+01
 11
-1.08238591E+02
 21
2.85058584E+01
  0
LINE
  8
0
 62
4
 10
-1.11438591E+02
 20
3.52958584E+01
 11
-1.11438591E+02
 21
2.85058584E+01
  0
LINE
  8
0
  6
CENTER
 62
2
 10
-1.16947967E+02
 20
3.18958584E+01
 11
1.14524097E+02
 21
3.18958584E+01
  0
LINE
  8
0
 62
7
 10
-1.15318591E+02
 20
3.38958584E+01
 11
-1.15318591E+02
 21
2.99058584E+01
  0
LINE
  8
0
 62
7
 10
-1.16018591E+02
 20
3.05958584E+01
 11
-1.15318591E+02
 21
2.99058584E+01
  0
LINE
  8
0
 62
7
 10
-1.15318591E+02
 20
3.38958584E+01
 11
-1.16018591E+02
 21
3.31958584E+01
  0
LINE
  8
0
 62
7
 10
-1.15318591E+02
 20
2.99058584E+01
 11
-1.11438591E+02
 21
2.99058584E+01
  0
LINE
  8
0
 62
7
 10
-1.15318591E+02
 20
3.38958584E+01
 11
-1.11438591E+02
 21
3.38958584E+01
  0
LINE
  8
0
 62
7
 10
-1.01018591E+02
 20
3.38958584E+01
 11
-1.01018591E+02
 21
2.99058584E+01
  0
LINE
  8
0
 62
7
 10
-1.16018591E+02
 20
3.31958584E+01
 11
-1.16018591E+02
 21
3.05958584E+01
  0
LINE
  8
0
 62
7
 10
-8.95185906E+01
 20
3.58958584E+01
 11
-8.95185906E+01
 21
2.79058584E+01
  0
LINE
  8
0
 62
7
 10
-9.52185906E+01
 20
3.58958584E+01
 11
-9.52185906E+01
 21
2.79058584E+01
  0
LINE
  8
0
 62
7
 10
-9.60185906E+01
 20
2.87058584E+01
 11
-9.52185906E+01
 21
2.79058584E+01
  0
LINE
  8
0
 62
7
 10
-9.52185906E+01
 20
3.58958584E+01
 11
-9.60185906E+01
 21
3.50958584E+01
  0
LINE
  8
0
 62
7
 10
-9.52185906E+01
 20
2.79058584E+01
 11
-9.41085906E+01
 21
2.79058584E+01
  0
LINE
  8
0
 62
7
 10
-9.52185906E+01
 20
3.58958584E+01
 11
-9.41085906E+01
 21
3.58958584E+01
  0
LINE
  8
0
 62
7
 10
-9.60185906E+01
 20
3.50958584E+01
 11
-9.60185906E+01
 21
2.87058584E+01
  0
LINE
  8
0
 62
2
 10
-8.95185906E+01
 20
2.85823584E+01
 11
-9.01085906E+01
 21
2.85823584E+01
  0
LINE
  8
0
 62
2
 10
-8.95185906E+01
 20
3.52193584E+01
 11
-9.01085906E+01
 21
3.52193584E+01
  0
LINE
  8
0
 62
2
 10
-1.15697591E+02
 20
3.35168584E+01
 11
-1.11438591E+02
 21
3.35168584E+01
  0
LINE
  8
0
 62
2
 10
-1.15703083E+02
 20
3.02848584E+01
 11
-1.11438591E+02
 21
3.02848584E+01
  0
LINE
  8
0
 62
2
 10
-1.08238591E+02
 20
3.35168584E+01
 11
-1.01018591E+02
 21
3.35168584E+01
  0
LINE
  8
0
 62
2
 10
-1.08238591E+02
 20
3.02848584E+01
 11
-1.01018591E+02
 21
3.02848584E+01
  0
LINE
  8
0
 62
2
 10
-9.41085906E+01
 20
3.52193584E+01
 11
-9.58950906E+01
 21
3.52193584E+01
  0
LINE
  8
0
 62
2
 10
-9.41085906E+01
 20
2.85823584E+01
 11
-9.58950906E+01
 21
2.85823584E+01
  0
LINE
  8
0
  6
CENTER
 62
2
 10
-7.95185906E+01
 20
3.55058584E+01
 11
-7.95185906E+01
 21
2.82858584E+01
  0
CIRCLE
  8
0
 62
2
 10
-7.95219964E+01
 20
3.18908586E+01
 40
2.50000000E+00
  0
LINE
  8
0
 62
7
 10
-9.01085906E+01
 20
3.58958584E+01
 11
-8.80185906E+01
 21
3.58958584E+01
  0
CIRCLE
  8
0
 62
7
 10
-7.95185906E+01
 20
3.18958584E+01
 40
2.06700000E+00
  0
ARC
  8
0
 62
7
 10
-7.96442210E+01
 20
3.18958584E+01
 40
4.62782617E+00
 50
3.08733576E+02
 51
5.12664237E+01
  0
ARC
  8
0
 62
7
 10
-8.33997718E+01
 20
3.18958584E+01
 40
4.62356726E+00
 50
1.28667732E+02
 51
1.77403062E+02
  0
LINE
  8
0
 62
7
 10
-7.67485906E+01
 20
2.82858584E+01
 11
-7.67485906E+01
 21
2.58958584E+01
  0
LINE
  8
0
 62
7
 10
-8.62885906E+01
 20
2.82858584E+01
 11
-8.62885906E+01
 21
2.58958584E+01
  0
LINE
  8
0
 62
7
 10
-7.67485906E+01
 20
3.78958584E+01
 11
-7.67485906E+01
 21
3.55058584E+01
  0
LINE
  8
0
 62
7
 10
-8.62885906E+01
 20
3.78958584E+01
 11
-8.62885906E+01
 21
3.55058584E+01
  0
LINE
  8
0
 62
7
 10
-8.62885906E+01
 20
2.82858584E+01
 11
-7.67485906E+01
 21
2.82858584E+01
  0
LINE
  8
0
 62
7
 10
-8.62885906E+01
 20
3.55058584E+01
 11
-7.67485906E+01
 21
3.55058584E+01
  0
LINE
  8
0
 62
7
 10
-8.80185906E+01
 20
3.78958584E+01
 11
-8.80185906E+01
 21
2.58958584E+01
  0
LINE
  8
0
 62
7
 10
-8.80185906E+01
 20
2.58958584E+01
 11
-7.50185906E+01
 21
2.58958584E+01
  0
LINE
  8
0
 62
7
 10
-8.80185906E+01
 20
3.78958584E+01
 11
-7.50185906E+01
 21
3.78958584E+01
  0
LINE
  8
0
 62
7
 10
-7.50185906E+01
 20
3.78958584E+01
 11
-7.50185906E+01
 21
2.58958584E+01
  0
LINE
  8
0
 62
7
 10
-7.50185906E+01
 20
3.73958584E+01
 11
-6.75185906E+01
 21
3.73958584E+01
  0
LINE
  8
0
 62
7
 10
-7.50185906E+01
 20
2.63958584E+01
 11
-6.50185906E+01
 21
2.63958584E+01
  0
ARC
  8
0
 62
7
 10
8.03503542E+01
 20
3.18908652E+01
 40
4.62105789E+00
 50
6.19098023E-02
 51
5.12718315E+01
  0
ARC
  8
0
 62
7
 10
7.65953948E+01
 20
3.18894571E+01
 40
4.62398988E+00
 50
1.28745578E+02
 51
1.79920681E+02
  0
ARC
  8
0
 62
7
 10
3.35034180E+00
 20
3.18908593E+01
 40
4.62107029E+00
 50
6.19834859E-02
 51
5.12717578E+01
  0
ARC
  8
0
 62
7
 10
-6.40460517E+00
 20
3.18894571E+01
 40
4.62398988E+00
 50
1.28745578E+02
 51
1.79920681E+02
  0
ARC
  8
0
 62
7
 10
8.03513814E+01
 20
3.18903594E+01
 40
4.62003122E+00
 50
3.08722050E+02
 51
6.81973312E-02
  0
ARC
  8
0
 62
7
 10
7.65943713E+01
 20
3.18917654E+01
 40
4.62296370E+00
 50
1.79949272E+02
 51
2.31260481E+02
  0
ARC
  8
0
 62
7
 10
3.35136903E+00
 20
3.18903653E+01
 40
4.62004362E+00
 50
3.08722124E+02
 51
6.81233933E-02
  0
ARC
  8
0
 62
7
 10
-6.40562872E+00
 20
3.18917654E+01
 40
4.62296370E+00
 50
1.79949272E+02
 51
2.31260481E+02
  0
LINE
  8
0
 62
7
 10
8.32414094E+01
 20
3.54958584E+01
 11
8.32414094E+01
 21
3.78858584E+01
  0
LINE
  8
0
 62
7
 10
8.49714094E+01
 20
3.78858584E+01
 11
7.19714094E+01
 21
3.78858584E+01
  0
LINE
  8
0
 62
7
 10
7.37014094E+01
 20
3.54958584E+01
 11
7.37014094E+01
 21
3.78858584E+01
  0
LINE
  8
0
 62
7
 10
8.32414094E+01
 20
3.54958584E+01
 11
7.37014094E+01
 21
3.54958584E+01
  0
LINE
  8
0
 62
7
 10
7.97140938E+00
 20
3.18958584E+01
 11
7.97140938E+00
 21
3.78858584E+01
  0
LINE
  8
0
 62
7
 10
7.19714094E+01
 20
3.73858584E+01
 11
6.94614094E+01
 21
3.73858584E+01
  0
LINE
  8
0
 62
7
 10
6.24140938E+00
 20
3.54958584E+01
 11
6.24140938E+00
 21
3.78858584E+01
  0
LINE
  8
0
 62
7
 10
6.24140938E+00
 20
3.54958584E+01
 11
-9.29859062E+00
 21
3.54958584E+01
  0
LINE
  8
0
 62
7
 10
-9.29859062E+00
 20
3.54958584E+01
 11
-9.29859062E+00
 21
3.78858584E+01
  0
LINE
  8
0
 62
7
 10
-1.10285906E+01
 20
3.78858584E+01
 11
7.97140938E+00
 21
3.78858584E+01
  0
LINE
  8
0
 62
7
 10
-1.10285906E+01
 20
3.18958584E+01
 11
-1.10285906E+01
 21
3.78858584E+01
  0
LINE
  8
0
 62
7
 10
6.24140938E+00
 20
2.82858584E+01
 11
6.24140938E+00
 21
2.58958584E+01
  0
LINE
  8
0
 62
7
 10
-9.29859062E+00
 20
2.82858584E+01
 11
-9.29859062E+00
 21
2.58958584E+01
  0
LINE
  8
0
 62
7
 10
6.24140938E+00
 20
2.82858584E+01
 11
-9.29859062E+00
 21
2.82858584E+01
  0
LINE
  8
0
 62
7
 10
7.19714094E+01
 20
3.78858584E+01
 11
7.19714094E+01
 21
2.58958584E+01
  0
LINE
  8
0
 62
7
 10
8.49714094E+01
 20
3.78858584E+01
 11
8.49714094E+01
 21
2.58958584E+01
  0
LINE
  8
0
 62
7
 10
7.37014094E+01
 20
2.82858584E+01
 11
7.37014094E+01
 21
2.58958584E+01
  0
LINE
  8
0
 62
7
 10
8.32414094E+01
 20
2.82858584E+01
 11
7.37014094E+01
 21
2.82858584E+01
  0
LINE
  8
0
 62
7
 10
8.32414094E+01
 20
2.82858584E+01
 11
8.32414094E+01
 21
2.58958584E+01
  0
LINE
  8
0
 62
7
 10
8.49714094E+01
 20
2.58958584E+01
 11
7.19714094E+01
 21
2.58958584E+01
  0
LINE
  8
0
 62
7
 10
7.97140938E+00
 20
3.18958584E+01
 11
7.97140938E+00
 21
2.58958584E+01
  0
LINE
  8
0
 62
7
 10
7.19714094E+01
 20
2.63958584E+01
 11
6.69614094E+01
 21
2.63958584E+01
  0
LINE
  8
0
  6
CENTER
 62
2
 10
3.47140938E+00
 20
3.52558584E+01
 11
3.47140938E+00
 21
2.82858584E+01
  0
LINE
  8
0
 62
7
 10
-1.10285906E+01
 20
2.58958584E+01
 11
7.97140938E+00
 21
2.58958584E+01
  0
LINE
  8
0
 62
7
 10
-1.10285906E+01
 20
3.18958584E+01
 11
-1.10285906E+01
 21
2.58958584E+01
  0
LINE
  8
0
  6
CENTER
 62
2
 10
-6.52859062E+00
 20
3.56158584E+01
 11
-6.52859062E+00
 21
2.81658584E+01
  0
CIRCLE
  8
0
 62
7
 10
-6.52859062E+00
 20
3.18958584E+01
 40
2.06700000E+00
  0
CIRCLE
  8
0
 62
2
 10
-6.53199638E+00
 20
3.18908586E+01
 40
2.50000000E+00
  0
CIRCLE
  8
0
 62
7
 10
3.47140938E+00
 20
3.18958584E+01
 40
2.06700000E+00
  0
CIRCLE
  8
0
 62
2
 10
3.46800362E+00
 20
3.18908586E+01
 40
2.50000000E+00
  0
ARC
  8
0
 62
4
 10
9.85349958E+01
 20
3.19008584E+01
 40
1.14664876E+01
 50
1.62463527E+02
 51
1.97536473E+02
  0
ARC
  8
0
 62
4
 10
7.96067884E+01
 20
3.19008584E+01
 40
1.14579391E+01
 50
3.42450019E+02
 51
1.75499812E+01
  0
ARC
  8
0
 62
4
 10
1.10896232E+02
 20
3.19008584E+01
 40
5.70268020E+00
 50
1.59308098E+02
 51
2.00691902E+02
  0
ARC
  8
0
 62
4
 10
1.02700050E+02
 20
3.19008584E+01
 40
5.69008693E+00
 50
3.39260195E+02
 51
2.07398053E+01
  0
LINE
  8
0
 62
4
 10
8.70614094E+01
 20
3.78958584E+01
 11
8.70614094E+01
 21
2.59058584E+01
  0
LINE
  8
0
 62
4
 10
9.10614094E+01
 20
3.78958584E+01
 11
9.10614094E+01
 21
2.59058584E+01
  0
LINE
  8
0
 62
4
 10
1.05191409E+02
 20
3.52958584E+01
 11
1.05191409E+02
 21
2.85058584E+01
  0
LINE
  8
0
 62
4
 10
1.08391409E+02
 20
3.52958584E+01
 11
1.08391409E+02
 21
2.85058584E+01
  0
LINE
  8
0
 62
7
 10
1.12271409E+02
 20
3.38958584E+01
 11
1.12271409E+02
 21
2.99058584E+01
  0
LINE
  8
0
 62
7
 10
9.79714094E+01
 20
3.38958584E+01
 11
9.79714094E+01
 21
2.99058584E+01
  0
LINE
  8
0
 62
7
 10
1.12971409E+02
 20
3.31958584E+01
 11
1.12971409E+02
 21
3.05958584E+01
  0
LINE
  8
0
 62
7
 10
8.64714094E+01
 20
3.58958584E+01
 11
8.64714094E+01
 21
2.79058584E+01
  0
LINE
  8
0
 62
7
 10
9.21714094E+01
 20
3.58958584E+01
 11
9.21714094E+01
 21
2.79058584E+01
  0
LINE
  8
0
 62
7
 10
9.29714094E+01
 20
3.50958584E+01
 11
9.29714094E+01
 21
2.87058584E+01
  0
LINE
  8
0
 62
7
 10
8.70614094E+01
 20
3.58958584E+01
 11
8.49714094E+01
 21
3.58958584E+01
  0
LINE
  8
0
 62
2
 10
9.10614094E+01
 20
3.52193584E+01
 11
9.28479094E+01
 21
3.52193584E+01
  0
LINE
  8
0
 62
2
 10
1.05191409E+02
 20
3.35168584E+01
 11
9.79714094E+01
 21
3.35168584E+01
  0
LINE
  8
0
 62
2
 10
1.12650409E+02
 20
3.35168584E+01
 11
1.08391409E+02
 21
3.35168584E+01
  0
LINE
  8
0
 62
2
 10
8.64714094E+01
 20
3.52193584E+01
 11
8.70614094E+01
 21
3.52193584E+01
  0
LINE
  8
0
 62
7
 10
9.21714094E+01
 20
3.58958584E+01
 11
9.10614094E+01
 21
3.58958584E+01
  0
LINE
  8
0
 62
7
 10
9.21714094E+01
 20
3.58958584E+01
 11
9.29714094E+01
 21
3.50958584E+01
  0
LINE
  8
0
 62
7
 10
1.12271409E+02
 20
3.38958584E+01
 11
1.08391409E+02
 21
3.38958584E+01
  0
LINE
  8
0
 62
7
 10
1.12271409E+02
 20
3.38958584E+01
 11
1.12971409E+02
 21
3.31958584E+01
  0
LINE
  8
0
 62
4
 10
1.08021409E+02
 20
3.59358584E+01
 11
1.05561409E+02
 21
3.59358584E+01
  0
LINE
  8
0
 62
4
 10
1.08021409E+02
 20
3.39158584E+01
 11
1.05561409E+02
 21
3.39158584E+01
  0
LINE
  8
0
 62
7
 10
1.05191409E+02
 20
3.38958584E+01
 11
9.29714094E+01
 21
3.38958584E+01
  0
LINE
  8
0
 62
4
 10
1.08391409E+02
 20
3.52958584E+01
 11
1.08021409E+02
 21
3.59358584E+01
  0
LINE
  8
0
 62
4
 10
1.05561409E+02
 20
3.59358584E+01
 11
1.05191409E+02
 21
3.52958584E+01
  0
LINE
  8
0
 62
4
 10
9.05314094E+01
 20
3.53558584E+01
 11
8.76014094E+01
 21
3.53558584E+01
  0
LINE
  8
0
 62
4
 10
9.05314094E+01
 20
3.88258584E+01
 11
8.76014094E+01
 21
3.88258584E+01
  0
LINE
  8
0
 62
4
 10
9.10614094E+01
 20
3.78958584E+01
 11
9.05314094E+01
 21
3.88258584E+01
  0
LINE
  8
0
 62
4
 10
8.70614094E+01
 20
3.78958584E+01
 11
8.76014094E+01
 21
3.88258584E+01
  0
ARC
  8
0
 62
4
 10
1.06834730E+02
 20
3.49258584E+01
 40
1.55830260E+00
 50
3.19598403E+02
 51
4.04015967E+01
  0
ARC
  8
0
 62
4
 10
1.06761552E+02
 20
3.49258584E+01
 40
1.56857978E+00
 50
1.39917155E+02
 51
2.20082844E+02
  0
ARC
  8
0
 62
4
 10
8.80039086E+01
 20
3.70908584E+01
 40
3.06569493E+00
 50
3.25532394E+02
 51
3.44676060E+01
  0
ARC
  8
0
 62
4
 10
9.01378909E+01
 20
3.70908584E+01
 40
3.07310324E+00
 50
1.45627154E+02
 51
2.14372845E+02
  0
LINE
  8
0
 62
7
 10
8.70614094E+01
 20
2.79058584E+01
 11
8.49714094E+01
 21
2.79058584E+01
  0
LINE
  8
0
 62
2
 10
9.10614094E+01
 20
2.85823584E+01
 11
9.28479094E+01
 21
2.85823584E+01
  0
LINE
  8
0
 62
2
 10
1.05191409E+02
 20
3.02848584E+01
 11
9.79714094E+01
 21
3.02848584E+01
  0
LINE
  8
0
 62
2
 10
1.12655902E+02
 20
3.02848584E+01
 11
1.08391409E+02
 21
3.02848584E+01
  0
LINE
  8
0
 62
2
 10
8.64714094E+01
 20
2.85823584E+01
 11
8.70614094E+01
 21
2.85823584E+01
  0
LINE
  8
0
 62
7
 10
9.21714094E+01
 20
2.79058584E+01
 11
9.10614094E+01
 21
2.79058584E+01
  0
LINE
  8
0
 62
7
 10
9.29714094E+01
 20
2.87058584E+01
 11
9.21714094E+01
 21
2.79058584E+01
  0
LINE
  8
0
 62
7
 10
1.12271409E+02
 20
2.99058584E+01
 11
1.08391409E+02
 21
2.99058584E+01
  0
LINE
  8
0
 62
7
 10
1.12971409E+02
 20
3.05958584E+01
 11
1.12271409E+02
 21
2.99058584E+01
  0
LINE
  8
0
 62
4
 10
1.08021409E+02
 20
2.78658584E+01
 11
1.05561409E+02
 21
2.78658584E+01
  0
LINE
  8
0
 62
4
 10
1.08021409E+02
 20
2.98858584E+01
 11
1.05561409E+02
 21
2.98858584E+01
  0
LINE
  8
0
 62
7
 10
1.05191409E+02
 20
2.99058584E+01
 11
9.29714094E+01
 21
2.99058584E+01
  0
LINE
  8
0
 62
4
 10
1.08391409E+02
 20
2.85058584E+01
 11
1.08021409E+02
 21
2.78658584E+01
  0
LINE
  8
0
 62
4
 10
1.05561409E+02
 20
2.78658584E+01
 11
1.05191409E+02
 21
2.85058584E+01
  0
LINE
  8
0
 62
4
 10
9.05314094E+01
 20
2.84458584E+01
 11
8.76014094E+01
 21
2.84458584E+01
  0
LINE
  8
0
 62
4
 10
9.05314094E+01
 20
2.49758584E+01
 11
8.76014094E+01
 21
2.49758584E+01
  0
LINE
  8
0
 62
4
 10
9.10614094E+01
 20
2.59058584E+01
 11
9.05314094E+01
 21
2.49758584E+01
  0
LINE
  8
0
 62
4
 10
8.70614094E+01
 20
2.59058584E+01
 11
8.76014094E+01
 21
2.49758584E+01
  0
ARC
  8
0
 62
4
 10
1.06834730E+02
 20
2.88758584E+01
 40
1.55830260E+00
 50
3.19598403E+02
 51
4.04015967E+01
  0
ARC
  8
0
 62
4
 10
1.06761552E+02
 20
2.88758584E+01
 40
1.56857978E+00
 50
1.39917155E+02
 51
2.20082844E+02
  0
ARC
  8
0
 62
4
 10
8.80039086E+01
 20
2.67108584E+01
 40
3.06569493E+00
 50
3.25532394E+02
 51
3.44676060E+01
  0
ARC
  8
0
 62
4
 10
9.01378909E+01
 20
2.67108584E+01
 40
3.07310324E+00
 50
1.45627154E+02
 51
2.14372845E+02
  0
CIRCLE
  8
0
 62
2
 10
7.64748151E+01
 20
3.18908586E+01
 40
2.50000000E+00
  0
CIRCLE
  8
0
 62
7
 10
7.64714094E+01
 20
3.18958584E+01
 40
2.06700000E+00
  0
LINE
  8
0
  6
CENTER
 62
2
 10
7.64714094E+01
 20
3.55058584E+01
 11
7.64714094E+01
 21
2.82858584E+01
  0
TEXT
  8
0
 62
7
 10
-5.73425698E+00
 20
1.64019655E+01
 40
3.20000005E+00
  1
D-1
 41
1.00000000E+00
  7
MONOTXT
  0
LINE
  8
0
 62
6
 10
8.28984084E+01
 20
4.14858584E+01
 11
8.02984084E+01
 21
3.88858584E+01
  0
LINE
  8
0
 62
4
 10
7.79614094E+01
 20
4.14858584E+01
 11
7.79614094E+01
 21
3.88858584E+01
  0
LINE
  8
0
 62
4
 10
7.49614094E+01
 20
4.21858584E+01
 11
7.49614094E+01
 21
3.81858584E+01
  0
LINE
  8
0
 62
4
 10
7.49614094E+01
 20
4.21858584E+01
 11
7.79614094E+01
 21
4.14858584E+01
  0
LINE
  8
0
 62
4
 10
7.49614094E+01
 20
3.81858584E+01
 11
7.79614094E+01
 21
3.88858584E+01
  0
LINE
  8
0
 62
4
 10
7.79614094E+01
 20
3.88858584E+01
 11
8.02984084E+01
 21
3.88858584E+01
  0
LINE
  8
0
 62
4
 10
7.79614094E+01
 20
4.14858584E+01
 11
8.28984084E+01
 21
4.14858584E+01
  0
ARC
  8
0
 62
4
 10
6.39597437E+01
 20
4.83841928E+01
 40
1.00166704E+00
 50
9.52762946E-02
 51
8.99047236E+01
  0
ARC
  8
0
 62
4
 10
6.09622008E+01
 20
4.83850669E+01
 40
1.00079180E+00
 50
9.00000002E+01
 51
1.79954687E+02
  0
LINE
  8
0
 62
4
 10
6.69614094E+01
 20
3.68858584E+01
 11
6.94614094E+01
 21
3.68858584E+01
  0
LINE
  8
0
 62
4
 10
5.54614094E+01
 20
3.68858584E+01
 11
5.79614094E+01
 21
3.68858584E+01
  0
LINE
  8
0
 62
4
 10
5.54614094E+01
 20
4.31858584E+01
 11
5.54614094E+01
 21
4.03858584E+01
  0
LINE
  8
0
 62
4
 10
6.94614094E+01
 20
4.31858584E+01
 11
6.94614094E+01
 21
4.03858584E+01
  0
LINE
  8
0
 62
4
 10
4.99614094E+01
 20
3.91858584E+01
 11
5.09614094E+01
 21
3.81858584E+01
  0
LINE
  8
0
 62
4
 10
4.99614094E+01
 20
4.11858584E+01
 11
5.09614094E+01
 21
4.21858584E+01
  0
LINE
  8
0
 62
4
 10
5.09614094E+01
 20
4.21858584E+01
 11
5.09614094E+01
 21
3.81858584E+01
  0
LINE
  8
0
 62
4
 10
5.99614094E+01
 20
4.83858584E+01
 11
5.99614094E+01
 21
4.78858584E+01
  0
LINE
  8
0
 62
4
 10
6.49614094E+01
 20
4.83858584E+01
 11
6.49614094E+01
 21
4.78858584E+01
  0
LINE
  8
0
 62
4
 10
6.09614094E+01
 20
4.93858584E+01
 11
6.39614094E+01
 21
4.93858584E+01
  0
LINE
  8
0
 62
4
 10
5.99614094E+01
 20
4.78858584E+01
 11
6.49614094E+01
 21
4.78858584E+01
  0
LINE
  8
0
 62
4
 10
5.09614094E+01
 20
3.81858584E+01
 11
5.54614094E+01
 21
3.81858584E+01
  0
LINE
  8
0
 62
4
 10
4.99614094E+01
 20
4.11858584E+01
 11
4.99614094E+01
 21
3.91858584E+01
  0
LINE
  8
0
 62
4
 10
5.79614094E+01
 20
2.62358584E+01
 11
6.69614094E+01
 21
2.62358584E+01
  0
LINE
  8
0
 62
4
 10
6.69614094E+01
 20
4.03858584E+01
 11
6.94614094E+01
 21
4.03858584E+01
  0
LINE
  8
0
 62
4
 10
5.79614094E+01
 20
4.68858584E+01
 11
6.69614094E+01
 21
4.68858584E+01
  0
LINE
  8
0
 62
4
 10
5.79614094E+01
 20
4.03858584E+01
 11
5.79614094E+01
 21
2.62358584E+01
  0
LINE
  8
0
 62
4
 10
6.69614094E+01
 20
4.03858584E+01
 11
6.69614094E+01
 21
2.62358584E+01
  0
LINE
  8
0
 62
4
 10
5.54614094E+01
 20
4.21858584E+01
 11
5.09614094E+01
 21
4.21858584E+01
  0
LINE
  8
0
 62
4
 10
6.39614094E+01
 20
4.78858584E+01
 11
6.39614094E+01
 21
4.68858584E+01
  0
LINE
  8
0
 62
4
 10
6.09614094E+01
 20
4.78858584E+01
 11
6.09614094E+01
 21
4.68858584E+01
  0
LINE
  8
0
 62
6
 10
6.36914094E+01
 20
4.78858584E+01
 11
6.36914094E+01
 21
4.68858584E+01
  0
LINE
  8
0
 62
6
 10
6.12314094E+01
 20
4.78858584E+01
 11
6.12314094E+01
 21
4.68858584E+01
  0
LINE
  8
0
 62
4
 10
5.79614094E+01
 20
2.62398058E+01
 11
6.69614094E+01
 21
2.62398058E+01
  0
LINE
  8
0
 62
4
 10
5.54614094E+01
 20
3.99858584E+01
 11
5.79614094E+01
 21
3.99858584E+01
  0
LINE
  8
0
 62
4
 10
5.54614094E+01
 20
4.03858584E+01
 11
5.79614094E+01
 21
4.03858584E+01
  0
LINE
  8
0
 62
4
 10
5.54614094E+01
 20
4.31858584E+01
 11
5.79614094E+01
 21
4.31858584E+01
  0
LINE
  8
0
 62
4
 10
6.69614094E+01
 20
4.31858584E+01
 11
6.94614094E+01
 21
4.31858584E+01
  0
LINE
  8
0
 62
4
 10
6.69614094E+01
 20
3.99858584E+01
 11
6.94614094E+01
 21
3.99858584E+01
  0
LINE
  8
0
 62
4
 10
6.69614094E+01
 20
4.03858584E+01
 11
6.69614094E+01
 21
4.68858584E+01
  0
LINE
  8
0
 62
4
 10
5.79614094E+01
 20
4.03858584E+01
 11
5.79614094E+01
 21
4.68858584E+01
  0
LINE
  8
0
 62
4
 10
5.79614094E+01
 20
4.03858584E+01
 11
6.69614094E+01
 21
4.03858584E+01
  0
LINE
  8
0
 62
4
 10
6.94614094E+01
 20
3.99858584E+01
 11
6.94614094E+01
 21
3.68858584E+01
  0
LINE
  8
0
 62
4
 10
5.54614094E+01
 20
3.99858584E+01
 11
5.54614094E+01
 21
3.68858584E+01
  0
LINE
  8
0
 62
4
 10
6.94614094E+01
 20
3.81858584E+01
 11
7.49614094E+01
 21
3.81858584E+01
  0
LINE
  8
0
 62
4
 10
6.94614094E+01
 20
4.21858584E+01
 11
7.49614094E+01
 21
4.21858584E+01
  0
LINE
  8
0
 62
6
 10
4.29084085E+01
 20
4.14858584E+01
 11
4.03084085E+01
 21
3.88858584E+01
  0
LINE
  8
0
 62
4
 10
3.79714094E+01
 20
4.14858584E+01
 11
3.79714094E+01
 21
3.88858584E+01
  0
LINE
  8
0
 62
4
 10
3.49714094E+01
 20
4.21858584E+01
 11
3.49714094E+01
 21
3.81858584E+01
  0
LINE
  8
0
 62
4
 10
3.49714094E+01
 20
4.21858584E+01
 11
3.79714094E+01
 21
4.14858584E+01
  0
LINE
  8
0
 62
4
 10
3.49714094E+01
 20
3.81858584E+01
 11
3.79714094E+01
 21
3.88858584E+01
  0
LINE
  8
0
 62
4
 10
3.79714094E+01
 20
3.88858584E+01
 11
4.03084085E+01
 21
3.88858584E+01
  0
LINE
  8
0
 62
4
 10
3.79714094E+01
 20
4.14858584E+01
 11
4.29084085E+01
 21
4.14858584E+01
  0
ARC
  8
0
 62
4
 10
2.39697437E+01
 20
4.83841928E+01
 40
1.00166704E+00
 50
9.52762946E-02
 51
8.99047236E+01
  0
ARC
  8
0
 62
4
 10
2.09722009E+01
 20
4.83850669E+01
 40
1.00079180E+00
 50
9.00000002E+01
 51
1.79954687E+02
  0
LINE
  8
0
 62
4
 10
2.69714094E+01
 20
3.68858584E+01
 11
2.94714094E+01
 21
3.68858584E+01
  0
LINE
  8
0
 62
4
 10
1.54714094E+01
 20
3.68858584E+01
 11
1.79714094E+01
 21
3.68858584E+01
  0
LINE
  8
0
 62
4
 10
1.54714094E+01
 20
4.31858584E+01
 11
1.54714094E+01
 21
4.03858584E+01
  0
LINE
  8
0
 62
4
 10
2.94714094E+01
 20
4.31858584E+01
 11
2.94714094E+01
 21
4.03858584E+01
  0
LINE
  8
0
 62
4
 10
9.97140938E+00
 20
3.91858584E+01
 11
1.09714094E+01
 21
3.81858584E+01
  0
LINE
  8
0
 62
4
 10
9.97140938E+00
 20
4.11858584E+01
 11
1.09714094E+01
 21
4.21858584E+01
  0
LINE
  8
0
 62
4
 10
1.09714094E+01
 20
4.21858584E+01
 11
1.09714094E+01
 21
3.81858584E+01
  0
LINE
  8
0
 62
4
 10
1.99714094E+01
 20
4.83858584E+01
 11
1.99714094E+01
 21
4.78858584E+01
  0
LINE
  8
0
 62
4
 10
2.49714094E+01
 20
4.83858584E+01
 11
2.49714094E+01
 21
4.78858584E+01
  0
LINE
  8
0
 62
4
 10
2.09714094E+01
 20
4.93858584E+01
 11
2.39714094E+01
 21
4.93858584E+01
  0
LINE
  8
0
 62
4
 10
1.99714094E+01
 20
4.78858584E+01
 11
2.49714094E+01
 21
4.78858584E+01
  0
LINE
  8
0
 62
4
 10
1.09714094E+01
 20
3.81858584E+01
 11
1.54714094E+01
 21
3.81858584E+01
  0
LINE
  8
0
 62
4
 10
9.97140938E+00
 20
4.11858584E+01
 11
9.97140938E+00
 21
3.91858584E+01
  0
LINE
  8
0
 62
4
 10
1.79714094E+01
 20
2.62358584E+01
 11
2.69714094E+01
 21
2.62358584E+01
  0
LINE
  8
0
 62
4
 10
2.69714094E+01
 20
4.03858584E+01
 11
2.94714094E+01
 21
4.03858584E+01
  0
LINE
  8
0
 62
4
 10
1.79714094E+01
 20
4.68858584E+01
 11
2.69714094E+01
 21
4.68858584E+01
  0
LINE
  8
0
 62
4
 10
1.79714094E+01
 20
4.03858584E+01
 11
1.79714094E+01
 21
2.62358584E+01
  0
LINE
  8
0
 62
4
 10
2.69714094E+01
 20
4.03858584E+01
 11
2.69714094E+01
 21
2.62358584E+01
  0
LINE
  8
0
 62
4
 10
1.54714094E+01
 20
4.21858584E+01
 11
1.09714094E+01
 21
4.21858584E+01
  0
LINE
  8
0
 62
4
 10
2.39714094E+01
 20
4.78858584E+01
 11
2.39714094E+01
 21
4.68858584E+01
  0
LINE
  8
0
 62
4
 10
2.09714094E+01
 20
4.78858584E+01
 11
2.09714094E+01
 21
4.68858584E+01
  0
LINE
  8
0
 62
6
 10
2.37014094E+01
 20
4.78858584E+01
 11
2.37014094E+01
 21
4.68858584E+01
  0
LINE
  8
0
 62
6
 10
2.12414094E+01
 20
4.78858584E+01
 11
2.12414094E+01
 21
4.68858584E+01
  0
LINE
  8
0
 62
4
 10
1.79714094E+01
 20
2.62398058E+01
 11
2.69714094E+01
 21
2.62398058E+01
  0
LINE
  8
0
 62
4
 10
1.54714094E+01
 20
3.99858584E+01
 11
1.79714094E+01
 21
3.99858584E+01
  0
LINE
  8
0
 62
4
 10
1.54714094E+01
 20
4.03858584E+01
 11
1.79714094E+01
 21
4.03858584E+01
  0
LINE
  8
0
 62
4
 10
1.54714094E+01
 20
4.31858584E+01
 11
1.79714094E+01
 21
4.31858584E+01
  0
LINE
  8
0
 62
4
 10
2.69714094E+01
 20
4.31858584E+01
 11
2.94714094E+01
 21
4.31858584E+01
  0
LINE
  8
0
 62
4
 10
2.69714094E+01
 20
3.99858584E+01
 11
2.94714094E+01
 21
3.99858584E+01
  0
LINE
  8
0
 62
4
 10
2.69714094E+01
 20
4.03858584E+01
 11
2.69714094E+01
 21
4.68858584E+01
  0
LINE
  8
0
 62
4
 10
1.79714094E+01
 20
4.03858584E+01
 11
1.79714094E+01
 21
4.68858584E+01
  0
LINE
  8
0
 62
4
 10
1.79714094E+01
 20
4.03858584E+01
 11
2.69714094E+01
 21
4.03858584E+01
  0
LINE
  8
0
 62
4
 10
2.94714094E+01
 20
3.99858584E+01
 11
2.94714094E+01
 21
3.68858584E+01
  0
LINE
  8
0
 62
4
 10
1.54714094E+01
 20
3.99858584E+01
 11
1.54714094E+01
 21
3.68858584E+01
  0
LINE
  8
0
 62
4
 10
2.94714094E+01
 20
3.81858584E+01
 11
3.49714094E+01
 21
3.81858584E+01
  0
LINE
  8
0
 62
4
 10
2.94714094E+01
 20
4.21858584E+01
 11
3.49714094E+01
 21
4.21858584E+01
  0
LINE
  8
0
 62
6
 10
-9.15915625E-02
 20
4.14958584E+01
 11
-2.69159156E+00
 21
3.88958584E+01
  0
LINE
  8
0
 62
4
 10
-5.02859064E+00
 20
4.14958584E+01
 11
-5.02859064E+00
 21
3.88958584E+01
  0
LINE
  8
0
 62
4
 10
-8.02859064E+00
 20
4.21958584E+01
 11
-8.02859064E+00
 21
3.81958584E+01
  0
LINE
  8
0
 62
4
 10
-8.02859064E+00
 20
4.21958584E+01
 11
-5.02859064E+00
 21
4.14958584E+01
  0
LINE
  8
0
 62
4
 10
-8.02859064E+00
 20
3.81958584E+01
 11
-5.02859065E+00
 21
3.88958584E+01
  0
LINE
  8
0
 62
4
 10
-5.02859065E+00
 20
3.88958584E+01
 11
-2.69159156E+00
 21
3.88958584E+01
  0
LINE
  8
0
 62
4
 10
-5.02859065E+00
 20
4.14958584E+01
 11
-9.15915625E-02
 21
4.14958584E+01
  0
ARC
  8
0
 62
4
 10
-1.90302563E+01
 20
4.83941928E+01
 40
1.00166704E+00
 50
9.52762946E-02
 51
8.99047236E+01
  0
ARC
  8
0
 62
4
 10
-2.20277992E+01
 20
4.83950669E+01
 40
1.00079180E+00
 50
9.00000002E+01
 51
1.79954687E+02
  0
LINE
  8
0
 62
4
 10
-1.60285906E+01
 20
3.68958584E+01
 11
-1.35285906E+01
 21
3.68958584E+01
  0
LINE
  8
0
 62
4
 10
-2.75285906E+01
 20
3.68958584E+01
 11
-2.50285906E+01
 21
3.68958584E+01
  0
LINE
  8
0
 62
4
 10
-2.75285906E+01
 20
4.31958584E+01
 11
-2.75285906E+01
 21
4.03958584E+01
  0
LINE
  8
0
 62
4
 10
-1.35285906E+01
 20
4.31958584E+01
 11
-1.35285906E+01
 21
4.03958584E+01
  0
LINE
  8
0
 62
4
 10
-3.30285906E+01
 20
3.91958584E+01
 11
-3.20285906E+01
 21
3.81958584E+01
  0
LINE
  8
0
 62
4
 10
-3.30285906E+01
 20
4.11958584E+01
 11
-3.20285906E+01
 21
4.21958584E+01
  0
LINE
  8
0
 62
4
 10
-3.20285906E+01
 20
4.21958584E+01
 11
-3.20285906E+01
 21
3.81958584E+01
  0
LINE
  8
0
 62
4
 10
-2.30285906E+01
 20
4.83958584E+01
 11
-2.30285906E+01
 21
4.78958584E+01
  0
LINE
  8
0
 62
4
 10
-1.80285906E+01
 20
4.83958584E+01
 11
-1.80285906E+01
 21
4.78958584E+01
  0
LINE
  8
0
 62
4
 10
-2.20285906E+01
 20
4.93958584E+01
 11
-1.90285906E+01
 21
4.93958584E+01
  0
LINE
  8
0
 62
4
 10
-2.30285906E+01
 20
4.78958584E+01
 11
-1.80285906E+01
 21
4.78958584E+01
  0
LINE
  8
0
 62
4
 10
-3.20285906E+01
 20
3.81958584E+01
 11
-2.75285906E+01
 21
3.81958584E+01
  0
LINE
  8
0
 62
4
 10
-3.30285906E+01
 20
4.11958584E+01
 11
-3.30285906E+01
 21
3.91958584E+01
  0
LINE
  8
0
 62
4
 10
-2.50285906E+01
 20
2.62458584E+01
 11
-1.60285906E+01
 21
2.62458584E+01
  0
LINE
  8
0
 62
4
 10
-1.60285906E+01
 20
4.03958584E+01
 11
-1.35285906E+01
 21
4.03958584E+01
  0
LINE
  8
0
 62
4
 10
-2.50285906E+01
 20
4.68958584E+01
 11
-1.60285906E+01
 21
4.68958584E+01
  0
LINE
  8
0
 62
4
 10
-2.50285906E+01
 20
4.03958584E+01
 11
-2.50285906E+01
 21
2.62458584E+01
  0
LINE
  8
0
 62
4
 10
-1.60285906E+01
 20
4.03958584E+01
 11
-1.60285906E+01
 21
2.62458584E+01
  0
LINE
  8
0
 62
4
 10
-2.75285906E+01
 20
4.21958584E+01
 11
-3.20285906E+01
 21
4.21958584E+01
  0
LINE
  8
0
 62
4
 10
-1.90285906E+01
 20
4.78958584E+01
 11
-1.90285906E+01
 21
4.68958584E+01
  0
LINE
  8
0
 62
4
 10
-2.20285906E+01
 20
4.78958584E+01
 11
-2.20285906E+01
 21
4.68958584E+01
  0
LINE
  8
0
 62
6
 10
-1.92985906E+01
 20
4.78958584E+01
 11
-1.92985906E+01
 21
4.68958584E+01
  0
LINE
  8
0
 62
6
 10
-2.17585906E+01
 20
4.78958584E+01
 11
-2.17585906E+01
 21
4.68958584E+01
  0
LINE
  8
0
 62
4
 10
-2.50285906E+01
 20
2.62498058E+01
 11
-1.60285906E+01
 21
2.62498058E+01
  0
LINE
  8
0
 62
4
 10
-2.75285906E+01
 20
3.99958584E+01
 11
-2.50285906E+01
 21
3.99958584E+01
  0
LINE
  8
0
 62
4
 10
-2.75285906E+01
 20
4.03958584E+01
 11
-2.50285906E+01
 21
4.03958584E+01
  0
LINE
  8
0
 62
4
 10
-2.75285906E+01
 20
4.31958584E+01
 11
-2.50285906E+01
 21
4.31958584E+01
  0
LINE
  8
0
 62
4
 10
-1.60285906E+01
 20
4.31958584E+01
 11
-1.35285906E+01
 21
4.31958584E+01
  0
LINE
  8
0
 62
4
 10
-1.60285906E+01
 20
3.99958584E+01
 11
-1.35285906E+01
 21
3.99958584E+01
  0
LINE
  8
0
 62
4
 10
-1.60285906E+01
 20
4.03958584E+01
 11
-1.60285906E+01
 21
4.68958584E+01
  0
LINE
  8
0
 62
4
 10
-2.50285906E+01
 20
4.03958584E+01
 11
-2.50285906E+01
 21
4.68958584E+01
  0
LINE
  8
0
 62
4
 10
-2.50285906E+01
 20
4.03958584E+01
 11
-1.60285906E+01
 21
4.03958584E+01
  0
LINE
  8
0
 62
4
 10
-1.35285906E+01
 20
3.99958584E+01
 11
-1.35285906E+01
 21
3.68958584E+01
  0
LINE
  8
0
 62
4
 10
-2.75285906E+01
 20
3.99958584E+01
 11
-2.75285906E+01
 21
3.68958584E+01
  0
LINE
  8
0
 62
4
 10
-1.35285906E+01
 20
3.81958584E+01
 11
-8.02859064E+00
 21
3.81958584E+01
  0
LINE
  8
0
 62
4
 10
-1.35285906E+01
 20
4.21958584E+01
 11
-8.02859064E+00
 21
4.21958584E+01
  0
LINE
  8
0
 62
6
 10
-4.00815915E+01
 20
4.14958584E+01
 11
-4.26815915E+01
 21
3.88958584E+01
  0
LINE
  8
0
 62
4
 10
-4.50185906E+01
 20
4.14958584E+01
 11
-4.50185906E+01
 21
3.88958584E+01
  0
LINE
  8
0
 62
4
 10
-4.80185906E+01
 20
4.21958584E+01
 11
-4.80185906E+01
 21
3.81958584E+01
  0
LINE
  8
0
 62
4
 10
-4.80185906E+01
 20
4.21958584E+01
 11
-4.50185906E+01
 21
4.14958584E+01
  0
LINE
  8
0
 62
4
 10
-4.80185906E+01
 20
3.81958584E+01
 11
-4.50185906E+01
 21
3.88958584E+01
  0
LINE
  8
0
 62
4
 10
-4.50185906E+01
 20
3.88958584E+01
 11
-4.26815915E+01
 21
3.88958584E+01
  0
LINE
  8
0
 62
4
 10
-4.50185906E+01
 20
4.14958584E+01
 11
-4.00815915E+01
 21
4.14958584E+01
  0
ARC
  8
0
 62
4
 10
-5.90202563E+01
 20
4.83941928E+01
 40
1.00166704E+00
 50
9.52762946E-02
 51
8.99047236E+01
  0
ARC
  8
0
 62
4
 10
-6.20177991E+01
 20
4.83950669E+01
 40
1.00079180E+00
 50
9.00000002E+01
 51
1.79954687E+02
  0
LINE
  8
0
 62
4
 10
-6.75185906E+01
 20
3.68958584E+01
 11
-6.50185906E+01
 21
3.68958584E+01
  0
LINE
  8
0
 62
4
 10
-6.75185906E+01
 20
4.31958584E+01
 11
-6.75185906E+01
 21
4.03958584E+01
  0
LINE
  8
0
 62
4
 10
-7.30185906E+01
 20
3.91958584E+01
 11
-7.20185906E+01
 21
3.81958584E+01
  0
LINE
  8
0
 62
4
 10
-7.30185906E+01
 20
4.11958584E+01
 11
-7.20185906E+01
 21
4.21958584E+01
  0
LINE
  8
0
 62
4
 10
-7.20185906E+01
 20
4.21958584E+01
 11
-7.20185906E+01
 21
3.81958584E+01
  0
LINE
  8
0
 62
4
 10
-6.30185906E+01
 20
4.83958584E+01
 11
-6.30185906E+01
 21
4.78958584E+01
  0
LINE
  8
0
 62
4
 10
-5.80185906E+01
 20
4.83958584E+01
 11
-5.80185906E+01
 21
4.78958584E+01
  0
LINE
  8
0
 62
4
 10
-6.20185906E+01
 20
4.93958584E+01
 11
-5.90185906E+01
 21
4.93958584E+01
  0
LINE
  8
0
 62
4
 10
-6.30185906E+01
 20
4.78958584E+01
 11
-5.80185906E+01
 21
4.78958584E+01
  0
LINE
  8
0
 62
4
 10
-7.20185906E+01
 20
3.81958584E+01
 11
-6.75185906E+01
 21
3.81958584E+01
  0
LINE
  8
0
 62
4
 10
-7.30185906E+01
 20
4.11958584E+01
 11
-7.30185906E+01
 21
3.91958584E+01
  0
LINE
  8
0
 62
4
 10
-6.50185906E+01
 20
2.62458584E+01
 11
-5.60185906E+01
 21
2.62458584E+01
  0
LINE
  8
0
 62
4
 10
-5.60185906E+01
 20
4.03958584E+01
 11
-5.35185906E+01
 21
4.03958584E+01
  0
LINE
  8
0
 62
4
 10
-6.50185906E+01
 20
4.68958584E+01
 11
-5.60185906E+01
 21
4.68958584E+01
  0
LINE
  8
0
 62
4
 10
-6.50185906E+01
 20
4.03958584E+01
 11
-6.50185906E+01
 21
2.62458584E+01
  0
LINE
  8
0
 62
4
 10
-5.60185906E+01
 20
4.03958584E+01
 11
-5.60185906E+01
 21
2.62458584E+01
  0
LINE
  8
0
 62
4
 10
-6.75185906E+01
 20
4.21958584E+01
 11
-7.20185906E+01
 21
4.21958584E+01
  0
LINE
  8
0
 62
4
 10
-5.90185906E+01
 20
4.78958584E+01
 11
-5.90185906E+01
 21
4.68958584E+01
  0
LINE
  8
0
 62
4
 10
-6.20185906E+01
 20
4.78958584E+01
 11
-6.20185906E+01
 21
4.68958584E+01
  0
LINE
  8
0
 62
6
 10
-5.92885906E+01
 20
4.78958584E+01
 11
-5.92885906E+01
 21
4.68958584E+01
  0
LINE
  8
0
 62
6
 10
-6.17485906E+01
 20
4.78958584E+01
 11
-6.17485906E+01
 21
4.68958584E+01
  0
LINE
  8
0
 62
4
 10
-6.50185906E+01
 20
2.62498058E+01
 11
-5.60185906E+01
 21
2.62498058E+01
  0
LINE
  8
0
 62
4
 10
-6.75185906E+01
 20
3.99958584E+01
 11
-6.50185906E+01
 21
3.99958584E+01
  0
LINE
  8
0
 62
4
 10
-6.75185906E+01
 20
4.03958584E+01
 11
-6.50185906E+01
 21
4.03958584E+01
  0
LINE
  8
0
 62
4
 10
-6.75185906E+01
 20
4.31958584E+01
 11
-6.50185906E+01
 21
4.31958584E+01
  0
LINE
  8
0
 62
4
 10
-5.60185906E+01
 20
4.03958584E+01
 11
-5.60185906E+01
 21
4.68958584E+01
  0
LINE
  8
0
 62
4
 10
-6.50185906E+01
 20
4.03958584E+01
 11
-6.50185906E+01
 21
4.68958584E+01
  0
LINE
  8
0
 62
4
 10
-6.50185906E+01
 20
4.03958584E+01
 11
-5.60185906E+01
 21
4.03958584E+01
  0
LINE
  8
0
 62
4
 10
-6.75185906E+01
 20
3.99958584E+01
 11
-6.75185906E+01
 21
3.68958584E+01
  0
LINE
  8
0
 62
4
 10
-5.35185906E+01
 20
4.21958584E+01
 11
-4.80185906E+01
 21
4.21958584E+01
  0
LINE
  8
0
 62
7
 10
-5.60185906E+01
 20
2.63958584E+01
 11
-2.50285906E+01
 21
2.63958584E+01
  0
LINE
  8
0
 62
7
 10
-1.35285906E+01
 20
3.73958584E+01
 11
-1.10285906E+01
 21
3.73958584E+01
  0
LINE
  8
0
 62
7
 10
-1.60285906E+01
 20
2.63958584E+01
 11
-1.10285906E+01
 21
2.63958584E+01
  0
LINE
  8
0
 62
7
 10
1.54714094E+01
 20
3.73858584E+01
 11
7.97140938E+00
 21
3.73858584E+01
  0
LINE
  8
0
 62
7
 10
1.79714094E+01
 20
2.63958584E+01
 11
7.97140938E+00
 21
2.63958584E+01
  0
LINE
  8
0
 62
7
 10
5.54614094E+01
 20
3.73858584E+01
 11
2.94714094E+01
 21
3.73858584E+01
  0
LINE
  8
0
 62
7
 10
5.79614094E+01
 20
2.63958584E+01
 11
2.69714094E+01
 21
2.63958584E+01
  0
ARC
  8
0
 62
7
 10
-1.48024612E+02
 20
3.19018794E+01
 40
6.99402955E+00
 50
1.21017085E+02
 51
1.48982915E+02
  0
ARC
  8
0
 62
7
 10
-1.48012072E+02
 20
3.18873206E+01
 40
7.00111676E+00
 50
3.11212937E+01
 51
5.91179366E+01
  0
ARC
  8
0
 62
7
 10
-1.48012073E+02
 20
3.19143974E+01
 40
7.00111833E+00
 50
3.00882066E+02
 51
3.28878703E+02
  0
ARC
  8
0
 62
7
 10
-1.48024610E+02
 20
3.18998386E+01
 40
6.99403112E+00
 50
2.11017088E+02
 51
2.38982912E+02
  0
ARC
  8
0
 62
7
 10
-1.48022762E+02
 20
3.19025201E+01
 40
3.99405823E+00
 50
9.10878482E+01
 51
1.49062800E+02
  0
ARC
  8
0
 62
7
 10
-1.48025444E+02
 20
3.19007509E+01
 40
3.99584669E+00
 50
3.09514064E+01
 51
8.88979451E+01
  0
ARC
  8
0
 62
7
 10
-1.48025632E+02
 20
3.19008584E+01
 40
4.00544151E+00
 50
3.31112406E+02
 51
2.88875940E+01
  0
ARC
  8
0
 62
7
 10
-1.48025445E+02
 20
3.19009677E+01
 40
3.99584842E+00
 50
2.71102069E+02
 51
3.29048580E+02
  0
ARC
  8
0
 62
7
 10
-1.48022761E+02
 20
3.18991985E+01
 40
3.99405996E+00
 50
2.10937213E+02
 51
2.68912138E+02
  0
ARC
  8
0
 62
7
 10
-1.48025632E+02
 20
3.19008584E+01
 40
3.99311751E+00
 50
1.51014793E+02
 51
2.08985207E+02
  0
CIRCLE
  8
0
 62
4
 10
-1.48025632E+02
 20
3.19008596E+01
 40
3.50000000E+00
  0
CIRCLE
  8
0
 62
7
 10
-1.48025632E+02
 20
3.19008596E+01
 40
2.00000000E+00
  0
LINE
  8
0
 62
7
 10
-1.46418591E+02
 20
3.78958584E+01
 11
-1.44418591E+02
 21
3.78958584E+01
  0
LINE
  8
0
 62
7
 10
-1.46418591E+02
 20
2.59058584E+01
 11
-1.44418591E+02
 21
2.59058584E+01
  0
LINE
  8
0
 62
4
 10
-1.42018591E+02
 20
3.53558584E+01
 11
-1.48018591E+02
 21
3.88258584E+01
  0
LINE
  8
0
 62
4
 10
-1.48018591E+02
 20
2.49758584E+01
 11
-1.42018591E+02
 21
2.84458584E+01
  0
LINE
  8
0
 62
4
 10
-1.54018591E+02
 20
2.84458584E+01
 11
-1.48018591E+02
 21
2.49758584E+01
  0
LINE
  8
0
 62
7
 10
-1.54018591E+02
 20
3.55058584E+01
 11
-1.54018591E+02
 21
3.53558584E+01
  0
LINE
  8
0
 62
7
 10
-1.51628591E+02
 20
3.78958584E+01
 11
-1.49628591E+02
 21
3.78958584E+01
  0
LINE
  8
0
 62
7
 10
-1.51628591E+02
 20
2.59058584E+01
 11
-1.49628591E+02
 21
2.59058584E+01
  0
LINE
  8
0
 62
7
 10
-1.42018591E+02
 20
3.55058584E+01
 11
-1.42018591E+02
 21
3.53558584E+01
  0
LINE
  8
0
 62
4
 10
-1.48018591E+02
 20
3.88258584E+01
 11
-1.54018591E+02
 21
3.53558584E+01
  0
LINE
  8
0
 62
4
 10
-1.44518591E+02
 20
3.39158584E+01
 11
-1.48018591E+02
 21
3.59358584E+01
  0
LINE
  8
0
 62
4
 10
-1.44518591E+02
 20
2.98858584E+01
 11
-1.44518591E+02
 21
3.39158584E+01
  0
LINE
  8
0
 62
4
 10
-1.48018591E+02
 20
2.78658584E+01
 11
-1.44518591E+02
 21
2.98858584E+01
  0
LINE
  8
0
 62
4
 10
-1.51518591E+02
 20
2.98858584E+01
 11
-1.48018591E+02
 21
2.78658584E+01
  0
LINE
  8
0
 62
4
 10
-1.51518591E+02
 20
3.39158584E+01
 11
-1.51518591E+02
 21
2.98858584E+01
  0
LINE
  8
0
 62
4
 10
-1.48018591E+02
 20
3.59358584E+01
 11
-1.51518591E+02
 21
3.39158584E+01
  0
LINE
  8
0
  6
CENTER
 62
2
 10
-1.48018591E+02
 20
5.09602726E+01
 11
-1.48018591E+02
 21
2.39058584E+01
  0
LINE
  8
0
  6
CENTER
 62
2
 10
-1.55675746E+02
 20
3.18958584E+01
 11
-1.40018591E+02
 21
3.18958584E+01
  0
CIRCLE
  8
0
 62
2
 10
-1.48018591E+02
 20
3.18958584E+01
 40
1.62100000E+00
  0
LINE
  8
0
 62
4
 10
-1.42018591E+02
 20
3.53558584E+01
 11
-1.42018591E+02
 21
2.84458584E+01
  0
LINE
  8
0
 62
7
 10
-1.42018591E+02
 20
2.84458584E+01
 11
-1.42018591E+02
 21
2.82958584E+01
  0
LINE
  8
0
 62
4
 10
-1.54018591E+02
 20
3.53558584E+01
 11
-1.54018591E+02
 21
2.84458584E+01
  0
LINE
  8
0
 62
7
 10
-1.54018591E+02
 20
2.84458584E+01
 11
-1.54018591E+02
 21
2.82958584E+01
  0
ARC
  8
0
 62
4
 10
-1.49526217E+02
 20
4.84034851E+01
 40
9.92402587E-01
 50
8.95596718E+01
 51
1.80440329E+02
  0
ARC
  8
0
 62
4
 10
-1.46518720E+02
 20
4.83957289E+01
 40
1.00012957E+00
 50
7.42247612E-03
 51
9.00000002E+01
  0
ARC
  8
0
 62
4
 10
-1.51526216E+02
 20
4.61034836E+01
 40
7.92411497E-01
 50
8.94486475E+01
 51
1.80551352E+02
  0
ARC
  8
0
 62
4
 10
-1.44518729E+02
 20
4.60957201E+01
 40
8.00138358E-01
 50
9.90662024E-03
 51
9.00000002E+01
  0
ARC
  8
0
 62
4
 10
-1.51026216E+02
 20
4.56034836E+01
 40
4.92433852E-01
 50
8.91127567E+01
 51
1.80887243E+02
  0
ARC
  8
0
 62
4
 10
-1.45018751E+02
 20
4.55956983E+01
 40
5.00160181E-01
 50
1.83465799E-02
 51
9.00000002E+01
  0
LINE
  8
0
 62
4
 10
-1.49518591E+02
 20
4.53958584E+01
 11
-1.49518591E+02
 21
4.41958584E+01
  0
LINE
  8
0
 62
6
 10
-1.49248591E+02
 20
4.53958584E+01
 11
-1.49248591E+02
 21
4.39258584E+01
  0
LINE
  8
0
 62
6
 10
-1.46788591E+02
 20
4.53958584E+01
 11
-1.46788591E+02
 21
4.39258584E+01
  0
LINE
  8
0
 62
4
 10
-1.46518591E+02
 20
4.53958584E+01
 11
-1.46518591E+02
 21
4.41958584E+01
  0
LINE
  8
0
 62
4
 10
-1.46518591E+02
 20
4.93958584E+01
 11
-1.49518591E+02
 21
4.93958584E+01
  0
LINE
  8
0
 62
4
 10
-1.45518591E+02
 20
4.83958584E+01
 11
-1.45518591E+02
 21
4.78958584E+01
  0
LINE
  8
0
 62
4
 10
-1.50518591E+02
 20
4.83958584E+01
 11
-1.50518591E+02
 21
4.78958584E+01
  0
LINE
  8
0
 62
6
 10
-1.46788591E+02
 20
4.78958584E+01
 11
-1.46788591E+02
 21
4.68958584E+01
  0
LINE
  8
0
 62
6
 10
-1.49248591E+02
 20
4.78958584E+01
 11
-1.49248591E+02
 21
4.68958584E+01
  0
LINE
  8
0
 62
4
 10
-1.49518591E+02
 20
4.78958584E+01
 11
-1.49518591E+02
 21
4.68958584E+01
  0
LINE
  8
0
 62
4
 10
-1.46518591E+02
 20
4.78958584E+01
 11
-1.46518591E+02
 21
4.68958584E+01
  0
LINE
  8
0
 62
4
 10
-1.53176482E+02
 20
4.23864522E+01
 11
-1.53918591E+02
 21
4.28258584E+01
  0
LINE
  8
0
 62
4
 10
-1.53090740E+02
 20
4.32672911E+01
 11
-1.53118591E+02
 21
4.32858584E+01
  0
LINE
  8
0
 62
4
 10
-1.44518591E+02
 20
4.55958584E+01
 11
-1.44668591E+02
 21
4.55958584E+01
  0
LINE
  8
0
 62
4
 10
-1.44668591E+02
 20
4.55958584E+01
 11
-1.44668591E+02
 21
4.03958584E+01
  0
LINE
  8
0
 62
4
 10
-1.52318591E+02
 20
4.28258584E+01
 11
-1.52615301E+02
 21
4.29906973E+01
  0
LINE
  8
0
 62
4
 10
-1.53118591E+02
 20
4.51958584E+01
 11
-1.53118591E+02
 21
4.32858584E+01
  0
LINE
  8
0
 62
4
 10
-1.53118591E+02
 20
4.51958584E+01
 11
-1.53918591E+02
 21
4.51958584E+01
  0
LINE
  8
0
 62
4
 10
-1.53918591E+02
 20
4.51958584E+01
 11
-1.53918591E+02
 21
4.28258584E+01
  0
LINE
  8
0
 62
4
 10
-1.52318591E+02
 20
4.18958584E+01
 11
-1.52700205E+02
 21
4.21184670E+01
  0
LINE
  8
0
 62
4
 10
-1.51518591E+02
 20
3.96958584E+01
 11
-1.52318591E+02
 21
3.96958584E+01
  0
LINE
  8
0
 62
4
 10
-1.43718591E+02
 20
4.03958584E+01
 11
-1.44518591E+02
 21
4.03958584E+01
  0
LINE
  8
0
 62
4
 10
-1.45958591E+02
 20
4.60958584E+01
 11
-1.46018591E+02
 21
4.53958584E+01
  0
LINE
  8
0
 62
4
 10
-1.50078591E+02
 20
4.60958584E+01
 11
-1.50018591E+02
 21
4.53958584E+01
  0
LINE
  8
0
 62
4
 10
-1.43718591E+02
 20
4.60958584E+01
 11
-1.43718591E+02
 21
4.03958584E+01
  0
LINE
  8
0
 62
4
 10
-1.52318591E+02
 20
4.60958584E+01
 11
-1.52318591E+02
 21
3.96958584E+01
  0
LINE
  8
0
 62
4
 10
-1.45018591E+02
 20
4.60958584E+01
 11
-1.51018591E+02
 21
4.60958584E+01
  0
LINE
  8
0
 62
4
 10
-1.46018591E+02
 20
4.53958584E+01
 11
-1.50018591E+02
 21
4.53958584E+01
  0
LINE
  8
0
 62
4
 10
-1.44518591E+02
 20
4.68958584E+01
 11
-1.51518591E+02
 21
4.68958584E+01
  0
LINE
  8
0
 62
4
 10
-1.45518591E+02
 20
4.78958584E+01
 11
-1.50518591E+02
 21
4.78958584E+01
  0
LINE
  8
0
 62
4
 10
-1.44518591E+02
 20
4.55958584E+01
 11
-1.44518591E+02
 21
4.03958584E+01
  0
LINE
  8
0
 62
4
 10
-1.51518591E+02
 20
4.55958584E+01
 11
-1.51518591E+02
 21
3.96958584E+01
  0
LINE
  8
0
 62
4
 10
-1.45968591E+02
 20
4.21958584E+01
 11
-1.45968591E+02
 21
3.81958584E+01
  0
LINE
  8
0
 62
4
 10
-1.44768591E+02
 20
3.99958584E+01
 11
-1.44768591E+02
 21
3.78958584E+01
  0
LINE
  8
0
 62
4
 10
-1.44768591E+02
 20
4.03958584E+01
 11
-1.45968591E+02
 21
4.03958584E+01
  0
LINE
  8
0
 62
4
 10
-1.44768591E+02
 20
3.99958584E+01
 11
-1.45968591E+02
 21
3.99958584E+01
  0
LINE
  8
0
 62
4
 10
-1.44768591E+02
 20
4.31958584E+01
 11
-1.51268591E+02
 21
4.31958584E+01
  0
LINE
  8
0
 62
4
 10
-1.47018591E+02
 20
4.24958584E+01
 11
-1.49018591E+02
 21
4.24958584E+01
  0
LINE
  8
0
 62
4
 10
-1.49018591E+02
 20
4.24958584E+01
 11
-1.49018591E+02
 21
4.21958584E+01
  0
LINE
  8
0
 62
4
 10
-1.47018591E+02
 20
4.24958584E+01
 11
-1.47018591E+02
 21
4.21958584E+01
  0
LINE
  8
0
 62
4
 10
-1.45968591E+02
 20
4.21958584E+01
 11
-1.50068591E+02
 21
4.21958584E+01
  0
LINE
  8
0
 62
4
 10
-1.50068591E+02
 20
4.21958584E+01
 11
-1.50068591E+02
 21
3.81958584E+01
  0
LINE
  8
0
 62
4
 10
-1.45968591E+02
 20
3.81958584E+01
 11
-1.46929253E+02
 21
3.81958584E+01
  0
LINE
  8
0
 62
4
 10
-1.44768591E+02
 20
4.38958584E+01
 11
-1.51268591E+02
 21
4.38958584E+01
  0
LINE
  8
0
 62
4
 10
-1.44768591E+02
 20
4.38958584E+01
 11
-1.44768591E+02
 21
4.03958584E+01
  0
LINE
  8
0
 62
4
 10
-1.51268591E+02
 20
4.38958584E+01
 11
-1.51268591E+02
 21
3.78958584E+01
  0
LINE
  8
0
 62
4
 10
-1.44668591E+02
 20
4.03958584E+01
 11
-1.43875214E+02
 21
3.75355099E+01
  0
LINE
  8
0
 62
4
 10
-1.44518591E+02
 20
4.03958584E+01
 11
-1.43682102E+02
 21
3.73888657E+01
  0
LINE
  8
0
 62
4
 10
-1.52848591E+02
 20
3.90458584E+01
 11
-1.53072798E+02
 21
3.67425679E+01
  0
LINE
  8
0
 62
4
 10
-1.52368138E+02
 20
4.55298129E+01
 11
-1.53241223E+02
 21
3.65605722E+01
  0
LINE
  8
0
 62
4
 10
-1.52848591E+02
 20
3.90458584E+01
 11
-1.52997885E+02
 21
3.90603911E+01
  0
LINE
  8
0
 62
4
 10
-1.52865786E+02
 20
4.55782549E+01
 11
-1.53815263E+02
 21
3.58242257E+01
  0
LINE
  8
0
 62
4
 10
-1.52368138E+02
 20
4.55298129E+01
 11
-1.52865786E+02
 21
4.55782549E+01
  0
LINE
  8
0
 62
4
 10
-1.49518591E+02
 20
4.41958584E+01
 11
-1.49218591E+02
 21
4.38958584E+01
  0
LINE
  8
0
 62
4
 10
-1.46518591E+02
 20
4.41958584E+01
 11
-1.46818591E+02
 21
4.38958584E+01
  0
LINE
  8
0
 62
4
 10
-1.49107928E+02
 20
3.81958584E+01
 11
-1.50068591E+02
 21
3.81958584E+01
  0
LINE
  8
0
 62
4
 10
-1.49068591E+02
 20
4.11958584E+01
 11
-1.49068591E+02
 21
3.91958584E+01
  0
LINE
  8
0
 62
4
 10
-1.46968591E+02
 20
4.11958584E+01
 11
-1.46968591E+02
 21
3.91958584E+01
  0
LINE
  8
0
 62
4
 10
-1.46968591E+02
 20
4.11958584E+01
 11
-1.49068591E+02
 21
4.11958584E+01
  0
LINE
  8
0
 62
4
 10
-1.46968591E+02
 20
3.91958584E+01
 11
-1.49068591E+02
 21
3.91958584E+01
  0
LINE
  8
0
 62
4
 10
-1.50068591E+02
 20
4.21958584E+01
 11
-1.49068591E+02
 21
4.11958584E+01
  0
LINE
  8
0
 62
4
 10
-1.45968591E+02
 20
4.21958584E+01
 11
-1.46968591E+02
 21
4.11958584E+01
  0
LINE
  8
0
 62
4
 10
-1.50068591E+02
 20
3.81958584E+01
 11
-1.49068591E+02
 21
3.91958584E+01
  0
LINE
  8
0
 62
7
 10
-1.46968591E+02
 20
3.91958584E+01
 11
-1.45968591E+02
 21
3.81958584E+01
  0
CIRCLE
  8
0
 62
4
 10
-1.48015040E+02
 20
3.19008584E+01
 40
5.99644983E+00
  0
LINE
  8
0
 62
7
 10
1.39051062E+02
 20
2.84458584E+01
 11
1.39051062E+02
 21
2.82958584E+01
  0
LINE
  8
0
 62
4
 10
1.39051062E+02
 20
3.53558584E+01
 11
1.39051062E+02
 21
2.84458584E+01
  0
LINE
  8
0
 62
7
 10
1.51051062E+02
 20
2.84458584E+01
 11
1.51051062E+02
 21
2.82958584E+01
  0
LINE
  8
0
 62
4
 10
1.51051062E+02
 20
3.53558584E+01
 11
1.51051062E+02
 21
2.84458584E+01
  0
CIRCLE
  8
0
 62
2
 10
1.45051062E+02
 20
3.18958584E+01
 40
1.62100000E+00
  0
LINE
  8
0
  6
CENTER
 62
2
 10
1.45051062E+02
 20
5.05712259E+01
 11
1.45051062E+02
 21
2.39058584E+01
  0
LINE
  8
0
 62
4
 10
1.45051062E+02
 20
3.59358584E+01
 11
1.41551062E+02
 21
3.39158584E+01
  0
LINE
  8
0
 62
4
 10
1.41551062E+02
 20
3.39158584E+01
 11
1.41551062E+02
 21
2.98858584E+01
  0
LINE
  8
0
 62
4
 10
1.41551062E+02
 20
2.98858584E+01
 11
1.45051062E+02
 21
2.78658584E+01
  0
LINE
  8
0
 62
4
 10
1.45051062E+02
 20
2.78658584E+01
 11
1.48551062E+02
 21
2.98858584E+01
  0
LINE
  8
0
 62
4
 10
1.48551062E+02
 20
2.98858584E+01
 11
1.48551062E+02
 21
3.39158584E+01
  0
LINE
  8
0
 62
4
 10
1.48551062E+02
 20
3.39158584E+01
 11
1.45051062E+02
 21
3.59358584E+01
  0
LINE
  8
0
 62
4
 10
1.45051062E+02
 20
3.88258584E+01
 11
1.39051062E+02
 21
3.53558584E+01
  0
LINE
  8
0
 62
7
 10
1.51051062E+02
 20
3.55058584E+01
 11
1.51051062E+02
 21
3.53558584E+01
  0
LINE
  8
0
 62
7
 10
1.41441062E+02
 20
2.59058584E+01
 11
1.43441062E+02
 21
2.59058584E+01
  0
LINE
  8
0
 62
7
 10
1.41441062E+02
 20
3.78958584E+01
 11
1.43441062E+02
 21
3.78958584E+01
  0
LINE
  8
0
 62
7
 10
1.39051062E+02
 20
3.55058584E+01
 11
1.39051062E+02
 21
3.53558584E+01
  0
LINE
  8
0
 62
4
 10
1.39051062E+02
 20
2.84458584E+01
 11
1.45051062E+02
 21
2.49758584E+01
  0
LINE
  8
0
 62
4
 10
1.45051062E+02
 20
2.49758584E+01
 11
1.51051062E+02
 21
2.84458584E+01
  0
LINE
  8
0
 62
4
 10
1.51051062E+02
 20
3.53558584E+01
 11
1.45051062E+02
 21
3.88258584E+01
  0
LINE
  8
0
 62
7
 10
1.46651062E+02
 20
2.59058584E+01
 11
1.48651062E+02
 21
2.59058584E+01
  0
LINE
  8
0
 62
7
 10
1.46651062E+02
 20
3.78958584E+01
 11
1.48651062E+02
 21
3.78958584E+01
  0
CIRCLE
  8
0
 62
7
 10
1.45044021E+02
 20
3.19008596E+01
 40
2.00000000E+00
  0
CIRCLE
  8
0
 62
4
 10
1.45044021E+02
 20
3.19008596E+01
 40
3.50000000E+00
  0
ARC
  8
0
 62
7
 10
1.45044021E+02
 20
3.19008584E+01
 40
3.99311751E+00
 50
1.51014793E+02
 51
2.08985207E+02
  0
ARC
  8
0
 62
7
 10
1.45046892E+02
 20
3.18991985E+01
 40
3.99405996E+00
 50
2.10937213E+02
 51
2.68912138E+02
  0
ARC
  8
0
 62
7
 10
1.45044208E+02
 20
3.19009677E+01
 40
3.99584842E+00
 50
2.71102069E+02
 51
3.29048580E+02
  0
ARC
  8
0
 62
7
 10
1.45044021E+02
 20
3.19008584E+01
 40
4.00544151E+00
 50
3.31112406E+02
 51
2.88875940E+01
  0
ARC
  8
0
 62
7
 10
1.45044209E+02
 20
3.19007509E+01
 40
3.99584669E+00
 50
3.09514064E+01
 51
8.88979451E+01
  0
ARC
  8
0
 62
7
 10
1.45046891E+02
 20
3.19025201E+01
 40
3.99405823E+00
 50
9.10878482E+01
 51
1.49062800E+02
  0
ARC
  8
0
 62
7
 10
1.45045043E+02
 20
3.18998386E+01
 40
6.99403112E+00
 50
2.11017088E+02
 51
2.38982912E+02
  0
CIRCLE
  8
0
 62
4
 10
1.45044021E+02
 20
3.19008596E+01
 40
6.00000000E+00
  0
ARC
  8
0
 62
7
 10
1.45057580E+02
 20
3.19143974E+01
 40
7.00111833E+00
 50
3.00882066E+02
 51
3.28878703E+02
  0
ARC
  8
0
 62
7
 10
1.45057581E+02
 20
3.18873206E+01
 40
7.00111676E+00
 50
3.11212937E+01
 51
5.91179366E+01
  0
ARC
  8
0
 62
7
 10
1.45045041E+02
 20
3.19018794E+01
 40
6.99402955E+00
 50
1.21017085E+02
 51
1.48982915E+02
  0
ARC
  8
0
 62
4
 10
1.46558689E+02
 20
4.84034851E+01
 40
9.92402587E-01
 50
3.59559672E+02
 51
9.04403286E+01
  0
ARC
  8
0
 62
4
 10
1.43551192E+02
 20
4.83957289E+01
 40
1.00012957E+00
 50
9.00000002E+01
 51
1.79992578E+02
  0
ARC
  8
0
 62
4
 10
1.48558688E+02
 20
4.61034836E+01
 40
7.92411497E-01
 50
3.59448647E+02
 51
9.05513523E+01
  0
ARC
  8
0
 62
4
 10
1.41551201E+02
 20
4.60957201E+01
 40
8.00138358E-01
 50
9.00000002E+01
 51
1.79990093E+02
  0
ARC
  8
0
 62
4
 10
1.48058688E+02
 20
4.56034836E+01
 40
4.92433852E-01
 50
3.59112757E+02
 51
9.08872431E+01
  0
ARC
  8
0
 62
4
 10
1.42051223E+02
 20
4.55956983E+01
 40
5.00160181E-01
 50
9.00000002E+01
 51
1.79981654E+02
  0
LINE
  8
0
 62
4
 10
1.46351062E+02
 20
3.88958584E+01
 11
1.47101062E+02
 21
3.81958584E+01
  0
LINE
  8
0
 62
4
 10
1.43751062E+02
 20
3.88958584E+01
 11
1.43001062E+02
 21
3.81958584E+01
  0
LINE
  8
0
 62
4
 10
1.46351062E+02
 20
4.14958584E+01
 11
1.47101062E+02
 21
4.21958584E+01
  0
LINE
  8
0
 62
4
 10
1.43001062E+02
 20
4.21958584E+01
 11
1.43751062E+02
 21
4.14958584E+01
  0
LINE
  8
0
 62
4
 10
1.43751062E+02
 20
4.14958584E+01
 11
1.43751062E+02
 21
3.88958584E+01
  0
LINE
  8
0
 62
4
 10
1.46351062E+02
 20
4.14958584E+01
 11
1.46351062E+02
 21
3.88958584E+01
  0
LINE
  8
0
 62
4
 10
1.43751062E+02
 20
4.14958584E+01
 11
1.46351062E+02
 21
4.14958584E+01
  0
LINE
  8
0
 62
4
 10
1.43751062E+02
 20
3.88958584E+01
 11
1.46351062E+02
 21
3.88958584E+01
  0
LINE
  8
0
 62
4
 10
1.46551062E+02
 20
4.53958584E+01
 11
1.46551062E+02
 21
4.41958584E+01
  0
LINE
  8
0
 62
6
 10
1.46281062E+02
 20
4.53958584E+01
 11
1.46281062E+02
 21
4.39258584E+01
  0
LINE
  8
0
 62
6
 10
1.43821062E+02
 20
4.53958584E+01
 11
1.43821062E+02
 21
4.39258584E+01
  0
LINE
  8
0
 62
4
 10
1.43551062E+02
 20
4.53958584E+01
 11
1.43551062E+02
 21
4.41958584E+01
  0
LINE
  8
0
 62
4
 10
1.43551062E+02
 20
4.93958584E+01
 11
1.46551062E+02
 21
4.93958584E+01
  0
LINE
  8
0
 62
4
 10
1.42551062E+02
 20
4.83958584E+01
 11
1.42551062E+02
 21
4.78958584E+01
  0
LINE
  8
0
 62
4
 10
1.47551062E+02
 20
4.83958584E+01
 11
1.47551062E+02
 21
4.78958584E+01
  0
LINE
  8
0
 62
6
 10
1.43821062E+02
 20
4.78958584E+01
 11
1.43821062E+02
 21
4.68958584E+01
  0
LINE
  8
0
 62
6
 10
1.46281062E+02
 20
4.78958584E+01
 11
1.46281062E+02
 21
4.68958584E+01
  0
LINE
  8
0
 62
4
 10
1.46551062E+02
 20
4.78958584E+01
 11
1.46551062E+02
 21
4.68958584E+01
  0
LINE
  8
0
 62
4
 10
1.43551062E+02
 20
4.78958584E+01
 11
1.43551062E+02
 21
4.68958584E+01
  0
LINE
  8
0
 62
4
 10
1.50208954E+02
 20
4.23864522E+01
 11
1.50951062E+02
 21
4.28258584E+01
  0
LINE
  8
0
 62
4
 10
1.50123211E+02
 20
4.32672911E+01
 11
1.50151062E+02
 21
4.32858584E+01
  0
LINE
  8
0
 62
4
 10
1.41551062E+02
 20
4.55958584E+01
 11
1.41701062E+02
 21
4.55958584E+01
  0
LINE
  8
0
 62
4
 10
1.41701062E+02
 20
4.55958584E+01
 11
1.41701062E+02
 21
4.03958584E+01
  0
LINE
  8
0
 62
4
 10
1.49351062E+02
 20
4.28258584E+01
 11
1.49647772E+02
 21
4.29906973E+01
  0
LINE
  8
0
 62
4
 10
1.50151062E+02
 20
4.51958584E+01
 11
1.50151062E+02
 21
4.32858584E+01
  0
LINE
  8
0
 62
4
 10
1.50151062E+02
 20
4.51958584E+01
 11
1.50951062E+02
 21
4.51958584E+01
  0
LINE
  8
0
 62
4
 10
1.50951062E+02
 20
4.51958584E+01
 11
1.50951062E+02
 21
4.28258584E+01
  0
LINE
  8
0
 62
4
 10
1.49351062E+02
 20
4.18958584E+01
 11
1.49732677E+02
 21
4.21184670E+01
  0
LINE
  8
0
 62
4
 10
1.48551062E+02
 20
3.96958584E+01
 11
1.49351062E+02
 21
3.96958584E+01
  0
LINE
  8
0
 62
4
 10
1.40751062E+02
 20
4.03958584E+01
 11
1.41551062E+02
 21
4.03958584E+01
  0
LINE
  8
0
 62
4
 10
1.42991062E+02
 20
4.60958584E+01
 11
1.43051062E+02
 21
4.53958584E+01
  0
LINE
  8
0
 62
4
 10
1.47111062E+02
 20
4.60958584E+01
 11
1.47051062E+02
 21
4.53958584E+01
  0
LINE
  8
0
 62
4
 10
1.40751062E+02
 20
4.60958584E+01
 11
1.40751062E+02
 21
4.03958584E+01
  0
LINE
  8
0
 62
4
 10
1.49351062E+02
 20
4.60958584E+01
 11
1.49351062E+02
 21
3.96958584E+01
  0
LINE
  8
0
 62
4
 10
1.42051062E+02
 20
4.60958584E+01
 11
1.48051062E+02
 21
4.60958584E+01
  0
LINE
  8
0
 62
4
 10
1.43051062E+02
 20
4.53958584E+01
 11
1.47051062E+02
 21
4.53958584E+01
  0
LINE
  8
0
 62
4
 10
1.41551062E+02
 20
4.68958584E+01
 11
1.48551062E+02
 21
4.68958584E+01
  0
LINE
  8
0
 62
4
 10
1.42551062E+02
 20
4.78958584E+01
 11
1.47551062E+02
 21
4.78958584E+01
  0
LINE
  8
0
 62
4
 10
1.41551062E+02
 20
4.55958584E+01
 11
1.41551062E+02
 21
4.03958584E+01
  0
LINE
  8
0
 62
4
 10
1.48551062E+02
 20
4.55958584E+01
 11
1.48551062E+02
 21
3.96958584E+01
  0
LINE
  8
0
 62
4
 10
1.43001062E+02
 20
4.21958584E+01
 11
1.43001062E+02
 21
3.81958584E+01
  0
LINE
  8
0
 62
4
 10
1.41801062E+02
 20
3.99958584E+01
 11
1.41801062E+02
 21
3.78958584E+01
  0
LINE
  8
0
 62
4
 10
1.41801062E+02
 20
4.03958584E+01
 11
1.43001062E+02
 21
4.03958584E+01
  0
LINE
  8
0
 62
4
 10
1.41801062E+02
 20
3.99958584E+01
 11
1.43001062E+02
 21
3.99958584E+01
  0
LINE
  8
0
 62
4
 10
1.41801062E+02
 20
4.31958584E+01
 11
1.48301062E+02
 21
4.31958584E+01
  0
LINE
  8
0
 62
4
 10
1.44051062E+02
 20
4.24958584E+01
 11
1.46051062E+02
 21
4.24958584E+01
  0
LINE
  8
0
 62
4
 10
1.46051062E+02
 20
4.24958584E+01
 11
1.46051062E+02
 21
4.21958584E+01
  0
LINE
  8
0
 62
4
 10
1.44051062E+02
 20
4.24958584E+01
 11
1.44051062E+02
 21
4.21958584E+01
  0
LINE
  8
0
 62
4
 10
1.43001062E+02
 20
4.21958584E+01
 11
1.47101062E+02
 21
4.21958584E+01
  0
LINE
  8
0
 62
4
 10
1.47101062E+02
 20
4.21958584E+01
 11
1.47101062E+02
 21
3.81958584E+01
  0
LINE
  8
0
 62
4
 10
1.43001062E+02
 20
3.81958584E+01
 11
1.43961725E+02
 21
3.81958584E+01
  0
LINE
  8
0
 62
4
 10
1.41801062E+02
 20
4.38958584E+01
 11
1.48301062E+02
 21
4.38958584E+01
  0
LINE
  8
0
 62
4
 10
1.41801062E+02
 20
4.38958584E+01
 11
1.41801062E+02
 21
4.03958584E+01
  0
LINE
  8
0
 62
4
 10
1.48301062E+02
 20
4.38958584E+01
 11
1.48301062E+02
 21
3.78958584E+01
  0
CIRCLE
  8
0
 62
4
 10
1.45051062E+02
 20
4.01958584E+01
 40
1.30000000E+00
  0
LINE
  8
0
 62
4
 10
1.41701062E+02
 20
4.03958584E+01
 11
1.40909568E+02
 21
3.75422972E+01
  0
LINE
  8
0
 62
4
 10
1.41551062E+02
 20
4.03958584E+01
 11
1.40716407E+02
 21
3.73954552E+01
  0
LINE
  8
0
 62
4
 10
1.49881062E+02
 20
3.90458584E+01
 11
1.50105682E+02
 21
3.67383321E+01
  0
LINE
  8
0
 62
4
 10
1.49400610E+02
 20
4.55298129E+01
 11
1.50274062E+02
 21
3.65567913E+01
  0
LINE
  8
0
 62
4
 10
1.49881062E+02
 20
3.90458584E+01
 11
1.50030357E+02
 21
3.90603911E+01
  0
LINE
  8
0
 62
4
 10
1.49898257E+02
 20
4.55782549E+01
 11
1.50847872E+02
 21
3.58228214E+01
  0
LINE
  8
0
 62
4
 10
1.49400610E+02
 20
4.55298129E+01
 11
1.49898257E+02
 21
4.55782549E+01
  0
LINE
  8
0
 62
4
 10
1.46551062E+02
 20
4.41958584E+01
 11
1.46251062E+02
 21
4.38958584E+01
  0
LINE
  8
0
 62
4
 10
1.43551062E+02
 20
4.41958584E+01
 11
1.43851062E+02
 21
4.38958584E+01
  0
LINE
  8
0
 62
4
 10
1.46140400E+02
 20
3.81958584E+01
 11
1.47101062E+02
 21
3.81958584E+01
  0
LINE
  8
0
  6
CENTER
 62
2
 10
1.37051062E+02
 20
3.18958584E+01
 11
1.53051062E+02
 21
3.18958584E+01
  0
LINE
  8
0
 62
4
 10
1.79714094E+01
 20
8.76658584E+01
 11
2.69714094E+01
 21
8.76658584E+01
  0
LINE
  8
0
 62
4
 10
2.04714094E+01
 20
9.81630534E+01
 11
2.04714094E+01
 21
9.91803374E+01
  0
LINE
  8
0
 62
4
 10
1.79714094E+01
 20
9.91803374E+01
 11
2.69714094E+01
 21
9.91803374E+01
  0
LINE
  8
0
 62
4
 10
2.04714094E+01
 20
9.84158584E+01
 11
2.44714094E+01
 21
9.84158584E+01
  0
CIRCLE
  8
0
 62
4
 10
2.24705341E+01
 20
9.33133999E+01
 40
2.50000000E+00
  0
LINE
  8
0
 62
4
 10
2.94714094E+01
 20
9.13158584E+01
 11
3.49714094E+01
 21
9.13158584E+01
  0
LINE
  8
0
 62
4
 10
2.94714094E+01
 20
9.53158584E+01
 11
3.49714094E+01
 21
9.53158584E+01
  0
LINE
  8
0
 62
4
 10
2.69714094E+01
 20
9.00658584E+01
 11
2.94714094E+01
 21
9.00658584E+01
  0
LINE
  8
0
 62
4
 10
2.69714094E+01
 20
9.65658584E+01
 11
2.94714094E+01
 21
9.65658584E+01
  0
LINE
  8
0
 62
4
 10
2.94714094E+01
 20
9.00658584E+01
 11
2.94714094E+01
 21
9.65658584E+01
  0
LINE
  8
0
 62
4
 10
1.54714094E+01
 20
9.65658584E+01
 11
1.79714094E+01
 21
9.65658584E+01
  0
LINE
  8
0
 62
4
 10
1.54714094E+01
 20
9.00658584E+01
 11
1.79714094E+01
 21
9.00658584E+01
  0
LINE
  8
0
 62
4
 10
9.97140938E+00
 20
9.23158584E+01
 11
1.09714094E+01
 21
9.13158584E+01
  0
LINE
  8
0
 62
4
 10
9.97140938E+00
 20
9.43158584E+01
 11
1.09714094E+01
 21
9.53158584E+01
  0
LINE
  8
0
 62
4
 10
1.09714094E+01
 20
9.53158584E+01
 11
1.09714094E+01
 21
9.13158584E+01
  0
LINE
  8
0
 62
4
 10
1.09714094E+01
 20
9.53158584E+01
 11
1.54714094E+01
 21
9.53158584E+01
  0
LINE
  8
0
 62
4
 10
1.09714094E+01
 20
9.13158584E+01
 11
1.54714094E+01
 21
9.13158584E+01
  0
LINE
  8
0
 62
4
 10
9.97140938E+00
 20
9.43158584E+01
 11
9.97140938E+00
 21
9.23158584E+01
  0
LINE
  8
0
 62
4
 10
3.49714094E+01
 20
9.53158584E+01
 11
3.49714094E+01
 21
9.13158584E+01
  0
LINE
  8
0
 62
4
 10
2.34788428E+01
 20
9.23132918E+01
 11
2.14088428E+01
 21
9.43732918E+01
  0
LINE
  8
0
 62
4
 10
2.14088428E+01
 20
9.22532918E+01
 11
2.35288428E+01
 21
9.43732918E+01
  0
LINE
  8
0
 62
4
 10
2.35814094E+01
 20
9.22158584E+01
 11
2.35314094E+01
 21
9.22558584E+01
  0
LINE
  8
0
 62
4
 10
1.54714094E+01
 20
9.00658584E+01
 11
1.54714094E+01
 21
9.65658584E+01
  0
LINE
  8
0
 62
4
 10
1.79714094E+01
 20
8.90158584E+01
 11
2.69714094E+01
 21
8.90158584E+01
  0
LINE
  8
0
 62
4
 10
1.79714094E+01
 20
9.76158951E+01
 11
2.69714094E+01
 21
9.76158951E+01
  0
LINE
  8
0
 62
4
 10
3.49714094E+01
 20
9.53158584E+01
 11
3.79714094E+01
 21
9.46158584E+01
  0
LINE
  8
0
 62
4
 10
3.79714094E+01
 20
9.46158584E+01
 11
4.29084085E+01
 21
9.46158584E+01
  0
LINE
  8
0
 62
4
 10
3.79714094E+01
 20
9.20158584E+01
 11
4.03084085E+01
 21
9.20158584E+01
  0
LINE
  8
0
 62
4
 10
3.49714094E+01
 20
9.13158584E+01
 11
3.79714094E+01
 21
9.20158584E+01
  0
LINE
  8
0
 62
6
 10
4.29084085E+01
 20
9.46158584E+01
 11
4.03084085E+01
 21
9.20158584E+01
  0
LINE
  8
0
 62
4
 10
1.79714094E+01
 20
9.81630534E+01
 11
2.69714094E+01
 21
9.81630534E+01
  0
LINE
  8
0
 62
4
 10
2.44714094E+01
 20
9.91803374E+01
 11
2.44714094E+01
 21
9.81630534E+01
  0
LINE
  8
0
  6
CENTER
 62
6
 10
7.83733267E+00
 20
9.33158584E+01
 11
4.41429854E+01
 21
9.33158584E+01
  0
LINE
  8
0
 62
4
 10
3.79714094E+01
 20
9.46158584E+01
 11
3.79714094E+01
 21
9.20158584E+01
  0
LINE
  8
0
 62
4
 10
2.69714094E+01
 20
8.76658584E+01
 11
2.69714094E+01
 21
9.91803374E+01
  0
LINE
  8
0
 62
4
 10
1.79714094E+01
 20
8.76658584E+01
 11
1.79714094E+01
 21
9.91803374E+01
  0
LINE
  8
0
  6
CENTER
 62
6
 10
2.24714094E+01
 20
1.00615858E+02
 11
2.24714094E+01
 21
8.58958584E+01
  0
LINE
  8
0
 62
4
 10
2.25374095E+01
 20
9.91761854E+01
 11
2.50374095E+01
 21
9.91761854E+01
  0
CIRCLE
  8
0
 62
4
 10
7.01322278E+00
 20
-5.24224635E+01
 40
4.00000000E+00
  0
LINE
  8
0
  6
CENTER
 62
6
 10
7.01322278E+00
 20
-4.66726654E+01
 11
7.01322278E+00
 21
-5.84661475E+01
  0
LINE
  8
0
  6
CENTER
 62
6
 10
1.39927810E+00
 20
-5.24224635E+01
 11
1.25956218E+01
 21
-5.24224635E+01
  0
LINE
  8
0
  6
CENTER
 62
6
 10
-4.08677722E+00
 20
-6.34266646E+01
 11
-4.08677722E+00
 21
-5.78690091E+01
  0
LINE
  8
0
  6
CENTER
 62
6
 10
1.81132228E+01
 20
-6.34266646E+01
 11
1.81132228E+01
 21
-5.75704400E+01
  0
LINE
  8
0
 62
4
 10
-8.98677722E+00
 20
-6.14224635E+01
 11
2.30132228E+01
 21
-6.14224635E+01
  0
LINE
  8
0
 62
4
 10
-8.98677722E+00
 20
-5.98224635E+01
 11
2.30132228E+01
 21
-5.98224635E+01
  0
LINE
  8
0
 62
4
 10
2.30132228E+01
 20
-5.98224635E+01
 11
2.30132228E+01
 21
-6.14224635E+01
  0
LINE
  8
0
 62
4
 10
-8.98677722E+00
 20
-5.98224635E+01
 11
-8.98677722E+00
 21
-6.14224635E+01
  0
ARC
  8
0
 62
4
 10
7.01322278E+00
 20
-5.24224635E+01
 40
7.00000000E+00
 50
4.17832706E+01
 51
1.38216729E+02
  0
LINE
  8
0
 62
4
 10
2.30132228E+01
 20
-5.98224635E+01
 11
1.22329169E+01
 21
-4.77582601E+01
  0
LINE
  8
0
 62
4
 10
-8.98677722E+00
 20
-5.98224635E+01
 11
1.79352870E+00
 21
-4.77582601E+01
  0
LINE
  8
0
  6
CENTER
 62
6
 10
5.09871760E+01
 20
-5.24224635E+01
 11
5.69331428E+01
 21
-5.24224635E+01
  0
LINE
  8
0
  6
CENTER
 62
6
 10
4.80132228E+01
 20
-5.75704400E+01
 11
4.80132228E+01
 21
-6.34266646E+01
  0
LINE
  8
0
 62
4
 10
5.50132228E+01
 20
-4.54124635E+01
 11
5.50132228E+01
 21
-5.88124635E+01
  0
ARC
  8
0
 62
4
 10
5.24100505E+01
 20
-5.88092912E+01
 40
2.60317420E+00
 50
2.70069822E+02
 51
3.59930178E+02
  0
LINE
  8
0
 62
4
 10
4.30132228E+01
 20
-6.14124635E+01
 11
5.24132228E+01
 21
-6.14124635E+01
  0
LINE
  8
0
 62
4
 10
4.30132228E+01
 20
-5.98124635E+01
 11
4.30132228E+01
 21
-6.14124635E+01
  0
LINE
  8
0
 62
4
 10
4.30132228E+01
 20
-5.98124635E+01
 11
5.24132228E+01
 21
-5.98124635E+01
  0
ARC
  8
0
 62
4
 10
5.24100515E+01
 20
-5.88092922E+01
 40
1.00317633E+00
 50
2.70181129E+02
 51
3.59818872E+02
  0
LINE
  8
0
 62
4
 10
5.34132228E+01
 20
-4.54124635E+01
 11
5.34132228E+01
 21
-5.88124635E+01
  0
LINE
  8
0
 62
4
 10
5.34132228E+01
 20
-4.54124635E+01
 11
5.50132228E+01
 21
-4.54124635E+01
  0
LINE
  8
0
 62
4
 10
5.01132228E+01
 20
-5.98124635E+01
 11
5.01132228E+01
 21
-6.14124635E+01
  0
LINE
  8
0
 62
4
 10
4.59132228E+01
 20
-5.98124635E+01
 11
4.59132228E+01
 21
-6.14124635E+01
  0
LINE
  8
0
  6
CENTER
 62
6
 10
7.01322278E+00
 20
-1.10224635E+01
 11
7.01322278E+00
 21
-2.56524635E+01
  0
LINE
  8
0
  6
CENTER
 62
6
 10
1.81132228E+01
 20
-2.25806142E+01
 11
1.81132228E+01
 21
-1.63106618E+01
  0
LINE
  8
0
  6
CENTER
 62
6
 10
-4.08677722E+00
 20
-2.28791834E+01
 11
-4.08677722E+00
 21
-1.64124635E+01
  0
LINE
  8
0
 62
4
 10
-8.98677722E+00
 20
-1.40124635E+01
 11
2.30132228E+01
 21
-1.40124635E+01
  0
LINE
  8
0
 62
4
 10
-8.98677722E+00
 20
-1.24124635E+01
 11
-8.98677722E+00
 21
-1.73124635E+01
  0
LINE
  8
0
 62
4
 10
2.30132228E+01
 20
-1.24124635E+01
 11
2.30132228E+01
 21
-1.73124635E+01
  0
LINE
  8
0
 62
4
 10
-8.98677722E+00
 20
-1.24124635E+01
 11
2.30132228E+01
 21
-1.24124635E+01
  0
LINE
  8
0
 62
4
 10
-8.98677722E+00
 20
-2.44124635E+01
 11
2.30132228E+01
 21
-2.44124635E+01
  0
LINE
  8
0
  6
CENTER
 62
6
 10
-6.96065853E+00
 20
-1.94124635E+01
 11
2.08062738E+01
 21
-1.94124635E+01
  0
LINE
  8
0
 62
4
 10
-8.98677722E+00
 20
-1.73124635E+01
 11
-4.08677722E+00
 21
-1.73124635E+01
  0
LINE
  8
0
 62
4
 10
-8.98677722E+00
 20
-2.15124635E+01
 11
-4.08677722E+00
 21
-2.15124635E+01
  0
LINE
  8
0
 62
4
 10
1.81132228E+01
 20
-1.73124635E+01
 11
2.30132228E+01
 21
-1.73124635E+01
  0
LINE
  8
0
 62
4
 10
1.81132228E+01
 20
-2.15124635E+01
 11
2.30132228E+01
 21
-2.15124635E+01
  0
LINE
  8
0
 62
4
 10
2.30132228E+01
 20
-2.15124635E+01
 11
2.30132228E+01
 21
-2.44124635E+01
  0
LINE
  8
0
 62
4
 10
-8.98677722E+00
 20
-2.15124635E+01
 11
-8.98677722E+00
 21
-2.44124635E+01
  0
ARC
  8
0
 62
4
 10
1.81061726E+01
 20
-1.94124635E+01
 40
2.10001183E+00
 50
8.98076456E+01
 51
2.70192355E+02
  0
ARC
  8
0
 62
4
 10
-4.09382436E+00
 20
-1.94124635E+01
 40
2.10001182E+00
 50
2.70192271E+02
 51
8.98077287E+01
  0
LINE
  8
0
  6
CENTER
 62
6
 10
1.28113223E+02
 20
-4.96793142E+01
 11
1.28113223E+02
 21
-5.54391489E+01
  0
LINE
  8
0
  6
CENTER
 62
6
 10
1.05913223E+02
 20
-4.96793142E+01
 11
1.05913223E+02
 21
-5.54391489E+01
  0
LINE
  8
0
 62
4
 10
1.01013223E+02
 20
-4.54224635E+01
 11
1.01013223E+02
 21
-5.03224635E+01
  0
LINE
  8
0
 62
4
 10
1.33013223E+02
 20
-4.54224635E+01
 11
1.33013223E+02
 21
-5.03224635E+01
  0
CIRCLE
  8
0
 62
4
 10
1.17013223E+02
 20
-5.24224635E+01
 40
4.00000000E+00
  0
LINE
  8
0
  6
CENTER
 62
6
 10
1.17013223E+02
 20
-4.72371408E+01
 11
1.17013223E+02
 21
-5.80644822E+01
  0
LINE
  8
0
  6
CENTER
 62
6
 10
1.03895063E+02
 20
-5.24224635E+01
 11
1.30513643E+02
 21
-5.24224635E+01
  0
LINE
  8
0
 62
4
 10
1.01013223E+02
 20
-5.45224635E+01
 11
1.05913223E+02
 21
-5.45224635E+01
  0
LINE
  8
0
 62
4
 10
1.01013223E+02
 20
-5.03224635E+01
 11
1.05913223E+02
 21
-5.03224635E+01
  0
LINE
  8
0
 62
4
 10
1.28113223E+02
 20
-5.45224635E+01
 11
1.33013223E+02
 21
-5.45224635E+01
  0
LINE
  8
0
 62
4
 10
1.28113223E+02
 20
-5.03224635E+01
 11
1.33013223E+02
 21
-5.03224635E+01
  0
LINE
  8
0
 62
4
 10
1.01013223E+02
 20
-5.94224635E+01
 11
1.33013223E+02
 21
-5.94224635E+01
  0
LINE
  8
0
 62
4
 10
1.01013223E+02
 20
-4.54224635E+01
 11
1.33013223E+02
 21
-4.54224635E+01
  0
LINE
  8
0
 62
4
 10
1.33013223E+02
 20
-5.45224635E+01
 11
1.33013223E+02
 21
-5.94224635E+01
  0
LINE
  8
0
 62
4
 10
1.01013223E+02
 20
-5.45224635E+01
 11
1.01013223E+02
 21
-5.94224635E+01
  0
ARC
  8
0
 62
4
 10
1.28113223E+02
 20
-5.24224635E+01
 40
2.10000000E+00
 50
9.00000002E+01
 51
2.70000000E+02
  0
ARC
  8
0
 62
4
 10
1.05913223E+02
 20
-5.24224635E+01
 40
2.10000000E+00
 50
2.70000000E+02
 51
9.00000002E+01
  0
LINE
  8
0
 62
4
 10
1.58013223E+02
 20
-5.03224635E+01
 11
1.59613223E+02
 21
-5.03224635E+01
  0
LINE
  8
0
 62
4
 10
1.58013223E+02
 20
-5.94224635E+01
 11
1.59613223E+02
 21
-5.94224635E+01
  0
LINE
  8
0
 62
4
 10
1.58013223E+02
 20
-5.45224635E+01
 11
1.59613223E+02
 21
-5.45224635E+01
  0
LINE
  8
0
 62
4
 10
1.58013223E+02
 20
-4.54224635E+01
 11
1.58013223E+02
 21
-5.94224635E+01
  0
LINE
  8
0
 62
4
 10
1.59613223E+02
 20
-4.54224635E+01
 11
1.59613223E+02
 21
-5.94224635E+01
  0
LINE
  8
0
 62
4
 10
1.58013223E+02
 20
-4.54224635E+01
 11
1.59613223E+02
 21
-4.54224635E+01
  0
LINE
  8
0
  6
CENTER
 62
6
 10
1.56102962E+02
 20
-5.24224635E+01
 11
1.61580197E+02
 21
-5.24224635E+01
  0
LINE
  8
0
  6
CENTER
 62
6
 10
1.28113223E+02
 20
-2.22459086E+01
 11
1.28113223E+02
 21
-1.72906883E+01
  0
LINE
  8
0
  6
CENTER
 62
6
 10
1.05913223E+02
 20
-2.21381864E+01
 11
1.05913223E+02
 21
-1.71829661E+01
  0
LINE
  8
0
 62
4
 10
1.33013223E+02
 20
-1.88224635E+01
 11
1.33013223E+02
 21
-2.04224635E+01
  0
LINE
  8
0
 62
4
 10
1.01013223E+02
 20
-1.88224635E+01
 11
1.33013223E+02
 21
-1.88224635E+01
  0
LINE
  8
0
 62
4
 10
1.01013223E+02
 20
-2.04224635E+01
 11
1.33013223E+02
 21
-2.04224635E+01
  0
LINE
  8
0
 62
4
 10
1.01013223E+02
 20
-1.88224635E+01
 11
1.01013223E+02
 21
-2.04224635E+01
  0
LINE
  8
0
  6
CENTER
 62
6
 10
1.28113223E+02
 20
-2.21381864E+01
 11
1.28113223E+02
 21
-1.71829661E+01
  0
LINE
  8
0
  6
CENTER
 62
6
 10
1.28113223E+02
 20
-2.21381864E+01
 11
1.28113223E+02
 21
-1.71829661E+01
  0
LINE
  8
0
  6
CENTER
 62
6
 10
1.17013223E+02
 20
-2.21381864E+01
 11
1.17013223E+02
 21
-1.71829661E+01
  0
TEXT
  8
0
 62
7
 10
-3.15961953E+01
 20
-1.02880282E+02
 40
3.20000005E+00
  1
(mm)
 41
1.00000000E+00
  7
MONOTXT
  0
TEXT
  8
0
 62
7
 10
-1.31493000E+02
 20
-1.02880282E+02
 40
3.20000005E+00
  1
STRETCH LIST(ST2)
 41
1.03658537E+00
  7
MONOTXT
  0
LINE
  8
0
 62
7
 10
-1.89250000E+02
 20
-1.04500000E+02
 11
-2.02500000E+01
 21
-1.04500000E+02
  0
LINE
  8
0
 62
7
 10
-1.89250000E+02
 20
-1.28500000E+02
 11
-2.02500000E+01
 21
-1.28500000E+02
  0
LINE
  8
0
 62
7
 10
-1.64250000E+02
 20
-1.04500000E+02
 11
-1.64250000E+02
 21
-1.28500000E+02
  0
LINE
  8
0
 62
7
 10
-1.52250000E+02
 20
-1.04500000E+02
 11
-1.52250000E+02
 21
-1.28500000E+02
  0
LINE
  8
0
 62
7
 10
-1.40250000E+02
 20
-1.04500000E+02
 11
-1.40250000E+02
 21
-1.28500000E+02
  0
LINE
  8
0
 62
7
 10
-1.28250000E+02
 20
-1.04500000E+02
 11
-1.28250000E+02
 21
-1.28500000E+02
  0
LINE
  8
0
 62
7
 10
-1.16250000E+02
 20
-1.04500000E+02
 11
-1.16250000E+02
 21
-1.28500000E+02
  0
LINE
  8
0
 62
7
 10
-1.89250000E+02
 20
-1.22500000E+02
 11
-2.02500000E+01
 21
-1.22500000E+02
  0
LINE
  8
0
 62
7
 10
-1.64250000E+02
 20
-1.22500000E+02
 11
-1.66360000E+02
 21
-1.10500000E+02
  0
LINE
  8
0
 62
7
 10
-1.89250000E+02
 20
-1.10500000E+02
 11
-1.66360000E+02
 21
-1.10500000E+02
  0
LINE
  8
0
 62
7
 10
-1.89250000E+02
 20
-1.04500000E+02
 11
-1.89250000E+02
 21
-1.28500000E+02
  0
TEXT
  8
0
 62
7
 10
-1.84887475E+02
 20
-1.09096381E+02
 40
3.20000005E+00
  1
STROKE
 41
1.00000000E+00
  7
MONOTXT
  0
TEXT
  8
0
 62
7
 10
-1.24987475E+02
 20
-1.15096377E+02
 40
3.20000005E+00
  1
20
 41
1.00000000E+00
  7
MONOTXT
  0
TEXT
  8
0
 62
7
 10
-1.36987475E+02
 20
-1.15096377E+02
 40
3.20000005E+00
  1
15
 41
1.00000000E+00
  7
MONOTXT
  0
TEXT
  8
0
 62
7
 10
-1.48987475E+02
 20
-1.15096377E+02
 40
3.20000005E+00
  1
10
 41
1.00000000E+00
  7
MONOTXT
  0
TEXT
  8
0
 62
7
 10
-1.59387475E+02
 20
-1.15096377E+02
 40
3.20000005E+00
  1
5
 41
1.00000000E+00
  7
MONOTXT
  0
TEXT
  8
0
 62
7
 10
-1.26587475E+02
 20
-1.27100000E+02
 40
3.20000005E+00
  1
-20
 41
1.00000000E+00
  7
MONOTXT
  0
TEXT
  8
0
 62
7
 10
-1.38587475E+02
 20
-1.27100000E+02
 40
3.20000005E+00
  1
-25
 41
1.00000000E+00
  7
MONOTXT
  0
TEXT
  8
0
 62
7
 10
-1.50587475E+02
 20
-1.27100000E+02
 40
3.20000005E+00
  1
-30
 41
1.00000000E+00
  7
MONOTXT
  0
TEXT
  8
0
 62
7
 10
-1.62587475E+02
 20
-1.27100000E+02
 40
3.20000005E+00
  1
-35
 41
1.00000000E+00
  7
MONOTXT
  0
TEXT
  8
0
 62
7
 10
-1.88091006E+02
 20
-1.16676375E+02
 40
3.20000005E+00
  1
STRETCH
 41
1.00000000E+00
  7
MONOTXT
  0
TEXT
  8
0
 62
7
 10
-1.88091006E+02
 20
-1.21476375E+02
 40
3.20000005E+00
  1
  PLACE
 41
1.20689655E+00
  7
MONOTXT
  0
TEXT
  8
0
 62
7
 10
-1.77887475E+02
 20
-1.27100000E+02
 40
3.20000005E+00
  1
B
 41
1.00000000E+00
  7
MONOTXT
  0
TEXT
  8
0
 62
7
 10
-1.12987475E+02
 20
-1.15096377E+02
 40
3.20000005E+00
  1
25
 41
1.00000000E+00
  7
MONOTXT
  0
TEXT
  8
0
 62
7
 10
-1.14587475E+02
 20
-1.27100000E+02
 40
3.20000005E+00
  1
-15
 41
1.00000000E+00
  7
MONOTXT
  0
TEXT
  8
0
 62
7
 10
-1.00987475E+02
 20
-1.15096377E+02
 40
3.20000005E+00
  1
30
 41
1.00000000E+00
  7
MONOTXT
  0
TEXT
  8
0
 62
7
 10
-1.02587475E+02
 20
-1.27100000E+02
 40
3.20000005E+00
  1
-10
 41
1.00000000E+00
  7
MONOTXT
  0
TEXT
  8
0
 62
7
 10
-8.89874751E+01
 20
-1.15096377E+02
 40
3.20000005E+00
  1
35
 41
1.00000000E+00
  7
MONOTXT
  0
TEXT
  8
0
 62
7
 10
-8.89874751E+01
 20
-1.27100000E+02
 40
3.20000005E+00
  1
-5
 41
1.00000000E+00
  7
MONOTXT
  0
TEXT
  8
0
 62
7
 10
-7.69874751E+01
 20
-1.15096377E+02
 40
3.20000005E+00
  1
40
 41
1.00000000E+00
  7
MONOTXT
  0
TEXT
  8
0
 62
7
 10
-7.53874751E+01
 20
-1.27100000E+02
 40
3.20000005E+00
  1
0
 41
1.00000000E+00
  7
MONOTXT
  0
TEXT
  8
0
 62
7
 10
-6.49874751E+01
 20
-1.15096377E+02
 40
3.20000005E+00
  1
45
 41
1.00000000E+00
  7
MONOTXT
  0
TEXT
  8
0
 62
7
 10
-6.33874751E+01
 20
-1.27100000E+02
 40
3.20000005E+00
  1
5
 41
1.00000000E+00
  7
MONOTXT
  0
TEXT
  8
0
 62
7
 10
-5.29874751E+01
 20
-1.15096377E+02
 40
3.20000005E+00
  1
50
 41
1.00000000E+00
  7
MONOTXT
  0
TEXT
  8
0
 62
7
 10
-5.29874751E+01
 20
-1.27100000E+02
 40
3.20000005E+00
  1
10
 41
1.00000000E+00
  7
MONOTXT
  0
TEXT
  8
0
 62
7
 10
-4.09874751E+01
 20
-1.15096377E+02
 40
3.20000005E+00
  1
55
 41
1.00000000E+00
  7
MONOTXT
  0
TEXT
  8
0
 62
7
 10
-4.09874751E+01
 20
-1.27100000E+02
 40
3.20000005E+00
  1
15
 41
1.00000000E+00
  7
MONOTXT
  0
TEXT
  8
0
 62
7
 10
-2.89874751E+01
 20
-1.15096377E+02
 40
3.20000005E+00
  1
60
 41
1.00000000E+00
  7
MONOTXT
  0
TEXT
  8
0
 62
7
 10
-2.89874751E+01
 20
-1.27100000E+02
 40
3.20000005E+00
  1
20
 41
1.00000000E+00
  7
MONOTXT
  0
LINE
  8
0
 62
7
 10
-1.04250000E+02
 20
-1.04500000E+02
 11
-1.04250000E+02
 21
-1.28500000E+02
  0
LINE
  8
0
 62
7
 10
-9.22500000E+01
 20
-1.04500000E+02
 11
-9.22500000E+01
 21
-1.28500000E+02
  0
LINE
  8
0
 62
7
 10
-8.02500000E+01
 20
-1.04500000E+02
 11
-8.02500000E+01
 21
-1.28500000E+02
  0
LINE
  8
0
 62
7
 10
-6.82500000E+01
 20
-1.04500000E+02
 11
-6.82500000E+01
 21
-1.28500000E+02
  0
LINE
  8
0
 62
7
 10
-5.62500000E+01
 20
-1.04500000E+02
 11
-5.62500000E+01
 21
-1.28500000E+02
  0
LINE
  8
0
 62
7
 10
-4.42500000E+01
 20
-1.04500000E+02
 11
-4.42500000E+01
 21
-1.28500000E+02
  0
LINE
  8
0
 62
7
 10
-3.22500000E+01
 20
-1.04500000E+02
 11
-3.22500000E+01
 21
-1.28500000E+02
  0
LINE
  8
0
 62
7
 10
-2.02500000E+01
 20
-1.04500000E+02
 11
-2.02500000E+01
 21
-1.28500000E+02
  0
TEXT
  8
0
 10
-5.92323418E+01
 20
6.77779528E+01
 40
3.20000005E+00
  1
STRETCH LINE A
 41
1.09375000E+00
  7
MONOTXT
  0
TEXT
  8
0
 10
2.37676582E+01
 20
6.77779528E+01
 40
3.20000005E+00
  1
STRETCH LINE B
 41
1.09375000E+00
  7
MONOTXT
  0
LINE
  8
0
 62
7
 10
-2.02500000E+01
 20
-7.05000000E+01
 11
-2.02500000E+01
 21
-9.45000000E+01
  0
LINE
  8
0
 62
7
 10
-3.22500000E+01
 20
-7.05000000E+01
 11
-3.22500000E+01
 21
-9.45000000E+01
  0
LINE
  8
0
 62
7
 10
-4.42500000E+01
 20
-7.05000000E+01
 11
-4.42500000E+01
 21
-9.45000000E+01
  0
LINE
  8
0
 62
7
 10
-5.62500000E+01
 20
-7.05000000E+01
 11
-5.62500000E+01
 21
-9.45000000E+01
  0
LINE
  8
0
 62
7
 10
-6.82500000E+01
 20
-7.05000000E+01
 11
-6.82500000E+01
 21
-9.45000000E+01
  0
LINE
  8
0
 62
7
 10
-8.02500000E+01
 20
-7.05000000E+01
 11
-8.02500000E+01
 21
-9.45000000E+01
  0
LINE
  8
0
 62
7
 10
-9.22500000E+01
 20
-7.05000000E+01
 11
-9.22500000E+01
 21
-9.45000000E+01
  0
LINE
  8
0
 62
7
 10
-1.04250000E+02
 20
-7.05000000E+01
 11
-1.04250000E+02
 21
-9.45000000E+01
  0
TEXT
  8
0
 62
7
 10
-2.89874751E+01
 20
-9.31000000E+01
 40
3.20000005E+00
  1
20
 41
1.00000000E+00
  7
MONOTXT
  0
TEXT
  8
0
 62
7
 10
-2.89874751E+01
 20
-8.10963774E+01
 40
3.20000005E+00
  1
60
 41
1.00000000E+00
  7
MONOTXT
  0
TEXT
  8
0
 62
7
 10
-4.09874751E+01
 20
-9.31000000E+01
 40
3.20000005E+00
  1
15
 41
1.00000000E+00
  7
MONOTXT
  0
TEXT
  8
0
 62
7
 10
-4.09874751E+01
 20
-8.10963774E+01
 40
3.20000005E+00
  1
55
 41
1.00000000E+00
  7
MONOTXT
  0
TEXT
  8
0
 62
7
 10
-5.29874751E+01
 20
-9.31000000E+01
 40
3.20000005E+00
  1
10
 41
1.00000000E+00
  7
MONOTXT
  0
TEXT
  8
0
 62
7
 10
-5.29874751E+01
 20
-8.10963774E+01
 40
3.20000005E+00
  1
50
 41
1.00000000E+00
  7
MONOTXT
  0
TEXT
  8
0
 62
7
 10
-6.33874751E+01
 20
-9.31000000E+01
 40
3.20000005E+00
  1
5
 41
1.00000000E+00
  7
MONOTXT
  0
TEXT
  8
0
 62
7
 10
-6.49874751E+01
 20
-8.10963774E+01
 40
3.20000005E+00
  1
45
 41
1.00000000E+00
  7
MONOTXT
  0
TEXT
  8
0
 62
7
 10
-7.53874751E+01
 20
-9.31000000E+01
 40
3.20000005E+00
  1
0
 41
1.00000000E+00
  7
MONOTXT
  0
TEXT
  8
0
 62
7
 10
-7.69874751E+01
 20
-8.10963774E+01
 40
3.20000005E+00
  1
40
 41
1.00000000E+00
  7
MONOTXT
  0
TEXT
  8
0
 62
7
 10
-8.89874751E+01
 20
-9.31000000E+01
 40
3.20000005E+00
  1
-5
 41
1.00000000E+00
  7
MONOTXT
  0
TEXT
  8
0
 62
7
 10
-8.89874751E+01
 20
-8.10963774E+01
 40
3.20000005E+00
  1
35
 41
1.00000000E+00
  7
MONOTXT
  0
TEXT
  8
0
 62
7
 10
-1.02587475E+02
 20
-9.31000000E+01
 40
3.20000005E+00
  1
-10
 41
1.00000000E+00
  7
MONOTXT
  0
TEXT
  8
0
 62
7
 10
-1.00987475E+02
 20
-8.10963774E+01
 40
3.20000005E+00
  1
30
 41
1.00000000E+00
  7
MONOTXT
  0
TEXT
  8
0
 62
7
 10
-1.14587475E+02
 20
-9.31000000E+01
 40
3.20000005E+00
  1
-15
 41
1.00000000E+00
  7
MONOTXT
  0
TEXT
  8
0
 62
7
 10
-1.12987475E+02
 20
-8.10963774E+01
 40
3.20000005E+00
  1
25
 41
1.00000000E+00
  7
MONOTXT
  0
TEXT
  8
0
 62
7
 10
-1.77887475E+02
 20
-9.31000000E+01
 40
3.20000005E+00
  1
A
 41
1.00000000E+00
  7
MONOTXT
  0
TEXT
  8
0
 62
7
 10
-1.88091006E+02
 20
-8.26763750E+01
 40
3.20000005E+00
  1
STRETCH
 41
1.00000000E+00
  7
MONOTXT
  0
TEXT
  8
0
 62
7
 10
-1.88091006E+02
 20
-8.74763751E+01
 40
3.20000005E+00
  1
  PLACE
 41
1.20689655E+00
  7
MONOTXT
  0
TEXT
  8
0
 62
7
 10
-1.62587475E+02
 20
-9.31000000E+01
 40
3.20000005E+00
  1
-35
 41
1.00000000E+00
  7
MONOTXT
  0
TEXT
  8
0
 62
7
 10
-1.50587475E+02
 20
-9.31000000E+01
 40
3.20000005E+00
  1
-30
 41
1.00000000E+00
  7
MONOTXT
  0
TEXT
  8
0
 62
7
 10
-1.38587475E+02
 20
-9.31000000E+01
 40
3.20000005E+00
  1
-25
 41
1.00000000E+00
  7
MONOTXT
  0
TEXT
  8
0
 62
7
 10
-1.26587475E+02
 20
-9.31000000E+01
 40
3.20000005E+00
  1
-20
 41
1.00000000E+00
  7
MONOTXT
  0
TEXT
  8
0
 62
7
 10
-1.59387475E+02
 20
-8.10963774E+01
 40
3.20000005E+00
  1
5
 41
1.00000000E+00
  7
MONOTXT
  0
TEXT
  8
0
 62
7
 10
-1.48987475E+02
 20
-8.10963774E+01
 40
3.20000005E+00
  1
10
 41
1.00000000E+00
  7
MONOTXT
  0
TEXT
  8
0
 62
7
 10
-1.36987475E+02
 20
-8.10963774E+01
 40
3.20000005E+00
  1
15
 41
1.00000000E+00
  7
MONOTXT
  0
TEXT
  8
0
 62
7
 10
-1.24987475E+02
 20
-8.10963774E+01
 40
3.20000005E+00
  1
20
 41
1.00000000E+00
  7
MONOTXT
  0
TEXT
  8
0
 62
7
 10
-1.84887475E+02
 20
-7.50963812E+01
 40
3.20000005E+00
  1
STROKE
 41
1.00000000E+00
  7
MONOTXT
  0
LINE
  8
0
 62
7
 10
-1.89250000E+02
 20
-7.05000000E+01
 11
-1.89250000E+02
 21
-9.45000000E+01
  0
LINE
  8
0
 62
7
 10
-1.89250000E+02
 20
-7.65000000E+01
 11
-1.66360000E+02
 21
-7.65000000E+01
  0
LINE
  8
0
 62
7
 10
-1.64250000E+02
 20
-8.85000000E+01
 11
-1.66360000E+02
 21
-7.65000000E+01
  0
LINE
  8
0
 62
7
 10
-1.89250000E+02
 20
-8.85000000E+01
 11
-2.02500000E+01
 21
-8.85000000E+01
  0
LINE
  8
0
 62
7
 10
-1.16250000E+02
 20
-7.05000000E+01
 11
-1.16250000E+02
 21
-9.45000000E+01
  0
LINE
  8
0
 62
7
 10
-1.28250000E+02
 20
-7.05000000E+01
 11
-1.28250000E+02
 21
-9.45000000E+01
  0
LINE
  8
0
 62
7
 10
-1.40250000E+02
 20
-7.05000000E+01
 11
-1.40250000E+02
 21
-9.45000000E+01
  0
LINE
  8
0
 62
7
 10
-1.52250000E+02
 20
-7.05000000E+01
 11
-1.52250000E+02
 21
-9.45000000E+01
  0
LINE
  8
0
 62
7
 10
-1.64250000E+02
 20
-7.05000000E+01
 11
-1.64250000E+02
 21
-9.45000000E+01
  0
LINE
  8
0
 62
7
 10
-1.89250000E+02
 20
-9.45000000E+01
 11
-2.02500000E+01
 21
-9.45000000E+01
  0
LINE
  8
0
 62
7
 10
-1.89250000E+02
 20
-7.05000000E+01
 11
-2.02500000E+01
 21
-7.05000000E+01
  0
TEXT
  8
0
 62
7
 10
-1.31493000E+02
 20
-6.88802818E+01
 40
3.20000005E+00
  1
STRETCH LIST(ST1)
 41
1.03658537E+00
  7
MONOTXT
  0
TEXT
  8
0
 62
7
 10
-3.15961953E+01
 20
-6.88802818E+01
 40
3.20000005E+00
  1
(mm)
 41
1.00000000E+00
  7
MONOTXT
  0
TEXT
  8
0
 62
7
 10
-1.85214688E+02
 20
1.05350006E+02
 40
4.50000000E+00
  1
MODEL:PBDAWS10*ST1(40)*ST2(40)-ZC230
 41
1.00000000E+00
  7
MONOTXT
  0
LINE
  8
0
 62
7
 10
-1.94250000E+02
 20
1.32600006E+02
 11
1.94800003E+02
 21
1.32600006E+02
  0
LINE
  8
0
 62
7
 10
1.94800003E+02
 20
1.32600006E+02
 11
1.94800003E+02
 21
-1.33500000E+02
  0
LINE
  8
0
 62
7
 10
-1.94250000E+02
 20
1.32600006E+02
 11
-1.94250000E+02
 21
-1.33500000E+02
  0
LINE
  8
0
 62
7
 10
-1.94250000E+02
 20
-1.33500000E+02
 11
1.94800003E+02
 21
-1.33500000E+02
  0
LINE
  8
0
 62
7
 10
1.09800003E+02
 20
-1.18500000E+02
 11
1.09800003E+02
 21
-1.33500000E+02
  0
LINE
  8
0
 62
7
 10
1.09800003E+02
 20
-1.18500000E+02
 11
1.94800003E+02
 21
-1.18500000E+02
  0
LINE
  8
0
 62
7
 10
1.09800003E+02
 20
1.32600006E+02
 11
1.09800003E+02
 21
1.17600006E+02
  0
LINE
  8
0
 62
7
 10
1.09800003E+02
 20
1.17600006E+02
 11
1.94800003E+02
 21
1.17600006E+02
  0
LINE
  8
0
 62
7
 10
-1.94250000E+02
 20
1.17600006E+02
 11
-1.09250000E+02
 21
1.17600006E+02
  0
LINE
  8
0
 62
7
 10
-1.09250000E+02
 20
1.32600006E+02
 11
-1.09250000E+02
 21
1.17600006E+02
  0
TEXT
  8
0
 62
7
 10
1.34942863E+02
 20
1.22850006E+02
 40
4.50000000E+00
  1
Ver. 1.1
 41
1.08108085E+00
  7
MONOTXT
  0
TEXT
  8
0
 62
7
 10
1.15249721E+02
 20
-1.29150000E+02
 40
6.30000019E+00
  1
KOGANEI CORP.
 41
1.04838710E+00
  7
MONOTXT
  0
TEXT
  8
0
 62
7
 10
-1.87107344E+02
 20
1.22850006E+02
 40
4.50000000E+00
  1
NEW PEN CYLINDER
 41
1.08108108E+00
  7
MONOTXT
  0
ENDSEC
  0
EOF
