  0
SECTION
  2
HEADER
  9
$ACADVER
  1
AC1003
  9
$EXTMIN
 10
-1.94250000E+02
 20
-1.33500000E+02
  9
$EXTMAX
 10
1.94800003E+02
 20
1.32600006E+02
  9
$LIMMIN
 10
-1.94251000E+02
 20
-1.33501000E+02
  9
$LIMMAX
 10
1.94801003E+02
 20
1.32601006E+02
  9
$SNAPUNIT
 10
1
 20
1
  9
$SNAPBASE
 10
0
 20
0
  9
$GRIDMODE
 70
0
  9
$GRIDUNIT
 10
0
 20
0
  9
$LTSCALE
 40
6.48416672E+00
  9
$TEXTSIZE
 40
3.2
  9
$DIMTAD
 70
0
  9
$LUNITS
 70
2
  9
$LUPREC
 70
4
  9
$FILLETRAD
 40
0
  9
$AUNITS
 70
0
  9
$AUPREC
 70
0
  0
ENDSEC
  0
SECTION
  2
TABLES
  0
TABLE
  2
LTYPE
 70
2
  0
LTYPE
  2
CONTINUOUS
 70
64
  3
Solid-Line
 72
65
 73
0
 40
0
  0
LTYPE
  2
DASHED
 70
64
  3
DASHED
 72
65
 73
2
 40
.75
 49
.5
 49
-.25
  0
LTYPE
  2
HIDDEN
 70
64
  3
HIDDEN
 72
65
 73
2
 40
.375
 49
.25
 49
-.125
  0
LTYPE
  2
CENTER
 70
64
  3
CENTER
 72
65
 73
4
 40
2
 49
1.25
 49
-.25
 49
.25
 49
-.25
  0
LTYPE
  2
PHANTOM
 70
64
  3
PHANTOM
 72
65
 73
6
 40
2.5
 49
1.25
 49
-.25
 49
.25
 49
-.25
 49
.25
 49
-.25
  0
ENDTAB
  0
TABLE
  2
LAYER
 70
1
  0
LAYER
  2
1
 70
0
 62
7
  6
CONTINUOUS
 0
ENDTAB
  0
TABLE
  2
STYLE
 70
2
  0
STYLE
  2
MONOTXT
 70
0
 40
0
 41
1
 50
0
 71
0
 42
.2
  3
monotxt
  0
STYLE
  2
BIGFONT
 70
0
 40
0
 41
1
 50
0
 71
0
 42
.2
  3
txt
  4
bigfont
  0
ENDTAB
  0
ENDSEC
  0
SECTION
  2
ENTITIES
  0
LINE
  8
0
  6
PHANTOM
 10
5.28168991E+01
 20
1.24584433E+01
 11
5.28169734E+01
 21
6.40297224E+01
  0
LINE
  8
0
  6
PHANTOM
 10
-3.16731009E+01
 20
1.24585650E+01
 11
-3.16730266E+01
 21
6.40298441E+01
  0
LINE
  8
0
  6
CENTER
 62
6
 10
6.92730008E+01
 20
5.84171276E+01
 11
6.92729518E+01
 21
2.44580858E+01
  0
LINE
  8
0
  6
CENTER
 62
6
 10
2.97830008E+01
 20
5.84171845E+01
 11
2.97829519E+01
 21
2.44581426E+01
  0
LINE
  8
0
  6
CENTER
 62
6
 10
-1.52169992E+01
 20
5.84172493E+01
 11
-1.52170481E+01
 21
2.44582074E+01
  0
LINE
  8
0
  6
CENTER
 62
6
 10
-5.47069992E+01
 20
5.84173061E+01
 11
-5.47070481E+01
 21
2.44582643E+01
  0
TEXT
  8
0
 62
7
 10
-4.80429810E+01
 20
2.77073119E+01
 40
1.50000000E+00
  1
PBDAWS16
 50
3.59999918E+02
 41
1.00000000E+00
  7
MONOTXT
  0
ARC
  8
0
 62
7
 10
8.57992085E+01
 20
3.51190784E+01
 40
6.01624159E+00
 50
1.35190015E+02
 51
2.24836502E+02
  0
ARC
  8
0
 62
7
 10
8.57697967E+01
 20
3.51178110E+01
 40
6.01317060E+00
 50
3.15151266E+02
 51
4.48390123E+01
  0
ARC
  8
0
 62
7
 10
8.26535787E+00
 20
3.51146762E+01
 40
6.01760989E+00
 50
3.15203018E+02
 51
4.48311299E+01
  0
ARC
  8
0
 62
7
 10
1.30365805E+00
 20
3.51134144E+01
 40
6.02069203E+00
 50
1.35180796E+02
 51
2.24767540E+02
  0
ARC
  8
0
 62
7
 10
-7.62331854E+01
 20
3.51112718E+01
 40
6.02615567E+00
 50
3.15284156E+02
 51
4.47976384E+01
  0
ARC
  8
0
 62
7
 10
-7.61948709E+01
 20
3.51170462E+01
 40
6.01216192E+00
 50
1.35147300E+02
 51
2.24848604E+02
  0
LINE
  8
0
  6
CENTER
 62
2
 10
9.78297333E+00
 20
3.93572133E+01
 11
9.78296112E+00
 21
3.08772133E+01
  0
LINE
  8
0
  6
CENTER
 62
2
 10
-2.17026666E-01
 20
3.93572277E+01
 11
-2.17038878E-01
 21
3.08772277E+01
  0
LINE
  8
0
 62
7
 10
1.25329733E+01
 20
3.93572093E+01
 11
1.25329795E+01
 21
4.36072093E+01
  0
LINE
  8
0
 62
7
 10
8.15329733E+01
 20
3.93571099E+01
 11
8.15329795E+01
 21
4.36071099E+01
  0
LINE
  8
0
 62
7
 10
9.00329733E+01
 20
3.93570977E+01
 11
9.00329795E+01
 21
4.36070977E+01
  0
LINE
  8
0
 62
7
 10
9.00329733E+01
 20
3.93570977E+01
 11
8.15329733E+01
 21
3.93571099E+01
  0
LINE
  8
0
 62
7
 10
1.42829550E+01
 20
2.66172068E+01
 11
1.42829795E+01
 21
4.36072068E+01
  0
LINE
  8
0
 62
7
 10
1.25329611E+01
 20
3.08772093E+01
 11
1.25329550E+01
 21
2.66172093E+01
  0
LINE
  8
0
 62
7
 10
8.15329611E+01
 20
3.08771099E+01
 11
8.15329550E+01
 21
2.66171099E+01
  0
LINE
  8
0
 62
7
 10
9.00329611E+01
 20
3.08770977E+01
 11
9.00329550E+01
 21
2.66170977E+01
  0
LINE
  8
0
  6
CENTER
 62
2
 10
8.47829733E+01
 20
3.93571053E+01
 11
8.47829611E+01
 21
3.08771053E+01
  0
LINE
  8
0
 62
7
 10
9.00329611E+01
 20
3.08770977E+01
 11
8.15329611E+01
 21
3.08771099E+01
  0
LINE
  8
0
 62
7
 10
9.17829550E+01
 20
2.66170952E+01
 11
7.37729550E+01
 21
2.66171211E+01
  0
LINE
  8
0
 62
7
 10
9.17829795E+01
 20
4.36070952E+01
 11
9.17829550E+01
 21
2.66170952E+01
  0
LINE
  8
0
 62
7
 10
7.97829795E+01
 20
4.36071125E+01
 11
7.97829550E+01
 21
2.66171125E+01
  0
LINE
  8
0
 62
7
 10
-2.96702667E+00
 20
3.93572316E+01
 11
1.25329733E+01
 21
3.93572093E+01
  0
LINE
  8
0
 62
7
 10
-2.96702667E+00
 20
3.93572316E+01
 11
-2.96702055E+00
 21
4.36072316E+01
  0
LINE
  8
0
 62
7
 10
-7.19570267E+01
 20
3.93573310E+01
 11
-7.19570205E+01
 21
4.36073310E+01
  0
LINE
  8
0
 62
7
 10
-8.04570267E+01
 20
3.93573432E+01
 11
-8.04570205E+01
 21
4.36073432E+01
  0
LINE
  8
0
 62
7
 10
-8.22070450E+01
 20
2.66173457E+01
 11
-8.22070205E+01
 21
4.36073457E+01
  0
LINE
  8
0
 62
7
 10
-8.04570267E+01
 20
3.93573432E+01
 11
-7.19570267E+01
 21
3.93573310E+01
  0
LINE
  8
0
 62
7
 10
-4.71704501E+00
 20
2.66172342E+01
 11
-4.71702055E+00
 21
4.36072342E+01
  0
LINE
  8
0
 62
7
 10
-7.02070450E+01
 20
2.66173285E+01
 11
-7.02070205E+01
 21
4.36073285E+01
  0
LINE
  8
0
 62
7
 10
-2.96703888E+00
 20
3.08772316E+01
 11
1.25329611E+01
 21
3.08772093E+01
  0
LINE
  8
0
 62
7
 10
-2.96703888E+00
 20
3.08772316E+01
 11
-2.96704501E+00
 21
2.66172316E+01
  0
LINE
  8
0
 62
7
 10
9.17829795E+01
 20
4.36070952E+01
 11
7.62729794E+01
 21
4.36071175E+01
  0
LINE
  8
0
 62
7
 10
-7.19570389E+01
 20
3.08773310E+01
 11
-7.19570450E+01
 21
2.66173310E+01
  0
LINE
  8
0
 62
7
 10
-8.04570389E+01
 20
3.08773432E+01
 11
-8.04570450E+01
 21
2.66173432E+01
  0
LINE
  8
0
  6
CENTER
 62
2
 10
-7.52070267E+01
 20
3.93573357E+01
 11
-7.52070389E+01
 21
3.08773357E+01
  0
LINE
  8
0
 62
7
 10
-8.04570389E+01
 20
3.08773432E+01
 11
-7.19570389E+01
 21
3.08773310E+01
  0
ARC
  8
0
 62
4
 10
-8.94432497E+01
 20
4.11041521E+01
 40
5.26622655E+00
 50
3.47775664E-02
 51
2.24752654E+01
  0
ARC
  8
0
 62
4
 10
-8.29190779E+01
 20
4.11057903E+01
 40
5.25794651E+00
 50
1.57506670E+02
 51
1.79982957E+02
  0
LINE
  8
0
 62
7
 10
-8.41770400E+01
 20
3.01173486E+01
 11
-8.22070400E+01
 21
3.01173457E+01
  0
LINE
  8
0
 62
7
 10
-8.41770256E+01
 20
4.01173486E+01
 11
-8.22070256E+01
 21
4.01173457E+01
  0
LINE
  8
0
  6
CENTER
 62
2
 10
-1.11755499E+02
 20
3.51173883E+01
 11
1.21138573E+02
 21
3.51170529E+01
  0
LINE
  8
0
 62
2
 10
-8.41770388E+01
 20
3.09293486E+01
 11
-8.37070388E+01
 21
3.09293479E+01
  0
LINE
  8
0
 62
2
 10
-8.41770267E+01
 20
3.93053486E+01
 11
-8.37070267E+01
 21
3.93053479E+01
  0
LINE
  8
0
 62
2
 10
-9.00190388E+01
 20
3.09293570E+01
 11
-8.81770388E+01
 21
3.09293543E+01
  0
LINE
  8
0
 62
2
 10
-9.00190267E+01
 20
3.93053570E+01
 11
-8.81770267E+01
 21
3.93053543E+01
  0
LINE
  8
0
 62
2
 10
-1.02237036E+02
 20
3.30503746E+01
 11
-9.52070357E+01
 21
3.30503645E+01
  0
LINE
  8
0
 62
2
 10
-1.02237030E+02
 20
3.71843746E+01
 11
-9.52070298E+01
 21
3.71843645E+01
  0
LINE
  8
0
 62
2
 10
-1.10140030E+02
 20
3.71843860E+01
 11
-1.06237030E+02
 21
3.71843804E+01
  0
LINE
  8
0
 62
2
 10
-1.10140036E+02
 20
3.30503860E+01
 11
-1.06237036E+02
 21
3.30503804E+01
  0
LINE
  8
0
 62
7
 10
-9.02070270E+01
 20
3.91173573E+01
 11
-9.02070385E+01
 21
3.11173573E+01
  0
LINE
  8
0
 62
7
 10
-8.92070400E+01
 20
3.01173558E+01
 11
-8.81770400E+01
 21
3.01173543E+01
  0
LINE
  8
0
 62
7
 10
-8.92070256E+01
 20
4.01173558E+01
 11
-8.81770256E+01
 21
4.01173543E+01
  0
LINE
  8
0
 62
7
 10
-9.02070270E+01
 20
3.91173573E+01
 11
-8.92070256E+01
 21
4.01173558E+01
  0
LINE
  8
0
 62
7
 10
-9.02070385E+01
 20
3.11173573E+01
 11
-8.92070400E+01
 21
3.01173558E+01
  0
LINE
  8
0
 62
7
 10
-8.37070256E+01
 20
4.01173479E+01
 11
-8.37070400E+01
 21
3.01173479E+01
  0
LINE
  8
0
 62
7
 10
-8.92070256E+01
 20
4.01173558E+01
 11
-8.92070400E+01
 21
3.01173558E+01
  0
LINE
  8
0
 62
7
 10
-1.09707029E+02
 20
3.76173853E+01
 11
-1.06237029E+02
 21
3.76173804E+01
  0
LINE
  8
0
 62
7
 10
-1.09707036E+02
 20
3.26173853E+01
 11
-1.06237036E+02
 21
3.26173804E+01
  0
LINE
  8
0
 62
7
 10
-1.10207030E+02
 20
3.71173861E+01
 11
-1.10207036E+02
 21
3.31173861E+01
  0
LINE
  8
0
 62
7
 10
-9.52070292E+01
 20
3.76173645E+01
 11
-9.52070364E+01
 21
3.26173645E+01
  0
LINE
  8
0
 62
7
 10
-1.10207030E+02
 20
3.71173861E+01
 11
-1.09707029E+02
 21
3.76173853E+01
  0
LINE
  8
0
 62
7
 10
-1.10207036E+02
 20
3.31173861E+01
 11
-1.09707036E+02
 21
3.26173853E+01
  0
LINE
  8
0
 62
7
 10
-1.09707029E+02
 20
3.76173853E+01
 11
-1.09707036E+02
 21
3.26173853E+01
  0
LINE
  8
0
 62
4
 10
-1.06237028E+02
 20
3.85073804E+01
 11
-1.06237038E+02
 21
3.17373804E+01
  0
LINE
  8
0
 62
4
 10
-1.02237028E+02
 20
3.85073746E+01
 11
-1.02237038E+02
 21
3.17373746E+01
  0
LINE
  8
0
 62
4
 10
-1.05737039E+02
 20
3.06173796E+01
 11
-1.02737039E+02
 21
3.06173753E+01
  0
LINE
  8
0
 62
4
 10
-1.05737026E+02
 20
3.96173796E+01
 11
-1.02737026E+02
 21
3.96173753E+01
  0
LINE
  8
0
 62
7
 10
-1.02237036E+02
 20
3.26173746E+01
 11
-9.02070364E+01
 21
3.26173573E+01
  0
LINE
  8
0
 62
7
 10
-1.02237029E+02
 20
3.76173746E+01
 11
-9.02070292E+01
 21
3.76173573E+01
  0
LINE
  8
0
 62
4
 10
-1.05737029E+02
 20
3.73973796E+01
 11
-1.02737029E+02
 21
3.73973753E+01
  0
LINE
  8
0
 62
4
 10
-1.05737036E+02
 20
3.28473796E+01
 11
-1.02737036E+02
 21
3.28473753E+01
  0
LINE
  8
0
 62
4
 10
-8.77770270E+01
 20
3.90973538E+01
 11
-8.45770270E+01
 21
3.90973492E+01
  0
LINE
  8
0
 62
4
 10
-8.81770241E+01
 20
4.11073543E+01
 11
-8.81770414E+01
 21
2.91373543E+01
  0
LINE
  8
0
 62
4
 10
-8.77770385E+01
 20
3.11473538E+01
 11
-8.45770385E+01
 21
3.11473492E+01
  0
LINE
  8
0
 62
4
 10
-8.77770443E+01
 20
2.71173538E+01
 11
-8.45770443E+01
 21
2.71173492E+01
  0
LINE
  8
0
 62
4
 10
-8.41770241E+01
 20
4.11073486E+01
 11
-8.41770414E+01
 21
2.91373486E+01
  0
ARC
  8
0
 62
4
 10
-1.00833744E+02
 20
3.51272655E+01
 40
5.40329733E+00
 50
1.55156891E+02
 51
1.80104821E+02
  0
ARC
  8
0
 62
4
 10
-1.00835840E+02
 20
3.51169965E+01
 40
5.40119281E+00
 50
1.79995928E+02
 51
2.04847632E+02
  0
ARC
  8
0
 62
4
 10
-1.04752344E+02
 20
3.17362098E+01
 40
1.48469438E+00
 50
1.31546599E+02
 51
1.79954827E+02
  0
ARC
  8
0
 62
4
 10
-1.04752958E+02
 20
3.17283066E+01
 40
1.48410722E+00
 50
1.79649693E+02
 51
2.28464841E+02
  0
ARC
  8
0
 62
4
 10
-1.04756082E+02
 20
3.85068586E+01
 40
1.48094647E+00
 50
1.79979813E+02
 51
2.28518431E+02
  0
ARC
  8
0
 62
4
 10
-1.04752923E+02
 20
3.85064752E+01
 40
1.48410487E+00
 50
1.31536369E+02
 51
1.79965057E+02
  0
ARC
  8
0
 62
4
 10
-1.07657273E+02
 20
3.51235578E+01
 40
5.42024357E+00
 50
3.59934639E+02
 51
2.48033191E+01
  0
ARC
  8
0
 62
4
 10
-1.03732768E+02
 20
3.85135208E+01
 40
1.49575246E+00
 50
3.11736862E+02
 51
3.59764564E+02
  0
ARC
  8
0
 62
4
 10
-1.07655177E+02
 20
3.51207402E+01
 40
5.41814532E+00
 50
3.35191699E+02
 51
3.59964410E+02
  0
ARC
  8
0
 62
4
 10
-1.03736488E+02
 20
3.17295613E+01
 40
1.49947071E+00
 50
2.98553183E-01
 51
4.81996906E+01
  0
ARC
  8
0
 62
4
 10
-1.03735924E+02
 20
3.17349152E+01
 40
1.49888818E+00
 50
3.11791125E+02
 51
9.40110628E-02
  0
ARC
  8
0
 62
4
 10
-1.03735895E+02
 20
3.84998241E+01
 40
1.49888586E+00
 50
2.88622161E-01
 51
4.82096217E+01
  0
ARC
  8
0
 62
4
 10
-8.94442700E+01
 20
2.91339525E+01
 40
5.26722966E+00
 50
3.69421392E-02
 51
2.24731009E+01
  0
ARC
  8
0
 62
4
 10
-6.82277545E+01
 20
3.51224735E+01
 40
1.99492789E+01
 50
1.68506935E+02
 51
1.80014702E+02
  0
ARC
  8
0
 62
4
 10
-8.29199889E+01
 20
4.11087219E+01
 40
5.25703545E+00
 50
1.80014905E+02
 51
2.02495138E+02
  0
ARC
  8
0
 62
4
 10
-8.94423401E+01
 20
4.11103792E+01
 40
5.26531686E+00
 50
3.37522606E+02
 51
3.59967021E+02
  0
ARC
  8
0
 62
4
 10
-8.29190993E+01
 20
2.91289195E+01
 40
5.25794885E+00
 50
1.79908085E+02
 51
2.02493345E+02
  0
ARC
  8
0
 62
4
 10
-8.94432659E+01
 20
2.91305689E+01
 40
5.26622888E+00
 50
3.37524478E+02
 51
7.37615048E-02
  0
ARC
  8
0
 62
4
 10
-8.29180905E+01
 20
2.91355904E+01
 40
5.25895115E+00
 50
1.57508845E+02
 51
1.79980782E+02
  0
ARC
  8
0
 62
4
 10
-6.82287504E+01
 20
3.51220770E+01
 40
1.99482829E+01
 50
1.80013565E+02
 51
1.91493186E+02
  0
ARC
  8
0
 62
4
 10
-1.04133836E+02
 20
3.51229872E+01
 40
1.99568041E+01
 50
3.48509108E+02
 51
3.59983811E+02
  0
ARC
  8
0
 62
4
 10
-1.04134832E+02
 20
3.51216689E+01
 40
1.99577996E+01
 50
3.59987597E+02
 51
1.14904348E+01
  0
LINE
  8
0
 62
4
 10
-8.77770213E+01
 20
4.31173538E+01
 11
-8.45770213E+01
 21
4.31173492E+01
  0
CIRCLE
  8
0
 62
2
 10
-7.52128610E+01
 20
3.51148213E+01
 40
2.50000000E+00
  0
CIRCLE
  8
0
 62
7
 10
-7.52070328E+01
 20
3.51148197E+01
 40
2.06700000E+00
  0
LINE
  8
0
 62
7
 10
9.37529600E+01
 20
3.01170923E+01
 11
9.17829600E+01
 21
3.01170952E+01
  0
LINE
  8
0
 62
7
 10
9.37529744E+01
 20
4.01170923E+01
 11
9.17829744E+01
 21
4.01170952E+01
  0
LINE
  8
0
 62
4
 10
9.73529787E+01
 20
4.31170872E+01
 11
9.41529787E+01
 21
4.31170918E+01
  0
ARC
  8
0
 62
4
 10
1.13710766E+02
 20
3.51213551E+01
 40
1.99577996E+01
 50
1.68509400E+02
 51
1.80012238E+02
  0
ARC
  8
0
 62
4
 10
1.13709771E+02
 20
3.51226735E+01
 40
1.99568041E+01
 50
1.80016024E+02
 51
1.91490727E+02
  0
ARC
  8
0
 62
4
 10
7.78046849E+01
 20
3.51218667E+01
 40
1.99482829E+01
 50
3.48506649E+02
 51
3.59986270E+02
  0
ARC
  8
0
 62
4
 10
9.24940078E+01
 20
2.91353378E+01
 40
5.25895115E+00
 50
1.90531763E-02
 51
2.24909898E+01
  0
ARC
  8
0
 62
4
 10
9.90191831E+01
 20
2.91302975E+01
 40
5.26622888E+00
 50
1.79926073E+02
 51
2.02475357E+02
  0
ARC
  8
0
 62
4
 10
9.24950165E+01
 20
2.91286668E+01
 40
5.25794885E+00
 50
3.37506490E+02
 51
9.17497514E-02
  0
ARC
  8
0
 62
4
 10
9.90182919E+01
 20
4.11101078E+01
 40
5.26531686E+00
 50
1.80032814E+02
 51
2.02477229E+02
  0
ARC
  8
0
 62
4
 10
9.24959406E+01
 20
4.11084693E+01
 40
5.25703545E+00
 50
3.37504697E+02
 51
3.59984930E+02
  0
ARC
  8
0
 62
4
 10
7.78036890E+01
 20
3.51222632E+01
 40
1.99492789E+01
 50
3.59985132E+02
 51
1.14928997E+01
  0
ARC
  8
0
 62
4
 10
9.90201872E+01
 20
2.91336811E+01
 40
5.26722966E+00
 50
1.57526734E+02
 51
1.79962893E+02
  0
ARC
  8
0
 62
4
 10
1.13311839E+02
 20
3.84995116E+01
 40
1.49888586E+00
 50
1.31790213E+02
 51
1.79711213E+02
  0
ARC
  8
0
 62
4
 10
1.13311849E+02
 20
3.17346026E+01
 40
1.49888818E+00
 50
1.79905824E+02
 51
2.28208710E+02
  0
ARC
  8
0
 62
4
 10
1.13312413E+02
 20
3.17292487E+01
 40
1.49947071E+00
 50
1.31800144E+02
 51
1.79701282E+02
  0
ARC
  8
0
 62
4
 10
1.17231112E+02
 20
3.51204163E+01
 40
5.41814532E+00
 50
1.80035425E+02
 51
2.04808136E+02
  0
ARC
  8
0
 62
4
 10
1.13308712E+02
 20
3.85132083E+01
 40
1.49575246E+00
 50
1.80235271E+02
 51
2.28262973E+02
  0
ARC
  8
0
 62
4
 10
1.17233207E+02
 20
3.51232340E+01
 40
5.42024357E+00
 50
1.55196516E+02
 51
1.80065196E+02
  0
ARC
  8
0
 62
4
 10
1.14328868E+02
 20
3.85061597E+01
 40
1.48410487E+00
 50
3.47777740E-02
 51
4.84634660E+01
  0
ARC
  8
0
 62
4
 10
1.14332026E+02
 20
3.85065431E+01
 40
1.48094647E+00
 50
3.11481404E+02
 51
2.00220835E-02
  0
ARC
  8
0
 62
4
 10
1.14328883E+02
 20
3.17279911E+01
 40
1.48410722E+00
 50
3.11534994E+02
 51
3.50142043E-01
  0
ARC
  8
0
 62
4
 10
1.14328268E+02
 20
3.17358943E+01
 40
1.48469438E+00
 50
4.50083631E-02
 51
4.84532355E+01
  0
ARC
  8
0
 62
4
 10
1.10411774E+02
 20
3.51166923E+01
 40
5.40119281E+00
 50
3.35152203E+02
 51
3.90647361E-03
  0
ARC
  8
0
 62
4
 10
1.10409679E+02
 20
3.51269613E+01
 40
5.40329733E+00
 50
3.59895014E+02
 51
2.48429437E+01
  0
LINE
  8
0
 62
4
 10
9.37529759E+01
 20
4.11070923E+01
 11
9.37529586E+01
 21
2.91370923E+01
  0
LINE
  8
0
 62
4
 10
9.73529557E+01
 20
2.71170872E+01
 11
9.41529557E+01
 21
2.71170918E+01
  0
LINE
  8
0
 62
4
 10
9.73529615E+01
 20
3.11470872E+01
 11
9.41529615E+01
 21
3.11470918E+01
  0
LINE
  8
0
 62
4
 10
9.77529759E+01
 20
4.11070866E+01
 11
9.77529586E+01
 21
2.91370866E+01
  0
LINE
  8
0
 62
4
 10
9.73529730E+01
 20
3.90970872E+01
 11
9.41529730E+01
 21
3.90970918E+01
  0
LINE
  8
0
 62
4
 10
1.15312964E+02
 20
3.28470613E+01
 11
1.12312964E+02
 21
3.28470656E+01
  0
LINE
  8
0
 62
4
 10
1.15312971E+02
 20
3.73970613E+01
 11
1.12312971E+02
 21
3.73970656E+01
  0
LINE
  8
0
 62
7
 10
1.11812971E+02
 20
3.76170663E+01
 11
9.97829708E+01
 21
3.76170837E+01
  0
LINE
  8
0
 62
7
 10
1.11812964E+02
 20
3.26170663E+01
 11
9.97829636E+01
 21
3.26170837E+01
  0
LINE
  8
0
 62
4
 10
1.15312974E+02
 20
3.96170613E+01
 11
1.12312974E+02
 21
3.96170656E+01
  0
LINE
  8
0
 62
4
 10
1.15312961E+02
 20
3.06170613E+01
 11
1.12312961E+02
 21
3.06170656E+01
  0
LINE
  8
0
 62
4
 10
1.11812972E+02
 20
3.85070663E+01
 11
1.11812962E+02
 21
3.17370663E+01
  0
LINE
  8
0
 62
4
 10
1.15812972E+02
 20
3.85070606E+01
 11
1.15812962E+02
 21
3.17370606E+01
  0
LINE
  8
0
 62
7
 10
1.19282971E+02
 20
3.76170556E+01
 11
1.19282964E+02
 21
3.26170556E+01
  0
LINE
  8
0
 62
7
 10
1.19782964E+02
 20
3.31170549E+01
 11
1.19282964E+02
 21
3.26170556E+01
  0
LINE
  8
0
 62
7
 10
1.19782970E+02
 20
3.71170549E+01
 11
1.19282971E+02
 21
3.76170556E+01
  0
LINE
  8
0
 62
7
 10
1.04782971E+02
 20
3.76170765E+01
 11
1.04782964E+02
 21
3.26170765E+01
  0
LINE
  8
0
 62
7
 10
1.19782970E+02
 20
3.71170549E+01
 11
1.19782964E+02
 21
3.31170549E+01
  0
LINE
  8
0
 62
7
 10
1.19282964E+02
 20
3.26170556E+01
 11
1.15812964E+02
 21
3.26170606E+01
  0
LINE
  8
0
 62
7
 10
1.19282971E+02
 20
3.76170556E+01
 11
1.15812971E+02
 21
3.76170606E+01
  0
LINE
  8
0
 62
7
 10
9.87829744E+01
 20
4.01170851E+01
 11
9.87829600E+01
 21
3.01170851E+01
  0
LINE
  8
0
 62
7
 10
9.32829744E+01
 20
4.01170930E+01
 11
9.32829600E+01
 21
3.01170930E+01
  0
LINE
  8
0
 62
7
 10
9.97829615E+01
 20
3.11170837E+01
 11
9.87829600E+01
 21
3.01170851E+01
  0
LINE
  8
0
 62
7
 10
9.97829730E+01
 20
3.91170837E+01
 11
9.87829744E+01
 21
4.01170851E+01
  0
LINE
  8
0
 62
7
 10
9.87829744E+01
 20
4.01170851E+01
 11
9.77529744E+01
 21
4.01170866E+01
  0
LINE
  8
0
 62
7
 10
9.87829600E+01
 20
3.01170851E+01
 11
9.77529600E+01
 21
3.01170866E+01
  0
LINE
  8
0
 62
7
 10
9.97829730E+01
 20
3.91170837E+01
 11
9.97829615E+01
 21
3.11170837E+01
  0
LINE
  8
0
 62
2
 10
1.19715964E+02
 20
3.30500550E+01
 11
1.15812964E+02
 21
3.30500606E+01
  0
LINE
  8
0
 62
2
 10
1.19715970E+02
 20
3.71840550E+01
 11
1.15812970E+02
 21
3.71840606E+01
  0
LINE
  8
0
 62
2
 10
1.11812970E+02
 20
3.71840663E+01
 11
1.04782970E+02
 21
3.71840765E+01
  0
LINE
  8
0
 62
2
 10
1.11812964E+02
 20
3.30500663E+01
 11
1.04782964E+02
 21
3.30500765E+01
  0
LINE
  8
0
 62
2
 10
9.95949733E+01
 20
3.93050839E+01
 11
9.77529733E+01
 21
3.93050866E+01
  0
LINE
  8
0
 62
2
 10
9.95949612E+01
 20
3.09290839E+01
 11
9.77529612E+01
 21
3.09290866E+01
  0
LINE
  8
0
 62
2
 10
9.37529733E+01
 20
3.93050923E+01
 11
9.32829733E+01
 21
3.93050930E+01
  0
LINE
  8
0
 62
2
 10
9.37529612E+01
 20
3.09290923E+01
 11
9.32829612E+01
 21
3.09290930E+01
  0
ARC
  8
0
 62
4
 10
9.24950296E+01
 20
4.11055377E+01
 40
5.25794651E+00
 50
1.68783635E-02
 51
2.24931646E+01
  0
ARC
  8
0
 62
4
 10
9.90192014E+01
 20
4.11038807E+01
 40
5.26622655E+00
 50
1.57524569E+02
 51
1.79965057E+02
  0
CIRCLE
  8
0
 62
2
 10
-2.22861023E-01
 20
3.51147133E+01
 40
2.50000000E+00
  0
CIRCLE
  8
0
 62
7
 10
-2.17032776E-01
 20
3.51147118E+01
 40
2.06700000E+00
  0
CIRCLE
  8
0
 62
2
 10
9.77713898E+00
 20
3.51146989E+01
 40
2.50000000E+00
  0
CIRCLE
  8
0
 62
7
 10
9.78296722E+00
 20
3.51146974E+01
 40
2.06700000E+00
  0
CIRCLE
  8
0
 62
2
 10
8.47771390E+01
 20
3.51145909E+01
 40
2.50000000E+00
  0
CIRCLE
  8
0
 62
7
 10
8.47829672E+01
 20
3.51145893E+01
 40
2.06700000E+00
  0
LINE
  8
0
 62
4
 10
-3.92070147E+01
 20
4.77072838E+01
 11
-3.42700156E+01
 21
4.77072767E+01
  0
LINE
  8
0
 62
4
 10
-3.92070146E+01
 20
4.77072838E+01
 11
-3.92070184E+01
 21
4.51072838E+01
  0
LINE
  8
0
 62
4
 10
-3.92070184E+01
 20
4.51072838E+01
 11
-3.68700193E+01
 21
4.51072805E+01
  0
LINE
  8
0
 62
6
 10
-3.42700156E+01
 20
4.77072767E+01
 11
-3.68700193E+01
 21
4.51072805E+01
  0
LINE
  8
0
 62
4
 10
-4.22070136E+01
 20
4.84072881E+01
 11
-4.22070194E+01
 21
4.44072881E+01
  0
LINE
  8
0
 62
4
 10
-4.22070194E+01
 20
4.44072881E+01
 11
-3.92070184E+01
 21
4.51072838E+01
  0
LINE
  8
0
 62
4
 10
-4.22070136E+01
 20
4.84072881E+01
 11
-3.92070146E+01
 21
4.77072838E+01
  0
LINE
  8
0
 62
4
 10
-5.92070167E+01
 20
4.63073126E+01
 11
-5.92070452E+01
 21
2.64573280E+01
  0
LINE
  8
0
 62
4
 10
-5.02070167E+01
 20
4.63072997E+01
 11
-5.02070452E+01
 21
2.64573150E+01
  0
LINE
  8
0
 62
4
 10
-6.62070136E+01
 20
4.84073227E+01
 11
-6.62070194E+01
 21
4.44073227E+01
  0
LINE
  8
0
 62
4
 10
-6.72070180E+01
 20
4.54073241E+01
 11
-6.62070194E+01
 21
4.44073227E+01
  0
LINE
  8
0
 62
4
 10
-5.72070047E+01
 20
5.46073097E+01
 11
-5.72070054E+01
 21
5.41073097E+01
  0
LINE
  8
0
 62
4
 10
-5.22070047E+01
 20
5.46073025E+01
 11
-5.22070054E+01
 21
5.41073025E+01
  0
LINE
  8
0
 62
4
 10
-6.62070136E+01
 20
4.84073227E+01
 11
-6.17070136E+01
 21
4.84073162E+01
  0
LINE
  8
0
 62
4
 10
-6.62070194E+01
 20
4.44073227E+01
 11
-6.17070194E+01
 21
4.44073162E+01
  0
LINE
  8
0
 62
4
 10
-5.92070069E+01
 20
5.31073126E+01
 11
-5.02070069E+01
 21
5.31072997E+01
  0
LINE
  8
0
 62
4
 10
-6.72070151E+01
 20
4.74073241E+01
 11
-6.72070180E+01
 21
4.54073241E+01
  0
LINE
  8
0
 62
4
 10
-5.72070054E+01
 20
5.41073097E+01
 11
-5.22070054E+01
 21
5.41073025E+01
  0
LINE
  8
0
 62
4
 10
-5.62070033E+01
 20
5.56073083E+01
 11
-5.32070033E+01
 21
5.56073040E+01
  0
LINE
  8
0
 62
4
 10
-5.32070054E+01
 20
5.41073040E+01
 11
-5.32070069E+01
 21
5.31073040E+01
  0
LINE
  8
0
 62
4
 10
-5.62070054E+01
 20
5.41073083E+01
 11
-5.62070069E+01
 21
5.31073083E+01
  0
LINE
  8
0
 62
6
 10
-5.34770054E+01
 20
5.41073044E+01
 11
-5.34770069E+01
 21
5.31073044E+01
  0
LINE
  8
0
 62
6
 10
-5.59370054E+01
 20
5.41073079E+01
 11
-5.59370069E+01
 21
5.31073079E+01
  0
LINE
  8
0
 62
4
 10
-6.72070151E+01
 20
4.74073241E+01
 11
-6.62070136E+01
 21
4.84073227E+01
  0
LINE
  8
0
 62
4
 10
-6.17070122E+01
 20
4.94073162E+01
 11
-6.17070162E+01
 21
4.66073162E+01
  0
ARC
  8
0
 62
4
 10
-5.62062132E+01
 20
5.46065168E+01
 40
1.00079180E+00
 50
9.00000002E+01
 51
1.79954604E+02
  0
ARC
  8
0
 62
4
 10
-5.32086704E+01
 20
5.46056383E+01
 40
1.00166704E+00
 50
9.51937830E-02
 51
8.99046411E+01
  0
LINE
  8
0
 62
4
 10
-4.77070122E+01
 20
4.94072961E+01
 11
-4.77070162E+01
 21
4.66072961E+01
  0
LINE
  8
0
 62
4
 10
-5.92070453E+01
 20
2.64573280E+01
 11
-5.02070452E+01
 21
2.64573150E+01
  0
LINE
  8
0
 62
4
 10
-6.17070122E+01
 20
4.94073162E+01
 11
-5.92070122E+01
 21
4.94073126E+01
  0
LINE
  8
0
 62
4
 10
-6.17070162E+01
 20
4.66073162E+01
 11
-5.92070162E+01
 21
4.66073126E+01
  0
LINE
  8
0
 62
4
 10
-6.17070168E+01
 20
4.62073162E+01
 11
-5.92070168E+01
 21
4.62073126E+01
  0
LINE
  8
0
 62
4
 10
-5.02070122E+01
 20
4.94072997E+01
 11
-4.77070122E+01
 21
4.94072961E+01
  0
LINE
  8
0
 62
4
 10
-5.02070162E+01
 20
4.66072997E+01
 11
-4.77070162E+01
 21
4.66072961E+01
  0
LINE
  8
0
 62
4
 10
-5.02070168E+01
 20
4.62072997E+01
 11
-4.77070168E+01
 21
4.62072961E+01
  0
LINE
  8
0
 62
4
 10
-5.92070167E+01
 20
4.63073126E+01
 11
-5.92070069E+01
 21
5.31073126E+01
  0
LINE
  8
0
 62
4
 10
-5.02070167E+01
 20
4.63072997E+01
 11
-5.02070069E+01
 21
5.31072997E+01
  0
LINE
  8
0
 62
4
 10
-4.77070212E+01
 20
4.31391782E+01
 11
-5.02070212E+01
 21
4.31391818E+01
  0
LINE
  8
0
 62
4
 10
-6.17070212E+01
 20
4.31391984E+01
 11
-5.92070212E+01
 21
4.31391948E+01
  0
LINE
  8
0
 62
4
 10
-5.92070162E+01
 20
4.66073126E+01
 11
-5.02070162E+01
 21
4.66072997E+01
  0
LINE
  8
0
 62
4
 10
-4.77070168E+01
 20
4.62072961E+01
 11
-4.77070212E+01
 21
4.31391782E+01
  0
LINE
  8
0
 62
4
 10
-6.17070168E+01
 20
4.62073162E+01
 11
-6.17070212E+01
 21
4.31391984E+01
  0
LINE
  8
0
 62
4
 10
-4.77070194E+01
 20
4.44072961E+01
 11
-4.22070194E+01
 21
4.44072881E+01
  0
LINE
  8
0
 62
4
 10
-4.77070136E+01
 20
4.84072961E+01
 11
-4.22070136E+01
 21
4.84072881E+01
  0
LINE
  8
0
 62
4
 10
2.82985321E-01
 20
4.77072270E+01
 11
5.21998441E+00
 21
4.77072198E+01
  0
LINE
  8
0
 62
4
 10
2.82985331E-01
 20
4.77072270E+01
 11
2.82981587E-01
 21
4.51072270E+01
  0
LINE
  8
0
 62
4
 10
2.82981577E-01
 20
4.51072270E+01
 11
2.61998066E+00
 21
4.51072236E+01
  0
LINE
  8
0
 62
6
 10
5.21998441E+00
 20
4.77072198E+01
 11
2.61998066E+00
 21
4.51072236E+01
  0
LINE
  8
0
 62
4
 10
-2.71701366E+00
 20
4.84072313E+01
 11
-2.71701942E+00
 21
4.44072313E+01
  0
LINE
  8
0
 62
4
 10
-2.71701942E+00
 20
4.44072313E+01
 11
2.82981577E-01
 21
4.51072270E+01
  0
LINE
  8
0
 62
4
 10
-2.71701366E+00
 20
4.84072313E+01
 11
2.82985331E-01
 21
4.77072270E+01
  0
LINE
  8
0
 62
4
 10
-1.97170167E+01
 20
4.63072558E+01
 11
-1.97170453E+01
 21
2.64572711E+01
  0
LINE
  8
0
 62
4
 10
-1.07170167E+01
 20
4.63072428E+01
 11
-1.07170453E+01
 21
2.64572581E+01
  0
LINE
  8
0
 62
4
 10
-2.67170137E+01
 20
4.84072658E+01
 11
-2.67170194E+01
 21
4.44072658E+01
  0
LINE
  8
0
 62
4
 10
-2.77170180E+01
 20
4.54072673E+01
 11
-2.67170194E+01
 21
4.44072658E+01
  0
LINE
  8
0
 62
4
 10
-1.77170047E+01
 20
5.46072529E+01
 11
-1.77170055E+01
 21
5.41072529E+01
  0
LINE
  8
0
 62
4
 10
-1.27170047E+01
 20
5.46072457E+01
 11
-1.27170055E+01
 21
5.41072457E+01
  0
LINE
  8
0
 62
4
 10
-2.67170137E+01
 20
4.84072658E+01
 11
-2.22170137E+01
 21
4.84072594E+01
  0
LINE
  8
0
 62
4
 10
-2.67170194E+01
 20
4.44072658E+01
 11
-2.22170194E+01
 21
4.44072594E+01
  0
LINE
  8
0
 62
4
 10
-1.97170069E+01
 20
5.31072558E+01
 11
-1.07170069E+01
 21
5.31072428E+01
  0
LINE
  8
0
 62
4
 10
-2.77170151E+01
 20
4.74072673E+01
 11
-2.77170180E+01
 21
4.54072673E+01
  0
LINE
  8
0
 62
4
 10
-1.77170055E+01
 20
5.41072529E+01
 11
-1.27170055E+01
 21
5.41072457E+01
  0
LINE
  8
0
 62
4
 10
-1.67170033E+01
 20
5.56072514E+01
 11
-1.37170033E+01
 21
5.56072471E+01
  0
LINE
  8
0
 62
4
 10
-1.37170055E+01
 20
5.41072471E+01
 11
-1.37170069E+01
 21
5.31072471E+01
  0
LINE
  8
0
 62
4
 10
-1.67170055E+01
 20
5.41072514E+01
 11
-1.67170069E+01
 21
5.31072514E+01
  0
LINE
  8
0
 62
6
 10
-1.39870055E+01
 20
5.41072475E+01
 11
-1.39870069E+01
 21
5.31072475E+01
  0
LINE
  8
0
 62
6
 10
-1.64470055E+01
 20
5.41072510E+01
 11
-1.64470069E+01
 21
5.31072510E+01
  0
LINE
  8
0
 62
4
 10
-2.77170151E+01
 20
4.74072673E+01
 11
-2.67170137E+01
 21
4.84072658E+01
  0
LINE
  8
0
 62
4
 10
-2.22170122E+01
 20
4.94072594E+01
 11
-2.22170163E+01
 21
4.66072594E+01
  0
ARC
  8
0
 62
4
 10
-1.67162132E+01
 20
5.46064599E+01
 40
1.00079180E+00
 50
9.00000002E+01
 51
1.79954604E+02
  0
ARC
  8
0
 62
4
 10
-1.37186704E+01
 20
5.46055815E+01
 40
1.00166704E+00
 50
9.51937830E-02
 51
8.99046411E+01
  0
LINE
  8
0
 62
4
 10
-8.21701222E+00
 20
4.94072392E+01
 11
-8.21701625E+00
 21
4.66072392E+01
  0
LINE
  8
0
 62
4
 10
-1.97170453E+01
 20
2.64572711E+01
 11
-1.07170453E+01
 21
2.64572581E+01
  0
LINE
  8
0
 62
4
 10
-2.22170122E+01
 20
4.94072594E+01
 11
-1.97170122E+01
 21
4.94072558E+01
  0
LINE
  8
0
 62
4
 10
-2.22170163E+01
 20
4.66072594E+01
 11
-1.97170163E+01
 21
4.66072558E+01
  0
LINE
  8
0
 62
4
 10
-2.22170168E+01
 20
4.62072594E+01
 11
-1.97170168E+01
 21
4.62072558E+01
  0
LINE
  8
0
 62
4
 10
-1.07170122E+01
 20
4.94072428E+01
 11
-8.21701222E+00
 21
4.94072392E+01
  0
LINE
  8
0
 62
4
 10
-1.07170163E+01
 20
4.66072428E+01
 11
-8.21701625E+00
 21
4.66072392E+01
  0
LINE
  8
0
 62
4
 10
-1.07170168E+01
 20
4.62072428E+01
 11
-8.21701683E+00
 21
4.62072392E+01
  0
LINE
  8
0
 62
4
 10
-1.97170167E+01
 20
4.63072558E+01
 11
-1.97170069E+01
 21
5.31072558E+01
  0
LINE
  8
0
 62
4
 10
-1.07170167E+01
 20
4.63072428E+01
 11
-1.07170069E+01
 21
5.31072428E+01
  0
LINE
  8
0
 62
4
 10
-8.21702127E+00
 20
4.31391214E+01
 11
-1.07170213E+01
 21
4.31391250E+01
  0
LINE
  8
0
 62
4
 10
-2.22170212E+01
 20
4.31391415E+01
 11
-1.97170212E+01
 21
4.31391379E+01
  0
LINE
  8
0
 62
4
 10
-1.97170163E+01
 20
4.66072558E+01
 11
-1.07170163E+01
 21
4.66072428E+01
  0
LINE
  8
0
 62
4
 10
-8.21701683E+00
 20
4.62072392E+01
 11
-8.21702125E+00
 21
4.31391214E+01
  0
LINE
  8
0
 62
4
 10
-2.22170168E+01
 20
4.62072594E+01
 11
-2.22170212E+01
 21
4.31391415E+01
  0
LINE
  8
0
 62
4
 10
-8.21701942E+00
 20
4.44072392E+01
 11
-2.71701942E+00
 21
4.44072313E+01
  0
LINE
  8
0
 62
4
 10
-8.21701366E+00
 20
4.84072392E+01
 11
-2.71701366E+00
 21
4.84072313E+01
  0
LINE
  8
0
 62
4
 10
4.52829854E+01
 20
4.77071621E+01
 11
4.52829816E+01
 21
4.51071621E+01
  0
LINE
  8
0
 62
6
 10
5.02199844E+01
 20
4.77071550E+01
 11
4.76199807E+01
 21
4.51071588E+01
  0
LINE
  8
0
 62
4
 10
4.22829864E+01
 20
4.84071665E+01
 11
4.22829806E+01
 21
4.44071665E+01
  0
LINE
  8
0
 62
4
 10
2.52829833E+01
 20
4.63071909E+01
 11
2.52829548E+01
 21
2.64572063E+01
  0
LINE
  8
0
 62
4
 10
3.42829833E+01
 20
4.63071780E+01
 11
3.42829548E+01
 21
2.64571933E+01
  0
LINE
  8
0
 62
4
 10
1.82829864E+01
 20
4.84072010E+01
 11
1.82829806E+01
 21
4.44072010E+01
  0
LINE
  8
0
 62
4
 10
1.72829849E+01
 20
4.74072025E+01
 11
1.82829864E+01
 21
4.84072010E+01
  0
LINE
  8
0
 62
4
 10
3.67829832E+01
 20
4.62071744E+01
 11
3.67829788E+01
 21
4.31390566E+01
  0
LINE
  8
0
 62
4
 10
2.27829832E+01
 20
4.62071945E+01
 11
2.27829788E+01
 21
4.31390767E+01
  0
LINE
  8
0
 62
4
 10
8.47729853E+01
 20
4.77071053E+01
 11
8.47729816E+01
 21
4.51071053E+01
  0
LINE
  8
0
 62
6
 10
8.97099844E+01
 20
4.77070982E+01
 11
8.71099807E+01
 21
4.51071019E+01
  0
LINE
  8
0
 62
4
 10
8.17729863E+01
 20
4.84071096E+01
 11
8.17729806E+01
 21
4.44071096E+01
  0
LINE
  8
0
 62
4
 10
6.47729833E+01
 20
4.63071341E+01
 11
6.47729547E+01
 21
2.64571494E+01
  0
LINE
  8
0
 62
4
 10
7.37729833E+01
 20
4.63071211E+01
 11
7.37729547E+01
 21
2.64571365E+01
  0
LINE
  8
0
 62
4
 10
5.77729863E+01
 20
4.84071442E+01
 11
5.77729806E+01
 21
4.44071442E+01
  0
LINE
  8
0
 62
4
 10
5.67729820E+01
 20
4.54071456E+01
 11
5.77729806E+01
 21
4.44071442E+01
  0
LINE
  8
0
 62
4
 10
7.62729832E+01
 20
4.62071175E+01
 11
7.62729788E+01
 21
4.31389997E+01
  0
LINE
  8
0
 62
4
 10
6.22729832E+01
 20
4.62071377E+01
 11
6.22729788E+01
 21
4.31390199E+01
  0
LINE
  8
0
 62
4
 10
7.62729863E+01
 20
4.84071175E+01
 11
8.17729863E+01
 21
4.84071096E+01
  0
LINE
  8
0
 62
4
 10
6.47729837E+01
 20
4.66071341E+01
 11
7.37729837E+01
 21
4.66071211E+01
  0
LINE
  8
0
 62
4
 10
7.37729833E+01
 20
4.63071211E+01
 11
7.37729931E+01
 21
5.31071211E+01
  0
LINE
  8
0
 62
4
 10
6.47729833E+01
 20
4.63071341E+01
 11
6.47729931E+01
 21
5.31071341E+01
  0
LINE
  8
0
 62
4
 10
7.37729832E+01
 20
4.62071211E+01
 11
7.62729832E+01
 21
4.62071175E+01
  0
LINE
  8
0
 62
4
 10
7.37729837E+01
 20
4.66071211E+01
 11
7.62729837E+01
 21
4.66071175E+01
  0
LINE
  8
0
 62
4
 10
7.37729878E+01
 20
4.94071211E+01
 11
7.62729878E+01
 21
4.94071175E+01
  0
LINE
  8
0
 62
4
 10
6.22729832E+01
 20
4.62071377E+01
 11
6.47729832E+01
 21
4.62071341E+01
  0
LINE
  8
0
 62
4
 10
6.22729837E+01
 20
4.66071377E+01
 11
6.47729837E+01
 21
4.66071341E+01
  0
LINE
  8
0
 62
4
 10
6.22729878E+01
 20
4.94071377E+01
 11
6.47729878E+01
 21
4.94071341E+01
  0
LINE
  8
0
 62
4
 10
7.62729878E+01
 20
4.94071175E+01
 11
7.62729837E+01
 21
4.66071175E+01
  0
ARC
  8
0
 62
4
 10
7.07713296E+01
 20
5.46054598E+01
 40
1.00166704E+00
 50
9.51937830E-02
 51
8.99046411E+01
  0
ARC
  8
0
 62
4
 10
6.77737868E+01
 20
5.46063383E+01
 40
1.00079180E+00
 50
9.00000002E+01
 51
1.79954604E+02
  0
LINE
  8
0
 62
4
 10
6.22729878E+01
 20
4.94071377E+01
 11
6.22729837E+01
 21
4.66071377E+01
  0
LINE
  8
0
 62
4
 10
5.67729849E+01
 20
4.74071456E+01
 11
5.77729863E+01
 21
4.84071442E+01
  0
LINE
  8
0
 62
6
 10
6.80429945E+01
 20
5.41071294E+01
 11
6.80429931E+01
 21
5.31071294E+01
  0
LINE
  8
0
 62
6
 10
7.05029945E+01
 20
5.41071258E+01
 11
7.05029931E+01
 21
5.31071258E+01
  0
LINE
  8
0
 62
4
 10
6.77729945E+01
 20
5.41071298E+01
 11
6.77729931E+01
 21
5.31071298E+01
  0
LINE
  8
0
 62
4
 10
7.07729945E+01
 20
5.41071254E+01
 11
7.07729931E+01
 21
5.31071254E+01
  0
LINE
  8
0
 62
4
 10
6.77729967E+01
 20
5.56071298E+01
 11
7.07729967E+01
 21
5.56071254E+01
  0
LINE
  8
0
 62
4
 10
6.67729945E+01
 20
5.41071312E+01
 11
7.17729945E+01
 21
5.41071240E+01
  0
LINE
  8
0
 62
4
 10
5.67729849E+01
 20
4.74071456E+01
 11
5.67729820E+01
 21
4.54071456E+01
  0
LINE
  8
0
 62
4
 10
6.47729931E+01
 20
5.31071341E+01
 11
7.37729931E+01
 21
5.31071211E+01
  0
LINE
  8
0
 62
4
 10
5.77729863E+01
 20
4.84071442E+01
 11
6.22729863E+01
 21
4.84071377E+01
  0
LINE
  8
0
 62
4
 10
7.17729953E+01
 20
5.46071240E+01
 11
7.17729945E+01
 21
5.41071240E+01
  0
LINE
  8
0
 62
4
 10
6.67729953E+01
 20
5.46071312E+01
 11
6.67729945E+01
 21
5.41071312E+01
  0
LINE
  8
0
 62
4
 10
8.17729863E+01
 20
4.84071096E+01
 11
8.47729853E+01
 21
4.77071053E+01
  0
LINE
  8
0
 62
4
 10
8.47729853E+01
 20
4.77071053E+01
 11
8.97099844E+01
 21
4.77070982E+01
  0
LINE
  8
0
 62
4
 10
3.67829864E+01
 20
4.84071744E+01
 11
4.22829864E+01
 21
4.84071665E+01
  0
LINE
  8
0
 62
4
 10
2.52829838E+01
 20
4.66071909E+01
 11
3.42829838E+01
 21
4.66071780E+01
  0
LINE
  8
0
 62
4
 10
3.42829833E+01
 20
4.63071780E+01
 11
3.42829931E+01
 21
5.31071780E+01
  0
LINE
  8
0
 62
4
 10
2.52829833E+01
 20
4.63071909E+01
 11
2.52829931E+01
 21
5.31071909E+01
  0
LINE
  8
0
 62
4
 10
3.42829832E+01
 20
4.62071780E+01
 11
3.67829832E+01
 21
4.62071744E+01
  0
LINE
  8
0
 62
4
 10
3.42829838E+01
 20
4.66071780E+01
 11
3.67829838E+01
 21
4.66071744E+01
  0
LINE
  8
0
 62
4
 10
3.42829878E+01
 20
4.94071780E+01
 11
3.67829878E+01
 21
4.94071744E+01
  0
LINE
  8
0
 62
4
 10
2.27829832E+01
 20
4.62071945E+01
 11
2.52829832E+01
 21
4.62071909E+01
  0
LINE
  8
0
 62
4
 10
2.27829838E+01
 20
4.66071945E+01
 11
2.52829838E+01
 21
4.66071909E+01
  0
LINE
  8
0
 62
4
 10
2.27829878E+01
 20
4.94071945E+01
 11
2.52829878E+01
 21
4.94071909E+01
  0
LINE
  8
0
 62
4
 10
3.67829878E+01
 20
4.94071744E+01
 11
3.67829838E+01
 21
4.66071744E+01
  0
ARC
  8
0
 62
4
 10
3.12813296E+01
 20
5.46055167E+01
 40
1.00166704E+00
 50
9.51937830E-02
 51
8.99046411E+01
  0
ARC
  8
0
 62
4
 10
2.82837868E+01
 20
5.46063951E+01
 40
1.00079180E+00
 50
9.00000002E+01
 51
1.79954604E+02
  0
LINE
  8
0
 62
4
 10
2.27829878E+01
 20
4.94071945E+01
 11
2.27829838E+01
 21
4.66071945E+01
  0
LINE
  8
0
 62
6
 10
2.85529946E+01
 20
5.41071862E+01
 11
2.85529931E+01
 21
5.31071862E+01
  0
LINE
  8
0
 62
6
 10
3.10129946E+01
 20
5.41071827E+01
 11
3.10129931E+01
 21
5.31071827E+01
  0
LINE
  8
0
 62
4
 10
2.82829946E+01
 20
5.41071866E+01
 11
2.82829931E+01
 21
5.31071866E+01
  0
LINE
  8
0
 62
4
 10
3.12829946E+01
 20
5.41071823E+01
 11
3.12829931E+01
 21
5.31071823E+01
  0
LINE
  8
0
 62
4
 10
2.82829967E+01
 20
5.56071866E+01
 11
3.12829967E+01
 21
5.56071823E+01
  0
LINE
  8
0
 62
4
 10
2.72829946E+01
 20
5.41071881E+01
 11
3.22829946E+01
 21
5.41071809E+01
  0
LINE
  8
0
 62
4
 10
2.52829931E+01
 20
5.31071909E+01
 11
3.42829931E+01
 21
5.31071780E+01
  0
LINE
  8
0
 62
4
 10
1.82829864E+01
 20
4.84072010E+01
 11
2.27829864E+01
 21
4.84071945E+01
  0
LINE
  8
0
 62
4
 10
3.22829953E+01
 20
5.46071809E+01
 11
3.22829946E+01
 21
5.41071809E+01
  0
LINE
  8
0
 62
4
 10
2.72829953E+01
 20
5.46071881E+01
 11
2.72829946E+01
 21
5.41071881E+01
  0
LINE
  8
0
 62
4
 10
4.22829864E+01
 20
4.84071665E+01
 11
4.52829854E+01
 21
4.77071621E+01
  0
LINE
  8
0
 62
4
 10
4.52829853E+01
 20
4.77071621E+01
 11
5.02199844E+01
 21
4.77071550E+01
  0
LINE
  8
0
 62
4
 10
4.22829806E+01
 20
4.44071665E+01
 11
4.52829816E+01
 21
4.51071621E+01
  0
LINE
  8
0
 62
4
 10
1.72829820E+01
 20
4.54072025E+01
 11
1.82829806E+01
 21
4.44072010E+01
  0
LINE
  8
0
 62
4
 10
1.72829849E+01
 20
4.74072025E+01
 11
1.72829820E+01
 21
4.54072025E+01
  0
LINE
  8
0
 62
4
 10
4.52829816E+01
 20
4.51071621E+01
 11
4.76199807E+01
 21
4.51071588E+01
  0
LINE
  8
0
 62
4
 10
1.82829806E+01
 20
4.44072010E+01
 11
2.27829806E+01
 21
4.44071945E+01
  0
LINE
  8
0
 62
4
 10
3.67829806E+01
 20
4.44071744E+01
 11
4.22829806E+01
 21
4.44071665E+01
  0
LINE
  8
0
 62
4
 10
3.67829788E+01
 20
4.31390566E+01
 11
3.42829788E+01
 21
4.31390602E+01
  0
LINE
  8
0
 62
4
 10
2.27829788E+01
 20
4.31390767E+01
 11
2.52829788E+01
 21
4.31390731E+01
  0
LINE
  8
0
 62
4
 10
2.52829547E+01
 20
2.64572063E+01
 11
3.42829548E+01
 21
2.64571933E+01
  0
LINE
  8
0
 62
4
 10
5.77729806E+01
 20
4.44071442E+01
 11
6.22729806E+01
 21
4.44071377E+01
  0
LINE
  8
0
 62
4
 10
7.62729806E+01
 20
4.44071175E+01
 11
8.17729806E+01
 21
4.44071096E+01
  0
LINE
  8
0
 62
4
 10
8.17729806E+01
 20
4.44071096E+01
 11
8.47729816E+01
 21
4.51071053E+01
  0
LINE
  8
0
 62
4
 10
8.47729816E+01
 20
4.51071053E+01
 11
8.71099807E+01
 21
4.51071019E+01
  0
LINE
  8
0
 62
4
 10
7.62729787E+01
 20
4.31389997E+01
 11
7.37729787E+01
 21
4.31390033E+01
  0
LINE
  8
0
 62
4
 10
6.22729788E+01
 20
4.31390199E+01
 11
6.47729788E+01
 21
4.31390163E+01
  0
LINE
  8
0
 62
4
 10
6.47729547E+01
 20
2.64571494E+01
 11
7.37729547E+01
 21
2.64571365E+01
  0
LINE
  8
0
 62
7
 10
2.27829795E+01
 20
4.36071945E+01
 11
-8.21702057E+00
 21
4.36072392E+01
  0
LINE
  8
0
 62
7
 10
6.22729794E+01
 20
4.36071377E+01
 11
3.67829795E+01
 21
4.36071744E+01
  0
LINE
  8
0
 62
7
 10
2.52829550E+01
 20
2.66171909E+01
 11
-1.07170450E+01
 21
2.66172428E+01
  0
LINE
  8
0
 62
7
 10
6.47729550E+01
 20
2.66171341E+01
 11
3.42829550E+01
 21
2.66171780E+01
  0
LINE
  8
0
 62
7
 10
-6.17070205E+01
 20
4.36073162E+01
 11
-8.22070205E+01
 21
4.36073457E+01
  0
LINE
  8
0
 62
7
 10
-5.92070450E+01
 20
2.66173126E+01
 11
-8.22070450E+01
 21
2.66173457E+01
  0
LINE
  8
0
 62
7
 10
-2.22170206E+01
 20
4.36072594E+01
 11
-4.77070205E+01
 21
4.36072961E+01
  0
LINE
  8
0
 62
7
 10
-1.97170450E+01
 20
2.66172558E+01
 11
-5.02070450E+01
 21
2.66172997E+01
  0
LINE
  8
0
 62
7
 10
-1.54311188E+02
 20
3.93670549E+01
 11
-1.54311188E+02
 21
3.08770549E+01
  0
LINE
  8
0
 62
4
 10
-1.52811189E+02
 20
3.10756022E+01
 11
-1.52811189E+02
 21
3.91585075E+01
  0
LINE
  8
0
 62
4
 10
-1.51023227E+02
 20
4.86417883E+01
 11
-1.51361188E+02
 21
4.88370549E+01
  0
ARC
  8
0
 62
4
 10
-1.50312336E+02
 20
4.97344106E+01
 40
4.98857363E-01
 50
1.80270562E+02
 51
2.09445368E+02
  0
ARC
  8
0
 62
4
 10
-1.51110984E+02
 20
4.92701891E+01
 40
5.00207143E-01
 50
1.79786293E+02
 51
2.39986760E+02
  0
LINE
  8
0
 62
4
 10
-1.50736188E+02
 20
5.19420549E+01
 11
-1.50736188E+02
 21
4.95215589E+01
  0
LINE
  8
0
 62
4
 10
-1.51611188E+02
 20
5.14170549E+01
 11
-1.51611188E+02
 21
4.92720549E+01
  0
LINE
  8
0
 62
4
 10
-1.50811188E+02
 20
5.14170549E+01
 11
-1.51611188E+02
 21
5.14170549E+01
  0
LINE
  8
0
 62
4
 10
-1.50811188E+02
 20
5.14170549E+01
 11
-1.50811188E+02
 21
4.97320549E+01
  0
LINE
  8
0
 62
4
 10
-1.51334296E+02
 20
4.55927647E+01
 11
-1.52575241E+02
 21
4.17892810E+01
  0
LINE
  8
0
 62
4
 10
-1.50736188E+02
 20
4.95215589E+01
 11
-1.53192919E+02
 21
4.19917033E+01
  0
LINE
  8
0
 62
4
 10
-1.51476884E+02
 20
4.56393356E+01
 11
-1.51334282E+02
 21
4.55928095E+01
  0
LINE
  8
0
 62
4
 10
-1.52717579E+02
 20
4.18366163E+01
 11
-1.53192919E+02
 21
4.19917033E+01
  0
ARC
  8
0
 62
4
 10
-1.45811188E+02
 20
3.51170549E+01
 40
8.65000000E+00
 50
1.69314255E+02
 51
1.90685745E+02
  0
CIRCLE
  8
0
 62
4
 10
-1.45811188E+02
 20
3.51170564E+01
 40
4.00000000E+00
  0
ARC
  8
0
 62
7
 10
-1.45816173E+02
 20
3.51120633E+01
 40
9.50105596E+00
 50
2.96605401E+02
 51
3.33529254E+02
  0
ARC
  8
0
 62
7
 10
-1.45811187E+02
 20
3.51170556E+01
 40
9.50328788E+00
 50
2.65650491E+01
 51
6.34349507E+01
  0
CIRCLE
  8
0
 62
7
 10
-1.45811188E+02
 20
3.51170564E+01
 40
2.50000000E+00
  0
LINE
  8
0
  6
CENTER
 62
2
 10
-1.45811188E+02
 20
5.72088098E+01
 11
-1.45811188E+02
 21
2.50101488E+01
  0
LINE
  8
0
 62
7
 10
-1.50051188E+02
 20
4.36170549E+01
 11
-1.41561188E+02
 21
4.36170549E+01
  0
LINE
  8
0
 62
7
 10
-1.50051188E+02
 20
2.66170549E+01
 11
-1.41561188E+02
 21
2.66170549E+01
  0
LINE
  8
0
 62
7
 10
-1.37311188E+02
 20
3.93670549E+01
 11
-1.37311188E+02
 21
3.08770549E+01
  0
CIRCLE
  8
0
 62
2
 10
-1.45811188E+02
 20
3.51170549E+01
 40
2.06700000E+00
  0
LINE
  8
0
 62
4
 10
-1.49811189E+02
 20
3.74264567E+01
 11
-1.45811188E+02
 21
3.97358585E+01
  0
LINE
  8
0
 62
4
 10
-1.45811188E+02
 20
3.97358585E+01
 11
-1.41811187E+02
 21
3.74264567E+01
  0
LINE
  8
0
 62
4
 10
-1.41811187E+02
 20
3.74264567E+01
 11
-1.41811187E+02
 21
3.28076530E+01
  0
LINE
  8
0
 62
4
 10
-1.41811187E+02
 20
3.28076530E+01
 11
-1.45811188E+02
 21
3.04982512E+01
  0
LINE
  8
0
 62
4
 10
-1.45811188E+02
 20
3.04982512E+01
 11
-1.49811189E+02
 21
3.28076530E+01
  0
LINE
  8
0
 62
4
 10
-1.49811189E+02
 20
3.28076530E+01
 11
-1.49811189E+02
 21
3.74264567E+01
  0
LINE
  8
0
 62
4
 10
-1.38811187E+02
 20
3.10756022E+01
 11
-1.45811188E+02
 21
2.70341496E+01
  0
LINE
  8
0
 62
4
 10
-1.38811187E+02
 20
3.91585075E+01
 11
-1.38811187E+02
 21
3.10756022E+01
  0
LINE
  8
0
 62
4
 10
-1.45811188E+02
 20
4.31999602E+01
 11
-1.38811187E+02
 21
3.91585075E+01
  0
ARC
  8
0
 62
2
 10
-1.45811188E+02
 20
3.51170549E+01
 40
4.18800000E+00
 50
1.02767437E+02
 51
1.37232563E+02
  0
ARC
  8
0
 62
2
 10
-1.45811188E+02
 20
3.51170549E+01
 40
4.18800000E+00
 50
1.62767437E+02
 51
1.97232563E+02
  0
ARC
  8
0
 62
2
 10
-1.45811188E+02
 20
3.51170549E+01
 40
4.18800000E+00
 50
2.22767437E+02
 51
2.57232563E+02
  0
ARC
  8
0
 62
2
 10
-1.45811188E+02
 20
3.51170549E+01
 40
4.18800000E+00
 50
2.82767437E+02
 51
3.17232564E+02
  0
ARC
  8
0
 62
2
 10
-1.45811188E+02
 20
3.51170549E+01
 40
4.18800000E+00
 50
3.42767437E+02
 51
1.72325634E+01
  0
ARC
  8
0
 62
2
 10
-1.45811188E+02
 20
3.51170549E+01
 40
4.18800000E+00
 50
4.27674369E+01
 51
7.72325633E+01
  0
LINE
  8
0
 62
6
 10
-1.47041188E+02
 20
5.15170549E+01
 11
-1.47041188E+02
 21
5.01470549E+01
  0
LINE
  8
0
 62
6
 10
-1.44581188E+02
 20
5.15170549E+01
 11
-1.44581188E+02
 21
5.01470549E+01
  0
LINE
  8
0
 62
4
 10
-1.47311188E+02
 20
5.15170549E+01
 11
-1.47311188E+02
 21
5.04170549E+01
  0
LINE
  8
0
 62
4
 10
-1.44311188E+02
 20
5.15170549E+01
 11
-1.44311188E+02
 21
5.04170549E+01
  0
LINE
  8
0
 62
4
 10
-1.46811188E+02
 20
4.44170549E+01
 11
-1.46811188E+02
 21
4.41170549E+01
  0
LINE
  8
0
 62
4
 10
-1.46811188E+02
 20
4.87170549E+01
 11
-1.46811188E+02
 21
4.84170549E+01
  0
LINE
  8
0
 62
4
 10
-1.47861188E+02
 20
4.84170549E+01
 11
-1.47861188E+02
 21
4.44170549E+01
  0
LINE
  8
0
 62
4
 10
-1.43761188E+02
 20
4.84170549E+01
 11
-1.43761188E+02
 21
4.44170549E+01
  0
LINE
  8
0
 62
4
 10
-1.44811188E+02
 20
4.44170549E+01
 11
-1.44811188E+02
 21
4.41170549E+01
  0
LINE
  8
0
 62
4
 10
-1.44811188E+02
 20
4.87170549E+01
 11
-1.44811188E+02
 21
4.84170549E+01
  0
LINE
  8
0
 62
4
 10
-1.44811188E+02
 20
4.87170549E+01
 11
-1.46811188E+02
 21
4.87170549E+01
  0
LINE
  8
0
 62
4
 10
-1.43761188E+02
 20
4.84170549E+01
 11
-1.47861188E+02
 21
4.84170549E+01
  0
LINE
  8
0
 62
4
 10
-1.43761188E+02
 20
4.44170549E+01
 11
-1.47861188E+02
 21
4.44170549E+01
  0
LINE
  8
0
 62
4
 10
-1.42561188E+02
 20
5.01170549E+01
 11
-1.42561188E+02
 21
4.66170549E+01
  0
LINE
  8
0
 62
4
 10
-1.42561188E+02
 20
4.66170549E+01
 11
-1.43761188E+02
 21
4.66170549E+01
  0
LINE
  8
0
 62
4
 10
-1.42561188E+02
 20
4.62170549E+01
 11
-1.43761188E+02
 21
4.62170549E+01
  0
LINE
  8
0
 62
4
 10
-1.42561188E+02
 20
4.62170549E+01
 11
-1.42561188E+02
 21
4.36170549E+01
  0
LINE
  8
0
 62
4
 10
-1.49061188E+02
 20
5.01170549E+01
 11
-1.49061188E+02
 21
4.36170549E+01
  0
ARC
  8
0
 62
4
 10
-1.44311441E+02
 20
5.46168021E+01
 40
1.00025280E+00
 50
1.44788446E-02
 51
9.00000002E+01
  0
ARC
  8
0
 62
4
 10
-1.47312600E+02
 20
5.46184672E+01
 40
9.98588677E-01
 50
8.99189656E+01
 51
1.80081034E+02
  0
ARC
  8
0
 62
4
 10
-1.48812850E+02
 20
5.18187175E+01
 40
4.98340176E-01
 50
8.98088454E+01
 51
1.80191155E+02
  0
ARC
  8
0
 62
4
 10
-1.42811192E+02
 20
5.18170506E+01
 40
5.00004290E-01
 50
4.91607912E-04
 51
9.00000002E+01
  0
ARC
  8
0
 62
4
 10
-1.49312850E+02
 20
5.23187175E+01
 40
7.98339134E-01
 50
8.98806771E+01
 51
1.80119323E+02
  0
ARC
  8
0
 62
4
 10
-1.42311191E+02
 20
5.23170516E+01
 40
8.00003254E-01
 50
2.33015759E-04
 51
9.00000002E+01
  0
LINE
  8
0
 62
4
 10
-1.44311188E+02
 20
5.36170549E+01
 11
-1.47311188E+02
 21
5.36170549E+01
  0
LINE
  8
0
 62
4
 10
-1.48311188E+02
 20
5.46170549E+01
 11
-1.48311188E+02
 21
5.41170549E+01
  0
LINE
  8
0
 62
4
 10
-1.43311188E+02
 20
5.46170549E+01
 11
-1.43311188E+02
 21
5.41170549E+01
  0
LINE
  8
0
 62
4
 10
-1.44311188E+02
 20
5.56170549E+01
 11
-1.47311188E+02
 21
5.56170549E+01
  0
LINE
  8
0
 62
4
 10
-1.43311188E+02
 20
5.41170549E+01
 11
-1.48311188E+02
 21
5.41170549E+01
  0
LINE
  8
0
 62
4
 10
-1.49311188E+02
 20
4.59170549E+01
 11
-1.50111188E+02
 21
4.59170549E+01
  0
LINE
  8
0
 62
4
 10
-1.41511188E+02
 20
4.66170549E+01
 11
-1.42311188E+02
 21
4.66170549E+01
  0
LINE
  8
0
 62
4
 10
-1.44311188E+02
 20
5.41170549E+01
 11
-1.44311188E+02
 21
5.31170549E+01
  0
LINE
  8
0
 62
4
 10
-1.47311188E+02
 20
5.41170549E+01
 11
-1.47311188E+02
 21
5.31170549E+01
  0
LINE
  8
0
 62
4
 10
-1.50236188E+02
 20
5.19420549E+01
 11
-1.50236188E+02
 21
4.94420549E+01
  0
LINE
  8
0
 62
4
 10
-1.42561188E+02
 20
4.94170549E+01
 11
-1.49061188E+02
 21
4.94170549E+01
  0
LINE
  8
0
 62
4
 10
-1.42561188E+02
 20
5.01170549E+01
 11
-1.49061188E+02
 21
5.01170549E+01
  0
LINE
  8
0
 62
4
 10
-1.42311188E+02
 20
5.18170549E+01
 11
-1.42461188E+02
 21
5.18170549E+01
  0
LINE
  8
0
 62
4
 10
-1.42461188E+02
 20
5.18170549E+01
 11
-1.42461188E+02
 21
4.66170549E+01
  0
LINE
  8
0
 62
4
 10
-1.50111188E+02
 20
4.90410549E+01
 11
-1.50325293E+02
 21
4.91652356E+01
  0
LINE
  8
0
 62
4
 10
-1.42811188E+02
 20
5.23170549E+01
 11
-1.48811188E+02
 21
5.23170549E+01
  0
LINE
  8
0
 62
4
 10
-1.50111188E+02
 20
4.59170549E+01
 11
-1.50111188E+02
 21
5.23170549E+01
  0
LINE
  8
0
 62
4
 10
-1.41511188E+02
 20
5.23170549E+01
 11
-1.41511188E+02
 21
4.66170549E+01
  0
LINE
  8
0
 62
6
 10
-1.44581188E+02
 20
5.36170549E+01
 11
-1.44581188E+02
 21
5.31170549E+01
  0
LINE
  8
0
 62
6
 10
-1.47041188E+02
 20
5.36170549E+01
 11
-1.47041188E+02
 21
5.31170549E+01
  0
LINE
  8
0
 62
4
 10
-1.43666188E+02
 20
5.15170549E+01
 11
-1.47956188E+02
 21
5.15170549E+01
  0
LINE
  8
0
 62
4
 10
-1.43526188E+02
 20
5.23170549E+01
 11
-1.43666188E+02
 21
5.15170549E+01
  0
LINE
  8
0
 62
4
 10
-1.48096188E+02
 20
5.23170549E+01
 11
-1.47956188E+02
 21
5.15170549E+01
  0
LINE
  8
0
 62
4
 10
-1.42311188E+02
 20
5.18170549E+01
 11
-1.42311188E+02
 21
4.66170549E+01
  0
LINE
  8
0
 62
4
 10
-1.49311188E+02
 20
5.18170549E+01
 11
-1.49311188E+02
 21
4.59170549E+01
  0
LINE
  8
0
 62
4
 10
-1.42311188E+02
 20
5.31170549E+01
 11
-1.49311188E+02
 21
5.31170549E+01
  0
ARC
  8
0
 62
4
 10
-1.45811188E+02
 20
3.51170549E+01
 40
8.65000000E+00
 50
3.49314255E+02
 51
1.06857449E+01
  0
LINE
  8
0
 62
4
 10
-1.42461188E+02
 20
4.66170549E+01
 11
-1.40432451E+02
 21
4.29517015E+01
  0
LINE
  8
0
 62
4
 10
-1.42311188E+02
 20
4.66170549E+01
 11
-1.40166174E+02
 21
4.27620742E+01
  0
LINE
  8
0
 62
4
 10
-1.44811188E+02
 20
4.41170549E+01
 11
-1.46811188E+02
 21
4.41170549E+01
  0
LINE
  8
0
 62
4
 10
-1.47311188E+02
 20
5.04170549E+01
 11
-1.47011188E+02
 21
5.01170549E+01
  0
LINE
  8
0
 62
4
 10
-1.44311188E+02
 20
5.04170549E+01
 11
-1.44611188E+02
 21
5.01170549E+01
  0
ARC
  8
0
 62
4
 10
-1.45811188E+02
 20
3.51170549E+01
 40
8.65000000E+00
 50
2.59314255E+02
 51
2.80685745E+02
  0
LINE
  8
0
 62
4
 10
-1.44761188E+02
 20
4.74170549E+01
 11
-1.46861188E+02
 21
4.74170549E+01
  0
LINE
  8
0
 62
4
 10
-1.46861188E+02
 20
4.74170549E+01
 11
-1.46861188E+02
 21
4.54170549E+01
  0
LINE
  8
0
 62
4
 10
-1.44761188E+02
 20
4.74170549E+01
 11
-1.44761188E+02
 21
4.54170549E+01
  0
LINE
  8
0
 62
4
 10
-1.44761188E+02
 20
4.54170549E+01
 11
-1.46861188E+02
 21
4.54170549E+01
  0
LINE
  8
0
 62
4
 10
-1.46861188E+02
 20
4.74170549E+01
 11
-1.47861188E+02
 21
4.84170549E+01
  0
LINE
  8
0
 62
4
 10
-1.44761188E+02
 20
4.74170549E+01
 11
-1.43761188E+02
 21
4.84170549E+01
  0
LINE
  8
0
 62
4
 10
-1.46861188E+02
 20
4.54170549E+01
 11
-1.47861188E+02
 21
4.44170549E+01
  0
LINE
  8
0
 62
4
 10
-1.44761188E+02
 20
4.54170549E+01
 11
-1.43761188E+02
 21
4.44170549E+01
  0
LINE
  8
0
 62
4
 10
-1.50236188E+02
 20
4.94420549E+01
 11
-1.52815248E+02
 21
4.15372629E+01
  0
ARC
  8
0
 62
4
 10
-1.45811188E+02
 20
3.51170549E+01
 40
8.50000000E+00
 50
1.61930287E+02
 51
2.89640969E+01
  0
LINE
  8
0
 62
4
 10
-1.50111188E+02
 20
4.81148326E+01
 11
-1.50580706E+02
 21
4.83861099E+01
  0
LINE
  8
0
 62
4
 10
-1.50236188E+02
 20
5.19420549E+01
 11
-1.50736188E+02
 21
5.19420549E+01
  0
CIRCLE
  8
0
 62
7
 10
-1.45811188E+02
 20
3.51170549E+01
 40
5.00000000E+00
  0
LINE
  8
0
 62
4
 10
-1.45811188E+02
 20
2.70341496E+01
 11
-1.52811189E+02
 21
3.10756022E+01
  0
LINE
  8
0
 62
4
 10
-1.52811189E+02
 20
3.91585075E+01
 11
-1.45811188E+02
 21
4.31999602E+01
  0
LINE
  8
0
  6
CENTER
 62
2
 10
-1.55679696E+02
 20
3.51170549E+01
 11
-1.35961008E+02
 21
3.51170549E+01
  0
CIRCLE
  8
0
 62
7
 10
-1.45811188E+02
 20
3.51170564E+01
 40
8.50000000E+00
  0
ARC
  8
0
 62
7
 10
-1.45816181E+02
 20
3.51120715E+01
 40
9.50105392E+00
 50
1.16470741E+02
 51
1.53394604E+02
  0
ARC
  8
0
 62
7
 10
-1.45811187E+02
 20
3.51170556E+01
 40
9.49882200E+00
 50
2.06511102E+02
 51
2.43488897E+02
  0
CIRCLE
  8
0
 62
4
 10
-1.45811188E+02
 20
3.51170564E+01
 40
7.00000000E+00
  0
ARC
  8
0
 62
2
 10
1.53188812E+02
 20
3.51170549E+01
 40
4.18800000E+00
 50
4.27674369E+01
 51
7.72325633E+01
  0
ARC
  8
0
 62
2
 10
1.53188812E+02
 20
3.51170549E+01
 40
4.18800000E+00
 50
3.42767437E+02
 51
1.72325634E+01
  0
ARC
  8
0
 62
2
 10
1.53188812E+02
 20
3.51170549E+01
 40
4.18800000E+00
 50
2.82767437E+02
 51
3.17232564E+02
  0
ARC
  8
0
 62
2
 10
1.53188812E+02
 20
3.51170549E+01
 40
4.18800000E+00
 50
2.22767437E+02
 51
2.57232563E+02
  0
ARC
  8
0
 62
2
 10
1.53188812E+02
 20
3.51170549E+01
 40
4.18800000E+00
 50
1.62767437E+02
 51
1.97232563E+02
  0
ARC
  8
0
 62
2
 10
1.53188812E+02
 20
3.51170549E+01
 40
4.18800000E+00
 50
1.02767437E+02
 51
1.37232563E+02
  0
CIRCLE
  8
0
 62
7
 10
1.53188812E+02
 20
3.51170549E+01
 40
5.00000000E+00
  0
LINE
  8
0
 62
4
 10
1.53188812E+02
 20
4.31999602E+01
 11
1.60188813E+02
 21
3.91585075E+01
  0
LINE
  8
0
 62
4
 10
1.60188813E+02
 20
3.91585075E+01
 11
1.60188813E+02
 21
3.10756022E+01
  0
LINE
  8
0
 62
4
 10
1.60188813E+02
 20
3.10756022E+01
 11
1.53188812E+02
 21
2.70341496E+01
  0
LINE
  8
0
 62
4
 10
1.53188812E+02
 20
2.70341496E+01
 11
1.46188811E+02
 21
3.10756022E+01
  0
LINE
  8
0
 62
4
 10
1.46188811E+02
 20
3.10756022E+01
 11
1.46188811E+02
 21
3.91585075E+01
  0
LINE
  8
0
 62
4
 10
1.46188811E+02
 20
3.91585075E+01
 11
1.53188812E+02
 21
4.31999602E+01
  0
LINE
  8
0
 62
4
 10
1.49188811E+02
 20
3.28076530E+01
 11
1.49188811E+02
 21
3.74264567E+01
  0
LINE
  8
0
 62
4
 10
1.53188812E+02
 20
3.04982512E+01
 11
1.49188811E+02
 21
3.28076530E+01
  0
LINE
  8
0
 62
4
 10
1.57188813E+02
 20
3.28076530E+01
 11
1.53188812E+02
 21
3.04982512E+01
  0
LINE
  8
0
 62
4
 10
1.57188813E+02
 20
3.74264567E+01
 11
1.57188813E+02
 21
3.28076530E+01
  0
LINE
  8
0
 62
4
 10
1.53188812E+02
 20
3.97358585E+01
 11
1.57188813E+02
 21
3.74264567E+01
  0
LINE
  8
0
 62
4
 10
1.49188811E+02
 20
3.74264567E+01
 11
1.53188812E+02
 21
3.97358585E+01
  0
CIRCLE
  8
0
 62
2
 10
1.53188812E+02
 20
3.51170549E+01
 40
2.06700000E+00
  0
LINE
  8
0
 62
7
 10
1.61688812E+02
 20
3.93670549E+01
 11
1.61688812E+02
 21
3.08770549E+01
  0
LINE
  8
0
 62
7
 10
1.44688812E+02
 20
3.93670549E+01
 11
1.44688812E+02
 21
3.08770549E+01
  0
LINE
  8
0
 62
7
 10
1.48948812E+02
 20
2.66170549E+01
 11
1.57438812E+02
 21
2.66170549E+01
  0
LINE
  8
0
 62
7
 10
1.48948812E+02
 20
4.36170549E+01
 11
1.57438812E+02
 21
4.36170549E+01
  0
LINE
  8
0
  6
CENTER
 62
2
 10
1.53188812E+02
 20
5.68514431E+01
 11
1.53188812E+02
 21
2.44580130E+01
  0
CIRCLE
  8
0
 62
7
 10
1.53188812E+02
 20
3.51170564E+01
 40
2.50000000E+00
  0
CIRCLE
  8
0
 62
7
 10
1.53188812E+02
 20
3.51170564E+01
 40
8.50000000E+00
  0
ARC
  8
0
 62
7
 10
1.53188813E+02
 20
3.51170556E+01
 40
9.50328788E+00
 50
2.65650491E+01
 51
6.34349507E+01
  0
ARC
  8
0
 62
7
 10
1.53183819E+02
 20
3.51120715E+01
 40
9.50105392E+00
 50
1.16470741E+02
 51
1.53394604E+02
  0
ARC
  8
0
 62
7
 10
1.53188813E+02
 20
3.51170556E+01
 40
9.49882200E+00
 50
2.06511102E+02
 51
2.43488897E+02
  0
ARC
  8
0
 62
7
 10
1.53183827E+02
 20
3.51120633E+01
 40
9.50105596E+00
 50
2.96605401E+02
 51
3.33529254E+02
  0
CIRCLE
  8
0
 62
4
 10
1.53188812E+02
 20
3.51170564E+01
 40
7.00000000E+00
  0
CIRCLE
  8
0
 62
4
 10
1.53188812E+02
 20
3.51170564E+01
 40
4.00000000E+00
  0
LINE
  8
0
 62
4
 10
1.58400851E+02
 20
4.86417883E+01
 11
1.58738812E+02
 21
4.88370549E+01
  0
LINE
  8
0
 62
6
 10
1.54418812E+02
 20
5.15170549E+01
 11
1.54418812E+02
 21
5.01470549E+01
  0
LINE
  8
0
 62
6
 10
1.51958812E+02
 20
5.15170549E+01
 11
1.51958812E+02
 21
5.01470549E+01
  0
LINE
  8
0
 62
4
 10
1.54688812E+02
 20
5.15170549E+01
 11
1.54688812E+02
 21
5.04170549E+01
  0
LINE
  8
0
 62
4
 10
1.51688812E+02
 20
5.15170549E+01
 11
1.51688812E+02
 21
5.04170549E+01
  0
LINE
  8
0
 62
4
 10
1.54488812E+02
 20
4.51170549E+01
 11
1.55238812E+02
 21
4.44170549E+01
  0
LINE
  8
0
 62
4
 10
1.54488812E+02
 20
4.77170549E+01
 11
1.55238812E+02
 21
4.84170549E+01
  0
LINE
  8
0
 62
4
 10
1.54488812E+02
 20
4.77170549E+01
 11
1.54488812E+02
 21
4.51170549E+01
  0
LINE
  8
0
 62
4
 10
1.54188812E+02
 20
4.44170549E+01
 11
1.54188812E+02
 21
4.41170549E+01
  0
LINE
  8
0
 62
4
 10
1.54188812E+02
 20
4.87170549E+01
 11
1.54188812E+02
 21
4.84170549E+01
  0
LINE
  8
0
 62
4
 10
1.55238812E+02
 20
4.84170549E+01
 11
1.55238812E+02
 21
4.44170549E+01
  0
LINE
  8
0
 62
4
 10
1.51138812E+02
 20
4.84170549E+01
 11
1.51888812E+02
 21
4.77170549E+01
  0
LINE
  8
0
 62
4
 10
1.51888812E+02
 20
4.77170549E+01
 11
1.51888812E+02
 21
4.51170549E+01
  0
LINE
  8
0
 62
4
 10
1.51138812E+02
 20
4.84170549E+01
 11
1.51138812E+02
 21
4.44170549E+01
  0
LINE
  8
0
 62
4
 10
1.52188812E+02
 20
4.44170549E+01
 11
1.52188812E+02
 21
4.41170549E+01
  0
LINE
  8
0
 62
4
 10
1.52188812E+02
 20
4.87170549E+01
 11
1.52188812E+02
 21
4.84170549E+01
  0
LINE
  8
0
 62
4
 10
1.51888812E+02
 20
4.77170549E+01
 11
1.54488812E+02
 21
4.77170549E+01
  0
LINE
  8
0
 62
4
 10
1.52188812E+02
 20
4.87170549E+01
 11
1.54188812E+02
 21
4.87170549E+01
  0
LINE
  8
0
 62
4
 10
1.51138812E+02
 20
4.84170549E+01
 11
1.55238812E+02
 21
4.84170549E+01
  0
LINE
  8
0
 62
4
 10
1.51138812E+02
 20
4.44170549E+01
 11
1.55238812E+02
 21
4.44170549E+01
  0
LINE
  8
0
 62
4
 10
1.49938812E+02
 20
5.01170549E+01
 11
1.49938812E+02
 21
4.66170549E+01
  0
LINE
  8
0
 62
4
 10
1.49938812E+02
 20
4.66170549E+01
 11
1.51138812E+02
 21
4.66170549E+01
  0
LINE
  8
0
 62
4
 10
1.49938812E+02
 20
4.62170549E+01
 11
1.51138812E+02
 21
4.62170549E+01
  0
LINE
  8
0
 62
4
 10
1.49938812E+02
 20
4.62170549E+01
 11
1.49938812E+02
 21
4.36170549E+01
  0
LINE
  8
0
 62
4
 10
1.56438812E+02
 20
5.01170549E+01
 11
1.56438812E+02
 21
4.36170549E+01
  0
ARC
  8
0
 62
4
 10
1.51689065E+02
 20
5.46168021E+01
 40
1.00025280E+00
 50
9.00000002E+01
 51
1.79985521E+02
  0
ARC
  8
0
 62
4
 10
1.54690224E+02
 20
5.46184672E+01
 40
9.98588677E-01
 50
3.59918966E+02
 51
9.00810348E+01
  0
ARC
  8
0
 62
4
 10
1.57689960E+02
 20
4.97344106E+01
 40
4.98857363E-01
 50
3.30554632E+02
 51
3.59729437E+02
  0
ARC
  8
0
 62
4
 10
1.58488608E+02
 20
4.92701891E+01
 40
5.00207143E-01
 50
3.00013240E+02
 51
2.13706628E-01
  0
ARC
  8
0
 62
4
 10
1.56190475E+02
 20
5.18187175E+01
 40
4.98340176E-01
 50
3.59808845E+02
 51
9.01911544E+01
  0
ARC
  8
0
 62
4
 10
1.50188816E+02
 20
5.18170506E+01
 40
5.00004290E-01
 50
9.00000002E+01
 51
1.79999508E+02
  0
ARC
  8
0
 62
4
 10
1.56690475E+02
 20
5.23187175E+01
 40
7.98339134E-01
 50
3.59880678E+02
 51
9.01193227E+01
  0
ARC
  8
0
 62
4
 10
1.49688815E+02
 20
5.23170516E+01
 40
8.00003254E-01
 50
9.00000002E+01
 51
1.79999767E+02
  0
LINE
  8
0
 62
4
 10
1.51688812E+02
 20
5.36170549E+01
 11
1.54688812E+02
 21
5.36170549E+01
  0
LINE
  8
0
 62
4
 10
1.55688812E+02
 20
5.46170549E+01
 11
1.55688812E+02
 21
5.41170549E+01
  0
LINE
  8
0
 62
4
 10
1.50688812E+02
 20
5.46170549E+01
 11
1.50688812E+02
 21
5.41170549E+01
  0
LINE
  8
0
 62
4
 10
1.51688812E+02
 20
5.56170549E+01
 11
1.54688812E+02
 21
5.56170549E+01
  0
LINE
  8
0
 62
4
 10
1.50688812E+02
 20
5.41170549E+01
 11
1.55688812E+02
 21
5.41170549E+01
  0
LINE
  8
0
 62
4
 10
1.56688812E+02
 20
4.59170549E+01
 11
1.57488812E+02
 21
4.59170549E+01
  0
LINE
  8
0
 62
4
 10
1.48888812E+02
 20
4.66170549E+01
 11
1.49688812E+02
 21
4.66170549E+01
  0
LINE
  8
0
 62
4
 10
1.51688812E+02
 20
5.41170549E+01
 11
1.51688812E+02
 21
5.31170549E+01
  0
LINE
  8
0
 62
4
 10
1.54688812E+02
 20
5.41170549E+01
 11
1.54688812E+02
 21
5.31170549E+01
  0
LINE
  8
0
 62
4
 10
1.57613812E+02
 20
5.19420549E+01
 11
1.58113812E+02
 21
5.19420549E+01
  0
LINE
  8
0
 62
4
 10
1.58113812E+02
 20
5.19420549E+01
 11
1.58113812E+02
 21
4.95215589E+01
  0
LINE
  8
0
 62
4
 10
1.57613812E+02
 20
5.19420549E+01
 11
1.57613812E+02
 21
4.94420549E+01
  0
LINE
  8
0
 62
4
 10
1.49938812E+02
 20
4.94170549E+01
 11
1.56438812E+02
 21
4.94170549E+01
  0
LINE
  8
0
 62
4
 10
1.49938812E+02
 20
5.01170549E+01
 11
1.56438812E+02
 21
5.01170549E+01
  0
LINE
  8
0
 62
4
 10
1.49688812E+02
 20
5.18170549E+01
 11
1.49838812E+02
 21
5.18170549E+01
  0
LINE
  8
0
 62
4
 10
1.49838812E+02
 20
5.18170549E+01
 11
1.49838812E+02
 21
4.66170549E+01
  0
LINE
  8
0
 62
4
 10
1.57488812E+02
 20
4.90410549E+01
 11
1.57702917E+02
 21
4.91652356E+01
  0
LINE
  8
0
 62
4
 10
1.58988812E+02
 20
5.14170549E+01
 11
1.58988812E+02
 21
4.92720549E+01
  0
LINE
  8
0
 62
4
 10
1.50188812E+02
 20
5.23170549E+01
 11
1.56188812E+02
 21
5.23170549E+01
  0
LINE
  8
0
 62
4
 10
1.57488812E+02
 20
4.59170549E+01
 11
1.57488812E+02
 21
5.23170549E+01
  0
LINE
  8
0
 62
4
 10
1.48888812E+02
 20
5.23170549E+01
 11
1.48888812E+02
 21
4.66170549E+01
  0
LINE
  8
0
 62
6
 10
1.51958812E+02
 20
5.36170549E+01
 11
1.51958812E+02
 21
5.31170549E+01
  0
LINE
  8
0
 62
6
 10
1.54418812E+02
 20
5.36170549E+01
 11
1.54418812E+02
 21
5.31170549E+01
  0
LINE
  8
0
 62
4
 10
1.51043812E+02
 20
5.15170549E+01
 11
1.55333812E+02
 21
5.15170549E+01
  0
LINE
  8
0
 62
4
 10
1.50903812E+02
 20
5.23170549E+01
 11
1.51043812E+02
 21
5.15170549E+01
  0
LINE
  8
0
 62
4
 10
1.55473812E+02
 20
5.23170549E+01
 11
1.55333812E+02
 21
5.15170549E+01
  0
LINE
  8
0
 62
4
 10
1.58188812E+02
 20
5.14170549E+01
 11
1.58988812E+02
 21
5.14170549E+01
  0
LINE
  8
0
 62
4
 10
1.58188812E+02
 20
5.14170549E+01
 11
1.58188812E+02
 21
4.97320549E+01
  0
LINE
  8
0
 62
4
 10
1.57488812E+02
 20
4.81148326E+01
 11
1.57958330E+02
 21
4.83861099E+01
  0
LINE
  8
0
 62
4
 10
1.49688812E+02
 20
5.18170549E+01
 11
1.49688812E+02
 21
4.66170549E+01
  0
LINE
  8
0
 62
4
 10
1.56688812E+02
 20
5.18170549E+01
 11
1.56688812E+02
 21
4.59170549E+01
  0
LINE
  8
0
 62
4
 10
1.49688812E+02
 20
5.31170549E+01
 11
1.56688812E+02
 21
5.31170549E+01
  0
CIRCLE
  8
0
 62
4
 10
1.53188812E+02
 20
4.64170549E+01
 40
1.30000000E+00
  0
ARC
  8
0
 62
4
 10
1.53188812E+02
 20
3.51170549E+01
 40
8.50000000E+00
 50
1.51035903E+02
 51
1.80697136E+01
  0
ARC
  8
0
 62
4
 10
1.53188812E+02
 20
3.51170549E+01
 40
8.65000000E+00
 50
1.69314255E+02
 51
1.90685745E+02
  0
LINE
  8
0
 62
4
 10
1.49838812E+02
 20
4.66170549E+01
 11
1.47806266E+02
 21
4.29448202E+01
  0
LINE
  8
0
 62
4
 10
1.49688812E+02
 20
4.66170549E+01
 11
1.47539950E+02
 21
4.27551577E+01
  0
LINE
  8
0
 62
4
 10
1.57613812E+02
 20
4.94420549E+01
 11
1.60191430E+02
 21
4.15416823E+01
  0
LINE
  8
0
 62
4
 10
1.58711921E+02
 20
4.55927647E+01
 11
1.59951351E+02
 21
4.17939228E+01
  0
LINE
  8
0
 62
4
 10
1.58113812E+02
 20
4.95215589E+01
 11
1.60570544E+02
 21
4.19917033E+01
  0
LINE
  8
0
 62
4
 10
1.58854508E+02
 20
4.56393356E+01
 11
1.58711906E+02
 21
4.55928095E+01
  0
LINE
  8
0
 62
4
 10
1.60095204E+02
 20
4.18366163E+01
 11
1.60570544E+02
 21
4.19917033E+01
  0
LINE
  8
0
 62
4
 10
1.51888812E+02
 20
4.51170549E+01
 11
1.51138812E+02
 21
4.44170549E+01
  0
LINE
  8
0
 62
4
 10
1.51888812E+02
 20
4.51170549E+01
 11
1.54488812E+02
 21
4.51170549E+01
  0
LINE
  8
0
 62
4
 10
1.52188812E+02
 20
4.41170549E+01
 11
1.54188812E+02
 21
4.41170549E+01
  0
LINE
  8
0
 62
4
 10
1.54688812E+02
 20
5.04170549E+01
 11
1.54388812E+02
 21
5.01170549E+01
  0
LINE
  8
0
 62
4
 10
1.51688812E+02
 20
5.04170549E+01
 11
1.51988812E+02
 21
5.01170549E+01
  0
ARC
  8
0
 62
4
 10
1.53188812E+02
 20
3.51170549E+01
 40
8.65000000E+00
 50
2.59314255E+02
 51
2.80685745E+02
  0
ARC
  8
0
 62
4
 10
1.53188812E+02
 20
3.51170549E+01
 40
8.65000000E+00
 50
3.49314255E+02
 51
1.06857449E+01
  0
LINE
  8
0
  6
CENTER
 62
2
 10
1.42865495E+02
 20
3.51170549E+01
 11
1.63497674E+02
 21
3.51170549E+01
  0
LINE
  8
0
  6
CENTER
 62
6
 10
2.97830008E+01
 20
1.08417183E+02
 11
2.97830008E+01
 21
8.84171845E+01
  0
LINE
  8
0
  6
CENTER
 62
6
 10
1.55567961E+01
 20
9.84171845E+01
 11
5.20260511E+01
 21
9.84171845E+01
  0
LINE
  8
0
 62
4
 10
3.42830008E+01
 20
8.97671845E+01
 11
3.42830008E+01
 21
1.07067184E+02
  0
LINE
  8
0
 62
4
 10
2.52830008E+01
 20
1.02717184E+02
 11
3.42830008E+01
 21
1.02717184E+02
  0
LINE
  8
0
 62
4
 10
2.52830008E+01
 20
1.03342184E+02
 11
3.42830008E+01
 21
1.03342184E+02
  0
LINE
  8
0
 62
4
 10
2.52830008E+01
 20
1.02842184E+02
 11
3.42830008E+01
 21
1.02842184E+02
  0
LINE
  8
0
 62
4
 10
2.52830008E+01
 20
1.05792184E+02
 11
3.42830008E+01
 21
1.05792184E+02
  0
LINE
  8
0
 62
4
 10
2.77830008E+01
 20
1.04217184E+02
 11
3.17830008E+01
 21
1.04217184E+02
  0
LINE
  8
0
 62
4
 10
2.77830008E+01
 20
1.03417184E+02
 11
3.17830008E+01
 21
1.03417184E+02
  0
LINE
  8
0
 62
4
 10
2.52830008E+01
 20
1.07067184E+02
 11
3.42830008E+01
 21
1.07067184E+02
  0
LINE
  8
0
 62
4
 10
3.17830008E+01
 20
1.04217184E+02
 11
3.17830008E+01
 21
1.03342184E+02
  0
LINE
  8
0
 62
4
 10
2.52830008E+01
 20
9.41171845E+01
 11
3.42830008E+01
 21
9.41171845E+01
  0
LINE
  8
0
 62
4
 10
2.52830008E+01
 20
8.97671845E+01
 11
3.42830008E+01
 21
8.97671845E+01
  0
LINE
  8
0
 62
6
 10
5.02199999E+01
 20
9.97171845E+01
 11
4.76199999E+01
 21
9.71171845E+01
  0
LINE
  8
0
 62
4
 10
4.52830008E+01
 20
9.71171845E+01
 11
4.76199999E+01
 21
9.71171845E+01
  0
LINE
  8
0
 62
4
 10
4.22830008E+01
 20
9.64171845E+01
 11
4.52830008E+01
 21
9.71171845E+01
  0
LINE
  8
0
 62
4
 10
4.52830008E+01
 20
9.97171845E+01
 11
4.52830008E+01
 21
9.71171845E+01
  0
LINE
  8
0
 62
4
 10
4.52830008E+01
 20
9.97171845E+01
 11
5.02199999E+01
 21
9.97171845E+01
  0
LINE
  8
0
 62
4
 10
4.22830008E+01
 20
1.00417184E+02
 11
4.52830008E+01
 21
9.97171845E+01
  0
LINE
  8
0
 62
4
 10
4.22830008E+01
 20
1.00417184E+02
 11
4.22830008E+01
 21
9.64171845E+01
  0
LINE
  8
0
 62
4
 10
3.42830008E+01
 20
1.01667184E+02
 11
3.67830008E+01
 21
1.01667184E+02
  0
LINE
  8
0
 62
4
 10
3.67830008E+01
 20
9.51671845E+01
 11
3.67830008E+01
 21
1.01667184E+02
  0
LINE
  8
0
 62
4
 10
3.67830008E+01
 20
1.00417184E+02
 11
4.22830008E+01
 21
1.00417184E+02
  0
LINE
  8
0
 62
4
 10
3.67830008E+01
 20
9.64171845E+01
 11
4.22830008E+01
 21
9.64171845E+01
  0
LINE
  8
0
 62
4
 10
3.42830008E+01
 20
9.51671845E+01
 11
3.67830008E+01
 21
9.51671845E+01
  0
LINE
  8
0
 62
4
 10
2.52830008E+01
 20
8.97671845E+01
 11
2.52830008E+01
 21
1.07067184E+02
  0
LINE
  8
0
 62
4
 10
2.77830008E+01
 20
1.03342184E+02
 11
2.77830008E+01
 21
1.04217184E+02
  0
LINE
  8
0
 62
4
 10
3.07904342E+01
 20
9.74146179E+01
 11
2.87204342E+01
 21
9.94746179E+01
  0
LINE
  8
0
 62
4
 10
2.87204342E+01
 20
9.73546179E+01
 11
3.08404342E+01
 21
9.94746179E+01
  0
CIRCLE
  8
0
 62
4
 10
2.97821255E+01
 20
9.84147260E+01
 40
2.50000000E+00
  0
LINE
  8
0
 62
4
 10
2.27830008E+01
 20
9.51671845E+01
 11
2.52830008E+01
 21
9.51671845E+01
  0
LINE
  8
0
 62
4
 10
1.82830008E+01
 20
9.64171845E+01
 11
2.27830008E+01
 21
9.64171845E+01
  0
LINE
  8
0
 62
4
 10
1.72830008E+01
 20
9.74171845E+01
 11
1.82830008E+01
 21
9.64171845E+01
  0
LINE
  8
0
 62
4
 10
1.72830008E+01
 20
9.94171845E+01
 11
1.72830008E+01
 21
9.74171845E+01
  0
LINE
  8
0
 62
4
 10
2.27830008E+01
 20
1.01667184E+02
 11
2.52830008E+01
 21
1.01667184E+02
  0
LINE
  8
0
 62
4
 10
1.82830008E+01
 20
1.00417184E+02
 11
2.27830008E+01
 21
1.00417184E+02
  0
LINE
  8
0
 62
4
 10
1.82830008E+01
 20
1.00417184E+02
 11
1.82830008E+01
 21
9.64171845E+01
  0
LINE
  8
0
 62
4
 10
2.27830008E+01
 20
9.51671845E+01
 11
2.27830008E+01
 21
1.01667184E+02
  0
LINE
  8
0
 62
4
 10
1.72830008E+01
 20
9.94171845E+01
 11
1.82830008E+01
 21
1.00417184E+02
  0
LINE
  8
0
  6
CENTER
 62
6
 10
-2.94770156E+00
 20
-5.90464774E+01
 11
-2.94770156E+00
 21
-6.53606159E+01
  0
LINE
  8
0
  6
CENTER
 62
6
 10
1.16522984E+01
 20
-4.12023486E+01
 11
1.16522984E+01
 21
-5.78767944E+01
  0
LINE
  8
0
  6
CENTER
 62
6
 10
4.15229844E+00
 20
-4.96010575E+01
 11
1.91522984E+01
 21
-4.96010575E+01
  0
CIRCLE
  8
0
 62
4
 10
1.16522984E+01
 20
-4.96010575E+01
 40
5.00000000E+00
  0
LINE
  8
0
  6
CENTER
 62
6
 10
2.62522984E+01
 20
-5.90464774E+01
 11
2.62522984E+01
 21
-6.53606159E+01
  0
LINE
  8
0
 62
4
 10
-9.34770156E+00
 20
-6.36010575E+01
 11
3.26522984E+01
 21
-6.36010575E+01
  0
LINE
  8
0
 62
4
 10
-9.34770156E+00
 20
-6.13010575E+01
 11
3.26522984E+01
 21
-6.13010575E+01
  0
LINE
  8
0
 62
4
 10
3.26522984E+01
 20
-6.13010575E+01
 11
3.26522984E+01
 21
-6.36010575E+01
  0
LINE
  8
0
 62
4
 10
-9.34770156E+00
 20
-6.13010575E+01
 11
-9.34770156E+00
 21
-6.36010575E+01
  0
ARC
  8
0
 62
4
 10
1.16522984E+01
 20
-4.96010575E+01
 40
1.00000000E+01
 50
3.62946002E+01
 51
1.43705400E+02
  0
LINE
  8
0
 62
4
 10
3.26522984E+01
 20
-6.13010575E+01
 11
1.97121392E+01
 21
-4.36816853E+01
  0
LINE
  8
0
 62
4
 10
-9.34770156E+00
 20
-6.13010575E+01
 11
3.59245773E+00
 21
-4.36816853E+01
  0
LINE
  8
0
 62
4
 10
5.35522984E+01
 20
-3.96010575E+01
 11
5.35522984E+01
 21
-6.01028726E+01
  0
LINE
  8
0
 62
4
 10
5.12522984E+01
 20
-3.96010575E+01
 11
5.35522984E+01
 21
-3.96010575E+01
  0
LINE
  8
0
 62
4
 10
3.85522984E+01
 20
-6.36010575E+01
 11
5.00541135E+01
 21
-6.36010575E+01
  0
LINE
  8
0
 62
4
 10
3.85522984E+01
 20
-6.13010575E+01
 11
3.85522984E+01
 21
-6.36010575E+01
  0
LINE
  8
0
  6
CENTER
 62
6
 10
4.87041316E+01
 20
-4.96010575E+01
 11
5.60522984E+01
 21
-4.96010575E+01
  0
LINE
  8
0
 62
4
 10
4.71522984E+01
 20
-6.13010575E+01
 11
4.71522984E+01
 21
-6.36010575E+01
  0
LINE
  8
0
 62
4
 10
4.19522984E+01
 20
-6.13010575E+01
 11
4.19522984E+01
 21
-6.36010575E+01
  0
LINE
  8
0
  6
CENTER
 62
6
 10
4.45522984E+01
 20
-5.90464774E+01
 11
4.45522984E+01
 21
-6.53606159E+01
  0
LINE
  8
0
 62
4
 10
5.12522984E+01
 20
-3.96010575E+01
 11
5.12522984E+01
 21
-6.01028726E+01
  0
LINE
  8
0
 62
4
 10
3.85522984E+01
 20
-6.13010575E+01
 11
5.00541135E+01
 21
-6.13010575E+01
  0
ARC
  8
0
 62
4
 10
5.00541135E+01
 20
-6.01028726E+01
 40
1.19818493E+00
 50
2.69895815E+02
 51
1.04185117E-01
  0
ARC
  8
0
 62
4
 10
5.00541135E+01
 20
-6.01028726E+01
 40
3.49818493E+00
 50
2.69895815E+02
 51
1.04185117E-01
  0
LINE
  8
0
  6
CENTER
 62
6
 10
1.16522984E+01
 20
-3.31105751E+00
 11
1.16522984E+01
 21
-2.09410575E+01
  0
LINE
  8
0
 62
4
 10
-9.34770156E+00
 20
-7.00105751E+00
 11
3.26522984E+01
 21
-7.00105751E+00
  0
LINE
  8
0
 62
4
 10
3.26522984E+01
 20
-4.70105751E+00
 11
3.26522984E+01
 21
-1.11010575E+01
  0
LINE
  8
0
 62
4
 10
-9.34770156E+00
 20
-4.70105751E+00
 11
3.26522984E+01
 21
-4.70105751E+00
  0
LINE
  8
0
 62
4
 10
-9.34770156E+00
 20
-1.97010575E+01
 11
3.26522984E+01
 21
-1.97010575E+01
  0
LINE
  8
0
  6
CENTER
 62
6
 10
-6.25066551E+00
 20
-1.37010575E+01
 11
2.90869214E+01
 21
-1.37010575E+01
  0
LINE
  8
0
 62
4
 10
3.26522984E+01
 20
-1.63010575E+01
 11
3.26522984E+01
 21
-1.97010575E+01
  0
ARC
  8
0
 62
4
 10
2.62522984E+01
 20
-1.37010575E+01
 40
2.60000000E+00
 50
9.00000002E+01
 51
2.70000000E+02
  0
LINE
  8
0
  6
CENTER
 62
6
 10
2.62522984E+01
 20
-1.73740272E+01
 11
2.62522984E+01
 21
-1.01545131E+01
  0
LINE
  8
0
 62
4
 10
2.62522984E+01
 20
-1.63010575E+01
 11
3.26522984E+01
 21
-1.63010575E+01
  0
LINE
  8
0
 62
4
 10
2.62522984E+01
 20
-1.11010575E+01
 11
3.26522984E+01
 21
-1.11010575E+01
  0
ARC
  8
0
 62
4
 10
-2.94770156E+00
 20
-1.37010575E+01
 40
2.60000000E+00
 50
2.70000000E+02
 51
9.00000002E+01
  0
LINE
  8
0
  6
CENTER
 62
6
 10
-2.94770156E+00
 20
-1.75344609E+01
 11
-2.94770156E+00
 21
-1.00475574E+01
  0
LINE
  8
0
 62
4
 10
-2.94770156E+00
 20
-1.63010575E+01
 11
-9.34770156E+00
 21
-1.63010575E+01
  0
LINE
  8
0
 62
4
 10
-2.94770156E+00
 20
-1.11010575E+01
 11
-9.34770156E+00
 21
-1.11010575E+01
  0
LINE
  8
0
 62
4
 10
-9.34770156E+00
 20
-1.63010575E+01
 11
-9.34770156E+00
 21
-1.97010575E+01
  0
LINE
  8
0
 62
4
 10
-9.34770156E+00
 20
-4.70105751E+00
 11
-9.34770156E+00
 21
-1.11010575E+01
  0
LINE
  8
0
  6
CENTER
 62
6
 10
1.11652298E+02
 20
-4.59010575E+01
 11
1.11652298E+02
 21
-6.04110575E+01
  0
ARC
  8
0
 62
4
 10
1.26252298E+02
 20
-5.31010575E+01
 40
2.60000000E+00
 50
9.00000002E+01
 51
2.70000000E+02
  0
ARC
  8
0
 62
4
 10
9.70522984E+01
 20
-5.31010575E+01
 40
2.60000000E+00
 50
2.70000000E+02
 51
9.00000002E+01
  0
CIRCLE
  8
0
 62
4
 10
1.11652298E+02
 20
-5.31010575E+01
 40
5.00000000E+00
  0
LINE
  8
0
  6
CENTER
 62
6
 10
9.70522984E+01
 20
-4.93410122E+01
 11
9.70522984E+01
 21
-5.70439804E+01
  0
LINE
  8
0
  6
CENTER
 62
6
 10
1.26252298E+02
 20
-4.93410122E+01
 11
1.26252298E+02
 21
-5.70439804E+01
  0
LINE
  8
0
  6
CENTER
 62
6
 10
9.40122984E+01
 20
-5.31010575E+01
 11
1.28922395E+02
 21
-5.31010575E+01
  0
LINE
  8
0
 62
4
 10
9.06522984E+01
 20
-5.57010575E+01
 11
9.70522984E+01
 21
-5.57010575E+01
  0
LINE
  8
0
 62
4
 10
1.26252298E+02
 20
-5.57010575E+01
 11
1.32652298E+02
 21
-5.57010575E+01
  0
LINE
  8
0
 62
4
 10
9.06522984E+01
 20
-6.31010575E+01
 11
1.32652298E+02
 21
-6.31010575E+01
  0
LINE
  8
0
 62
4
 10
1.32652298E+02
 20
-5.57010575E+01
 11
1.32652298E+02
 21
-6.31010575E+01
  0
LINE
  8
0
 62
4
 10
9.06522984E+01
 20
-5.57010575E+01
 11
9.06522984E+01
 21
-6.31010575E+01
  0
LINE
  8
0
 62
4
 10
1.32652298E+02
 20
-4.31010575E+01
 11
1.32652298E+02
 21
-5.05010575E+01
  0
LINE
  8
0
 62
4
 10
9.06522984E+01
 20
-4.31010575E+01
 11
9.06522984E+01
 21
-5.05010575E+01
  0
LINE
  8
0
 62
4
 10
9.06522984E+01
 20
-4.46010575E+01
 11
9.06522984E+01
 21
-4.69010575E+01
  0
LINE
  8
0
 62
4
 10
9.06522984E+01
 20
-5.05010575E+01
 11
9.70522984E+01
 21
-5.05010575E+01
  0
LINE
  8
0
 62
4
 10
1.26252298E+02
 20
-5.05010575E+01
 11
1.32652298E+02
 21
-5.05010575E+01
  0
LINE
  8
0
 62
4
 10
9.06522984E+01
 20
-4.31010575E+01
 11
1.32652298E+02
 21
-4.31010575E+01
  0
LINE
  8
0
 62
4
 10
1.42652298E+02
 20
-4.31010575E+01
 11
1.42652298E+02
 21
-6.31010575E+01
  0
LINE
  8
0
 62
4
 10
1.44952298E+02
 20
-4.31010575E+01
 11
1.44952298E+02
 21
-6.31010575E+01
  0
LINE
  8
0
 62
4
 10
1.42652298E+02
 20
-5.57010575E+01
 11
1.44952298E+02
 21
-5.57010575E+01
  0
LINE
  8
0
 62
4
 10
1.42652298E+02
 20
-6.31010575E+01
 11
1.44952298E+02
 21
-6.31010575E+01
  0
LINE
  8
0
 62
4
 10
1.42652298E+02
 20
-5.05010575E+01
 11
1.44952298E+02
 21
-5.05010575E+01
  0
LINE
  8
0
 62
4
 10
1.42652298E+02
 20
-4.31010575E+01
 11
1.44952298E+02
 21
-4.31010575E+01
  0
LINE
  8
0
  6
CENTER
 62
6
 10
1.40249569E+02
 20
-5.31010575E+01
 11
1.47188618E+02
 21
-5.31010575E+01
  0
LINE
  8
0
 62
4
 10
9.06522984E+01
 20
-1.39010575E+01
 11
9.06522984E+01
 21
-1.16010575E+01
  0
LINE
  8
0
  6
CENTER
 62
6
 10
1.26252298E+02
 20
-9.66464335E+00
 11
1.26252298E+02
 21
-1.58661209E+01
  0
LINE
  8
0
  6
CENTER
 62
6
 10
9.70522984E+01
 20
-9.66464335E+00
 11
9.70522984E+01
 21
-1.58661209E+01
  0
LINE
  8
0
 62
4
 10
9.06522984E+01
 20
-1.39010575E+01
 11
1.32652298E+02
 21
-1.39010575E+01
  0
LINE
  8
0
 62
4
 10
9.06522984E+01
 20
-1.16010575E+01
 11
1.32652298E+02
 21
-1.16010575E+01
  0
LINE
  8
0
 62
4
 10
1.32652298E+02
 20
-1.16010575E+01
 11
1.32652298E+02
 21
-1.39010575E+01
  0
LINE
  8
0
  6
CENTER
 62
6
 10
1.11652298E+02
 20
-9.66464335E+00
 11
1.11652298E+02
 21
-1.58661209E+01
  0
TEXT
  8
0
 62
7
 10
-3.15961953E+01
 20
-6.88802818E+01
 40
3.20000005E+00
  1
(mm)
 41
1.00000000E+00
  7
MONOTXT
  0
TEXT
  8
0
 62
7
 10
-1.31493000E+02
 20
-6.88802818E+01
 40
3.20000005E+00
  1
STRETCH LIST(ST1)
 41
1.03658537E+00
  7
MONOTXT
  0
LINE
  8
0
 62
7
 10
-1.89250000E+02
 20
-7.05000000E+01
 11
-2.02500000E+01
 21
-7.05000000E+01
  0
LINE
  8
0
 62
7
 10
-1.89250000E+02
 20
-9.45000000E+01
 11
-2.02500000E+01
 21
-9.45000000E+01
  0
LINE
  8
0
 62
7
 10
-1.64250000E+02
 20
-7.05000000E+01
 11
-1.64250000E+02
 21
-9.45000000E+01
  0
LINE
  8
0
 62
7
 10
-1.52250000E+02
 20
-7.05000000E+01
 11
-1.52250000E+02
 21
-9.45000000E+01
  0
LINE
  8
0
 62
7
 10
-1.40250000E+02
 20
-7.05000000E+01
 11
-1.40250000E+02
 21
-9.45000000E+01
  0
LINE
  8
0
 62
7
 10
-1.28250000E+02
 20
-7.05000000E+01
 11
-1.28250000E+02
 21
-9.45000000E+01
  0
LINE
  8
0
 62
7
 10
-1.16250000E+02
 20
-7.05000000E+01
 11
-1.16250000E+02
 21
-9.45000000E+01
  0
LINE
  8
0
 62
7
 10
-1.89250000E+02
 20
-8.85000000E+01
 11
-2.02500000E+01
 21
-8.85000000E+01
  0
LINE
  8
0
 62
7
 10
-1.64250000E+02
 20
-8.85000000E+01
 11
-1.66360000E+02
 21
-7.65000000E+01
  0
LINE
  8
0
 62
7
 10
-1.89250000E+02
 20
-7.65000000E+01
 11
-1.66360000E+02
 21
-7.65000000E+01
  0
LINE
  8
0
 62
7
 10
-1.89250000E+02
 20
-7.05000000E+01
 11
-1.89250000E+02
 21
-9.45000000E+01
  0
TEXT
  8
0
 62
7
 10
-1.84887475E+02
 20
-7.50963812E+01
 40
3.20000005E+00
  1
STROKE
 41
1.00000000E+00
  7
MONOTXT
  0
TEXT
  8
0
 62
7
 10
-1.24987475E+02
 20
-8.10963774E+01
 40
3.20000005E+00
  1
20
 41
1.00000000E+00
  7
MONOTXT
  0
TEXT
  8
0
 62
7
 10
-1.36987475E+02
 20
-8.10963774E+01
 40
3.20000005E+00
  1
15
 41
1.00000000E+00
  7
MONOTXT
  0
TEXT
  8
0
 62
7
 10
-1.48987475E+02
 20
-8.10963774E+01
 40
3.20000005E+00
  1
10
 41
1.00000000E+00
  7
MONOTXT
  0
TEXT
  8
0
 62
7
 10
-1.59387475E+02
 20
-8.10963774E+01
 40
3.20000005E+00
  1
5
 41
1.00000000E+00
  7
MONOTXT
  0
TEXT
  8
0
 62
7
 10
-1.26587475E+02
 20
-9.31000000E+01
 40
3.20000005E+00
  1
-20
 41
1.00000000E+00
  7
MONOTXT
  0
TEXT
  8
0
 62
7
 10
-1.38587475E+02
 20
-9.31000000E+01
 40
3.20000005E+00
  1
-25
 41
1.00000000E+00
  7
MONOTXT
  0
TEXT
  8
0
 62
7
 10
-1.50587475E+02
 20
-9.31000000E+01
 40
3.20000005E+00
  1
-30
 41
1.00000000E+00
  7
MONOTXT
  0
TEXT
  8
0
 62
7
 10
-1.62587475E+02
 20
-9.31000000E+01
 40
3.20000005E+00
  1
-35
 41
1.00000000E+00
  7
MONOTXT
  0
TEXT
  8
0
 62
7
 10
-1.88091006E+02
 20
-8.26763750E+01
 40
3.20000005E+00
  1
STRETCH
 41
1.00000000E+00
  7
MONOTXT
  0
TEXT
  8
0
 62
7
 10
-1.88091006E+02
 20
-8.74763751E+01
 40
3.20000005E+00
  1
  PLACE
 41
1.20689655E+00
  7
MONOTXT
  0
TEXT
  8
0
 62
7
 10
-1.77887475E+02
 20
-9.31000000E+01
 40
3.20000005E+00
  1
A
 41
1.00000000E+00
  7
MONOTXT
  0
TEXT
  8
0
 62
7
 10
-1.12987475E+02
 20
-8.10963774E+01
 40
3.20000005E+00
  1
25
 41
1.00000000E+00
  7
MONOTXT
  0
TEXT
  8
0
 62
7
 10
-1.14587475E+02
 20
-9.31000000E+01
 40
3.20000005E+00
  1
-15
 41
1.00000000E+00
  7
MONOTXT
  0
TEXT
  8
0
 62
7
 10
-1.00987475E+02
 20
-8.10963774E+01
 40
3.20000005E+00
  1
30
 41
1.00000000E+00
  7
MONOTXT
  0
TEXT
  8
0
 62
7
 10
-1.02587475E+02
 20
-9.31000000E+01
 40
3.20000005E+00
  1
-10
 41
1.00000000E+00
  7
MONOTXT
  0
TEXT
  8
0
 62
7
 10
-8.89874751E+01
 20
-8.10963774E+01
 40
3.20000005E+00
  1
35
 41
1.00000000E+00
  7
MONOTXT
  0
TEXT
  8
0
 62
7
 10
-8.89874751E+01
 20
-9.31000000E+01
 40
3.20000005E+00
  1
-5
 41
1.00000000E+00
  7
MONOTXT
  0
TEXT
  8
0
 62
7
 10
-7.69874751E+01
 20
-8.10963774E+01
 40
3.20000005E+00
  1
40
 41
1.00000000E+00
  7
MONOTXT
  0
TEXT
  8
0
 62
7
 10
-7.53874751E+01
 20
-9.31000000E+01
 40
3.20000005E+00
  1
0
 41
1.00000000E+00
  7
MONOTXT
  0
TEXT
  8
0
 62
7
 10
-6.49874751E+01
 20
-8.10963774E+01
 40
3.20000005E+00
  1
45
 41
1.00000000E+00
  7
MONOTXT
  0
TEXT
  8
0
 62
7
 10
-6.33874751E+01
 20
-9.31000000E+01
 40
3.20000005E+00
  1
5
 41
1.00000000E+00
  7
MONOTXT
  0
TEXT
  8
0
 62
7
 10
-5.29874751E+01
 20
-8.10963774E+01
 40
3.20000005E+00
  1
50
 41
1.00000000E+00
  7
MONOTXT
  0
TEXT
  8
0
 62
7
 10
-5.29874751E+01
 20
-9.31000000E+01
 40
3.20000005E+00
  1
10
 41
1.00000000E+00
  7
MONOTXT
  0
TEXT
  8
0
 62
7
 10
-4.09874751E+01
 20
-8.10963774E+01
 40
3.20000005E+00
  1
55
 41
1.00000000E+00
  7
MONOTXT
  0
TEXT
  8
0
 62
7
 10
-4.09874751E+01
 20
-9.31000000E+01
 40
3.20000005E+00
  1
15
 41
1.00000000E+00
  7
MONOTXT
  0
TEXT
  8
0
 62
7
 10
-2.89874751E+01
 20
-8.10963774E+01
 40
3.20000005E+00
  1
60
 41
1.00000000E+00
  7
MONOTXT
  0
TEXT
  8
0
 62
7
 10
-2.89874751E+01
 20
-9.31000000E+01
 40
3.20000005E+00
  1
20
 41
1.00000000E+00
  7
MONOTXT
  0
LINE
  8
0
 62
7
 10
-1.04250000E+02
 20
-7.05000000E+01
 11
-1.04250000E+02
 21
-9.45000000E+01
  0
LINE
  8
0
 62
7
 10
-9.22500000E+01
 20
-7.05000000E+01
 11
-9.22500000E+01
 21
-9.45000000E+01
  0
LINE
  8
0
 62
7
 10
-8.02500000E+01
 20
-7.05000000E+01
 11
-8.02500000E+01
 21
-9.45000000E+01
  0
LINE
  8
0
 62
7
 10
-6.82500000E+01
 20
-7.05000000E+01
 11
-6.82500000E+01
 21
-9.45000000E+01
  0
LINE
  8
0
 62
7
 10
-5.62500000E+01
 20
-7.05000000E+01
 11
-5.62500000E+01
 21
-9.45000000E+01
  0
LINE
  8
0
 62
7
 10
-4.42500000E+01
 20
-7.05000000E+01
 11
-4.42500000E+01
 21
-9.45000000E+01
  0
LINE
  8
0
 62
7
 10
-3.22500000E+01
 20
-7.05000000E+01
 11
-3.22500000E+01
 21
-9.45000000E+01
  0
LINE
  8
0
 62
7
 10
-2.02500000E+01
 20
-7.05000000E+01
 11
-2.02500000E+01
 21
-9.45000000E+01
  0
LINE
  8
0
 62
7
 10
-2.02500000E+01
 20
-1.04500000E+02
 11
-2.02500000E+01
 21
-1.28500000E+02
  0
LINE
  8
0
 62
7
 10
-3.22500000E+01
 20
-1.04500000E+02
 11
-3.22500000E+01
 21
-1.28500000E+02
  0
LINE
  8
0
 62
7
 10
-4.42500000E+01
 20
-1.04500000E+02
 11
-4.42500000E+01
 21
-1.28500000E+02
  0
LINE
  8
0
 62
7
 10
-5.62500000E+01
 20
-1.04500000E+02
 11
-5.62500000E+01
 21
-1.28500000E+02
  0
LINE
  8
0
 62
7
 10
-6.82500000E+01
 20
-1.04500000E+02
 11
-6.82500000E+01
 21
-1.28500000E+02
  0
LINE
  8
0
 62
7
 10
-8.02500000E+01
 20
-1.04500000E+02
 11
-8.02500000E+01
 21
-1.28500000E+02
  0
LINE
  8
0
 62
7
 10
-9.22500000E+01
 20
-1.04500000E+02
 11
-9.22500000E+01
 21
-1.28500000E+02
  0
LINE
  8
0
 62
7
 10
-1.04250000E+02
 20
-1.04500000E+02
 11
-1.04250000E+02
 21
-1.28500000E+02
  0
TEXT
  8
0
 62
7
 10
-2.89874751E+01
 20
-1.27100000E+02
 40
3.20000005E+00
  1
20
 41
1.00000000E+00
  7
MONOTXT
  0
TEXT
  8
0
 62
7
 10
-2.89874751E+01
 20
-1.15096377E+02
 40
3.20000005E+00
  1
60
 41
1.00000000E+00
  7
MONOTXT
  0
TEXT
  8
0
 62
7
 10
-4.09874751E+01
 20
-1.27100000E+02
 40
3.20000005E+00
  1
15
 41
1.00000000E+00
  7
MONOTXT
  0
TEXT
  8
0
 62
7
 10
-4.09874751E+01
 20
-1.15096377E+02
 40
3.20000005E+00
  1
55
 41
1.00000000E+00
  7
MONOTXT
  0
TEXT
  8
0
 62
7
 10
-5.29874751E+01
 20
-1.27100000E+02
 40
3.20000005E+00
  1
10
 41
1.00000000E+00
  7
MONOTXT
  0
TEXT
  8
0
 62
7
 10
-5.29874751E+01
 20
-1.15096377E+02
 40
3.20000005E+00
  1
50
 41
1.00000000E+00
  7
MONOTXT
  0
TEXT
  8
0
 62
7
 10
-6.33874751E+01
 20
-1.27100000E+02
 40
3.20000005E+00
  1
5
 41
1.00000000E+00
  7
MONOTXT
  0
TEXT
  8
0
 62
7
 10
-6.49874751E+01
 20
-1.15096377E+02
 40
3.20000005E+00
  1
45
 41
1.00000000E+00
  7
MONOTXT
  0
TEXT
  8
0
 62
7
 10
-7.53874751E+01
 20
-1.27100000E+02
 40
3.20000005E+00
  1
0
 41
1.00000000E+00
  7
MONOTXT
  0
TEXT
  8
0
 62
7
 10
-7.69874751E+01
 20
-1.15096377E+02
 40
3.20000005E+00
  1
40
 41
1.00000000E+00
  7
MONOTXT
  0
TEXT
  8
0
 62
7
 10
-8.89874751E+01
 20
-1.27100000E+02
 40
3.20000005E+00
  1
-5
 41
1.00000000E+00
  7
MONOTXT
  0
TEXT
  8
0
 62
7
 10
-8.89874751E+01
 20
-1.15096377E+02
 40
3.20000005E+00
  1
35
 41
1.00000000E+00
  7
MONOTXT
  0
TEXT
  8
0
 62
7
 10
-1.02587475E+02
 20
-1.27100000E+02
 40
3.20000005E+00
  1
-10
 41
1.00000000E+00
  7
MONOTXT
  0
TEXT
  8
0
 62
7
 10
-1.00987475E+02
 20
-1.15096377E+02
 40
3.20000005E+00
  1
30
 41
1.00000000E+00
  7
MONOTXT
  0
TEXT
  8
0
 62
7
 10
-1.14587475E+02
 20
-1.27100000E+02
 40
3.20000005E+00
  1
-15
 41
1.00000000E+00
  7
MONOTXT
  0
TEXT
  8
0
 62
7
 10
-1.12987475E+02
 20
-1.15096377E+02
 40
3.20000005E+00
  1
25
 41
1.00000000E+00
  7
MONOTXT
  0
TEXT
  8
0
 62
7
 10
-1.77887475E+02
 20
-1.27100000E+02
 40
3.20000005E+00
  1
B
 41
1.00000000E+00
  7
MONOTXT
  0
TEXT
  8
0
 62
7
 10
-1.88091006E+02
 20
-1.16676375E+02
 40
3.20000005E+00
  1
STRETCH
 41
1.00000000E+00
  7
MONOTXT
  0
TEXT
  8
0
 62
7
 10
-1.88091006E+02
 20
-1.21476375E+02
 40
3.20000005E+00
  1
  PLACE
 41
1.20689655E+00
  7
MONOTXT
  0
TEXT
  8
0
 62
7
 10
-1.62587475E+02
 20
-1.27100000E+02
 40
3.20000005E+00
  1
-35
 41
1.00000000E+00
  7
MONOTXT
  0
TEXT
  8
0
 62
7
 10
-1.50587475E+02
 20
-1.27100000E+02
 40
3.20000005E+00
  1
-30
 41
1.00000000E+00
  7
MONOTXT
  0
TEXT
  8
0
 62
7
 10
-1.38587475E+02
 20
-1.27100000E+02
 40
3.20000005E+00
  1
-25
 41
1.00000000E+00
  7
MONOTXT
  0
TEXT
  8
0
 62
7
 10
-1.26587475E+02
 20
-1.27100000E+02
 40
3.20000005E+00
  1
-20
 41
1.00000000E+00
  7
MONOTXT
  0
TEXT
  8
0
 62
7
 10
-1.59387475E+02
 20
-1.15096377E+02
 40
3.20000005E+00
  1
5
 41
1.00000000E+00
  7
MONOTXT
  0
TEXT
  8
0
 62
7
 10
-1.48987475E+02
 20
-1.15096377E+02
 40
3.20000005E+00
  1
10
 41
1.00000000E+00
  7
MONOTXT
  0
TEXT
  8
0
 62
7
 10
-1.36987475E+02
 20
-1.15096377E+02
 40
3.20000005E+00
  1
15
 41
1.00000000E+00
  7
MONOTXT
  0
TEXT
  8
0
 62
7
 10
-1.24987475E+02
 20
-1.15096377E+02
 40
3.20000005E+00
  1
20
 41
1.00000000E+00
  7
MONOTXT
  0
TEXT
  8
0
 62
7
 10
-1.84887475E+02
 20
-1.09096381E+02
 40
3.20000005E+00
  1
STROKE
 41
1.00000000E+00
  7
MONOTXT
  0
LINE
  8
0
 62
7
 10
-1.89250000E+02
 20
-1.04500000E+02
 11
-1.89250000E+02
 21
-1.28500000E+02
  0
LINE
  8
0
 62
7
 10
-1.89250000E+02
 20
-1.10500000E+02
 11
-1.66360000E+02
 21
-1.10500000E+02
  0
LINE
  8
0
 62
7
 10
-1.64250000E+02
 20
-1.22500000E+02
 11
-1.66360000E+02
 21
-1.10500000E+02
  0
LINE
  8
0
 62
7
 10
-1.89250000E+02
 20
-1.22500000E+02
 11
-2.02500000E+01
 21
-1.22500000E+02
  0
LINE
  8
0
 62
7
 10
-1.16250000E+02
 20
-1.04500000E+02
 11
-1.16250000E+02
 21
-1.28500000E+02
  0
LINE
  8
0
 62
7
 10
-1.28250000E+02
 20
-1.04500000E+02
 11
-1.28250000E+02
 21
-1.28500000E+02
  0
LINE
  8
0
 62
7
 10
-1.40250000E+02
 20
-1.04500000E+02
 11
-1.40250000E+02
 21
-1.28500000E+02
  0
LINE
  8
0
 62
7
 10
-1.52250000E+02
 20
-1.04500000E+02
 11
-1.52250000E+02
 21
-1.28500000E+02
  0
LINE
  8
0
 62
7
 10
-1.64250000E+02
 20
-1.04500000E+02
 11
-1.64250000E+02
 21
-1.28500000E+02
  0
LINE
  8
0
 62
7
 10
-1.89250000E+02
 20
-1.28500000E+02
 11
-2.02500000E+01
 21
-1.28500000E+02
  0
LINE
  8
0
 62
7
 10
-1.89250000E+02
 20
-1.04500000E+02
 11
-2.02500000E+01
 21
-1.04500000E+02
  0
TEXT
  8
0
 62
7
 10
-1.31493000E+02
 20
-1.02880282E+02
 40
3.20000005E+00
  1
STRETCH LIST(ST2)
 41
1.03658537E+00
  7
MONOTXT
  0
TEXT
  8
0
 62
7
 10
-3.15961953E+01
 20
-1.02880282E+02
 40
3.20000005E+00
  1
(mm)
 41
1.00000000E+00
  7
MONOTXT
  0
TEXT
  8
0
 10
-5.28879391E+01
 20
6.93350189E+01
 40
3.20000005E+00
  1
STRETCH LINE A
 41
1.09375000E+00
  7
MONOTXT
  0
TEXT
  8
0
 10
2.96020609E+01
 20
6.93350189E+01
 40
3.20000005E+00
  1
STRETCH LINE B
 41
1.09375000E+00
  7
MONOTXT
  0
TEXT
  8
0
 62
7
 10
-1.85214688E+02
 20
1.05350006E+02
 40
4.50000000E+00
  1
MODEL:PBDAWS16*ST1(40)*ST2(40)-ZC230
 41
1.00000000E+00
  7
MONOTXT
  0
LINE
  8
0
 62
7
 10
-1.94250000E+02
 20
1.32600006E+02
 11
1.94800003E+02
 21
1.32600006E+02
  0
LINE
  8
0
 62
7
 10
1.94800003E+02
 20
1.32600006E+02
 11
1.94800003E+02
 21
-1.33500000E+02
  0
LINE
  8
0
 62
7
 10
-1.94250000E+02
 20
1.32600006E+02
 11
-1.94250000E+02
 21
-1.33500000E+02
  0
LINE
  8
0
 62
7
 10
-1.94250000E+02
 20
-1.33500000E+02
 11
1.94800003E+02
 21
-1.33500000E+02
  0
LINE
  8
0
 62
7
 10
1.09800003E+02
 20
-1.18500000E+02
 11
1.09800003E+02
 21
-1.33500000E+02
  0
LINE
  8
0
 62
7
 10
1.09800003E+02
 20
-1.18500000E+02
 11
1.94800003E+02
 21
-1.18500000E+02
  0
LINE
  8
0
 62
7
 10
1.09800003E+02
 20
1.32600006E+02
 11
1.09800003E+02
 21
1.17600006E+02
  0
LINE
  8
0
 62
7
 10
1.09800003E+02
 20
1.17600006E+02
 11
1.94800003E+02
 21
1.17600006E+02
  0
LINE
  8
0
 62
7
 10
-1.94250000E+02
 20
1.17600006E+02
 11
-1.09250000E+02
 21
1.17600006E+02
  0
LINE
  8
0
 62
7
 10
-1.09250000E+02
 20
1.32600006E+02
 11
-1.09250000E+02
 21
1.17600006E+02
  0
TEXT
  8
0
 62
7
 10
1.34942863E+02
 20
1.22850006E+02
 40
4.50000000E+00
  1
Ver. 1.1
 41
1.08108085E+00
  7
MONOTXT
  0
TEXT
  8
0
 62
7
 10
1.15249721E+02
 20
-1.29150000E+02
 40
6.30000019E+00
  1
KOGANEI CORP.
 41
1.04838710E+00
  7
MONOTXT
  0
TEXT
  8
0
 62
7
 10
-1.87107344E+02
 20
1.22850006E+02
 40
4.50000000E+00
  1
NEW PEN CYLINDER
 41
1.08108108E+00
  7
MONOTXT
  0
ENDSEC
  0
EOF
