  0
SECTION
  2
HEADER
  9
$ACADVER
  1
AC1003
  9
$EXTMIN
 10
-1.38399994E+02
 20
-9.48000031E+01
  9
$EXTMAX
 10
1.38350006E+02
 20
9.45000000E+01
  9
$LIMMIN
 10
-1.38400994E+02
 20
-9.48010031E+01
  9
$LIMMAX
 10
1.38351006E+02
 20
9.45010000E+01
  9
$SNAPUNIT
 10
1
 20
1
  9
$SNAPBASE
 10
0
 20
0
  9
$GRIDMODE
 70
0
  9
$GRIDUNIT
 10
0
 20
0
  9
$LTSCALE
 40
4.61250000E+00
  9
$TEXTSIZE
 40
3.2
  9
$DIMTAD
 70
0
  9
$LUNITS
 70
2
  9
$LUPREC
 70
4
  9
$FILLETRAD
 40
0
  9
$AUNITS
 70
0
  9
$AUPREC
 70
0
  0
ENDSEC
  0
SECTION
  2
TABLES
  0
TABLE
  2
LTYPE
 70
2
  0
LTYPE
  2
CONTINUOUS
 70
64
  3
Solid-Line
 72
65
 73
0
 40
0
  0
LTYPE
  2
DASHED
 70
64
  3
DASHED
 72
65
 73
2
 40
.75
 49
.5
 49
-.25
  0
LTYPE
  2
HIDDEN
 70
64
  3
HIDDEN
 72
65
 73
2
 40
.375
 49
.25
 49
-.125
  0
LTYPE
  2
CENTER
 70
64
  3
CENTER
 72
65
 73
4
 40
2
 49
1.25
 49
-.25
 49
.25
 49
-.25
  0
LTYPE
  2
PHANTOM
 70
64
  3
PHANTOM
 72
65
 73
6
 40
2.5
 49
1.25
 49
-.25
 49
.25
 49
-.25
 49
.25
 49
-.25
  0
ENDTAB
  0
TABLE
  2
LAYER
 70
1
  0
LAYER
  2
1
 70
0
 62
7
  6
CONTINUOUS
 0
ENDTAB
  0
TABLE
  2
STYLE
 70
2
  0
STYLE
  2
MONOTXT
 70
0
 40
0
 41
1
 50
0
 71
0
 42
.2
  3
monotxt
  0
STYLE
  2
BIGFONT
 70
0
 40
0
 41
1
 50
0
 71
0
 42
.2
  3
txt
  4
bigfont
  0
ENDTAB
  0
ENDSEC
  0
SECTION
  2
ENTITIES
  0
LINE
  8
0
  6
CENTER
 62
6
 10
4.39785203E+01
 20
4.22218978E+01
 11
4.39785203E+01
 21
1.84610322E+01
  0
LINE
  8
0
  6
CENTER
 62
6
 10
8.97852029E+00
 20
4.22218978E+01
 11
8.97852029E+00
 21
1.84610322E+01
  0
LINE
  8
0
  6
PHANTOM
 10
3.03855622E+01
 20
8.68435180E+00
 11
3.03855622E+01
 21
4.22218977E+01
  0
TEXT
  8
0
 62
7
 10
1.51425828E+01
 20
2.19118978E+01
 40
1.50000000E+00
  1
PBSAS6
 41
1.00000000E+00
  7
MONOTXT
  0
LINE
  8
0
 62
7
 10
4.84785203E+01
 20
2.08118978E+01
 11
5.64785203E+01
 21
2.08118978E+01
  0
LINE
  8
0
 62
7
 10
1.34785203E+01
 20
2.08118978E+01
 11
3.94785203E+01
 21
2.08118978E+01
  0
ARC
  8
0
 62
7
 10
-2.86385241E+01
 20
2.43118978E+01
 40
2.88720440E+00
 50
1.83108756E+02
 51
2.25519827E+02
  0
LINE
  8
0
 62
7
 10
5.09785203E+01
 20
2.78118978E+01
 11
5.64785203E+01
 21
2.78118978E+01
  0
LINE
  8
0
 62
7
 10
1.59785203E+01
 20
2.78118978E+01
 11
3.69785203E+01
 21
2.78118978E+01
  0
LINE
  8
0
 62
4
 10
1.97852029E+00
 20
3.03118978E+01
 11
1.97852029E+00
 21
2.72118978E+01
  0
LINE
  8
0
 62
4
 10
1.59785203E+01
 20
3.03118978E+01
 11
1.59785203E+01
 21
2.72118978E+01
  0
LINE
  8
0
 62
4
 10
4.47852031E+00
 20
2.06618978E+01
 11
1.34785203E+01
 21
2.06618978E+01
  0
LINE
  8
0
 62
4
 10
4.47852029E+00
 20
3.73118978E+01
 11
4.47852029E+00
 21
3.08118978E+01
  0
LINE
  8
0
 62
4
 10
1.34785203E+01
 20
3.73118978E+01
 11
1.34785203E+01
 21
3.08118978E+01
  0
LINE
  8
0
 62
6
 10
2.94155194E+01
 20
3.18118978E+01
 11
2.68155194E+01
 21
2.92118978E+01
  0
LINE
  8
0
 62
4
 10
1.34785203E+01
 20
3.07118978E+01
 11
1.59785203E+01
 21
3.07118978E+01
  0
LINE
  8
0
 62
4
 10
1.34785203E+01
 20
2.72118978E+01
 11
1.59785203E+01
 21
2.72118978E+01
  0
LINE
  8
0
 62
4
 10
1.34785203E+01
 20
3.03118978E+01
 11
1.59785203E+01
 21
3.03118978E+01
  0
LINE
  8
0
 62
4
 10
1.34785203E+01
 20
3.35118978E+01
 11
1.59785203E+01
 21
3.35118978E+01
  0
LINE
  8
0
 62
4
 10
1.97852028E+00
 20
2.72118978E+01
 11
4.47852029E+00
 21
2.72118978E+01
  0
LINE
  8
0
 62
4
 10
1.97852028E+00
 20
3.03118978E+01
 11
4.47852029E+00
 21
3.03118978E+01
  0
LINE
  8
0
 62
4
 10
1.97852028E+00
 20
3.07118978E+01
 11
4.47852029E+00
 21
3.07118978E+01
  0
LINE
  8
0
 62
4
 10
1.97852028E+00
 20
3.35118978E+01
 11
4.47852029E+00
 21
3.35118978E+01
  0
LINE
  8
0
 62
4
 10
2.14785203E+01
 20
2.85118978E+01
 11
2.44785203E+01
 21
2.92118978E+01
  0
LINE
  8
0
 62
4
 10
2.14785203E+01
 20
3.25118978E+01
 11
2.44785203E+01
 21
3.18118978E+01
  0
LINE
  8
0
 62
4
 10
2.44785203E+01
 20
3.18118978E+01
 11
2.44785203E+01
 21
2.92118978E+01
  0
LINE
  8
0
 62
4
 10
2.44785203E+01
 20
2.92118978E+01
 11
2.68155194E+01
 21
2.92118978E+01
  0
LINE
  8
0
 62
4
 10
2.44785203E+01
 20
3.18118978E+01
 11
2.94155194E+01
 21
3.18118978E+01
  0
LINE
  8
0
 62
4
 10
1.59785203E+01
 20
3.35118978E+01
 11
1.59785203E+01
 21
3.07118978E+01
  0
LINE
  8
0
 62
4
 10
2.14785203E+01
 20
3.25118978E+01
 11
2.14785203E+01
 21
2.85118978E+01
  0
LINE
  8
0
 62
4
 10
1.59785203E+01
 20
2.85118978E+01
 11
2.14785203E+01
 21
2.85118978E+01
  0
ARC
  8
0
 62
4
 10
1.04768546E+01
 20
3.87102321E+01
 40
1.00166704E+00
 50
9.52762946E-02
 51
8.99047236E+01
  0
ARC
  8
0
 62
4
 10
7.47931177E+00
 20
3.87111063E+01
 40
1.00079180E+00
 50
9.00000002E+01
 51
1.79954687E+02
  0
LINE
  8
0
 62
4
 10
6.47852029E+00
 20
3.87118978E+01
 11
6.47852029E+00
 21
3.82118978E+01
  0
LINE
  8
0
 62
4
 10
1.14785203E+01
 20
3.87118978E+01
 11
1.14785203E+01
 21
3.82118978E+01
  0
LINE
  8
0
 62
4
 10
7.47852029E+00
 20
3.97118978E+01
 11
1.04785203E+01
 21
3.97118978E+01
  0
LINE
  8
0
 62
4
 10
6.47852029E+00
 20
3.82118978E+01
 11
1.14785203E+01
 21
3.82118978E+01
  0
LINE
  8
0
 62
4
 10
-2.52147971E+00
 20
2.85118978E+01
 11
1.97852029E+00
 21
2.85118978E+01
  0
LINE
  8
0
 62
4
 10
-2.52147971E+00
 20
3.25118978E+01
 11
1.97852029E+00
 21
3.25118978E+01
  0
LINE
  8
0
 62
4
 10
4.47852029E+00
 20
3.73118978E+01
 11
1.34785203E+01
 21
3.73118978E+01
  0
LINE
  8
0
 62
4
 10
4.47852029E+00
 20
3.08118978E+01
 11
1.34785203E+01
 21
3.08118978E+01
  0
LINE
  8
0
 62
4
 10
1.04785203E+01
 20
3.82118978E+01
 11
1.04785203E+01
 21
3.73118978E+01
  0
LINE
  8
0
 62
4
 10
7.47852029E+00
 20
3.82118978E+01
 11
7.47852029E+00
 21
3.73118978E+01
  0
LINE
  8
0
 62
6
 10
1.02085203E+01
 20
3.82118978E+01
 11
1.02085203E+01
 21
3.73118978E+01
  0
LINE
  8
0
 62
6
 10
7.74852029E+00
 20
3.82118978E+01
 11
7.74852029E+00
 21
3.73118978E+01
  0
LINE
  8
0
 62
4
 10
1.97852029E+00
 20
3.35118978E+01
 11
1.97852029E+00
 21
3.07118978E+01
  0
LINE
  8
0
 62
4
 10
-3.52147971E+00
 20
2.95118978E+01
 11
-2.52147971E+00
 21
2.85118978E+01
  0
LINE
  8
0
 62
4
 10
-2.52147971E+00
 20
3.25118978E+01
 11
-2.52147971E+00
 21
2.85118978E+01
  0
LINE
  8
0
 62
4
 10
-3.52147971E+00
 20
3.15118978E+01
 11
-3.52147971E+00
 21
2.95118978E+01
  0
LINE
  8
0
 62
4
 10
-3.52147971E+00
 20
3.15118978E+01
 11
-2.52147971E+00
 21
3.25118978E+01
  0
LINE
  8
0
 62
4
 10
4.47852029E+00
 20
3.08118978E+01
 11
4.47852029E+00
 21
2.06618978E+01
  0
LINE
  8
0
 62
4
 10
1.34785203E+01
 20
3.08118978E+01
 11
1.34785203E+01
 21
2.06618978E+01
  0
LINE
  8
0
 62
4
 10
1.59785203E+01
 20
3.25118978E+01
 11
2.14785203E+01
 21
3.25118978E+01
  0
LINE
  8
0
 62
4
 10
3.69785203E+01
 20
3.03118978E+01
 11
3.69785203E+01
 21
2.72118978E+01
  0
LINE
  8
0
 62
4
 10
5.09785203E+01
 20
3.03118978E+01
 11
5.09785203E+01
 21
2.72118978E+01
  0
LINE
  8
0
 62
4
 10
3.94785203E+01
 20
2.06618978E+01
 11
4.84785203E+01
 21
2.06618978E+01
  0
LINE
  8
0
 62
4
 10
3.94785203E+01
 20
3.73118978E+01
 11
3.94785203E+01
 21
3.08118978E+01
  0
LINE
  8
0
 62
4
 10
4.84785203E+01
 20
3.73118978E+01
 11
4.84785203E+01
 21
3.08118978E+01
  0
LINE
  8
0
 62
6
 10
6.44155194E+01
 20
3.18118978E+01
 11
6.18155194E+01
 21
2.92118978E+01
  0
LINE
  8
0
 62
4
 10
4.84785203E+01
 20
3.07118978E+01
 11
5.09785203E+01
 21
3.07118978E+01
  0
LINE
  8
0
 62
4
 10
4.84785203E+01
 20
2.72118978E+01
 11
5.09785203E+01
 21
2.72118978E+01
  0
LINE
  8
0
 62
4
 10
4.84785203E+01
 20
3.03118978E+01
 11
5.09785203E+01
 21
3.03118978E+01
  0
LINE
  8
0
 62
4
 10
4.84785203E+01
 20
3.35118978E+01
 11
5.09785203E+01
 21
3.35118978E+01
  0
LINE
  8
0
 62
4
 10
3.69785203E+01
 20
2.72118978E+01
 11
3.94785203E+01
 21
2.72118978E+01
  0
LINE
  8
0
 62
4
 10
3.69785203E+01
 20
3.03118978E+01
 11
3.94785203E+01
 21
3.03118978E+01
  0
LINE
  8
0
 62
4
 10
3.69785203E+01
 20
3.07118978E+01
 11
3.94785203E+01
 21
3.07118978E+01
  0
LINE
  8
0
 62
4
 10
3.69785203E+01
 20
3.35118978E+01
 11
3.94785203E+01
 21
3.35118978E+01
  0
LINE
  8
0
 62
4
 10
5.64785203E+01
 20
2.85118978E+01
 11
5.94785203E+01
 21
2.92118978E+01
  0
LINE
  8
0
 62
4
 10
5.64785203E+01
 20
3.25118978E+01
 11
5.94785203E+01
 21
3.18118978E+01
  0
LINE
  8
0
 62
4
 10
5.94785203E+01
 20
3.18118978E+01
 11
5.94785203E+01
 21
2.92118978E+01
  0
LINE
  8
0
 62
4
 10
5.94785203E+01
 20
2.92118978E+01
 11
6.18155194E+01
 21
2.92118978E+01
  0
LINE
  8
0
 62
4
 10
5.94785203E+01
 20
3.18118978E+01
 11
6.44155194E+01
 21
3.18118978E+01
  0
LINE
  8
0
 62
4
 10
5.09785203E+01
 20
3.35118978E+01
 11
5.09785203E+01
 21
3.07118978E+01
  0
LINE
  8
0
 62
4
 10
5.64785203E+01
 20
3.25118978E+01
 11
5.64785203E+01
 21
2.85118978E+01
  0
LINE
  8
0
 62
4
 10
5.09785203E+01
 20
2.85118978E+01
 11
5.64785203E+01
 21
2.85118978E+01
  0
ARC
  8
0
 62
4
 10
4.54768546E+01
 20
3.87102321E+01
 40
1.00166704E+00
 50
9.52762946E-02
 51
8.99047236E+01
  0
ARC
  8
0
 62
4
 10
4.24793118E+01
 20
3.87111063E+01
 40
1.00079180E+00
 50
9.00000002E+01
 51
1.79954687E+02
  0
LINE
  8
0
 62
4
 10
4.14785203E+01
 20
3.87118978E+01
 11
4.14785203E+01
 21
3.82118978E+01
  0
LINE
  8
0
 62
4
 10
4.64785203E+01
 20
3.87118978E+01
 11
4.64785203E+01
 21
3.82118978E+01
  0
LINE
  8
0
 62
4
 10
4.24785203E+01
 20
3.97118978E+01
 11
4.54785203E+01
 21
3.97118978E+01
  0
LINE
  8
0
 62
4
 10
4.14785203E+01
 20
3.82118978E+01
 11
4.64785203E+01
 21
3.82118978E+01
  0
LINE
  8
0
 62
4
 10
3.24785203E+01
 20
2.85118978E+01
 11
3.69785203E+01
 21
2.85118978E+01
  0
LINE
  8
0
 62
4
 10
3.24785203E+01
 20
3.25118978E+01
 11
3.69785203E+01
 21
3.25118978E+01
  0
LINE
  8
0
 62
4
 10
3.94785203E+01
 20
3.73118978E+01
 11
4.84785203E+01
 21
3.73118978E+01
  0
LINE
  8
0
 62
4
 10
3.94785203E+01
 20
3.08118978E+01
 11
4.84785203E+01
 21
3.08118978E+01
  0
LINE
  8
0
 62
4
 10
4.54785203E+01
 20
3.82118978E+01
 11
4.54785203E+01
 21
3.73118978E+01
  0
LINE
  8
0
 62
4
 10
4.24785203E+01
 20
3.82118978E+01
 11
4.24785203E+01
 21
3.73118978E+01
  0
LINE
  8
0
 62
6
 10
4.52085203E+01
 20
3.82118978E+01
 11
4.52085203E+01
 21
3.73118978E+01
  0
LINE
  8
0
 62
6
 10
4.27485203E+01
 20
3.82118978E+01
 11
4.27485203E+01
 21
3.73118978E+01
  0
LINE
  8
0
 62
4
 10
3.69785203E+01
 20
3.35118978E+01
 11
3.69785203E+01
 21
3.07118978E+01
  0
LINE
  8
0
 62
4
 10
3.14785203E+01
 20
2.95118978E+01
 11
3.24785203E+01
 21
2.85118978E+01
  0
LINE
  8
0
 62
4
 10
3.24785203E+01
 20
3.25118978E+01
 11
3.24785203E+01
 21
2.85118978E+01
  0
LINE
  8
0
 62
4
 10
3.14785203E+01
 20
3.15118978E+01
 11
3.14785203E+01
 21
2.95118978E+01
  0
LINE
  8
0
 62
4
 10
3.14785203E+01
 20
3.15118978E+01
 11
3.24785203E+01
 21
3.25118978E+01
  0
LINE
  8
0
 62
4
 10
3.94785203E+01
 20
3.08118978E+01
 11
3.94785203E+01
 21
2.06618978E+01
  0
LINE
  8
0
 62
4
 10
4.84785203E+01
 20
3.08118978E+01
 11
4.84785203E+01
 21
2.06618978E+01
  0
LINE
  8
0
 62
4
 10
5.09785203E+01
 20
3.25118978E+01
 11
5.64785203E+01
 21
3.25118978E+01
  0
LINE
  8
0
 62
4
 10
5.73385203E+01
 20
2.63718978E+01
 11
6.16085203E+01
 21
2.63718978E+01
  0
LINE
  8
0
 62
4
 10
5.73385203E+01
 20
2.22518978E+01
 11
6.16085203E+01
 21
2.22518978E+01
  0
LINE
  8
0
 62
2
 10
-3.42714797E+01
 20
2.18533978E+01
 11
-3.30214797E+01
 21
2.18533978E+01
  0
LINE
  8
0
 62
2
 10
-3.42714797E+01
 20
2.67703978E+01
 11
-3.30214797E+01
 21
2.67703978E+01
  0
LINE
  8
0
 62
2
 10
-3.95214797E+01
 20
2.18533978E+01
 11
-3.82714797E+01
 21
2.18533978E+01
  0
LINE
  8
0
 62
2
 10
-3.95214797E+01
 20
2.67703978E+01
 11
-3.82714797E+01
 21
2.67703978E+01
  0
LINE
  8
0
 62
2
 10
-5.36014797E+01
 20
2.30373978E+01
 11
-4.45214797E+01
 21
2.30373978E+01
  0
LINE
  8
0
 62
2
 10
-5.36014797E+01
 20
2.55863978E+01
 11
-4.45214797E+01
 21
2.55863978E+01
  0
LINE
  8
0
 62
2
 10
-5.93469797E+01
 20
2.55863978E+01
 11
-5.60014797E+01
 21
2.55863978E+01
  0
LINE
  8
0
 62
2
 10
-5.93469797E+01
 20
2.30373978E+01
 11
-5.60014797E+01
 21
2.30373978E+01
  0
LINE
  8
0
 62
7
 10
-2.70214797E+01
 20
2.78118978E+01
 11
1.97852029E+00
 21
2.78118978E+01
  0
LINE
  8
0
 62
7
 10
-3.15214797E+01
 20
2.83118978E+01
 11
-3.15214797E+01
 21
2.03218978E+01
  0
LINE
  8
0
 62
7
 10
-3.90214797E+01
 20
2.73118978E+01
 11
-3.82714797E+01
 21
2.73118978E+01
  0
LINE
  8
0
 62
7
 10
-5.95214797E+01
 20
2.54118978E+01
 11
-5.95214797E+01
 21
2.43118978E+01
  0
LINE
  8
0
  6
CENTER
 62
2
 10
-6.07314797E+01
 20
2.43118978E+01
 11
6.42936821E+01
 21
2.43118978E+01
  0
LINE
  8
0
 62
7
 10
-5.91214797E+01
 20
2.58118978E+01
 11
-5.60014797E+01
 21
2.58118978E+01
  0
LINE
  8
0
 62
7
 10
-4.45214797E+01
 20
2.58118978E+01
 11
-4.45214797E+01
 21
2.43118978E+01
  0
LINE
  8
0
 62
7
 10
-5.95214797E+01
 20
2.54118978E+01
 11
-5.91214797E+01
 21
2.58118978E+01
  0
LINE
  8
0
 62
4
 10
5.64785203E+01
 20
2.83118978E+01
 11
5.64785203E+01
 21
2.03218978E+01
  0
LINE
  8
0
 62
7
 10
-3.95214797E+01
 20
2.68118978E+01
 11
-3.90214797E+01
 21
2.73118978E+01
  0
LINE
  8
0
 62
7
 10
-3.30214797E+01
 20
2.73118978E+01
 11
-3.30214797E+01
 21
2.13118978E+01
  0
LINE
  8
0
 62
7
 10
-2.70214797E+01
 20
2.08118978E+01
 11
4.47852029E+00
 21
2.08118978E+01
  0
LINE
  8
0
 62
7
 10
-3.95214797E+01
 20
2.18118978E+01
 11
-3.95214797E+01
 21
2.68118978E+01
  0
LINE
  8
0
 62
7
 10
-3.90214797E+01
 20
2.13118978E+01
 11
-3.82714797E+01
 21
2.13118978E+01
  0
LINE
  8
0
 62
7
 10
-5.95214797E+01
 20
2.32118978E+01
 11
-5.95214797E+01
 21
2.43118978E+01
  0
LINE
  8
0
 62
7
 10
-5.91214797E+01
 20
2.28118978E+01
 11
-5.60014797E+01
 21
2.28118978E+01
  0
LINE
  8
0
 62
7
 10
-4.45214797E+01
 20
2.28118978E+01
 11
-4.45214797E+01
 21
2.43118978E+01
  0
LINE
  8
0
 62
7
 10
-5.95214797E+01
 20
2.32118978E+01
 11
-5.91214797E+01
 21
2.28118978E+01
  0
LINE
  8
0
 62
7
 10
-3.95214797E+01
 20
2.18118978E+01
 11
-3.90214797E+01
 21
2.13118978E+01
  0
LINE
  8
0
 62
4
 10
6.24785203E+01
 20
2.83118978E+01
 11
6.24785203E+01
 21
2.03218978E+01
  0
LINE
  8
0
 62
7
 10
-3.90214797E+01
 20
2.73118978E+01
 11
-3.90214797E+01
 21
2.13118978E+01
  0
LINE
  8
0
 62
4
 10
-3.82714797E+01
 20
2.86318978E+01
 11
-3.82714797E+01
 21
2.00018978E+01
  0
LINE
  8
0
 62
4
 10
-3.42714797E+01
 20
2.86318978E+01
 11
-3.42714797E+01
 21
2.00018978E+01
  0
LINE
  8
0
 62
4
 10
-3.78714797E+01
 20
1.85718978E+01
 11
-3.46714797E+01
 21
1.85718978E+01
  0
LINE
  8
0
 62
4
 10
-3.78714797E+01
 20
3.00618978E+01
 11
-3.46714797E+01
 21
3.00618978E+01
  0
LINE
  8
0
 62
4
 10
-5.60014797E+01
 20
2.66918978E+01
 11
-5.60014797E+01
 21
2.19318978E+01
  0
LINE
  8
0
 62
4
 10
-5.36014797E+01
 20
2.66918978E+01
 11
-5.36014797E+01
 21
2.19318978E+01
  0
LINE
  8
0
 62
4
 10
-5.57014797E+01
 20
2.59018978E+01
 11
-5.39014797E+01
 21
2.59018978E+01
  0
LINE
  8
0
 62
4
 10
-5.57014797E+01
 20
2.27218978E+01
 11
-5.39014797E+01
 21
2.27218978E+01
  0
LINE
  8
0
 62
4
 10
-5.57014797E+01
 20
2.74918978E+01
 11
-5.39014797E+01
 21
2.74918978E+01
  0
LINE
  8
0
 62
4
 10
-5.57014797E+01
 20
2.11318978E+01
 11
-5.39014797E+01
 21
2.11318978E+01
  0
LINE
  8
0
 62
7
 10
-5.36014797E+01
 20
2.58118978E+01
 11
-3.95214797E+01
 21
2.58118978E+01
  0
LINE
  8
0
 62
7
 10
-5.36014797E+01
 20
2.28118978E+01
 11
-3.95214797E+01
 21
2.28118978E+01
  0
LINE
  8
0
 62
7
 10
-5.91214797E+01
 20
2.58118978E+01
 11
-5.91214797E+01
 21
2.28118978E+01
  0
LINE
  8
0
 62
4
 10
-3.78714797E+01
 20
2.72018978E+01
 11
-3.46714797E+01
 21
2.72018978E+01
  0
LINE
  8
0
 62
4
 10
-3.78714797E+01
 20
2.14218978E+01
 11
-3.46714797E+01
 21
2.14218978E+01
  0
LINE
  8
0
 62
7
 10
-3.42714797E+01
 20
2.13118978E+01
 11
-3.15214797E+01
 21
2.13118978E+01
  0
LINE
  8
0
 62
7
 10
-3.42714797E+01
 20
2.73118978E+01
 11
-3.15214797E+01
 21
2.73118978E+01
  0
LINE
  8
0
 62
7
 10
-3.15214797E+01
 20
2.03218978E+01
 11
-2.70214797E+01
 21
2.03218978E+01
  0
LINE
  8
0
 62
7
 10
-3.15214797E+01
 20
2.83118978E+01
 11
-2.70214797E+01
 21
2.83118978E+01
  0
LINE
  8
0
 62
7
 10
-2.70214797E+01
 20
2.83118978E+01
 11
-2.70214797E+01
 21
2.03218978E+01
  0
LINE
  8
0
  6
CENTER
 62
2
 10
-2.92714797E+01
 20
2.56318978E+01
 11
-2.92714797E+01
 21
2.28518978E+01
  0
LINE
  8
0
 62
7
 10
-3.06614797E+01
 20
2.22518978E+01
 11
-2.78914797E+01
 21
2.22518978E+01
  0
LINE
  8
0
 62
7
 10
-3.06614797E+01
 20
2.63718978E+01
 11
-2.78914797E+01
 21
2.63718978E+01
  0
LINE
  8
0
 62
7
 10
-3.06614797E+01
 20
2.83118978E+01
 11
-3.06614797E+01
 21
2.63718978E+01
  0
LINE
  8
0
 62
7
 10
-2.78914797E+01
 20
2.83118978E+01
 11
-2.78914797E+01
 21
2.63718978E+01
  0
LINE
  8
0
 62
7
 10
-3.06614797E+01
 20
2.22518978E+01
 11
-3.06614797E+01
 21
2.03218978E+01
  0
LINE
  8
0
 62
7
 10
-2.78914797E+01
 20
2.22518978E+01
 11
-2.78914797E+01
 21
2.03218978E+01
  0
LINE
  8
0
 62
4
 10
5.64785203E+01
 20
2.83118978E+01
 11
6.24785203E+01
 21
2.83118978E+01
  0
LINE
  8
0
 62
4
 10
5.64785203E+01
 20
2.03218978E+01
 11
6.24785203E+01
 21
2.03218978E+01
  0
LINE
  8
0
 62
4
 10
5.73385203E+01
 20
2.83118978E+01
 11
5.73385203E+01
 21
2.63718978E+01
  0
LINE
  8
0
 62
4
 10
5.73385203E+01
 20
2.22518978E+01
 11
5.73385203E+01
 21
2.03218978E+01
  0
LINE
  8
0
 62
4
 10
6.16085203E+01
 20
2.83118978E+01
 11
6.16085203E+01
 21
2.63718978E+01
  0
LINE
  8
0
 62
4
 10
6.16085203E+01
 20
2.22518978E+01
 11
6.16085203E+01
 21
2.03218978E+01
  0
ARC
  8
0
 62
4
 10
-3.55140556E+01
 20
2.86315344E+01
 40
2.75742415E+00
 50
1.48752783E+02
 51
1.79992449E+02
  0
ARC
  8
0
 62
4
 10
-2.76586429E+01
 20
2.43156747E+01
 40
1.06128375E+01
 50
1.64219317E+02
 51
1.80020390E+02
  0
ARC
  8
0
 62
4
 10
-3.55127507E+01
 20
2.86326262E+01
 40
2.75872912E+00
 50
1.80015128E+02
 51
2.11239639E+02
  0
ARC
  8
0
 62
4
 10
-2.76575150E+01
 20
2.43082770E+01
 40
1.06139654E+01
 50
1.79980454E+02
 51
1.95779839E+02
  0
ARC
  8
0
 62
4
 10
-3.55149142E+01
 20
1.99917385E+01
 40
2.75658423E+00
 50
1.48747152E+02
 51
1.79788838E+02
  0
ARC
  8
0
 62
4
 10
-3.55144986E+01
 20
2.00021372E+01
 40
2.75698117E+00
 50
1.80004977E+02
 51
2.11249791E+02
  0
ARC
  8
0
 62
4
 10
-3.70357632E+01
 20
2.86296157E+01
 40
2.76428443E+00
 50
4.73013359E-02
 51
3.12074661E+01
  0
ARC
  8
0
 62
4
 10
-3.70370649E+01
 20
2.86345440E+01
 40
2.76558641E+00
 50
3.28800055E+02
 51
3.59945178E+02
  0
ARC
  8
0
 62
4
 10
-4.48915709E+01
 20
2.43146706E+01
 40
1.06200915E+01
 50
3.59985040E+02
 51
1.57752528E+01
  0
ARC
  8
0
 62
4
 10
-4.48926980E+01
 20
2.43092809E+01
 40
1.06212186E+01
 50
3.44225590E+02
 51
1.41164945E-02
  0
ARC
  8
0
 62
4
 10
-3.70348997E+01
 20
1.99898076E+01
 40
2.76344643E+00
 50
2.50671006E-01
 51
3.12133385E+01
  0
ARC
  8
0
 62
4
 10
-3.70353213E+01
 20
2.00040563E+01
 40
2.76384246E+00
 50
3.28789979E+02
 51
3.59955253E+02
  0
ARC
  8
0
 62
4
 10
-5.48008446E+01
 20
2.66979096E+01
 40
1.20065014E+00
 50
1.38601020E+02
 51
1.80286890E+02
  0
ARC
  8
0
 62
4
 10
-5.16502675E+01
 20
2.43142162E+01
 40
4.35121281E+00
 50
1.58599646E+02
 51
1.80030529E+02
  0
ARC
  8
0
 62
4
 10
-5.48003637E+01
 20
2.66960558E+01
 40
1.20112325E+00
 50
1.80198345E+02
 51
2.21389885E+02
  0
ARC
  8
0
 62
4
 10
-5.16487542E+01
 20
2.43098648E+01
 40
4.35272602E+00
 50
1.79973240E+02
 51
2.01396584E+02
  0
ARC
  8
0
 62
4
 10
-5.48031006E+01
 20
2.19287791E+01
 40
1.19838315E+00
 50
1.38560875E+02
 51
1.79850895E+02
  0
ARC
  8
0
 62
4
 10
-5.47980973E+01
 20
2.19269161E+01
 40
1.20339268E+00
 50
1.79762815E+02
 51
2.21349275E+02
  0
ARC
  8
0
 62
4
 10
-5.48017986E+01
 20
2.66980282E+01
 40
1.20033453E+00
 50
3.59707374E+02
 51
4.14047162E+01
  0
ARC
  8
0
 62
4
 10
-5.48022807E+01
 20
2.66959361E+01
 40
1.20080775E+00
 50
3.18604457E+02
 51
3.59807313E+02
  0
ARC
  8
0
 62
4
 10
-5.79523436E+01
 20
2.43142819E+01
 40
4.35086450E+00
 50
3.59968603E+02
 51
2.14012217E+01
  0
ARC
  8
0
 62
4
 10
-5.79538570E+01
 20
2.43097991E+01
 40
4.35237783E+00
 50
3.38602549E+02
 51
2.76267359E-02
  0
ARC
  8
0
 62
4
 10
-5.47995430E+01
 20
2.19288990E+01
 40
1.19806703E+00
 50
1.43409086E-01
 51
4.14448208E+01
  0
ARC
  8
0
 62
4
 10
-5.48045466E+01
 20
2.19267978E+01
 40
1.20307768E+00
 50
3.18645028E+02
 51
2.42881135E-01
  0
CIRCLE
  8
0
 62
7
 10
-2.92776711E+01
 20
2.43160399E+01
 40
5.00000000E-01
  0
ARC
  8
0
 62
7
 10
-2.86385241E+01
 20
2.43118978E+01
 40
2.88720440E+00
 50
1.34480173E+02
 51
1.76891244E+02
  0
ARC
  8
0
 62
7
 10
-2.99168181E+01
 20
2.43118978E+01
 40
2.88887445E+00
 50
3.14513892E+02
 51
4.54861082E+01
  0
ARC
  8
0
 62
4
 10
5.93614759E+01
 20
2.43118978E+01
 40
2.88720440E+00
 50
1.34480173E+02
 51
2.25519827E+02
  0
ARC
  8
0
 62
4
 10
5.95831819E+01
 20
2.43118978E+01
 40
2.88887445E+00
 50
3.14513892E+02
 51
4.54861082E+01
  0
LINE
  8
0
 62
4
 10
-8.56114797E+01
 20
3.15118978E+01
 11
-8.46114797E+01
 21
3.25118978E+01
  0
LINE
  8
0
 62
4
 10
-8.87114797E+01
 20
3.25118978E+01
 11
-8.77114797E+01
 21
3.15118978E+01
  0
LINE
  8
0
 62
4
 10
-8.56114797E+01
 20
3.15118978E+01
 11
-8.77114797E+01
 21
3.15118978E+01
  0
LINE
  8
0
 62
4
 10
-8.56114797E+01
 20
3.15118978E+01
 11
-8.56114797E+01
 21
2.94770978E+01
  0
LINE
  8
0
 62
4
 10
-8.77114797E+01
 20
3.15118978E+01
 11
-8.77114797E+01
 21
2.94770978E+01
  0
LINE
  8
0
 62
6
 10
-8.78914797E+01
 20
3.77118978E+01
 11
-8.78914797E+01
 21
3.72118978E+01
  0
LINE
  8
0
 62
6
 10
-8.79114797E+01
 20
3.77118978E+01
 11
-8.79114797E+01
 21
3.72118978E+01
  0
LINE
  8
0
 62
4
 10
-9.15864797E+01
 20
3.35650342E+01
 11
-9.17228572E+01
 21
3.23571196E+01
  0
LINE
  8
0
 62
4
 10
-9.16918592E+01
 20
3.26316726E+01
 11
-9.22114797E+01
 21
3.29318978E+01
  0
LINE
  8
0
 62
4
 10
-9.17228572E+01
 20
3.23571196E+01
 11
-9.11851741E+01
 21
2.74762498E+01
  0
LINE
  8
0
 62
4
 10
-9.07630460E+01
 20
2.95804733E+01
 11
-9.09121441E+01
 21
2.95640485E+01
  0
LINE
  8
0
 62
4
 10
-9.07630460E+01
 20
2.95804733E+01
 11
-9.05702601E+01
 21
2.78304403E+01
  0
LINE
  8
0
 62
4
 10
-9.12197574E+01
 20
3.23564384E+01
 11
-9.07121633E+01
 21
2.77487040E+01
  0
LINE
  8
0
 62
4
 10
-8.31615214E+01
 20
3.07154352E+01
 11
-8.30981594E+01
 21
2.80294253E+01
  0
LINE
  8
0
 62
4
 10
-8.33114797E+01
 20
3.07118978E+01
 11
-8.32502680E+01
 21
2.81170398E+01
  0
LINE
  8
0
 62
4
 10
-8.31614797E+01
 20
3.72118978E+01
 11
-9.01614797E+01
 21
3.72118978E+01
  0
LINE
  8
0
 62
4
 10
-9.01614797E+01
 20
3.59118978E+01
 11
-9.01614797E+01
 21
3.00118978E+01
  0
LINE
  8
0
 62
4
 10
-8.31614797E+01
 20
3.59118978E+01
 11
-8.31614797E+01
 21
3.07118978E+01
  0
LINE
  8
0
 62
4
 10
-9.16614797E+01
 20
3.55118978E+01
 11
-9.16614797E+01
 21
3.38268978E+01
  0
LINE
  8
0
 62
4
 10
-9.16614797E+01
 20
3.55118978E+01
 11
-9.24614797E+01
 21
3.55118978E+01
  0
LINE
  8
0
 62
4
 10
-8.89464797E+01
 20
3.64118978E+01
 11
-8.88064797E+01
 21
3.56118978E+01
  0
LINE
  8
0
 62
4
 10
-8.43764797E+01
 20
3.64118978E+01
 11
-8.45164797E+01
 21
3.56118978E+01
  0
LINE
  8
0
 62
4
 10
-8.88064797E+01
 20
3.56118978E+01
 11
-8.45164797E+01
 21
3.56118978E+01
  0
LINE
  8
0
 62
4
 10
-8.23614797E+01
 20
3.64118978E+01
 11
-8.23614797E+01
 21
3.07118978E+01
  0
LINE
  8
0
 62
4
 10
-9.09614797E+01
 20
3.00118978E+01
 11
-9.09614797E+01
 21
3.64118978E+01
  0
LINE
  8
0
 62
4
 10
-8.96614797E+01
 20
3.64118978E+01
 11
-8.36614797E+01
 21
3.64118978E+01
  0
LINE
  8
0
 62
4
 10
-9.24614797E+01
 20
3.55118978E+01
 11
-9.24614797E+01
 21
3.33668978E+01
  0
LINE
  8
0
 62
4
 10
-9.09614797E+01
 20
3.31358978E+01
 11
-9.11212890E+01
 21
3.32285871E+01
  0
LINE
  8
0
 62
4
 10
-8.33114797E+01
 20
3.59118978E+01
 11
-8.33114797E+01
 21
3.07118978E+01
  0
LINE
  8
0
 62
4
 10
-8.31614797E+01
 20
3.59118978E+01
 11
-8.33114797E+01
 21
3.59118978E+01
  0
LINE
  8
0
 62
4
 10
-8.34114797E+01
 20
3.42118978E+01
 11
-8.99114797E+01
 21
3.42118978E+01
  0
LINE
  8
0
 62
4
 10
-8.99114797E+01
 20
3.42118978E+01
 11
-8.99114797E+01
 21
2.82098978E+01
  0
LINE
  8
0
 62
4
 10
-8.34114797E+01
 20
3.42118978E+01
 11
-8.34114797E+01
 21
3.07118978E+01
  0
LINE
  8
0
 62
4
 10
-8.34114797E+01
 20
3.35118978E+01
 11
-8.99114797E+01
 21
3.35118978E+01
  0
LINE
  8
0
 62
4
 10
-9.10864797E+01
 20
3.60368978E+01
 11
-9.10864797E+01
 21
3.35368978E+01
  0
LINE
  8
0
 62
4
 10
-9.15864797E+01
 20
3.60368978E+01
 11
-9.15864797E+01
 21
3.35661789E+01
  0
LINE
  8
0
 62
4
 10
-9.10864797E+01
 20
3.60368978E+01
 11
-9.15864797E+01
 21
3.60368978E+01
  0
LINE
  8
0
 62
4
 10
-9.10864797E+01
 20
3.35368978E+01
 11
-9.12203053E+01
 21
3.23515852E+01
  0
LINE
  8
0
 62
4
 10
-8.23614797E+01
 20
3.07118978E+01
 11
-8.31614797E+01
 21
3.07118978E+01
  0
LINE
  8
0
 62
4
 10
-9.01614797E+01
 20
3.00118978E+01
 11
-9.09614797E+01
 21
3.00118978E+01
  0
LINE
  8
0
 62
4
 10
-8.51614797E+01
 20
3.82118978E+01
 11
-8.51614797E+01
 21
3.72118978E+01
  0
LINE
  8
0
 62
6
 10
-8.54314797E+01
 20
3.77118978E+01
 11
-8.54314797E+01
 21
3.72118978E+01
  0
LINE
  8
0
 62
4
 10
-8.51614797E+01
 20
3.77118978E+01
 11
-8.81614797E+01
 21
3.77118978E+01
  0
LINE
  8
0
 62
4
 10
-8.51614797E+01
 20
3.45118978E+01
 11
-8.54614797E+01
 21
3.42118978E+01
  0
LINE
  8
0
 62
4
 10
-8.81614797E+01
 20
3.82118978E+01
 11
-8.81614797E+01
 21
3.72118978E+01
  0
LINE
  8
0
 62
4
 10
-8.81614797E+01
 20
3.45118978E+01
 11
-8.78614797E+01
 21
3.42118978E+01
  0
LINE
  8
0
 62
4
 10
-8.41614797E+01
 20
3.82118978E+01
 11
-8.91614797E+01
 21
3.82118978E+01
  0
LINE
  8
0
 62
4
 10
-8.91614797E+01
 20
3.87118978E+01
 11
-8.91614797E+01
 21
3.82118978E+01
  0
LINE
  8
0
 62
4
 10
-8.51614797E+01
 20
3.97118978E+01
 11
-8.81614797E+01
 21
3.97118978E+01
  0
LINE
  8
0
 62
4
 10
-8.41614797E+01
 20
3.87118978E+01
 11
-8.41614797E+01
 21
3.82118978E+01
  0
ARC
  8
0
 62
4
 10
-8.31614822E+01
 20
3.64118953E+01
 40
8.00002492E-01
 50
1.78488222E-04
 51
9.00000002E+01
  0
ARC
  8
0
 62
4
 10
-9.01631431E+01
 20
3.64135611E+01
 40
7.98338372E-01
 50
8.98806227E+01
 51
1.80119377E+02
  0
ARC
  8
0
 62
4
 10
-8.36614832E+01
 20
3.59118942E+01
 40
5.00003530E-01
 50
4.04473633E-04
 51
9.00000002E+01
  0
ARC
  8
0
 62
4
 10
-8.96631431E+01
 20
3.59135611E+01
 40
4.98339415E-01
 50
8.98087572E+01
 51
1.80191243E+02
  0
ARC
  8
0
 62
4
 10
-9.19612787E+01
 20
3.33650305E+01
 40
5.00204483E-01
 50
1.79786117E+02
 51
2.39986937E+02
  0
ARC
  8
0
 62
4
 10
-9.11626272E+01
 20
3.38292538E+01
 40
4.98858030E-01
 50
1.80270607E+02
 51
2.11850680E+02
  0
ARC
  8
0
 62
4
 10
-8.81628928E+01
 20
3.87133108E+01
 40
9.98587915E-01
 50
8.99189215E+01
 51
1.80081078E+02
  0
ARC
  8
0
 62
4
 10
-8.51617317E+01
 20
3.87116458E+01
 40
1.00025204E+00
 50
1.44352152E-02
 51
9.00000002E+01
  0
LINE
  8
0
 62
4
 10
-8.46114797E+01
 20
3.25118978E+01
 11
-8.87114797E+01
 21
3.25118978E+01
  0
LINE
  8
0
 62
4
 10
-8.56614797E+01
 20
3.28118978E+01
 11
-8.76614797E+01
 21
3.28118978E+01
  0
LINE
  8
0
 62
4
 10
-8.34114797E+01
 20
3.03118978E+01
 11
-8.46114797E+01
 21
3.03118978E+01
  0
LINE
  8
0
 62
4
 10
-8.34114797E+01
 20
3.07118978E+01
 11
-8.46114797E+01
 21
3.07118978E+01
  0
LINE
  8
0
 62
4
 10
-8.46114797E+01
 20
3.25118978E+01
 11
-8.46114797E+01
 21
2.89010978E+01
  0
LINE
  8
0
 62
4
 10
-8.56614797E+01
 20
3.28118978E+01
 11
-8.56614797E+01
 21
3.25118978E+01
  0
LINE
  8
0
 62
4
 10
-8.76614797E+01
 20
3.28118978E+01
 11
-8.76614797E+01
 21
3.25118978E+01
  0
LINE
  8
0
 62
4
 10
-8.87114797E+01
 20
3.25118978E+01
 11
-8.87114797E+01
 21
2.89010978E+01
  0
LINE
  8
0
 62
4
 10
-8.34114797E+01
 20
3.03118978E+01
 11
-8.34114797E+01
 21
2.82098978E+01
  0
LINE
  8
0
 62
6
 10
-8.54314797E+01
 20
3.56118978E+01
 11
-8.54314797E+01
 21
3.42418978E+01
  0
LINE
  8
0
 62
4
 10
-8.51614797E+01
 20
3.56118978E+01
 11
-8.51614797E+01
 21
3.45118978E+01
  0
LINE
  8
0
 62
6
 10
-8.78914797E+01
 20
3.56118978E+01
 11
-8.78914797E+01
 21
3.42418978E+01
  0
LINE
  8
0
 62
4
 10
-8.81614797E+01
 20
3.56118978E+01
 11
-8.81614797E+01
 21
3.45118978E+01
  0
LINE
  8
0
 62
4
 10
-9.09614797E+01
 20
3.22096755E+01
 11
-9.12194962E+01
 21
3.23587517E+01
  0
CIRCLE
  8
0
 62
2
 10
-8.66614797E+01
 20
2.43118978E+01
 40
1.22950000E+00
  0
LINE
  8
0
  6
CENTER
 62
2
 10
-8.66614797E+01
 20
4.08745494E+01
 11
-8.66614797E+01
 21
1.73994728E+01
  0
LINE
  8
0
  6
CENTER
 62
2
 10
-9.32671296E+01
 20
2.43118978E+01
 11
-7.98464668E+01
 21
2.43118978E+01
  0
LINE
  8
0
 62
4
 10
-8.66614797E+01
 20
1.85518978E+01
 11
-8.16614797E+01
 21
2.14218978E+01
  0
LINE
  8
0
 62
4
 10
-9.16614797E+01
 20
2.72018978E+01
 11
-8.66614797E+01
 21
3.00818978E+01
  0
LINE
  8
0
 62
4
 10
-9.16614797E+01
 20
2.72018978E+01
 11
-9.16614797E+01
 21
2.14218978E+01
  0
LINE
  8
0
 62
4
 10
-8.16614797E+01
 20
2.72018978E+01
 11
-8.16614797E+01
 21
2.14218978E+01
  0
LINE
  8
0
 62
4
 10
-9.16614797E+01
 20
2.14218978E+01
 11
-8.66614797E+01
 21
1.85518978E+01
  0
LINE
  8
0
 62
4
 10
-8.66614797E+01
 20
3.00818978E+01
 11
-8.16614797E+01
 21
2.72018978E+01
  0
LINE
  8
0
 62
4
 10
-8.66614797E+01
 20
2.11318978E+01
 11
-8.39114797E+01
 21
2.27218978E+01
  0
LINE
  8
0
 62
4
 10
-8.94114797E+01
 20
2.59018978E+01
 11
-8.66614797E+01
 21
2.74918978E+01
  0
LINE
  8
0
 62
4
 10
-8.94114797E+01
 20
2.59018978E+01
 11
-8.94114797E+01
 21
2.27218978E+01
  0
LINE
  8
0
 62
4
 10
-8.39114797E+01
 20
2.59018978E+01
 11
-8.39114797E+01
 21
2.27218978E+01
  0
LINE
  8
0
 62
4
 10
-8.94114797E+01
 20
2.27218978E+01
 11
-8.66614797E+01
 21
2.11318978E+01
  0
LINE
  8
0
 62
4
 10
-8.66614797E+01
 20
2.74918978E+01
 11
-8.39114797E+01
 21
2.59018978E+01
  0
CIRCLE
  8
0
 62
7
 10
-8.66703408E+01
 20
2.43160399E+01
 40
1.50000000E+00
  0
ARC
  8
0
 62
7
 10
-8.66677947E+01
 20
2.43175104E+01
 40
3.00449502E+00
 50
2.76427003E+02
 51
3.23536276E+02
  0
CIRCLE
  8
0
 62
4
 10
-8.66703408E+01
 20
2.43160399E+01
 40
5.00000000E+00
  0
CIRCLE
  8
0
 62
4
 10
-8.66703408E+01
 20
2.43160399E+01
 40
2.75000000E+00
  0
ARC
  8
0
 62
7
 10
-8.66706797E+01
 20
2.43158444E+01
 40
2.99438181E+00
 50
9.63426149E+01
 51
1.43620663E+02
  0
ARC
  8
0
 62
7
 10
-8.66703382E+01
 20
2.43118978E+01
 40
2.99229961E+00
 50
1.56357456E+02
 51
2.03642545E+02
  0
ARC
  8
0
 62
7
 10
-8.66670927E+01
 20
2.43141685E+01
 40
3.00095876E+00
 50
2.16434287E+02
 51
2.63602434E+02
  0
ARC
  8
0
 62
7
 10
-8.66703434E+01
 20
2.43118978E+01
 40
3.00854266E+00
 50
3.36492806E+02
 51
2.35071942E+01
  0
ARC
  8
0
 62
7
 10
-8.66642120E+01
 20
2.43124952E+01
 40
2.99792434E+00
 50
3.64089673E+01
 51
8.36277538E+01
  0
ARC
  8
0
 62
4
 10
8.93996592E+01
 20
2.43160399E+01
 40
5.00000000E+00
 50
1.35385100E+02
 51
2.74240857E+01
  0
LINE
  8
0
 62
4
 10
8.59973085E+01
 20
2.81170398E+01
 11
8.61585203E+01
 21
2.82098978E+01
  0
ARC
  8
0
 62
4
 10
8.93996592E+01
 20
2.43160399E+01
 40
5.00000000E+00
 50
1.30408117E+02
 51
1.32932131E+02
  0
LINE
  8
0
 62
4
 10
9.39322147E+01
 20
2.74762498E+01
 11
9.44085203E+01
 21
2.72018978E+01
  0
LINE
  8
0
 62
6
 10
9.06385203E+01
 20
3.77118978E+01
 11
9.06385203E+01
 21
3.72118978E+01
  0
LINE
  8
0
 62
6
 10
9.06585203E+01
 20
3.77118978E+01
 11
9.06585203E+01
 21
3.72118978E+01
  0
LINE
  8
0
 62
4
 10
9.43335203E+01
 20
3.35650342E+01
 11
9.44698977E+01
 21
3.23571196E+01
  0
LINE
  8
0
 62
4
 10
9.44388998E+01
 20
3.26316726E+01
 11
9.49585203E+01
 21
3.29318978E+01
  0
LINE
  8
0
 62
4
 10
9.44698977E+01
 20
3.23571196E+01
 11
9.37181825E+01
 21
2.55333514E+01
  0
LINE
  8
0
 62
4
 10
9.35100866E+01
 20
2.95804733E+01
 11
9.36591846E+01
 21
2.95640485E+01
  0
LINE
  8
0
 62
4
 10
9.34085203E+01
 20
2.55674642E+01
 11
9.37181825E+01
 21
2.55333514E+01
  0
LINE
  8
0
 62
4
 10
9.35100866E+01
 20
2.95804733E+01
 11
9.31970892E+01
 21
2.67392090E+01
  0
LINE
  8
0
 62
4
 10
9.39667980E+01
 20
3.23564384E+01
 11
9.33246563E+01
 21
2.65273355E+01
  0
LINE
  8
0
 62
4
 10
8.59085620E+01
 20
3.07154352E+01
 11
8.58215763E+01
 21
2.70279823E+01
  0
LINE
  8
0
 62
4
 10
8.60585203E+01
 20
3.07118978E+01
 11
8.59761685E+01
 21
2.72208826E+01
  0
CIRCLE
  8
0
 62
4
 10
8.94085203E+01
 20
3.05118978E+01
 40
1.30000000E+00
  0
LINE
  8
0
 62
4
 10
8.59085203E+01
 20
3.72118978E+01
 11
9.29085203E+01
 21
3.72118978E+01
  0
LINE
  8
0
 62
4
 10
9.29085203E+01
 20
3.59118978E+01
 11
9.29085203E+01
 21
3.00118978E+01
  0
LINE
  8
0
 62
4
 10
8.59085203E+01
 20
3.59118978E+01
 11
8.59085203E+01
 21
3.07118978E+01
  0
LINE
  8
0
 62
4
 10
9.44085203E+01
 20
3.55118978E+01
 11
9.44085203E+01
 21
3.38268978E+01
  0
LINE
  8
0
 62
4
 10
9.44085203E+01
 20
3.55118978E+01
 11
9.52085203E+01
 21
3.55118978E+01
  0
LINE
  8
0
 62
4
 10
9.16935203E+01
 20
3.64118978E+01
 11
9.15535203E+01
 21
3.56118978E+01
  0
LINE
  8
0
 62
4
 10
8.71235203E+01
 20
3.64118978E+01
 11
8.72635203E+01
 21
3.56118978E+01
  0
LINE
  8
0
 62
4
 10
9.15535203E+01
 20
3.56118978E+01
 11
8.72635203E+01
 21
3.56118978E+01
  0
LINE
  8
0
 62
4
 10
8.51085203E+01
 20
3.64118978E+01
 11
8.51085203E+01
 21
3.07118978E+01
  0
LINE
  8
0
 62
4
 10
9.37085203E+01
 20
3.00118978E+01
 11
9.37085203E+01
 21
3.64118978E+01
  0
LINE
  8
0
 62
4
 10
9.24085203E+01
 20
3.64118978E+01
 11
8.64085203E+01
 21
3.64118978E+01
  0
LINE
  8
0
 62
4
 10
9.52085203E+01
 20
3.55118978E+01
 11
9.52085203E+01
 21
3.33668978E+01
  0
LINE
  8
0
 62
4
 10
9.37085203E+01
 20
3.31358978E+01
 11
9.38683295E+01
 21
3.32285871E+01
  0
LINE
  8
0
 62
4
 10
8.60585203E+01
 20
3.59118978E+01
 11
8.60585203E+01
 21
3.07118978E+01
  0
LINE
  8
0
 62
4
 10
8.59085203E+01
 20
3.59118978E+01
 11
8.60585203E+01
 21
3.59118978E+01
  0
LINE
  8
0
 62
4
 10
8.61585203E+01
 20
3.42118978E+01
 11
9.26585203E+01
 21
3.42118978E+01
  0
LINE
  8
0
 62
4
 10
9.26585203E+01
 20
3.42118978E+01
 11
9.26585203E+01
 21
2.77118978E+01
  0
LINE
  8
0
 62
4
 10
8.61585203E+01
 20
3.42118978E+01
 11
8.61585203E+01
 21
3.07118978E+01
  0
LINE
  8
0
 62
4
 10
8.61585203E+01
 20
3.35118978E+01
 11
9.26585203E+01
 21
3.35118978E+01
  0
LINE
  8
0
 62
4
 10
9.38335203E+01
 20
3.60368978E+01
 11
9.38335203E+01
 21
3.35368978E+01
  0
LINE
  8
0
 62
4
 10
9.43335203E+01
 20
3.60368978E+01
 11
9.43335203E+01
 21
3.35661789E+01
  0
LINE
  8
0
 62
4
 10
9.38335203E+01
 20
3.60368978E+01
 11
9.43335203E+01
 21
3.60368978E+01
  0
LINE
  8
0
 62
4
 10
9.38335203E+01
 20
3.35368978E+01
 11
9.39673459E+01
 21
3.23515852E+01
  0
LINE
  8
0
 62
4
 10
8.51085203E+01
 20
3.07118978E+01
 11
8.59085203E+01
 21
3.07118978E+01
  0
LINE
  8
0
 62
4
 10
9.29085203E+01
 20
3.00118978E+01
 11
9.37085203E+01
 21
3.00118978E+01
  0
LINE
  8
0
 62
4
 10
8.79085203E+01
 20
3.82118978E+01
 11
8.79085203E+01
 21
3.72118978E+01
  0
LINE
  8
0
 62
6
 10
8.81785203E+01
 20
3.77118978E+01
 11
8.81785203E+01
 21
3.72118978E+01
  0
LINE
  8
0
 62
4
 10
8.79085203E+01
 20
3.77118978E+01
 11
9.09085203E+01
 21
3.77118978E+01
  0
LINE
  8
0
 62
4
 10
8.79085203E+01
 20
3.45118978E+01
 11
8.82085203E+01
 21
3.42118978E+01
  0
LINE
  8
0
 62
4
 10
9.09085203E+01
 20
3.82118978E+01
 11
9.09085203E+01
 21
3.72118978E+01
  0
LINE
  8
0
 62
4
 10
9.09085203E+01
 20
3.45118978E+01
 11
9.06085203E+01
 21
3.42118978E+01
  0
LINE
  8
0
 62
4
 10
8.69085203E+01
 20
3.82118978E+01
 11
9.19085203E+01
 21
3.82118978E+01
  0
LINE
  8
0
 62
4
 10
9.19085203E+01
 20
3.87118978E+01
 11
9.19085203E+01
 21
3.82118978E+01
  0
LINE
  8
0
 62
4
 10
8.79085203E+01
 20
3.97118978E+01
 11
9.09085203E+01
 21
3.97118978E+01
  0
LINE
  8
0
 62
4
 10
8.69085203E+01
 20
3.87118978E+01
 11
8.69085203E+01
 21
3.82118978E+01
  0
ARC
  8
0
 62
4
 10
8.59085228E+01
 20
3.64118953E+01
 40
8.00002492E-01
 50
9.00000002E+01
 51
1.79999822E+02
  0
ARC
  8
0
 62
4
 10
9.29101836E+01
 20
3.64135611E+01
 40
7.98338372E-01
 50
3.59880623E+02
 51
9.01193777E+01
  0
ARC
  8
0
 62
4
 10
8.64085238E+01
 20
3.59118942E+01
 40
5.00003530E-01
 50
9.00000002E+01
 51
1.79999595E+02
  0
ARC
  8
0
 62
4
 10
9.24101836E+01
 20
3.59135611E+01
 40
4.98339415E-01
 50
3.59808757E+02
 51
9.01912426E+01
  0
ARC
  8
0
 62
4
 10
9.47083193E+01
 20
3.33650305E+01
 40
5.00204483E-01
 50
3.00013063E+02
 51
2.13883296E-01
  0
ARC
  8
0
 62
4
 10
9.39096678E+01
 20
3.38292538E+01
 40
4.98858030E-01
 50
3.28149320E+02
 51
3.59729393E+02
  0
ARC
  8
0
 62
4
 10
9.09099334E+01
 20
3.87133108E+01
 40
9.98587915E-01
 50
3.59918921E+02
 51
9.00810783E+01
  0
ARC
  8
0
 62
4
 10
8.79087723E+01
 20
3.87116458E+01
 40
1.00025204E+00
 50
9.00000002E+01
 51
1.79985565E+02
  0
LINE
  8
0
 62
4
 10
8.73585203E+01
 20
2.85118978E+01
 11
9.14585203E+01
 21
2.85118978E+01
  0
LINE
  8
0
 62
4
 10
8.73585203E+01
 20
3.25118978E+01
 11
9.14585203E+01
 21
3.25118978E+01
  0
LINE
  8
0
 62
4
 10
8.84085203E+01
 20
3.28118978E+01
 11
9.04085203E+01
 21
3.28118978E+01
  0
LINE
  8
0
 62
4
 10
8.61585203E+01
 20
3.03118978E+01
 11
8.73585203E+01
 21
3.03118978E+01
  0
LINE
  8
0
 62
4
 10
8.61585203E+01
 20
3.07118978E+01
 11
8.73585203E+01
 21
3.07118978E+01
  0
LINE
  8
0
 62
4
 10
8.81085203E+01
 20
2.92118978E+01
 11
9.07085203E+01
 21
2.92118978E+01
  0
LINE
  8
0
 62
4
 10
8.81085203E+01
 20
3.18118978E+01
 11
9.07085203E+01
 21
3.18118978E+01
  0
LINE
  8
0
 62
4
 10
8.81085203E+01
 20
2.92118978E+01
 11
8.73585203E+01
 21
2.85118978E+01
  0
LINE
  8
0
 62
4
 10
8.73585203E+01
 20
3.25118978E+01
 11
8.81085203E+01
 21
3.18118978E+01
  0
LINE
  8
0
 62
4
 10
8.81085203E+01
 20
3.18118978E+01
 11
8.81085203E+01
 21
2.92118978E+01
  0
LINE
  8
0
 62
4
 10
8.73585203E+01
 20
3.25118978E+01
 11
8.73585203E+01
 21
2.85118978E+01
  0
LINE
  8
0
 62
4
 10
8.84085203E+01
 20
2.85118978E+01
 11
8.84085203E+01
 21
2.83118978E+01
  0
LINE
  8
0
 62
4
 10
8.84085203E+01
 20
3.28118978E+01
 11
8.84085203E+01
 21
3.25118978E+01
  0
LINE
  8
0
 62
4
 10
9.07085203E+01
 20
2.92118978E+01
 11
9.14585203E+01
 21
2.85118978E+01
  0
LINE
  8
0
 62
4
 10
9.07085203E+01
 20
3.18118978E+01
 11
9.14585203E+01
 21
3.25118978E+01
  0
LINE
  8
0
 62
4
 10
9.07085203E+01
 20
3.18118978E+01
 11
9.07085203E+01
 21
2.92118978E+01
  0
LINE
  8
0
 62
4
 10
9.04085203E+01
 20
2.85118978E+01
 11
9.04085203E+01
 21
2.83118978E+01
  0
LINE
  8
0
 62
4
 10
9.04085203E+01
 20
3.28118978E+01
 11
9.04085203E+01
 21
3.25118978E+01
  0
LINE
  8
0
 62
4
 10
9.14585203E+01
 20
3.25118978E+01
 11
9.14585203E+01
 21
2.85118978E+01
  0
LINE
  8
0
 62
4
 10
8.63029578E+01
 20
2.75674603E+01
 11
8.61585203E+01
 21
2.77118978E+01
  0
LINE
  8
0
 62
4
 10
9.25143410E+01
 20
2.75677185E+01
 11
9.26585203E+01
 21
2.77118978E+01
  0
LINE
  8
0
 62
4
 10
8.61585203E+01
 20
3.03118978E+01
 11
8.61585203E+01
 21
2.77118978E+01
  0
LINE
  8
0
 62
6
 10
8.81785203E+01
 20
3.56118978E+01
 11
8.81785203E+01
 21
3.42418978E+01
  0
LINE
  8
0
 62
4
 10
8.79085203E+01
 20
3.56118978E+01
 11
8.79085203E+01
 21
3.45118978E+01
  0
LINE
  8
0
 62
6
 10
9.06385203E+01
 20
3.56118978E+01
 11
9.06385203E+01
 21
3.42418978E+01
  0
LINE
  8
0
 62
4
 10
9.09085203E+01
 20
3.56118978E+01
 11
9.09085203E+01
 21
3.45118978E+01
  0
LINE
  8
0
 62
4
 10
9.37085203E+01
 20
3.22096755E+01
 11
9.39665368E+01
 21
3.23587517E+01
  0
ARC
  8
0
 62
4
 10
8.93996592E+01
 20
2.43160399E+01
 40
5.00000000E+00
 50
3.91377681E+01
 51
4.93246469E+01
  0
LINE
  8
0
 62
4
 10
8.44085203E+01
 20
2.72018978E+01
 11
8.58452000E+01
 21
2.80294253E+01
  0
LINE
  8
0
 62
4
 10
8.44085203E+01
 20
2.72018978E+01
 11
8.44085203E+01
 21
2.14218978E+01
  0
LINE
  8
0
 62
4
 10
8.44085203E+01
 20
2.14218978E+01
 11
8.94085203E+01
 21
1.85518978E+01
  0
LINE
  8
0
 62
4
 10
8.94085203E+01
 20
1.85518978E+01
 11
9.44085203E+01
 21
2.14218978E+01
  0
LINE
  8
0
 62
4
 10
9.44085203E+01
 20
2.72018978E+01
 11
9.44085203E+01
 21
2.14218978E+01
  0
LINE
  8
0
 62
4
 10
9.26585203E+01
 20
2.82098978E+01
 11
9.33173006E+01
 21
2.78304403E+01
  0
CIRCLE
  8
0
 62
4
 10
8.94085203E+01
 20
2.43118978E+01
 40
2.06700000E+00
  0
LINE
  8
0
  6
CENTER
 62
2
 10
8.28801504E+01
 20
2.43118978E+01
 11
9.60211778E+01
 21
2.43118978E+01
  0
LINE
  8
0
  6
CENTER
 62
2
 10
8.94085203E+01
 20
4.12690773E+01
 11
8.94085203E+01
 21
1.70709446E+01
  0
LINE
  8
0
 62
4
 10
9.34085203E+01
 20
2.63718978E+01
 11
9.34085203E+01
 21
2.22518978E+01
  0
LINE
  8
0
 62
4
 10
8.54085203E+01
 20
2.63718978E+01
 11
8.54085203E+01
 21
2.22518978E+01
  0
LINE
  8
0
 62
4
 10
8.73485203E+01
 20
2.03218978E+01
 11
9.14685203E+01
 21
2.03218978E+01
  0
LINE
  8
0
 62
4
 10
8.73485203E+01
 20
2.83118978E+01
 11
9.14685203E+01
 21
2.83118978E+01
  0
CIRCLE
  8
0
 62
4
 10
8.94139640E+01
 20
2.43160399E+01
 40
4.00000000E+00
  0
CIRCLE
  8
0
 62
6
 10
8.94139640E+01
 20
2.43160399E+01
 40
2.50000000E+00
  0
ARC
  8
0
 62
4
 10
8.94029675E+01
 20
2.43270157E+01
 40
4.50130242E+00
 50
2.07451906E+02
 51
2.42844195E+02
  0
ARC
  8
0
 62
4
 10
8.94091745E+01
 20
2.43112435E+01
 40
4.50017000E+00
 50
1.17252059E+02
 51
1.52747941E+02
  0
ARC
  8
0
 62
4
 10
8.94133132E+01
 20
2.43166906E+01
 40
4.49283388E+00
 50
2.72221128E+01
 51
6.27778873E+01
  0
ARC
  8
0
 62
4
 10
8.94195021E+01
 20
2.43215586E+01
 40
4.49396953E+00
 50
2.97125972E+02
 51
3.32577926E+02
  0
LINE
  8
0
  6
CENTER
 62
6
 10
8.97852029E+00
 20
7.45836312E+01
 11
8.97852029E+00
 21
6.01710777E+01
  0
LINE
  8
0
  6
CENTER
 62
6
 10
-6.63932074E+00
 20
6.64044643E+01
 11
3.08524972E+01
 21
6.64044643E+01
  0
LINE
  8
0
 62
4
 10
-3.52147971E+00
 20
6.54899620E+01
 11
-2.52147971E+00
 21
6.44899620E+01
  0
LINE
  8
0
 62
4
 10
1.34785203E+01
 20
6.21899620E+01
 11
1.34785203E+01
 21
7.15925121E+01
  0
LINE
  8
0
 62
4
 10
4.47852029E+00
 20
6.21899620E+01
 11
4.47852029E+00
 21
7.15925121E+01
  0
LINE
  8
0
 62
4
 10
1.97852029E+00
 20
6.32399620E+01
 11
1.97852029E+00
 21
6.97399620E+01
  0
LINE
  8
0
 62
4
 10
2.14785203E+01
 20
6.84899620E+01
 11
2.14785203E+01
 21
6.44899620E+01
  0
LINE
  8
0
 62
4
 10
-2.52147971E+00
 20
6.84899620E+01
 11
-2.52147971E+00
 21
6.44899620E+01
  0
LINE
  8
0
 62
4
 10
1.59785203E+01
 20
6.32399620E+01
 11
1.59785203E+01
 21
6.97399620E+01
  0
LINE
  8
0
 62
4
 10
2.44785203E+01
 20
6.77899620E+01
 11
2.94155194E+01
 21
6.77899620E+01
  0
LINE
  8
0
 62
4
 10
2.14785203E+01
 20
6.44899620E+01
 11
2.44785203E+01
 21
6.51899620E+01
  0
LINE
  8
0
 62
6
 10
2.94155194E+01
 20
6.77899620E+01
 11
2.68155194E+01
 21
6.51899620E+01
  0
LINE
  8
0
 62
4
 10
2.14785203E+01
 20
6.84899620E+01
 11
2.44785203E+01
 21
6.77899620E+01
  0
LINE
  8
0
 62
4
 10
2.44785203E+01
 20
6.77899620E+01
 11
2.44785203E+01
 21
6.51899620E+01
  0
LINE
  8
0
 62
4
 10
2.44785203E+01
 20
6.51899620E+01
 11
2.68155194E+01
 21
6.51899620E+01
  0
LINE
  8
0
 62
4
 10
-3.52147971E+00
 20
6.74899620E+01
 11
-3.52147971E+00
 21
6.54899620E+01
  0
LINE
  8
0
 62
4
 10
1.59785203E+01
 20
6.84899620E+01
 11
2.14785203E+01
 21
6.84899620E+01
  0
LINE
  8
0
 62
4
 10
-2.52147971E+00
 20
6.84899620E+01
 11
1.97852029E+00
 21
6.84899620E+01
  0
LINE
  8
0
 62
4
 10
9.98595370E+00
 20
6.54018978E+01
 11
7.91595370E+00
 21
6.74618978E+01
  0
LINE
  8
0
 62
4
 10
8.00909110E+00
 20
6.54350352E+01
 11
1.00359537E+01
 21
6.74618978E+01
  0
LINE
  8
0
 62
4
 10
-3.52147971E+00
 20
6.74899620E+01
 11
-2.52147971E+00
 21
6.84899620E+01
  0
LINE
  8
0
 62
4
 10
4.47852031E+00
 20
7.14899620E+01
 11
1.34785203E+01
 21
7.14899620E+01
  0
LINE
  8
0
 62
4
 10
1.09785203E+01
 20
7.15925121E+01
 11
1.34785203E+01
 21
7.15925121E+01
  0
LINE
  8
0
 62
4
 10
6.97852029E+00
 20
7.22899620E+01
 11
1.09785203E+01
 21
7.22899620E+01
  0
LINE
  8
0
 62
4
 10
4.47852028E+00
 20
7.15925121E+01
 11
6.97852029E+00
 21
7.15925121E+01
  0
LINE
  8
0
 62
4
 10
4.47852028E+00
 20
7.09149620E+01
 11
1.34785203E+01
 21
7.09149620E+01
  0
LINE
  8
0
 62
4
 10
4.47852029E+00
 20
7.07899620E+01
 11
1.34785203E+01
 21
7.07899620E+01
  0
LINE
  8
0
 62
4
 10
1.09785203E+01
 20
7.22899620E+01
 11
1.09785203E+01
 21
7.14899620E+01
  0
LINE
  8
0
 62
4
 10
6.97852029E+00
 20
7.14899620E+01
 11
6.97852029E+00
 21
7.22899620E+01
  0
LINE
  8
0
 62
4
 10
1.34785203E+01
 20
6.97399620E+01
 11
1.59785203E+01
 21
6.97399620E+01
  0
LINE
  8
0
 62
4
 10
1.97852029E+00
 20
6.97399620E+01
 11
4.47852029E+00
 21
6.97399620E+01
  0
LINE
  8
0
 62
4
 10
-2.52147971E+00
 20
6.44899620E+01
 11
1.97852029E+00
 21
6.44899620E+01
  0
LINE
  8
0
 62
4
 10
1.97852029E+00
 20
6.32399620E+01
 11
4.47852029E+00
 21
6.32399620E+01
  0
LINE
  8
0
 62
4
 10
4.47852028E+00
 20
6.21899620E+01
 11
1.34785203E+01
 21
6.21899620E+01
  0
LINE
  8
0
 62
4
 10
1.34785203E+01
 20
6.32399620E+01
 11
1.59785203E+01
 21
6.32399620E+01
  0
LINE
  8
0
 62
4
 10
1.59785203E+01
 20
6.44899620E+01
 11
2.14785203E+01
 21
6.44899620E+01
  0
CIRCLE
  8
0
 62
4
 10
8.97852029E+00
 20
6.64095851E+01
 40
2.50000000E+00
  0
CIRCLE
  8
0
 62
4
 10
-9.74170191E+01
 20
-4.84676511E+01
 40
3.00000000E+00
  0
LINE
  8
0
 62
4
 10
-8.14170191E+01
 20
-5.58676511E+01
 11
-9.21970191E+01
 21
-4.38076511E+01
  0
LINE
  8
0
  6
CENTER
 62
6
 10
-9.74170191E+01
 20
-4.27178530E+01
 11
-9.74170191E+01
 21
-5.45113350E+01
  0
LINE
  8
0
 62
4
 10
-1.13417019E+02
 20
-5.58676511E+01
 11
-1.02637019E+02
 21
-4.38076511E+01
  0
LINE
  8
0
  6
CENTER
 62
6
 10
-1.03030964E+02
 20
-4.84676511E+01
 11
-9.18346201E+01
 21
-4.84676511E+01
  0
LINE
  8
0
 62
4
 10
-1.13417019E+02
 20
-5.58676511E+01
 11
-8.14170191E+01
 21
-5.58676511E+01
  0
LINE
  8
0
 62
4
 10
-1.13417019E+02
 20
-5.74576511E+01
 11
-8.14170191E+01
 21
-5.74576511E+01
  0
LINE
  8
0
 62
4
 10
-8.14170191E+01
 20
-5.58676511E+01
 11
-8.14170191E+01
 21
-5.74576511E+01
  0
LINE
  8
0
  6
CENTER
 62
6
 10
-1.08517019E+02
 20
-5.94718522E+01
 11
-1.08517019E+02
 21
-5.39141967E+01
  0
LINE
  8
0
  6
CENTER
 62
6
 10
-8.63170191E+01
 20
-5.94718522E+01
 11
-8.63170191E+01
 21
-5.36156275E+01
  0
LINE
  8
0
 62
4
 10
-1.13417019E+02
 20
-5.58676511E+01
 11
-1.13417019E+02
 21
-5.74576511E+01
  0
ARC
  8
0
 62
4
 10
-9.74170191E+01
 20
-4.84626542E+01
 40
6.99410138E+00
 50
4.17254003E+01
 51
1.38274600E+02
  0
LINE
  8
0
  6
CENTER
 62
6
 10
-6.64170191E+01
 20
-5.36156276E+01
 11
-6.64170191E+01
 21
-5.94718522E+01
  0
LINE
  8
0
  6
CENTER
 62
6
 10
-6.34430659E+01
 20
-4.84676511E+01
 11
-5.74970991E+01
 21
-4.84676511E+01
  0
LINE
  8
0
 62
4
 10
-5.94170191E+01
 20
-4.14576511E+01
 11
-5.94170191E+01
 21
-5.48576511E+01
  0
ARC
  8
0
 62
4
 10
-6.20201914E+01
 20
-5.48544789E+01
 40
2.60317420E+00
 50
2.70069822E+02
 51
3.59930178E+02
  0
LINE
  8
0
 62
4
 10
-7.14170191E+01
 20
-5.74576511E+01
 11
-6.20170191E+01
 21
-5.74576511E+01
  0
LINE
  8
0
 62
4
 10
-7.14170191E+01
 20
-5.58576511E+01
 11
-7.14170191E+01
 21
-5.74576511E+01
  0
LINE
  8
0
 62
4
 10
-7.14170191E+01
 20
-5.58576511E+01
 11
-6.20170191E+01
 21
-5.58576511E+01
  0
ARC
  8
0
 62
4
 10
-6.20201904E+01
 20
-5.48544798E+01
 40
1.00317633E+00
 50
2.70181129E+02
 51
3.59818872E+02
  0
LINE
  8
0
 62
4
 10
-6.10170191E+01
 20
-4.14576511E+01
 11
-6.10170191E+01
 21
-5.48576511E+01
  0
LINE
  8
0
 62
4
 10
-6.10170191E+01
 20
-4.14576511E+01
 11
-5.94170191E+01
 21
-4.14576511E+01
  0
LINE
  8
0
 62
4
 10
-6.43170191E+01
 20
-5.58576511E+01
 11
-6.43170191E+01
 21
-5.74576511E+01
  0
LINE
  8
0
 62
4
 10
-6.85170191E+01
 20
-5.58576511E+01
 11
-6.85170191E+01
 21
-5.74576511E+01
  0
LINE
  8
0
  6
CENTER
 62
6
 10
-9.74170191E+01
 20
-1.20676511E+01
 11
-9.74170191E+01
 21
-2.66976511E+01
  0
LINE
  8
0
  6
CENTER
 62
6
 10
-8.63170191E+01
 20
-2.36258018E+01
 11
-8.63170191E+01
 21
-1.73558493E+01
  0
LINE
  8
0
  6
CENTER
 62
6
 10
-1.08517019E+02
 20
-2.39243710E+01
 11
-1.08517019E+02
 21
-1.74576511E+01
  0
LINE
  8
0
 62
4
 10
-1.13417019E+02
 20
-1.50576511E+01
 11
-8.14170191E+01
 21
-1.50576511E+01
  0
LINE
  8
0
 62
4
 10
-1.13417019E+02
 20
-1.34576511E+01
 11
-1.13417019E+02
 21
-1.83576511E+01
  0
LINE
  8
0
 62
4
 10
-8.14170191E+01
 20
-1.34576511E+01
 11
-8.14170191E+01
 21
-1.83576511E+01
  0
LINE
  8
0
 62
4
 10
-1.13417019E+02
 20
-1.34576511E+01
 11
-8.14170191E+01
 21
-1.34576511E+01
  0
LINE
  8
0
 62
4
 10
-1.13417019E+02
 20
-2.54576511E+01
 11
-8.14170191E+01
 21
-2.54576511E+01
  0
LINE
  8
0
  6
CENTER
 62
6
 10
-1.11390900E+02
 20
-2.04576511E+01
 11
-8.36239680E+01
 21
-2.04576511E+01
  0
LINE
  8
0
 62
4
 10
-1.13417019E+02
 20
-1.83576511E+01
 11
-1.08517019E+02
 21
-1.83576511E+01
  0
LINE
  8
0
 62
4
 10
-1.13417019E+02
 20
-2.25576511E+01
 11
-1.08517019E+02
 21
-2.25576511E+01
  0
LINE
  8
0
 62
4
 10
-8.63170191E+01
 20
-1.83576511E+01
 11
-8.14170191E+01
 21
-1.83576511E+01
  0
LINE
  8
0
 62
4
 10
-8.63170191E+01
 20
-2.25576511E+01
 11
-8.14170191E+01
 21
-2.25576511E+01
  0
LINE
  8
0
 62
4
 10
-8.14170191E+01
 20
-2.25576511E+01
 11
-8.14170191E+01
 21
-2.54576511E+01
  0
LINE
  8
0
 62
4
 10
-1.13417019E+02
 20
-2.25576511E+01
 11
-1.13417019E+02
 21
-2.54576511E+01
  0
ARC
  8
0
 62
4
 10
-8.63240693E+01
 20
-2.04576511E+01
 40
2.10001183E+00
 50
8.98076456E+01
 51
2.70192355E+02
  0
ARC
  8
0
 62
4
 10
-1.08524066E+02
 20
-2.04576511E+01
 40
2.10001182E+00
 50
2.70192271E+02
 51
8.98077287E+01
  0
LINE
  8
0
  6
CENTER
 62
6
 10
7.79699048E+00
 20
-4.57245018E+01
 11
7.79699048E+00
 21
-5.14843365E+01
  0
LINE
  8
0
  6
CENTER
 62
6
 10
-1.44030095E+01
 20
-4.57245018E+01
 11
-1.44030095E+01
 21
-5.14843365E+01
  0
LINE
  8
0
 62
4
 10
-1.93030095E+01
 20
-4.14676511E+01
 11
-1.93030095E+01
 21
-4.63676511E+01
  0
CIRCLE
  8
0
 62
4
 10
-3.30300952E+00
 20
-4.84676511E+01
 40
3.00000000E+00
  0
LINE
  8
0
  6
CENTER
 62
6
 10
-3.30300952E+00
 20
-4.32823283E+01
 11
-3.30300952E+00
 21
-5.41096698E+01
  0
LINE
  8
0
 62
4
 10
1.26969905E+01
 20
-4.14676511E+01
 11
1.26969905E+01
 21
-4.63676511E+01
  0
LINE
  8
0
  6
CENTER
 62
6
 10
-1.64211693E+01
 20
-4.84676511E+01
 11
9.86802274E+00
 21
-4.84676511E+01
  0
LINE
  8
0
 62
4
 10
-1.93030095E+01
 20
-5.05676511E+01
 11
-1.44030095E+01
 21
-5.05676511E+01
  0
LINE
  8
0
 62
4
 10
-1.93030095E+01
 20
-4.63676511E+01
 11
-1.44030095E+01
 21
-4.63676511E+01
  0
LINE
  8
0
 62
4
 10
7.79699048E+00
 20
-5.05676511E+01
 11
1.26969905E+01
 21
-5.05676511E+01
  0
LINE
  8
0
 62
4
 10
7.79699048E+00
 20
-4.63676511E+01
 11
1.26969905E+01
 21
-4.63676511E+01
  0
LINE
  8
0
 62
4
 10
-1.93030095E+01
 20
-5.54676511E+01
 11
1.26969905E+01
 21
-5.54676511E+01
  0
LINE
  8
0
 62
4
 10
-1.93030095E+01
 20
-4.14676511E+01
 11
1.26969905E+01
 21
-4.14676511E+01
  0
LINE
  8
0
 62
4
 10
1.26969905E+01
 20
-5.05676511E+01
 11
1.26969905E+01
 21
-5.54676511E+01
  0
LINE
  8
0
 62
4
 10
-1.93030095E+01
 20
-5.05676511E+01
 11
-1.93030095E+01
 21
-5.54676511E+01
  0
ARC
  8
0
 62
4
 10
7.79699048E+00
 20
-4.84676511E+01
 40
2.10000000E+00
 50
9.00000002E+01
 51
2.70000000E+02
  0
ARC
  8
0
 62
4
 10
-1.44030095E+01
 20
-4.84676511E+01
 40
2.10000000E+00
 50
2.70000000E+02
 51
9.00000002E+01
  0
LINE
  8
0
 62
4
 10
4.26969905E+01
 20
-4.63676511E+01
 11
4.42969905E+01
 21
-4.63676511E+01
  0
LINE
  8
0
 62
4
 10
4.26969905E+01
 20
-5.54676511E+01
 11
4.42969905E+01
 21
-5.54676511E+01
  0
LINE
  8
0
 62
4
 10
4.26969905E+01
 20
-5.05676511E+01
 11
4.42969905E+01
 21
-5.05676511E+01
  0
LINE
  8
0
 62
4
 10
4.26969905E+01
 20
-4.14676511E+01
 11
4.26969905E+01
 21
-5.54676511E+01
  0
LINE
  8
0
 62
4
 10
4.42969905E+01
 20
-4.14676511E+01
 11
4.42969905E+01
 21
-5.54676511E+01
  0
LINE
  8
0
 62
4
 10
4.26969905E+01
 20
-4.14676511E+01
 11
4.42969905E+01
 21
-4.14676511E+01
  0
LINE
  8
0
  6
CENTER
 62
6
 10
4.04779556E+01
 20
-4.84676511E+01
 11
4.64955294E+01
 21
-4.84676511E+01
  0
LINE
  8
0
  6
CENTER
 62
6
 10
7.79699048E+00
 20
-2.62910961E+01
 11
7.79699048E+00
 21
-2.13358759E+01
  0
LINE
  8
0
  6
CENTER
 62
6
 10
-1.44030095E+01
 20
-2.61833740E+01
 11
-1.44030095E+01
 21
-2.12281537E+01
  0
LINE
  8
0
 62
4
 10
1.26969905E+01
 20
-2.28676511E+01
 11
1.26969905E+01
 21
-2.44676511E+01
  0
LINE
  8
0
 62
4
 10
-1.93030095E+01
 20
-2.28676511E+01
 11
1.26969905E+01
 21
-2.28676511E+01
  0
LINE
  8
0
 62
4
 10
-1.93030095E+01
 20
-2.44676511E+01
 11
1.26969905E+01
 21
-2.44676511E+01
  0
LINE
  8
0
 62
4
 10
-1.93030095E+01
 20
-2.28676511E+01
 11
-1.93030095E+01
 21
-2.44676511E+01
  0
LINE
  8
0
  6
CENTER
 62
6
 10
-3.30300952E+00
 20
-2.61833740E+01
 11
-3.30300952E+00
 21
-2.12281537E+01
  0
TEXT
  8
0
 62
7
 10
-1.03849994E+02
 20
-8.24000031E+01
 40
3.20000005E+00
  1
5
 41
1.00000000E+00
  7
MONOTXT
  0
TEXT
  8
0
 62
7
 10
-1.07049994E+02
 20
-8.84000031E+01
 40
3.20000005E+00
  1
-50
 41
1.00000000E+00
  7
MONOTXT
  0
TEXT
  8
0
 62
7
 10
-9.58499939E+01
 20
-8.24000031E+01
 40
3.20000005E+00
  1
10
 41
1.00000000E+00
  7
MONOTXT
  0
TEXT
  8
0
 62
7
 10
-9.74499940E+01
 20
-8.84000031E+01
 40
3.20000005E+00
  1
-45
 41
1.00000000E+00
  7
MONOTXT
  0
TEXT
  8
0
 62
7
 10
-8.62499939E+01
 20
-8.24000031E+01
 40
3.20000005E+00
  1
15
 41
1.00000000E+00
  7
MONOTXT
  0
TEXT
  8
0
 62
7
 10
-8.78499940E+01
 20
-8.84000031E+01
 40
3.20000005E+00
  1
-40
 41
1.00000000E+00
  7
MONOTXT
  0
TEXT
  8
0
 62
7
 10
-7.66499939E+01
 20
-8.24000031E+01
 40
3.20000005E+00
  1
20
 41
1.00000000E+00
  7
MONOTXT
  0
TEXT
  8
0
 62
7
 10
-7.82499940E+01
 20
-8.84000031E+01
 40
3.20000005E+00
  1
-30
 41
1.00000000E+00
  7
MONOTXT
  0
TEXT
  8
0
 62
7
 10
-6.70499939E+01
 20
-8.24000031E+01
 40
3.20000005E+00
  1
25
 41
1.00000000E+00
  7
MONOTXT
  0
TEXT
  8
0
 62
7
 10
-6.86499940E+01
 20
-8.84000031E+01
 40
3.20000005E+00
  1
-25
 41
1.00000000E+00
  7
MONOTXT
  0
TEXT
  8
0
 62
7
 10
-5.74499939E+01
 20
-8.24000031E+01
 40
3.20000005E+00
  1
30
 41
1.00000000E+00
  7
MONOTXT
  0
TEXT
  8
0
 62
7
 10
-5.90499940E+01
 20
-8.84000031E+01
 40
3.20000005E+00
  1
-20
 41
1.00000000E+00
  7
MONOTXT
  0
TEXT
  8
0
 62
7
 10
-4.78499939E+01
 20
-8.24000031E+01
 40
3.20000005E+00
  1
35
 41
1.00000000E+00
  7
MONOTXT
  0
TEXT
  8
0
 62
7
 10
-4.62499939E+01
 20
-8.84000031E+01
 40
3.20000005E+00
  1
0
 41
1.00000000E+00
  7
MONOTXT
  0
TEXT
  8
0
 62
7
 10
-3.82499939E+01
 20
-8.24000031E+01
 40
3.20000005E+00
  1
40
 41
1.00000000E+00
  7
MONOTXT
  0
TEXT
  8
0
 62
7
 10
-3.66499939E+01
 20
-8.84000031E+01
 40
3.20000005E+00
  1
5
 41
1.00000000E+00
  7
MONOTXT
  0
TEXT
  8
0
 62
7
 10
-2.86499939E+01
 20
-8.24000031E+01
 40
3.20000005E+00
  1
45
 41
1.00000000E+00
  7
MONOTXT
  0
TEXT
  8
0
 62
7
 10
-2.86499939E+01
 20
-8.84000031E+01
 40
3.20000005E+00
  1
10
 41
1.00000000E+00
  7
MONOTXT
  0
TEXT
  8
0
 62
7
 10
-1.90499939E+01
 20
-8.24000031E+01
 40
3.20000005E+00
  1
50
 41
1.00000000E+00
  7
MONOTXT
  0
TEXT
  8
0
 62
7
 10
-1.90499939E+01
 20
-8.84000031E+01
 40
3.20000005E+00
  1
15
 41
1.00000000E+00
  7
MONOTXT
  0
TEXT
  8
0
 62
7
 10
-9.44999392E+00
 20
-8.24000031E+01
 40
3.20000005E+00
  1
55
 41
1.00000000E+00
  7
MONOTXT
  0
TEXT
  8
0
 62
7
 10
-9.44999392E+00
 20
-8.84000031E+01
 40
3.20000005E+00
  1
20
 41
1.00000000E+00
  7
MONOTXT
  0
TEXT
  8
0
 62
7
 10
1.50006081E-01
 20
-8.24000031E+01
 40
3.20000005E+00
  1
60
 41
1.00000000E+00
  7
MONOTXT
  0
TEXT
  8
0
 62
7
 10
1.50006081E-01
 20
-8.84000031E+01
 40
3.20000005E+00
  1
25
 41
1.00000000E+00
  7
MONOTXT
  0
LINE
  8
0
 62
7
 10
-1.33399994E+02
 20
-8.98000031E+01
 11
7.80000610E+00
 21
-8.98000031E+01
  0
LINE
  8
0
 62
7
 10
-1.33399994E+02
 20
-8.98000031E+01
 11
-1.33399994E+02
 21
-7.78000031E+01
  0
LINE
  8
0
 62
7
 10
-1.33399994E+02
 20
-8.38000031E+01
 11
7.80000610E+00
 21
-8.38000031E+01
  0
LINE
  8
0
 62
7
 10
-1.07399994E+02
 20
-8.98000031E+01
 11
-1.07399994E+02
 21
-7.78000031E+01
  0
LINE
  8
0
 62
7
 10
-9.77999939E+01
 20
-8.98000031E+01
 11
-9.77999939E+01
 21
-7.78000031E+01
  0
LINE
  8
0
 62
7
 10
-1.33399994E+02
 20
-7.78000031E+01
 11
7.80000610E+00
 21
-7.78000031E+01
  0
TEXT
  8
0
 62
7
 10
-1.03849994E+02
 20
-8.24000031E+01
 40
3.20000005E+00
  1
5
 41
1.00000000E+00
  7
MONOTXT
  0
LINE
  8
0
 62
7
 10
-8.81999939E+01
 20
-8.98000031E+01
 11
-8.81999939E+01
 21
-7.78000031E+01
  0
TEXT
  8
0
 62
7
 10
-9.58499939E+01
 20
-8.24000031E+01
 40
3.20000005E+00
  1
10
 41
1.00000000E+00
  7
MONOTXT
  0
LINE
  8
0
 62
7
 10
-7.85999939E+01
 20
-8.98000031E+01
 11
-7.85999939E+01
 21
-7.78000031E+01
  0
TEXT
  8
0
 62
7
 10
-8.62499939E+01
 20
-8.24000031E+01
 40
3.20000005E+00
  1
15
 41
1.00000000E+00
  7
MONOTXT
  0
LINE
  8
0
 62
7
 10
-6.89999939E+01
 20
-8.98000031E+01
 11
-6.89999939E+01
 21
-7.78000031E+01
  0
TEXT
  8
0
 62
7
 10
-7.66499939E+01
 20
-8.24000031E+01
 40
3.20000005E+00
  1
20
 41
1.00000000E+00
  7
MONOTXT
  0
LINE
  8
0
 62
7
 10
-5.93999939E+01
 20
-8.98000031E+01
 11
-5.93999939E+01
 21
-7.78000031E+01
  0
TEXT
  8
0
 62
7
 10
-6.70499939E+01
 20
-8.24000031E+01
 40
3.20000005E+00
  1
25
 41
1.00000000E+00
  7
MONOTXT
  0
LINE
  8
0
 62
7
 10
-4.97999939E+01
 20
-8.98000031E+01
 11
-4.97999939E+01
 21
-7.78000031E+01
  0
TEXT
  8
0
 62
7
 10
-5.74499939E+01
 20
-8.24000031E+01
 40
3.20000005E+00
  1
30
 41
1.00000000E+00
  7
MONOTXT
  0
LINE
  8
0
 62
7
 10
-4.01999939E+01
 20
-8.98000031E+01
 11
-4.01999939E+01
 21
-7.78000031E+01
  0
TEXT
  8
0
 62
7
 10
-4.78499939E+01
 20
-8.24000031E+01
 40
3.20000005E+00
  1
35
 41
1.00000000E+00
  7
MONOTXT
  0
LINE
  8
0
 62
7
 10
-3.05999939E+01
 20
-8.98000031E+01
 11
-3.05999939E+01
 21
-7.78000031E+01
  0
TEXT
  8
0
 62
7
 10
-3.82499939E+01
 20
-8.24000031E+01
 40
3.20000005E+00
  1
40
 41
1.00000000E+00
  7
MONOTXT
  0
LINE
  8
0
 62
7
 10
-2.09999939E+01
 20
-8.98000031E+01
 11
-2.09999939E+01
 21
-7.78000031E+01
  0
TEXT
  8
0
 62
7
 10
-2.86499939E+01
 20
-8.24000031E+01
 40
3.20000005E+00
  1
45
 41
1.00000000E+00
  7
MONOTXT
  0
LINE
  8
0
 62
7
 10
-1.13999939E+01
 20
-8.98000031E+01
 11
-1.13999939E+01
 21
-7.78000031E+01
  0
TEXT
  8
0
 62
7
 10
-1.90499939E+01
 20
-8.24000031E+01
 40
3.20000005E+00
  1
50
 41
1.00000000E+00
  7
MONOTXT
  0
LINE
  8
0
 62
7
 10
-1.79999390E+00
 20
-8.98000031E+01
 11
-1.79999390E+00
 21
-7.78000031E+01
  0
TEXT
  8
0
 62
7
 10
-9.44999392E+00
 20
-8.24000031E+01
 40
3.20000005E+00
  1
55
 41
1.00000000E+00
  7
MONOTXT
  0
LINE
  8
0
 62
7
 10
7.80000610E+00
 20
-8.98000031E+01
 11
7.80000610E+00
 21
-7.78000031E+01
  0
TEXT
  8
0
 62
7
 10
1.50006081E-01
 20
-8.24000031E+01
 40
3.20000005E+00
  1
60
 41
1.00000000E+00
  7
MONOTXT
  0
TEXT
  8
0
 62
7
 10
-1.29649994E+02
 20
-8.24000031E+01
 40
3.20000005E+00
  1
STROKE
 41
1.00000000E+00
  7
MONOTXT
  0
TEXT
  8
0
 62
7
 10
-1.31249994E+02
 20
-8.84000031E+01
 40
3.20000005E+00
  1
STRETCH
 41
1.00000000E+00
  7
MONOTXT
  0
TEXT
  8
0
 62
7
 10
-3.35968753E+00
 20
-7.68384232E+01
 40
3.20000005E+00
  1
(mm)
 41
1.00000000E+00
  7
MONOTXT
  0
TEXT
  8
0
 62
7
 10
-8.12810173E+01
 20
-7.58649018E+01
 40
3.20000005E+00
  1
STRETCH LIST
 41
1.05263158E+00
  7
MONOTXT
  0
TEXT
  8
0
 10
1.18136468E+01
 20
4.57886960E+01
 40
3.20000005E+00
  1
STRETCH LINE
 41
1.05263158E+00
  7
MONOTXT
  0
LINE
  8
0
 62
7
 10
-1.38399994E+02
 20
9.45000000E+01
 11
1.38350006E+02
 21
9.45000000E+01
  0
LINE
  8
0
 62
7
 10
1.38350006E+02
 20
9.45000000E+01
 11
1.38350006E+02
 21
-9.48000031E+01
  0
LINE
  8
0
 62
7
 10
-1.38399994E+02
 20
-9.48000031E+01
 11
1.38350006E+02
 21
-9.48000031E+01
  0
LINE
  8
0
 62
7
 10
-1.38399994E+02
 20
9.45000000E+01
 11
-1.38399994E+02
 21
-9.48000031E+01
  0
LINE
  8
0
 62
7
 10
7.33500061E+01
 20
-8.48000031E+01
 11
1.38350006E+02
 21
-8.48000031E+01
  0
LINE
  8
0
 62
7
 10
-1.38399994E+02
 20
8.45000000E+01
 11
-7.33999939E+01
 21
8.45000000E+01
  0
LINE
  8
0
 62
7
 10
7.33500061E+01
 20
8.45000000E+01
 11
1.38350006E+02
 21
8.45000000E+01
  0
LINE
  8
0
 62
7
 10
7.33500061E+01
 20
-8.48000031E+01
 11
7.33500061E+01
 21
-9.48000031E+01
  0
LINE
  8
0
 62
7
 10
7.33500061E+01
 20
9.45000000E+01
 11
7.33500061E+01
 21
8.45000000E+01
  0
LINE
  8
0
 62
7
 10
-7.33999939E+01
 20
9.45000000E+01
 11
-7.33999939E+01
 21
8.45000000E+01
  0
TEXT
  8
0
 62
7
 10
7.72426624E+01
 20
-9.20500031E+01
 40
4.50000000E+00
  1
KOGANEI CORP.
 41
1.04838710E+00
  7
MONOTXT
  0
TEXT
  8
0
 62
7
 10
9.35071483E+01
 20
8.79000000E+01
 40
3.20000005E+00
  1
Ver. 1.1
 41
1.08108108E+00
  7
MONOTXT
  0
TEXT
  8
0
 62
7
 10
-1.31042852E+02
 20
8.79000000E+01
 40
3.20000005E+00
  1
NEW PEN CYLINDER
 41
1.08108108E+00
  7
MONOTXT
  0
TEXT
  8
0
 62
7
 10
-1.29085994E+02
 20
7.29000000E+01
 40
3.20000005E+00
  1
MODEL:PBSAS6*ST(35)-ZC230
 41
1.00000000E+00
  7
MONOTXT
  0
ENDSEC
  0
EOF
