  0
SECTION
  2
HEADER
  9
$ACADVER
  1
AC1003
  9
$EXTMIN
 10
-1.38399994E+02
 20
-9.48000031E+01
  9
$EXTMAX
 10
1.49375368E+02
 20
9.45000000E+01
  9
$LIMMIN
 10
-1.38400994E+02
 20
-9.48010031E+01
  9
$LIMMAX
 10
1.49376368E+02
 20
9.45010000E+01
  9
$SNAPUNIT
 10
1
 20
1
  9
$SNAPBASE
 10
0
 20
0
  9
$GRIDMODE
 70
0
  9
$GRIDUNIT
 10
0
 20
0
  9
$LTSCALE
 40
4.79625604E+00
  9
$TEXTSIZE
 40
3.2
  9
$DIMTAD
 70
0
  9
$LUNITS
 70
2
  9
$LUPREC
 70
4
  9
$FILLETRAD
 40
0
  9
$AUNITS
 70
0
  9
$AUPREC
 70
0
  0
ENDSEC
  0
SECTION
  2
TABLES
  0
TABLE
  2
LTYPE
 70
2
  0
LTYPE
  2
CONTINUOUS
 70
64
  3
Solid-Line
 72
65
 73
0
 40
0
  0
LTYPE
  2
DASHED
 70
64
  3
DASHED
 72
65
 73
2
 40
.75
 49
.5
 49
-.25
  0
LTYPE
  2
HIDDEN
 70
64
  3
HIDDEN
 72
65
 73
2
 40
.375
 49
.25
 49
-.125
  0
LTYPE
  2
CENTER
 70
64
  3
CENTER
 72
65
 73
4
 40
2
 49
1.25
 49
-.25
 49
.25
 49
-.25
  0
LTYPE
  2
PHANTOM
 70
64
  3
PHANTOM
 72
65
 73
6
 40
2.5
 49
1.25
 49
-.25
 49
.25
 49
-.25
 49
.25
 49
-.25
  0
ENDTAB
  0
TABLE
  2
LAYER
 70
1
  0
LAYER
  2
1
 70
0
 62
7
  6
CONTINUOUS
 0
ENDTAB
  0
TABLE
  2
STYLE
 70
2
  0
STYLE
  2
MONOTXT
 70
0
 40
0
 41
1
 50
0
 71
0
 42
.2
  3
monotxt
  0
STYLE
  2
BIGFONT
 70
0
 40
0
 41
1
 50
0
 71
0
 42
.2
  3
txt
  4
bigfont
  0
ENDTAB
  0
ENDSEC
  0
SECTION
  2
ENTITIES
  0
LINE
  8
0
 62
7
 10
5.39496698E+00
 20
3.56829072E+01
 11
4.13949669E+01
 21
3.56847264E+01
  0
LINE
  8
0
 62
4
 10
2.33949745E+01
 20
3.55338187E+01
 11
3.24001202E+01
 21
3.55342891E+01
  0
LINE
  8
0
 62
2
 10
-3.86051604E+01
 20
3.86806857E+01
 11
-3.70736523E+01
 21
3.86807630E+01
  0
LINE
  8
0
 62
2
 10
-3.30736523E+01
 20
3.86809652E+01
 11
-3.26051846E+01
 21
3.86809889E+01
  0
LINE
  8
0
 62
2
 10
-3.86057248E+01
 20
4.96806856E+01
 11
-3.70742081E+01
 21
4.96807630E+01
  0
LINE
  8
0
 62
2
 10
-3.30742081E+01
 20
4.96809652E+01
 11
-3.26057404E+01
 21
4.96809888E+01
  0
TEXT
  8
0
 62
7
 10
-1.99410336E+01
 20
3.69316269E+01
 40
1.50000000E+00
  1
PBSALS16
 41
1.00000000E+00
  7
MONOTXT
  0
LINE
  8
0
  6
PHANTOM
 10
1.20853887E+01
 20
3.16086223E+01
 11
1.20844550E+01
 21
5.00861085E+01
  0
LINE
  8
0
  6
PHANTOM
 10
2.19102868E+01
 20
5.00866051E+01
 11
1.20844550E+01
 21
5.00861085E+01
  0
LINE
  8
0
 62
4
 10
4.73945191E+01
 20
4.45480324E+01
 11
4.73949417E+01
 21
3.61850315E+01
  0
LINE
  8
0
 62
4
 10
4.73944717E+01
 20
4.54850315E+01
 11
4.73941331E+01
 21
5.21850314E+01
  0
LINE
  8
0
 62
4
 10
4.68944717E+01
 20
4.54850062E+01
 11
4.68941079E+01
 21
5.26850081E+01
  0
LINE
  8
0
 62
4
 10
4.13944481E+01
 20
4.59513949E+01
 11
4.13941079E+01
 21
5.26847302E+01
  0
LINE
  8
0
 62
4
 10
4.33946031E+01
 20
4.28848293E+01
 11
4.57316022E+01
 21
4.28849474E+01
  0
LINE
  8
0
 62
6
 10
4.83314708E+01
 20
4.54850788E+01
 11
4.57316022E+01
 21
4.28849474E+01
  0
LINE
  8
0
 62
4
 10
4.33944717E+01
 20
4.54848293E+01
 11
4.33946031E+01
 21
4.28848293E+01
  0
LINE
  8
0
 62
4
 10
4.33944717E+01
 20
4.54848293E+01
 11
4.83314708E+01
 21
4.54850788E+01
  0
LINE
  8
0
 62
4
 10
2.58942886E+01
 20
4.91089450E+01
 11
2.58942443E+01
 21
4.99839450E+01
  0
LINE
  8
0
 62
4
 10
2.98942443E+01
 20
4.99841471E+01
 11
2.98942886E+01
 21
4.91091471E+01
  0
LINE
  8
0
 62
4
 10
2.58942848E+01
 20
4.91839450E+01
 11
2.98942848E+01
 21
4.91841471E+01
  0
LINE
  8
0
 62
4
 10
2.58942444E+01
 20
4.99839450E+01
 11
2.98942444E+01
 21
4.99841471E+01
  0
LINE
  8
0
 62
4
 10
2.33941003E+01
 20
5.28338187E+01
 11
3.23941003E+01
 21
5.28342735E+01
  0
LINE
  8
0
 62
4
 10
2.33941648E+01
 20
5.15588187E+01
 11
3.23941647E+01
 21
5.15592735E+01
  0
LINE
  8
0
 62
4
 10
2.33943202E+01
 20
4.84838187E+01
 11
3.23943202E+01
 21
4.84842735E+01
  0
LINE
  8
0
 62
4
 10
2.33942886E+01
 20
4.91088187E+01
 11
3.23942886E+01
 21
4.91092735E+01
  0
LINE
  8
0
 62
4
 10
2.33943139E+01
 20
4.86088187E+01
 11
3.23943138E+01
 21
4.86092735E+01
  0
LINE
  8
0
 62
4
 10
3.48946385E+01
 20
4.21843998E+01
 11
4.03946385E+01
 21
4.21846777E+01
  0
LINE
  8
0
 62
4
 10
2.08947017E+01
 20
4.09336923E+01
 11
2.33947017E+01
 21
4.09338187E+01
  0
LINE
  8
0
 62
4
 10
3.23947017E+01
 20
4.09342735E+01
 11
3.48947016E+01
 21
4.09343998E+01
  0
LINE
  8
0
 62
4
 10
2.33947548E+01
 20
3.98838187E+01
 11
3.23947547E+01
 21
3.98842735E+01
  0
LINE
  8
0
 62
4
 10
1.53945880E+01
 20
4.31834144E+01
 11
1.63946385E+01
 21
4.21834649E+01
  0
LINE
  8
0
 62
4
 10
1.63946385E+01
 20
4.21834649E+01
 11
2.08946385E+01
 21
4.21836923E+01
  0
LINE
  8
0
 62
4
 10
4.03946385E+01
 20
4.21846777E+01
 11
4.33946031E+01
 21
4.28848293E+01
  0
LINE
  8
0
 62
4
 10
3.48944364E+01
 20
4.61843998E+01
 11
4.03944363E+01
 21
4.61846777E+01
  0
LINE
  8
0
 62
4
 10
2.08943732E+01
 20
4.74336923E+01
 11
2.33943732E+01
 21
4.74338187E+01
  0
LINE
  8
0
 62
4
 10
3.23943732E+01
 20
4.74342735E+01
 11
3.48943732E+01
 21
4.74343998E+01
  0
LINE
  8
0
 62
4
 10
1.53944869E+01
 20
4.51834144E+01
 11
1.63944364E+01
 21
4.61834649E+01
  0
LINE
  8
0
 62
4
 10
1.63944364E+01
 20
4.61834649E+01
 11
2.08944364E+01
 21
4.61836923E+01
  0
LINE
  8
0
  6
CENTER
 62
6
 10
2.78991583E+01
 20
5.45684895E+01
 11
2.79001750E+01
 21
3.44493873E+01
  0
LINE
  8
0
 62
4
 10
1.53944869E+01
 20
4.51834144E+01
 11
1.53945880E+01
 21
4.31834144E+01
  0
LINE
  8
0
 62
4
 10
1.63944364E+01
 20
4.61834649E+01
 11
1.63946385E+01
 21
4.21834649E+01
  0
LINE
  8
0
 62
4
 10
2.08947017E+01
 20
4.09336923E+01
 11
2.08943732E+01
 21
4.74336923E+01
  0
LINE
  8
0
 62
4
 10
4.03944363E+01
 20
4.61846777E+01
 11
4.33944717E+01
 21
4.54848293E+01
  0
LINE
  8
0
 62
4
 10
4.03944363E+01
 20
4.61846777E+01
 11
4.03946385E+01
 21
4.21846777E+01
  0
LINE
  8
0
 62
4
 10
3.48947016E+01
 20
4.09343998E+01
 11
3.48943732E+01
 21
4.74343998E+01
  0
LINE
  8
0
 62
4
 10
2.89045880E+01
 20
4.31840971E+01
 11
2.68344839E+01
 21
4.52439925E+01
  0
LINE
  8
0
 62
4
 10
2.68345910E+01
 20
4.31239925E+01
 11
2.89544839E+01
 21
4.52440996E+01
  0
CIRCLE
  8
0
 62
4
 10
2.78936623E+01
 20
4.41815875E+01
 40
2.50000000E+00
  0
LINE
  8
0
 62
4
 10
2.33949745E+01
 20
3.55338187E+01
 11
2.33941003E+01
 21
5.28338187E+01
  0
LINE
  8
0
 62
4
 10
3.23949745E+01
 20
3.55342735E+01
 11
3.23941003E+01
 21
5.28342735E+01
  0
LINE
  8
0
  6
PHANTOM
 10
2.19093860E+01
 20
6.79135982E+01
 11
2.19102868E+01
 21
5.00866051E+01
  0
LINE
  8
0
 62
7
 10
3.23941079E+01
 20
5.26842754E+01
 11
4.13941079E+01
 21
5.26847302E+01
  0
LINE
  8
0
 62
7
 10
7.89410792E+00
 20
5.26830373E+01
 11
2.33941079E+01
 21
5.26838206E+01
  0
LINE
  8
0
 62
4
 10
-5.46386278E+01
 20
4.64514361E+01
 11
-5.16386278E+01
 21
4.64515877E+01
  0
LINE
  8
0
 62
7
 10
-2.66052481E+01
 20
3.99386506E+01
 11
-2.66050330E+01
 21
3.56812901E+01
  0
LINE
  8
0
 62
7
 10
-3.26051593E+01
 20
3.81809869E+01
 11
-3.26057657E+01
 21
5.01809907E+01
  0
LINE
  8
0
 62
7
 10
-5.86055888E+01
 20
4.66796712E+01
 11
-5.86053361E+01
 21
4.16796712E+01
  0
LINE
  8
0
 62
4
 10
-5.46387404E+01
 20
4.86798774E+01
 11
-5.16387480E+01
 21
4.86800290E+01
  0
LINE
  8
0
 62
7
 10
-2.46050330E+01
 20
3.56813912E+01
 11
-3.60503301E+00
 21
3.56824524E+01
  0
LINE
  8
0
 62
7
 10
-5.86053361E+01
 20
4.16796731E+01
 11
-5.51383867E+01
 21
4.16798483E+01
  0
LINE
  8
0
 62
7
 10
-5.86055888E+01
 20
4.66796750E+01
 11
-5.51386393E+01
 21
4.66798502E+01
  0
LINE
  8
0
 62
7
 10
-3.91051954E+01
 20
3.91806701E+01
 11
-3.81051438E+01
 21
3.81807196E+01
  0
LINE
  8
0
 62
4
 10
-5.11386841E+01
 20
4.75658326E+01
 11
-5.11383419E+01
 21
4.07942682E+01
  0
LINE
  8
0
 62
7
 10
-3.11050330E+01
 20
3.56810627E+01
 11
-2.46050330E+01
 21
3.56813912E+01
  0
LINE
  8
0
 62
7
 10
-2.91052481E+01
 20
3.99385243E+01
 11
-2.66052481E+01
 21
3.99386506E+01
  0
LINE
  8
0
 62
7
 10
-3.81051364E+01
 20
3.81807109E+01
 11
-3.81057428E+01
 21
5.01807109E+01
  0
LINE
  8
0
 62
2
 10
-5.90055701E+01
 20
4.62796571E+01
 11
-5.51386191E+01
 21
4.62798525E+01
  0
LINE
  8
0
 62
7
 10
-4.22357411E+01
 20
4.71827233E+01
 11
-3.91056142E+01
 21
4.71828815E+01
  0
LINE
  8
0
 62
4
 10
-5.46382856E+01
 20
3.96798755E+01
 11
-5.16382856E+01
 21
3.96800271E+01
  0
LINE
  8
0
 62
4
 10
-3.70735582E+01
 20
3.68195471E+01
 11
-3.70743022E+01
 21
5.15419797E+01
  0
LINE
  8
0
 62
7
 10
-3.81051593E+01
 20
3.81807090E+01
 11
-3.70736270E+01
 21
3.81807611E+01
  0
LINE
  8
0
 62
7
 10
-4.22354400E+01
 20
4.11782814E+01
 11
-4.31053362E+01
 21
4.16804576E+01
  0
LINE
  8
0
 62
7
 10
-3.30736270E+01
 20
3.81809633E+01
 11
-3.11051593E+01
 21
3.81810627E+01
  0
LINE
  8
0
 62
7
 10
-3.30742334E+01
 20
5.01809671E+01
 11
-3.11057657E+01
 21
5.01810665E+01
  0
LINE
  8
0
 62
7
 10
-4.41055888E+01
 20
4.66804077E+01
 11
-4.41053361E+01
 21
4.16804058E+01
  0
LINE
  8
0
 62
4
 10
-3.30735582E+01
 20
3.68197499E+01
 11
-3.30743022E+01
 21
5.15421811E+01
  0
LINE
  8
0
 62
7
 10
-3.81057657E+01
 20
5.01807128E+01
 11
-3.70742334E+01
 21
5.01807649E+01
  0
LINE
  8
0
 62
7
 10
-5.11383867E+01
 20
4.16800504E+01
 11
-4.31053362E+01
 21
4.16804563E+01
  0
LINE
  8
0
 62
7
 10
-3.91052098E+01
 20
3.91806838E+01
 11
-3.91057152E+01
 21
4.91806537E+01
  0
LINE
  8
0
 62
4
 10
-5.51386841E+01
 20
4.75656305E+01
 11
-5.51383419E+01
 21
4.07940660E+01
  0
LINE
  8
0
 62
7
 10
-5.91055488E+01
 20
4.61796291E+01
 11
-5.86055789E+01
 21
4.66796495E+01
  0
LINE
  8
0
 62
4
 10
4.13941079E+01
 20
5.26847302E+01
 11
4.68941079E+01
 21
5.26850081E+01
  0
LINE
  8
0
 62
4
 10
4.68949669E+01
 20
3.56850043E+01
 11
4.68945443E+01
 21
4.40480071E+01
  0
LINE
  8
0
 62
7
 10
-3.91057088E+01
 20
4.91806510E+01
 11
-3.81057583E+01
 21
5.01807026E+01
  0
LINE
  8
0
 62
7
 10
-5.91055635E+01
 20
4.61796497E+01
 11
-5.91053614E+01
 21
4.21796497E+01
  0
LINE
  8
0
 62
4
 10
-5.46383982E+01
 20
4.19083110E+01
 11
-5.16383982E+01
 21
4.19084626E+01
  0
LINE
  8
0
 62
7
 10
-4.31053362E+01
 20
4.16804583E+01
 11
-4.31055888E+01
 21
4.66804602E+01
  0
LINE
  8
0
 62
7
 10
-5.91053466E+01
 20
4.21796465E+01
 11
-5.86053208E+01
 21
4.16796712E+01
  0
LINE
  8
0
 62
7
 10
-2.91052481E+01
 20
3.99385243E+01
 11
-2.91050330E+01
 21
3.56811638E+01
  0
LINE
  8
0
 62
7
 10
-4.22354377E+01
 20
4.11782806E+01
 11
-3.91053108E+01
 21
4.11784388E+01
  0
LINE
  8
0
 62
7
 10
-2.66056769E+01
 20
4.84239335E+01
 11
-2.66058920E+01
 21
5.26812939E+01
  0
LINE
  8
0
 62
7
 10
-2.91056769E+01
 20
4.84238072E+01
 11
-2.91058920E+01
 21
5.26811676E+01
  0
LINE
  8
0
 62
4
 10
4.68941038E+01
 20
5.26849919E+01
 11
4.73941286E+01
 21
5.21850157E+01
  0
LINE
  8
0
 62
4
 10
4.13949669E+01
 20
3.56847264E+01
 11
4.13946267E+01
 21
4.24180616E+01
  0
LINE
  8
0
 62
7
 10
-5.11386393E+01
 20
4.66800542E+01
 11
-4.31055888E+01
 21
4.66804602E+01
  0
LINE
  8
0
 62
2
 10
-5.11386191E+01
 20
4.62800546E+01
 11
-4.41055686E+01
 21
4.62804100E+01
  0
LINE
  8
0
  6
CENTER
 62
2
 10
-6.14655623E+01
 20
4.41795305E+01
 11
5.02798690E+01
 21
4.41851773E+01
  0
LINE
  8
0
 62
2
 10
-5.90053579E+01
 20
4.20796563E+01
 11
-5.51384069E+01
 21
4.20798517E+01
  0
LINE
  8
0
 62
2
 10
-5.11384069E+01
 20
4.20800538E+01
 11
-4.41053564E+01
 21
4.20804092E+01
  0
LINE
  8
0
 62
7
 10
-4.22356653E+01
 20
4.56816128E+01
 11
-3.91055383E+01
 21
4.56817709E+01
  0
LINE
  8
0
 62
7
 10
-2.46050330E+01
 20
3.56813912E+01
 11
-2.46058920E+01
 21
5.26813950E+01
  0
LINE
  8
0
 62
7
 10
-3.11050330E+01
 20
3.56810627E+01
 11
-3.11058920E+01
 21
5.26810665E+01
  0
LINE
  8
0
 62
7
 10
-3.11058920E+01
 20
5.26810665E+01
 11
-2.46058920E+01
 21
5.26813950E+01
  0
LINE
  8
0
 62
7
 10
-2.46058920E+01
 20
5.26813950E+01
 11
-6.10589206E+00
 21
5.26823299E+01
  0
LINE
  8
0
 62
7
 10
-2.91056769E+01
 20
4.84238072E+01
 11
-2.66056769E+01
 21
4.84239335E+01
  0
LINE
  8
0
 62
7
 10
-4.22355136E+01
 20
4.26793914E+01
 11
-3.91053866E+01
 21
4.26795496E+01
  0
LINE
  8
0
 62
4
 10
4.68949544E+01
 20
3.56850202E+01
 11
4.73949287E+01
 21
3.61850470E+01
  0
LINE
  8
0
 62
4
 10
4.13949669E+01
 20
3.56847264E+01
 11
4.68949669E+01
 21
3.56850043E+01
  0
LINE
  8
0
 62
7
 10
-4.22357443E+01
 20
4.71827244E+01
 11
-4.31055897E+01
 21
4.66804603E+01
  0
LINE
  8
0
  6
CENTER
 62
2
 10
-2.78553349E+01
 20
4.16560552E+01
 11
-2.78556020E+01
 21
4.69409440E+01
  0
ARC
  8
0
 62
4
 10
-5.26301697E+01
 20
4.75657573E+01
 40
1.49148333E+00
 50
2.89530966E-03
 51
4.83386688E+01
  0
ARC
  8
0
 62
4
 10
-4.97285170E+01
 20
4.41801236E+01
 40
5.40999651E+00
 50
1.80002873E+02
 51
2.04829982E+02
  0
ARC
  8
0
 62
4
 10
-5.26298275E+01
 20
4.07941928E+01
 40
1.49148333E+00
 50
2.89530966E-03
 51
4.83386688E+01
  0
ARC
  8
0
 62
4
 10
-5.65485090E+01
 20
4.41797789E+01
 40
5.40999651E+00
 50
2.89530966E-03
 51
2.48300046E+01
  0
ARC
  8
0
 62
4
 10
-5.26301697E+01
 20
4.75657573E+01
 40
1.49148333E+00
 50
3.11667122E+02
 51
2.89530966E-03
  0
ARC
  8
0
 62
4
 10
-5.36471985E+01
 20
4.75657059E+01
 40
1.49148333E+00
 50
1.31667086E+02
 51
1.80002859E+02
  0
ARC
  8
0
 62
4
 10
-5.26298275E+01
 20
4.07941928E+01
 40
1.49148333E+00
 50
3.11667122E+02
 51
2.89530966E-03
  0
ARC
  8
0
 62
4
 10
-5.36471985E+01
 20
4.75657059E+01
 40
1.49148333E+00
 50
1.80002873E+02
 51
2.28338646E+02
  0
ARC
  8
0
 62
4
 10
-5.65485090E+01
 20
4.41797789E+01
 40
5.40999651E+00
 50
3.35175786E+02
 51
2.89530966E-03
  0
ARC
  8
0
 62
4
 10
-5.36468563E+01
 20
4.07941414E+01
 40
1.49148333E+00
 50
1.80002873E+02
 51
2.28338646E+02
  0
ARC
  8
0
 62
4
 10
-5.36468563E+01
 20
4.07941414E+01
 40
1.49148333E+00
 50
1.31667086E+02
 51
1.80002859E+02
  0
ARC
  8
0
 62
4
 10
-4.97285170E+01
 20
4.41801236E+01
 40
5.40999651E+00
 50
1.55175750E+02
 51
1.80002859E+02
  0
ARC
  8
0
 62
7
 10
-4.97285170E+01
 20
4.41801236E+01
 40
5.40999651E+00
 50
1.80002931E+02
 51
2.04830040E+02
  0
ARC
  8
0
 62
7
 10
-4.23822868E+01
 20
4.64321609E+01
 40
7.64734566E-01
 50
1.98952403E+02
 51
2.81053401E+02
  0
ARC
  8
0
 62
7
 10
-4.13753142E+01
 20
4.41805457E+01
 40
1.73014796E+00
 50
1.19819685E+02
 51
2.40186115E+02
  0
ARC
  8
0
 62
7
 10
-4.23820592E+01
 20
4.19288287E+01
 40
7.64734566E-01
 50
7.89523964E+01
 51
1.61053387E+02
  0
CIRCLE
  8
0
 62
7
 10
-2.78554625E+01
 20
4.41812289E+01
 40
6.00000024E-01
  0
ARC
  8
0
 62
7
 10
-2.56054625E+01
 20
4.41813426E+01
 40
5.50000143E+00
 50
1.29524100E+02
 51
2.30481700E+02
  0
ARC
  8
0
 62
7
 10
-3.01054625E+01
 20
4.41811152E+01
 40
5.50000143E+00
 50
3.09524099E+02
 51
5.04816918E+01
  0
LINE
  8
0
 62
4
 10
-3.60502524E+00
 20
3.55285028E+01
 11
5.39497476E+00
 21
3.55289576E+01
  0
LINE
  8
0
 62
4
 10
7.89413176E+00
 20
5.22109508E+01
 11
5.39413176E+00
 21
5.22108244E+01
  0
LINE
  8
0
 62
4
 10
-6.10586818E+00
 20
5.22102433E+01
 11
-3.60586818E+00
 21
5.22103697E+01
  0
LINE
  8
0
 62
4
 10
-6.10618495E+00
 20
5.84783611E+01
 11
-6.10604346E+00
 21
5.56783611E+01
  0
LINE
  8
0
 62
4
 10
7.89381503E+00
 20
5.84790686E+01
 11
7.89395653E+00
 21
5.56790686E+01
  0
LINE
  8
0
 62
4
 10
-3.60602830E+00
 20
5.53784875E+01
 11
-3.60637192E+00
 21
6.21784875E+01
  0
LINE
  8
0
 62
4
 10
5.39397169E+00
 20
5.53789423E+01
 11
5.39362807E+00
 21
6.21789422E+01
  0
LINE
  8
0
 62
4
 10
7.89386557E+00
 20
5.74790686E+01
 11
1.33938656E+01
 21
5.74793465E+01
  0
LINE
  8
0
 62
4
 10
7.89406770E+00
 20
5.34790686E+01
 11
1.33940677E+01
 21
5.34793465E+01
  0
LINE
  8
0
 62
4
 10
-3.60604346E+00
 20
5.56784875E+01
 11
5.39395653E+00
 21
5.56789423E+01
  0
LINE
  8
0
 62
4
 10
5.39397674E+00
 20
5.52789423E+01
 11
7.89397674E+00
 21
5.52790686E+01
  0
LINE
  8
0
 62
4
 10
5.39395653E+00
 20
5.56789423E+01
 11
7.89395653E+00
 21
5.56790686E+01
  0
LINE
  8
0
 62
4
 10
-6.10602325E+00
 20
5.52783611E+01
 11
-3.60602325E+00
 21
5.52784875E+01
  0
LINE
  8
0
 62
4
 10
-6.10604347E+00
 20
5.56783611E+01
 11
-3.60604346E+00
 21
5.56784875E+01
  0
LINE
  8
0
 62
4
 10
-1.16060839E+01
 20
5.64780832E+01
 11
-1.06061344E+01
 21
5.74781337E+01
  0
LINE
  8
0
 62
4
 10
-1.16060839E+01
 20
5.64780832E+01
 11
-1.16059828E+01
 21
5.44780832E+01
  0
LINE
  8
0
 62
4
 10
-1.06059323E+01
 20
5.34781337E+01
 11
-6.10593228E+00
 21
5.34783611E+01
  0
LINE
  8
0
 62
4
 10
-1.06061344E+01
 20
5.74781337E+01
 11
-6.10613441E+00
 21
5.74783611E+01
  0
LINE
  8
0
 62
4
 10
-1.16059828E+01
 20
5.44780832E+01
 11
-1.06059323E+01
 21
5.34781337E+01
  0
LINE
  8
0
 62
4
 10
-1.06061344E+01
 20
5.74781337E+01
 11
-1.06059323E+01
 21
5.34781337E+01
  0
LINE
  8
0
 62
4
 10
1.33938656E+01
 20
5.74793465E+01
 11
1.63939009E+01
 21
5.67794981E+01
  0
LINE
  8
0
 62
4
 10
1.33940677E+01
 20
5.34793465E+01
 11
1.63940323E+01
 21
5.41794981E+01
  0
LINE
  8
0
 62
4
 10
1.33938656E+01
 20
5.74793465E+01
 11
1.33940677E+01
 21
5.34793465E+01
  0
LINE
  8
0
 62
4
 10
1.63940323E+01
 20
5.41794981E+01
 11
1.87310314E+01
 21
5.41796162E+01
  0
LINE
  8
0
 62
4
 10
1.63939009E+01
 20
5.67794981E+01
 11
1.63940323E+01
 21
5.41794981E+01
  0
LINE
  8
0
 62
4
 10
5.39381504E+00
 20
5.84789423E+01
 11
7.89381503E+00
 21
5.84790686E+01
  0
LINE
  8
0
 62
4
 10
-6.10618496E+00
 20
5.84783611E+01
 11
-3.60618495E+00
 21
5.84784875E+01
  0
ARC
  8
0
 62
4
 10
2.39188670E+00
 20
6.36771249E+01
 40
1.00166704E+00
 50
9.81716039E-02
 51
8.99076188E+01
  0
ARC
  8
0
 62
4
 10
-6.05656197E-01
 20
6.36778476E+01
 40
1.00079180E+00
 50
9.00000002E+01
 51
1.79957583E+02
  0
LINE
  8
0
 62
4
 10
-3.36422458E-01
 20
6.31786527E+01
 11
-3.36371925E-01
 21
6.21786527E+01
  0
LINE
  8
0
 62
4
 10
2.12357754E+00
 20
6.31787770E+01
 11
2.12362807E+00
 21
6.21787770E+01
  0
LINE
  8
0
 62
4
 10
-6.06422458E-01
 20
6.31786391E+01
 11
-6.06371925E-01
 21
6.21786391E+01
  0
LINE
  8
0
 62
4
 10
2.39357754E+00
 20
6.31787906E+01
 11
2.39362807E+00
 21
6.21787906E+01
  0
LINE
  8
0
 62
4
 10
-6.06498257E-01
 20
6.46786390E+01
 11
2.39350174E+00
 21
6.46787906E+01
  0
LINE
  8
0
 62
4
 10
-1.60642246E+00
 20
6.31785885E+01
 11
3.39357754E+00
 21
6.31788412E+01
  0
LINE
  8
0
 62
4
 10
-3.60637192E+00
 20
6.21784875E+01
 11
5.39362807E+00
 21
6.21789422E+01
  0
LINE
  8
0
 62
4
 10
3.39355227E+00
 20
6.36788412E+01
 11
3.39357754E+00
 21
6.31788412E+01
  0
LINE
  8
0
 62
4
 10
-1.60644772E+00
 20
6.36785885E+01
 11
-1.60642246E+00
 21
6.31785885E+01
  0
LINE
  8
0
 62
4
 10
1.63939009E+01
 20
5.67794981E+01
 11
2.13309000E+01
 21
5.67797476E+01
  0
LINE
  8
0
 62
6
 10
2.13309000E+01
 20
5.67797476E+01
 11
1.87310314E+01
 21
5.41796162E+01
  0
LINE
  8
0
 62
4
 10
-3.60602830E+00
 20
5.53784875E+01
 11
-3.60502523E+00
 21
3.55285028E+01
  0
LINE
  8
0
 62
4
 10
5.39397169E+00
 20
5.53789423E+01
 11
5.39497476E+00
 21
3.55289576E+01
  0
LINE
  8
0
 62
4
 10
7.89397674E+00
 20
5.52790686E+01
 11
7.89413178E+00
 21
5.22109508E+01
  0
LINE
  8
0
 62
4
 10
-6.10602324E+00
 20
5.52783611E+01
 11
-6.10586820E+00
 21
5.22102433E+01
  0
LINE
  8
0
  6
CENTER
 62
6
 10
8.93424262E-01
 20
6.62119688E+01
 11
8.95029580E-01
 21
3.44440558E+01
  0
LINE
  8
0
 62
4
 10
-3.66744227E+01
 20
5.39957378E+01
 11
-3.34744353E+01
 21
5.39958995E+01
  0
LINE
  8
0
 62
4
 10
-3.66734403E+01
 20
3.43658287E+01
 11
-3.34734349E+01
 21
3.43659904E+01
  0
LINE
  8
0
 62
4
 10
-3.66741748E+01
 20
4.90882605E+01
 11
-3.34741874E+01
 21
4.90884222E+01
  0
LINE
  8
0
 62
4
 10
-3.66736883E+01
 20
3.92733060E+01
 11
-3.34736829E+01
 21
3.92734677E+01
  0
ARC
  8
0
 62
4
 10
-2.93474047E+01
 20
3.68199376E+01
 40
7.72615355E+00
 50
1.61485736E+02
 51
1.98520054E+02
  0
ARC
  8
0
 62
4
 10
-6.76930743E+00
 20
4.41822944E+01
 40
3.03046228E+01
 50
1.70683476E+02
 51
1.89322312E+02
  0
ARC
  8
0
 62
4
 10
-2.93483282E+01
 20
5.15423701E+01
 40
7.72597404E+00
 50
1.61485297E+02
 51
1.98520472E+02
  0
ARC
  8
0
 62
4
 10
-4.08001761E+01
 20
5.15417907E+01
 40
7.72587392E+00
 50
3.41485042E+02
 51
1.85207487E+01
  0
ARC
  8
0
 62
4
 10
-6.33774122E+01
 20
4.41794339E+01
 40
3.03034821E+01
 50
3.50683127E+02
 51
9.32266578E+00
  0
ARC
  8
0
 62
4
 10
-4.07994405E+01
 20
3.68193595E+01
 40
7.72588230E+00
 50
3.41485076E+02
 51
1.85207334E+01
  0
LINE
  8
0
 62
4
 10
-9.94498216E+01
 20
5.39999867E+01
 11
-9.09498199E+01
 21
4.90925084E+01
  0
CIRCLE
  8
0
 62
4
 10
-9.94498231E+01
 20
4.41850315E+01
 40
8.50000000E+00
  0
LINE
  8
0
 62
4
 10
-1.07949822E+02
 20
4.90925081E+01
 11
-9.94498200E+01
 21
5.39999864E+01
  0
LINE
  8
0
 62
4
 10
-1.07949823E+02
 20
4.90925088E+01
 11
-1.07949823E+02
 21
3.92775541E+01
  0
LINE
  8
0
 62
4
 10
-1.07949822E+02
 20
3.92775551E+01
 11
-9.94498199E+01
 21
3.43700768E+01
  0
LINE
  8
0
 62
4
 10
-9.94498217E+01
 20
3.43700765E+01
 11
-9.09498200E+01
 21
3.92775548E+01
  0
LINE
  8
0
 62
4
 10
-9.09498231E+01
 20
4.90925088E+01
 11
-9.09498231E+01
 21
3.92775541E+01
  0
CIRCLE
  8
0
 62
7
 10
-9.94498231E+01
 20
4.41850315E+01
 40
6.00000000E+00
  0
CIRCLE
  8
0
 62
2
 10
-9.94498231E+01
 20
4.41850315E+01
 40
5.50000000E+00
  0
ARC
  8
0
 62
7
 10
-9.94498231E+01
 20
4.41850315E+01
 40
9.50000000E+00
 50
2.96525352E+02
 51
3.26525352E+02
  0
ARC
  8
0
 62
7
 10
-9.94498231E+01
 20
4.41850315E+01
 40
9.50000000E+00
 50
2.13474643E+02
 51
2.43474651E+02
  0
ARC
  8
0
 62
7
 10
-9.94498231E+01
 20
4.41850315E+01
 40
9.50000000E+00
 50
1.16525349E+02
 51
1.46525357E+02
  0
ARC
  8
0
 62
7
 10
-9.94498231E+01
 20
4.41850315E+01
 40
9.50000000E+00
 50
3.34746479E+01
 51
6.34746486E+01
  0
CIRCLE
  8
0
 62
4
 10
-9.94498231E+01
 20
4.41850315E+01
 40
4.00000000E+00
  0
CIRCLE
  8
0
 62
2
 10
-9.94498231E+01
 20
4.41850315E+01
 40
2.10000000E+00
  0
CIRCLE
  8
0
 62
7
 10
-9.94498231E+01
 20
4.41850315E+01
 40
2.50000000E+00
  0
LINE
  8
0
 62
7
 10
-9.71722580E+01
 20
5.26850315E+01
 11
-9.52071854E+01
 21
5.26850315E+01
  0
LINE
  8
0
 62
7
 10
-9.71722580E+01
 20
3.56850315E+01
 11
-9.52071854E+01
 21
3.56850315E+01
  0
LINE
  8
0
 62
7
 10
-1.03692461E+02
 20
5.26850315E+01
 11
-1.01727388E+02
 21
5.26850315E+01
  0
LINE
  8
0
 62
7
 10
-1.03692461E+02
 20
3.56850315E+01
 11
-1.01727388E+02
 21
3.56850315E+01
  0
LINE
  8
0
 62
4
 10
-9.94498295E+01
 20
4.88037920E+01
 11
-9.54498401E+01
 21
4.64943973E+01
  0
LINE
  8
0
 62
4
 10
-1.03449808E+02
 20
4.18755803E+01
 11
-9.94498049E+01
 21
3.95661780E+01
  0
LINE
  8
0
 62
4
 10
-9.54498231E+01
 20
4.64944311E+01
 11
-9.54498231E+01
 21
4.18756252E+01
  0
LINE
  8
0
 62
4
 10
-1.03449823E+02
 20
4.64944263E+01
 11
-1.03449823E+02
 21
4.18756280E+01
  0
LINE
  8
0
 62
4
 10
-1.03449821E+02
 20
4.64944152E+01
 11
-9.94498189E+01
 21
4.88038183E+01
  0
LINE
  8
0
 62
4
 10
-9.94498172E+01
 20
3.95662230E+01
 11
-9.54498152E+01
 21
4.18756261E+01
  0
LINE
  8
0
 62
4
 10
-1.04661862E+02
 20
5.77097649E+01
 11
-1.04999823E+02
 21
5.79050315E+01
  0
LINE
  8
0
 62
6
 10
-1.00679823E+02
 20
6.05850315E+01
 11
-1.00679823E+02
 21
5.92150315E+01
  0
LINE
  8
0
 62
6
 10
-9.82198231E+01
 20
6.05850315E+01
 11
-9.82198231E+01
 21
5.92150315E+01
  0
LINE
  8
0
 62
4
 10
-1.00949823E+02
 20
6.05850315E+01
 11
-1.00949823E+02
 21
5.94850315E+01
  0
LINE
  8
0
 62
4
 10
-9.79498231E+01
 20
6.05850315E+01
 11
-9.79498231E+01
 21
5.94850315E+01
  0
LINE
  8
0
 10
-1.00449823E+02
 20
5.34850315E+01
 11
-1.00449823E+02
 21
5.34226344E+01
  0
LINE
  8
0
 62
4
 10
-1.00449823E+02
 20
5.77850315E+01
 11
-1.00449823E+02
 21
5.74850315E+01
  0
LINE
  8
0
 62
4
 10
-1.01499823E+02
 20
5.74850315E+01
 11
-1.01499823E+02
 21
5.34850315E+01
  0
LINE
  8
0
 62
4
 10
-9.73998231E+01
 20
5.74850315E+01
 11
-9.73998231E+01
 21
5.34850315E+01
  0
LINE
  8
0
 10
-9.84498231E+01
 20
5.34850315E+01
 11
-9.84498231E+01
 21
5.34226373E+01
  0
LINE
  8
0
 62
4
 10
-9.84498231E+01
 20
5.77850315E+01
 11
-9.84498231E+01
 21
5.74850315E+01
  0
LINE
  8
0
 62
4
 10
-9.84498231E+01
 20
5.77850315E+01
 11
-1.00449823E+02
 21
5.77850315E+01
  0
LINE
  8
0
 62
4
 10
-9.73998231E+01
 20
5.74850315E+01
 11
-1.01499823E+02
 21
5.74850315E+01
  0
LINE
  8
0
 62
4
 10
-9.73998231E+01
 20
5.34850315E+01
 11
-9.85578929E+01
 21
5.34850315E+01
  0
LINE
  8
0
 62
4
 10
-9.61998231E+01
 20
5.91850315E+01
 11
-9.61998231E+01
 21
5.56850315E+01
  0
LINE
  8
0
 62
4
 10
-9.61998231E+01
 20
5.56850315E+01
 11
-9.73998231E+01
 21
5.56850315E+01
  0
LINE
  8
0
 62
4
 10
-9.61998231E+01
 20
5.52850315E+01
 11
-9.73998231E+01
 21
5.52850315E+01
  0
LINE
  8
0
 62
4
 10
-9.61998231E+01
 20
5.52850315E+01
 11
-9.61998231E+01
 21
5.26850315E+01
  0
LINE
  8
0
 62
4
 10
-1.02699823E+02
 20
5.91850315E+01
 11
-1.02699823E+02
 21
5.26850315E+01
  0
ARC
  8
0
 62
4
 10
-9.79500758E+01
 20
6.36847787E+01
 40
1.00025280E+00
 50
1.44788446E-02
 51
9.00000002E+01
  0
ARC
  8
0
 62
4
 10
-1.00951235E+02
 20
6.36864438E+01
 40
9.98588677E-01
 50
8.99189656E+01
 51
1.80081034E+02
  0
ARC
  8
0
 62
4
 10
-1.03950971E+02
 20
5.88023872E+01
 40
4.98857363E-01
 50
1.80270562E+02
 51
2.09445368E+02
  0
ARC
  8
0
 62
4
 10
-1.04749619E+02
 20
5.83381657E+01
 40
5.00207143E-01
 50
1.79786293E+02
 51
2.39986760E+02
  0
ARC
  8
0
 62
4
 10
-1.02451486E+02
 20
6.08866941E+01
 40
4.98340176E-01
 50
8.98088454E+01
 51
1.80191155E+02
  0
ARC
  8
0
 62
4
 10
-9.64498273E+01
 20
6.08850272E+01
 40
5.00004290E-01
 50
4.91607912E-04
 51
9.00000002E+01
  0
ARC
  8
0
 62
4
 10
-1.02951486E+02
 20
6.13866941E+01
 40
7.98339134E-01
 50
8.98806771E+01
 51
1.80119323E+02
  0
ARC
  8
0
 62
4
 10
-9.59498263E+01
 20
6.13850282E+01
 40
8.00003254E-01
 50
2.33015759E-04
 51
9.00000002E+01
  0
LINE
  8
0
 62
4
 10
-9.79498231E+01
 20
6.26850315E+01
 11
-1.00949823E+02
 21
6.26850315E+01
  0
LINE
  8
0
 62
4
 10
-1.01949823E+02
 20
6.36850315E+01
 11
-1.01949823E+02
 21
6.31850315E+01
  0
LINE
  8
0
 62
4
 10
-9.69498231E+01
 20
6.36850315E+01
 11
-9.69498231E+01
 21
6.31850315E+01
  0
LINE
  8
0
 62
4
 10
-9.79498231E+01
 20
6.46850315E+01
 11
-1.00949823E+02
 21
6.46850315E+01
  0
LINE
  8
0
 62
4
 10
-9.69498231E+01
 20
6.31850315E+01
 11
-1.01949823E+02
 21
6.31850315E+01
  0
LINE
  8
0
 62
4
 10
-1.02949823E+02
 20
5.49850315E+01
 11
-1.03749823E+02
 21
5.49850315E+01
  0
LINE
  8
0
 62
4
 10
-9.51498231E+01
 20
5.56850315E+01
 11
-9.59498231E+01
 21
5.56850315E+01
  0
LINE
  8
0
 62
4
 10
-9.79498231E+01
 20
6.31850315E+01
 11
-9.79498231E+01
 21
6.21850315E+01
  0
LINE
  8
0
 62
4
 10
-1.00949823E+02
 20
6.31850315E+01
 11
-1.00949823E+02
 21
6.21850315E+01
  0
LINE
  8
0
 62
4
 10
-1.03874823E+02
 20
6.10100315E+01
 11
-1.04374823E+02
 21
6.10100315E+01
  0
LINE
  8
0
 62
4
 10
-1.04374823E+02
 20
6.10100315E+01
 11
-1.04374823E+02
 21
5.85895355E+01
  0
LINE
  8
0
 62
4
 10
-1.03874823E+02
 20
6.10100315E+01
 11
-1.03874823E+02
 21
5.85100315E+01
  0
LINE
  8
0
 62
4
 10
-9.61998231E+01
 20
5.84850315E+01
 11
-1.02699823E+02
 21
5.84850315E+01
  0
LINE
  8
0
 62
4
 10
-9.61998231E+01
 20
5.91850315E+01
 11
-1.02699823E+02
 21
5.91850315E+01
  0
LINE
  8
0
 62
4
 10
-9.59498231E+01
 20
6.08850315E+01
 11
-9.60998231E+01
 21
6.08850315E+01
  0
LINE
  8
0
 62
4
 10
-9.60998231E+01
 20
6.08850315E+01
 11
-9.60998231E+01
 21
5.56850315E+01
  0
LINE
  8
0
 62
4
 10
-1.03749823E+02
 20
5.81090315E+01
 11
-1.03963928E+02
 21
5.82332122E+01
  0
LINE
  8
0
 62
4
 10
-1.05249823E+02
 20
6.04850315E+01
 11
-1.05249823E+02
 21
5.83400315E+01
  0
LINE
  8
0
 62
4
 10
-9.64498231E+01
 20
6.13850315E+01
 11
-1.02449823E+02
 21
6.13850315E+01
  0
LINE
  8
0
 62
4
 10
-1.03749823E+02
 20
5.49850315E+01
 11
-1.03749823E+02
 21
6.13850315E+01
  0
LINE
  8
0
 62
4
 10
-9.51498231E+01
 20
6.13850315E+01
 11
-9.51498231E+01
 21
5.56850315E+01
  0
LINE
  8
0
 62
6
 10
-9.82198231E+01
 20
6.26850315E+01
 11
-9.82198231E+01
 21
6.21850315E+01
  0
LINE
  8
0
 62
6
 10
-1.00679823E+02
 20
6.26850315E+01
 11
-1.00679823E+02
 21
6.21850315E+01
  0
LINE
  8
0
 62
4
 10
-9.73048231E+01
 20
6.05850315E+01
 11
-1.01594823E+02
 21
6.05850315E+01
  0
LINE
  8
0
 62
4
 10
-9.71648231E+01
 20
6.13850315E+01
 11
-9.73048231E+01
 21
6.05850315E+01
  0
LINE
  8
0
 62
4
 10
-1.01734823E+02
 20
6.13850315E+01
 11
-1.01594823E+02
 21
6.05850315E+01
  0
LINE
  8
0
 62
4
 10
-1.04449823E+02
 20
6.04850315E+01
 11
-1.05249823E+02
 21
6.04850315E+01
  0
LINE
  8
0
 62
4
 10
-1.04449823E+02
 20
6.04850315E+01
 11
-1.04449823E+02
 21
5.88000315E+01
  0
LINE
  8
0
 62
4
 10
-1.03749823E+02
 20
5.71828092E+01
 11
-1.04219341E+02
 21
5.74540865E+01
  0
LINE
  8
0
 62
4
 10
-9.59498231E+01
 20
6.08850315E+01
 11
-9.59498231E+01
 21
5.56850315E+01
  0
LINE
  8
0
 62
4
 10
-1.02949823E+02
 20
6.08850315E+01
 11
-1.02949823E+02
 21
5.49850315E+01
  0
LINE
  8
0
 62
4
 10
-9.59498231E+01
 20
6.21850315E+01
 11
-1.02949823E+02
 21
6.21850315E+01
  0
LINE
  8
0
 62
4
 10
-9.60998231E+01
 20
5.56850315E+01
 11
-9.40710860E+01
 21
5.20196781E+01
  0
LINE
  8
0
 62
4
 10
-9.59498231E+01
 20
5.56850315E+01
 11
-9.38048093E+01
 21
5.18300508E+01
  0
LINE
  8
0
 62
4
 10
-1.03874823E+02
 20
5.85100315E+01
 11
-1.06453883E+02
 21
5.06052395E+01
  0
LINE
  8
0
 62
4
 10
-1.04972931E+02
 20
5.46607413E+01
 11
-1.06213877E+02
 21
5.08572576E+01
  0
LINE
  8
0
 62
4
 10
-1.04374823E+02
 20
5.85895355E+01
 11
-1.06831555E+02
 21
5.10596799E+01
  0
LINE
  8
0
 62
4
 10
-1.05115519E+02
 20
5.47073122E+01
 11
-1.04972917E+02
 21
5.46607861E+01
  0
LINE
  8
0
 62
4
 10
-1.00949823E+02
 20
5.94850315E+01
 11
-1.00649823E+02
 21
5.91850315E+01
  0
LINE
  8
0
 62
4
 10
-9.79498231E+01
 20
5.94850315E+01
 11
-9.82498231E+01
 21
5.91850315E+01
  0
LINE
  8
0
 62
4
 10
-1.00499823E+02
 20
5.64850315E+01
 11
-1.00499823E+02
 21
5.44850315E+01
  0
LINE
  8
0
 62
4
 10
-9.83998231E+01
 20
5.64850315E+01
 11
-1.00499823E+02
 21
5.64850315E+01
  0
LINE
  8
0
 62
4
 10
-9.83998231E+01
 20
5.64850315E+01
 11
-9.83998231E+01
 21
5.44850315E+01
  0
LINE
  8
0
 62
4
 10
-9.83998231E+01
 20
5.44850315E+01
 11
-1.00499823E+02
 21
5.44850315E+01
  0
LINE
  8
0
 62
4
 10
-1.01499823E+02
 20
5.74850315E+01
 11
-1.00499823E+02
 21
5.64850315E+01
  0
LINE
  8
0
 62
4
 10
-9.73998231E+01
 20
5.74850315E+01
 11
-9.83998231E+01
 21
5.64850315E+01
  0
LINE
  8
0
 62
4
 10
-1.01499823E+02
 20
5.34850315E+01
 11
-1.00499823E+02
 21
5.44850315E+01
  0
LINE
  8
0
 62
4
 10
-9.83998231E+01
 20
5.44850315E+01
 11
-9.73998231E+01
 21
5.34850315E+01
  0
LINE
  8
0
 62
4
 10
-1.06831555E+02
 20
5.10596799E+01
 11
-1.06356215E+02
 21
5.09045929E+01
  0
LINE
  8
0
 62
4
 10
-1.00341748E+02
 20
5.34850315E+01
 11
-1.01499823E+02
 21
5.34850315E+01
  0
LINE
  8
0
 62
4
 10
-8.61498231E+01
 20
4.62350315E+01
 11
-9.01498231E+01
 21
4.62350315E+01
  0
LINE
  8
0
 62
4
 10
-8.61498231E+01
 20
4.21350315E+01
 11
-9.01498231E+01
 21
4.21350315E+01
  0
LINE
  8
0
 62
4
 10
-8.44498231E+01
 20
4.09350315E+01
 11
-8.79498231E+01
 21
4.09350315E+01
  0
LINE
  8
0
 62
4
 10
-8.44498231E+01
 20
4.74350315E+01
 11
-9.09498231E+01
 21
4.74350315E+01
  0
LINE
  8
0
 62
4
 10
-8.27498231E+01
 20
4.08350315E+01
 11
-8.79498231E+01
 21
4.08350315E+01
  0
LINE
  8
0
 62
4
 10
-8.86498231E+01
 20
4.84850315E+01
 11
-8.22498231E+01
 21
4.84850315E+01
  0
LINE
  8
0
 62
4
 10
-8.22498231E+01
 20
3.98850315E+01
 11
-8.79498231E+01
 21
3.98850315E+01
  0
LINE
  8
0
 62
4
 10
-8.27498231E+01
 20
4.06850315E+01
 11
-8.79498231E+01
 21
4.06850315E+01
  0
LINE
  8
0
 62
4
 10
-8.27498231E+01
 20
4.76850315E+01
 11
-8.86498231E+01
 21
4.76850315E+01
  0
LINE
  8
0
 62
4
 10
-8.51248231E+01
 20
4.86100315E+01
 11
-9.30296150E+01
 21
5.11890917E+01
  0
LINE
  8
0
 62
4
 10
-8.50453190E+01
 20
4.91100315E+01
 11
-9.25751746E+01
 21
5.15667629E+01
  0
LINE
  8
0
 62
4
 10
-8.71498231E+01
 20
4.52350315E+01
 11
-8.91498231E+01
 21
4.52350315E+01
  0
LINE
  8
0
 62
4
 10
-8.71498231E+01
 20
4.31350315E+01
 11
-8.91498231E+01
 21
4.31350315E+01
  0
LINE
  8
0
 62
4
 10
-8.61498231E+01
 20
4.21350315E+01
 11
-8.71498231E+01
 21
4.31350315E+01
  0
LINE
  8
0
 62
4
 10
-8.61498231E+01
 20
4.62350315E+01
 11
-8.71498231E+01
 21
4.52350315E+01
  0
LINE
  8
0
 62
4
 10
-8.71498231E+01
 20
4.31350315E+01
 11
-8.71498231E+01
 21
4.52350315E+01
  0
LINE
  8
0
 62
4
 10
-8.41498231E+01
 20
4.26850315E+01
 11
-8.44498231E+01
 21
4.29850315E+01
  0
LINE
  8
0
 62
4
 10
-8.41498231E+01
 20
4.56850315E+01
 11
-8.44498231E+01
 21
4.53850315E+01
  0
LINE
  8
0
 62
4
 10
-8.14498231E+01
 20
4.06850315E+01
 11
-8.14498231E+01
 21
4.76850315E+01
  0
LINE
  8
0
 62
4
 10
-8.64520453E+01
 20
4.84850315E+01
 11
-8.61807680E+01
 21
4.89545498E+01
  0
LINE
  8
0
 62
4
 10
-8.31498231E+01
 20
4.91850315E+01
 11
-8.48348231E+01
 21
4.91850315E+01
  0
LINE
  8
0
 62
4
 10
-8.31498231E+01
 20
4.91850315E+01
 11
-8.31498231E+01
 21
4.99850315E+01
  0
LINE
  8
0
 62
4
 10
-8.22498231E+01
 20
4.64700315E+01
 11
-8.30498231E+01
 21
4.63300315E+01
  0
LINE
  8
0
 62
4
 10
-8.22498231E+01
 20
4.19000315E+01
 11
-8.30498231E+01
 21
4.20400315E+01
  0
LINE
  8
0
 62
4
 10
-8.30498231E+01
 20
4.20400315E+01
 11
-8.30498231E+01
 21
4.63300315E+01
  0
LINE
  8
0
 62
6
 10
-8.09498231E+01
 20
4.54150315E+01
 11
-8.14498231E+01
 21
4.54150315E+01
  0
LINE
  8
0
 62
6
 10
-8.09498231E+01
 20
4.29550315E+01
 11
-8.14498231E+01
 21
4.29550315E+01
  0
LINE
  8
0
 62
4
 10
-8.22498231E+01
 20
4.11850315E+01
 11
-8.22498231E+01
 21
4.71850315E+01
  0
LINE
  8
0
 62
4
 10
-8.31498231E+01
 20
4.99850315E+01
 11
-8.52948231E+01
 21
4.99850315E+01
  0
LINE
  8
0
 62
4
 10
-8.55258231E+01
 20
4.84850315E+01
 11
-8.54016423E+01
 21
4.86991362E+01
  0
LINE
  8
0
 62
4
 10
-8.27498231E+01
 20
4.06850315E+01
 11
-8.27498231E+01
 21
4.08350315E+01
  0
LINE
  8
0
 62
4
 10
-8.44498231E+01
 20
4.09350315E+01
 11
-8.44498231E+01
 21
4.74350315E+01
  0
LINE
  8
0
 62
4
 10
-8.51498231E+01
 20
4.09350315E+01
 11
-8.51498231E+01
 21
4.74350315E+01
  0
LINE
  8
0
 62
4
 10
-8.26248231E+01
 20
4.86100315E+01
 11
-8.51248231E+01
 21
4.86100315E+01
  0
LINE
  8
0
 62
4
 10
-8.26248231E+01
 20
4.91100315E+01
 11
-8.50453190E+01
 21
4.91100315E+01
  0
LINE
  8
0
 62
4
 10
-8.26248231E+01
 20
4.86100315E+01
 11
-8.26248231E+01
 21
4.91100315E+01
  0
LINE
  8
0
 62
4
 10
-8.04498231E+01
 20
4.56850315E+01
 11
-8.14498231E+01
 21
4.56850315E+01
  0
LINE
  8
0
 62
4
 10
-8.04498231E+01
 20
4.26850315E+01
 11
-8.14498231E+01
 21
4.26850315E+01
  0
LINE
  8
0
 62
4
 10
-8.04498231E+01
 20
4.16850315E+01
 11
-8.04498231E+01
 21
4.66850315E+01
  0
LINE
  8
0
 62
4
 10
-7.89498231E+01
 20
4.26850315E+01
 11
-7.89498231E+01
 21
4.56850315E+01
  0
LINE
  8
0
 62
4
 10
-7.99498231E+01
 20
4.16850315E+01
 11
-8.04498231E+01
 21
4.16850315E+01
  0
LINE
  8
0
 62
4
 10
-7.99498231E+01
 20
4.66850315E+01
 11
-8.04498231E+01
 21
4.66850315E+01
  0
LINE
  8
0
 62
4
 10
-8.09498231E+01
 20
4.26850315E+01
 11
-8.09498231E+01
 21
4.56850315E+01
  0
ARC
  8
0
 62
4
 10
-8.22498263E+01
 20
4.06850347E+01
 40
8.00003254E-01
 50
2.70000000E+02
 51
3.59999767E+02
  0
ARC
  8
0
 62
4
 10
-8.22481605E+01
 20
4.76866941E+01
 40
7.98339134E-01
 50
3.59880678E+02
 51
9.01193227E+01
  0
ARC
  8
0
 62
4
 10
-8.27498273E+01
 20
4.11850357E+01
 40
5.00004290E-01
 50
2.70000000E+02
 51
3.59999509E+02
  0
ARC
  8
0
 62
4
 10
-8.27481605E+01
 20
4.71866941E+01
 40
4.98340176E-01
 50
3.59808845E+02
 51
9.01911544E+01
  0
ARC
  8
0
 62
4
 10
-8.52966888E+01
 20
4.94848278E+01
 40
5.00207143E-01
 50
8.97862932E+01
 51
1.49986761E+02
  0
ARC
  8
0
 62
4
 10
-8.48324674E+01
 20
4.86861797E+01
 40
4.98857363E-01
 50
9.02705623E+01
 51
1.19445368E+02
  0
ARC
  8
0
 62
4
 10
-7.99484107E+01
 20
4.56864438E+01
 40
9.98588677E-01
 50
3.59918966E+02
 51
9.00810348E+01
  0
ARC
  8
0
 62
4
 10
-7.99500758E+01
 20
4.26852842E+01
 40
1.00025280E+00
 50
2.70000000E+02
 51
3.59985521E+02
  0
LINE
  8
0
 62
4
 10
-8.61498231E+01
 20
4.21350315E+01
 11
-8.61498231E+01
 21
4.62350315E+01
  0
LINE
  8
0
 62
4
 10
-8.58498231E+01
 20
4.31850315E+01
 11
-8.58498231E+01
 21
4.51850315E+01
  0
LINE
  8
0
 62
4
 10
-8.58498231E+01
 20
4.31850315E+01
 11
-8.61498231E+01
 21
4.31850315E+01
  0
LINE
  8
0
 62
4
 10
-8.58498231E+01
 20
4.51850315E+01
 11
-8.61498231E+01
 21
4.51850315E+01
  0
LINE
  8
0
 62
4
 10
-8.30498231E+01
 20
4.26850315E+01
 11
-8.41498231E+01
 21
4.26850315E+01
  0
LINE
  8
0
 62
4
 10
-8.30498231E+01
 20
4.56850315E+01
 11
-8.41498231E+01
 21
4.56850315E+01
  0
LINE
  8
0
 62
6
 10
-8.30498231E+01
 20
4.29550315E+01
 11
-8.44198231E+01
 21
4.29550315E+01
  0
LINE
  8
0
 62
6
 10
-8.30498231E+01
 20
4.54150315E+01
 11
-8.44198231E+01
 21
4.54150315E+01
  0
LINE
  8
0
 62
4
 10
-8.59250896E+01
 20
4.93970702E+01
 11
-8.57298231E+01
 21
4.97350315E+01
  0
LINE
  8
0
 62
4
 10
-8.89741132E+01
 20
4.97081399E+01
 11
-9.27775969E+01
 21
5.09490851E+01
  0
LINE
  8
0
 62
4
 10
-8.89275423E+01
 20
4.98507272E+01
 11
-8.89740684E+01
 21
4.97081253E+01
  0
LINE
  8
0
 62
4
 10
-8.91498231E+01
 20
4.31350315E+01
 11
-8.91498231E+01
 21
4.52350315E+01
  0
LINE
  8
0
 62
4
 10
-9.01498231E+01
 20
4.62350315E+01
 11
-8.91498231E+01
 21
4.52350315E+01
  0
LINE
  8
0
 62
4
 10
-8.86498231E+01
 20
4.76850315E+01
 11
-8.86498231E+01
 21
4.84850315E+01
  0
LINE
  8
0
 62
4
 10
-9.01498231E+01
 20
4.21350315E+01
 11
-9.01498231E+01
 21
4.62350315E+01
  0
LINE
  8
0
 62
4
 10
-8.91498231E+01
 20
4.31350315E+01
 11
-9.01498231E+01
 21
4.21350315E+01
  0
LINE
  8
0
 62
4
 10
-8.79498231E+01
 20
4.09350315E+01
 11
-8.79498231E+01
 21
4.21350315E+01
  0
LINE
  8
0
 62
4
 10
-8.83498231E+01
 20
4.09350315E+01
 11
-8.83498231E+01
 21
4.21350315E+01
  0
LINE
  8
0
 62
4
 10
-8.83498231E+01
 20
4.09350315E+01
 11
-9.09498231E+01
 21
4.09350315E+01
  0
LINE
  8
0
 62
4
 10
-8.79498231E+01
 20
4.08350315E+01
 11
-9.16151764E+01
 21
3.88062944E+01
  0
LINE
  8
0
 62
4
 10
-8.79498231E+01
 20
4.06850315E+01
 11
-9.18048037E+01
 21
3.85400177E+01
  0
LINE
  8
0
 62
4
 10
-8.79498231E+01
 20
3.98850315E+01
 11
-8.79498231E+01
 21
4.06850315E+01
  0
LINE
  8
0
 62
4
 10
-9.25751746E+01
 20
5.15667629E+01
 11
-9.27302616E+01
 21
5.10914230E+01
  0
LINE
  8
0
  6
CENTER
 62
2
 10
-9.94498231E+01
 20
6.62083466E+01
 11
-9.94498231E+01
 21
3.27301887E+01
  0
LINE
  8
0
  6
CENTER
 62
2
 10
-1.09729490E+02
 20
4.41850315E+01
 11
-7.77069042E+01
 21
4.41850315E+01
  0
LINE
  8
0
 62
4
 10
9.21396229E+01
 20
3.43700765E+01
 11
8.98620541E+01
 21
3.56850315E+01
  0
LINE
  8
0
 62
4
 10
1.00639623E+02
 20
3.92775551E+01
 11
1.00063861E+02
 21
3.89451388E+01
  0
ARC
  8
0
 62
7
 10
9.21396243E+01
 20
4.41850315E+01
 40
9.50000000E+00
 50
2.96525349E+02
 51
3.26525357E+02
  0
LINE
  8
0
 62
7
 10
8.78969866E+01
 20
3.56850315E+01
 11
9.05357228E+01
 21
3.56850315E+01
  0
LINE
  8
0
 62
4
 10
9.44171894E+01
 20
3.56850315E+01
 11
9.21396211E+01
 21
3.43700768E+01
  0
LINE
  8
0
 62
7
 10
9.37435258E+01
 20
3.56850315E+01
 11
9.63822619E+01
 21
3.56850315E+01
  0
LINE
  8
0
 62
4
 10
1.00639624E+02
 20
4.25811300E+01
 11
1.00639624E+02
 21
3.92775541E+01
  0
LINE
  8
0
 62
7
 10
1.00063861E+02
 20
3.89451388E+01
 11
1.00063861E+02
 21
4.07167502E+01
  0
CIRCLE
  8
0
 62
4
 10
9.21396243E+01
 20
4.41850315E+01
 40
2.10000000E+00
  0
LINE
  8
0
 62
4
 10
9.00896243E+01
 20
5.34850315E+01
 11
9.41896243E+01
 21
5.34850315E+01
  0
LINE
  8
0
 62
4
 10
9.95213558E+01
 20
5.10596799E+01
 11
9.90460159E+01
 21
5.09045929E+01
  0
ARC
  8
0
 62
7
 10
9.21396243E+01
 20
4.41850315E+01
 40
9.50000000E+00
 50
4.45950657E+01
 51
6.34746503E+01
  0
LINE
  8
0
 62
7
 10
8.78969866E+01
 20
5.26850315E+01
 11
9.05357228E+01
 21
5.26850315E+01
  0
LINE
  8
0
 62
4
 10
1.00639623E+02
 20
4.90925081E+01
 11
1.00063860E+02
 21
4.94249247E+01
  0
LINE
  8
0
 62
7
 10
1.00063859E+02
 20
4.94249263E+01
 11
1.00063859E+02
 21
4.76533161E+01
  0
LINE
  8
0
 62
7
 10
9.37435258E+01
 20
5.26850315E+01
 11
9.63822619E+01
 21
5.26850315E+01
  0
ARC
  8
0
 62
7
 10
9.21396243E+01
 20
4.41850315E+01
 40
9.50000000E+00
 50
1.16525351E+02
 51
1.24510551E+02
  0
ARC
  8
0
 62
7
 10
9.21396243E+01
 20
4.41850315E+01
 40
9.50000000E+00
 50
3.34746428E+01
 51
4.24915276E+01
  0
ARC
  8
0
 62
4
 10
9.21396243E+01
 20
4.41850315E+01
 40
8.65000000E+00
 50
2.40907274E+02
 51
1.08069713E+02
  0
LINE
  8
0
 62
4
 10
1.00639624E+02
 20
4.90925088E+01
 11
1.00639624E+02
 21
4.57889330E+01
  0
CIRCLE
  8
0
 62
6
 10
9.21396228E+01
 20
4.41916880E+01
 40
2.50000000E+00
  0
LINE
  8
0
 62
4
 10
8.88896243E+01
 20
5.91850315E+01
 11
8.88896243E+01
 21
5.56850315E+01
  0
LINE
  8
0
 62
4
 10
8.87896243E+01
 20
6.08850315E+01
 11
8.87896243E+01
 21
5.56850315E+01
  0
LINE
  8
0
 62
4
 10
9.64396243E+01
 20
5.49850315E+01
 11
9.64396243E+01
 21
6.13850315E+01
  0
LINE
  8
0
 62
4
 10
8.78396243E+01
 20
6.13850315E+01
 11
8.78396243E+01
 21
5.56850315E+01
  0
LINE
  8
0
 62
4
 10
8.86396243E+01
 20
6.08850315E+01
 11
8.86396243E+01
 21
5.56850315E+01
  0
LINE
  8
0
 62
4
 10
9.56396243E+01
 20
6.08850315E+01
 11
9.56396243E+01
 21
5.49850315E+01
  0
LINE
  8
0
 62
4
 10
9.41896243E+01
 20
5.74850315E+01
 11
9.31896243E+01
 21
5.64850315E+01
  0
LINE
  8
0
 62
4
 10
9.00896243E+01
 20
5.74850315E+01
 11
9.10896243E+01
 21
5.64850315E+01
  0
LINE
  8
0
 62
4
 10
9.06396243E+01
 20
5.94850315E+01
 11
9.09396243E+01
 21
5.91850315E+01
  0
LINE
  8
0
 62
4
 10
9.36396243E+01
 20
5.94850315E+01
 11
9.33396243E+01
 21
5.91850315E+01
  0
LINE
  8
0
 62
4
 10
8.86396243E+01
 20
6.21850315E+01
 11
9.56396243E+01
 21
6.21850315E+01
  0
LINE
  8
0
 62
4
 10
9.64396243E+01
 20
5.71828092E+01
 11
9.69091426E+01
 21
5.74540865E+01
  0
LINE
  8
0
 62
4
 10
9.71396243E+01
 20
6.04850315E+01
 11
9.71396243E+01
 21
5.88000315E+01
  0
LINE
  8
0
 62
4
 10
9.71396243E+01
 20
6.04850315E+01
 11
9.79396243E+01
 21
6.04850315E+01
  0
LINE
  8
0
 62
4
 10
9.44246243E+01
 20
6.13850315E+01
 11
9.42846243E+01
 21
6.05850315E+01
  0
LINE
  8
0
 62
4
 10
8.98546243E+01
 20
6.13850315E+01
 11
8.99946243E+01
 21
6.05850315E+01
  0
LINE
  8
0
 62
4
 10
8.99946243E+01
 20
6.05850315E+01
 11
9.42846243E+01
 21
6.05850315E+01
  0
LINE
  8
0
 62
6
 10
9.33696243E+01
 20
6.26850315E+01
 11
9.33696243E+01
 21
6.21850315E+01
  0
LINE
  8
0
 62
6
 10
9.09096243E+01
 20
6.26850315E+01
 11
9.09096243E+01
 21
6.21850315E+01
  0
LINE
  8
0
 62
4
 10
8.91396243E+01
 20
6.13850315E+01
 11
9.51396243E+01
 21
6.13850315E+01
  0
LINE
  8
0
 62
4
 10
9.79396243E+01
 20
6.04850315E+01
 11
9.79396243E+01
 21
5.83400315E+01
  0
LINE
  8
0
 62
4
 10
9.64396243E+01
 20
5.81090315E+01
 11
9.66537290E+01
 21
5.82332122E+01
  0
LINE
  8
0
 62
4
 10
8.86396243E+01
 20
6.08850315E+01
 11
8.87896243E+01
 21
6.08850315E+01
  0
LINE
  8
0
 62
4
 10
8.88896243E+01
 20
5.91850315E+01
 11
9.53896243E+01
 21
5.91850315E+01
  0
LINE
  8
0
 62
4
 10
8.88896243E+01
 20
5.84850315E+01
 11
9.53896243E+01
 21
5.84850315E+01
  0
LINE
  8
0
 62
4
 10
9.65646243E+01
 20
6.10100315E+01
 11
9.65646243E+01
 21
5.85100315E+01
  0
LINE
  8
0
 62
4
 10
9.70646243E+01
 20
6.10100315E+01
 11
9.70646243E+01
 21
5.85895355E+01
  0
LINE
  8
0
 62
4
 10
9.65646243E+01
 20
6.10100315E+01
 11
9.70646243E+01
 21
6.10100315E+01
  0
LINE
  8
0
 62
4
 10
9.36396243E+01
 20
6.31850315E+01
 11
9.36396243E+01
 21
6.21850315E+01
  0
LINE
  8
0
 62
4
 10
9.06396243E+01
 20
6.31850315E+01
 11
9.06396243E+01
 21
6.21850315E+01
  0
LINE
  8
0
 62
4
 10
8.96396243E+01
 20
6.31850315E+01
 11
9.46396243E+01
 21
6.31850315E+01
  0
LINE
  8
0
 62
4
 10
9.06396243E+01
 20
6.46850315E+01
 11
9.36396243E+01
 21
6.46850315E+01
  0
LINE
  8
0
 62
4
 10
8.96396243E+01
 20
6.36850315E+01
 11
8.96396243E+01
 21
6.31850315E+01
  0
LINE
  8
0
 62
4
 10
9.46396243E+01
 20
6.36850315E+01
 11
9.46396243E+01
 21
6.31850315E+01
  0
LINE
  8
0
 62
4
 10
9.06396243E+01
 20
6.26850315E+01
 11
9.36396243E+01
 21
6.26850315E+01
  0
ARC
  8
0
 62
4
 10
8.86396275E+01
 20
6.13850282E+01
 40
8.00003254E-01
 50
9.00000002E+01
 51
1.79999767E+02
  0
ARC
  8
0
 62
4
 10
9.56412869E+01
 20
6.13866941E+01
 40
7.98339134E-01
 50
3.59880678E+02
 51
9.01193227E+01
  0
ARC
  8
0
 62
4
 10
8.91396286E+01
 20
6.08850272E+01
 40
5.00004290E-01
 50
9.00000002E+01
 51
1.79999508E+02
  0
ARC
  8
0
 62
4
 10
9.51412869E+01
 20
6.08866941E+01
 40
4.98340176E-01
 50
3.59808845E+02
 51
9.01911544E+01
  0
ARC
  8
0
 62
4
 10
9.74394206E+01
 20
5.83381657E+01
 40
5.00207143E-01
 50
3.00013240E+02
 51
2.13706628E-01
  0
ARC
  8
0
 62
4
 10
9.66407725E+01
 20
5.88023872E+01
 40
4.98857363E-01
 50
3.30554632E+02
 51
3.59729437E+02
  0
ARC
  8
0
 62
4
 10
9.36410366E+01
 20
6.36864438E+01
 40
9.98588677E-01
 50
3.59918966E+02
 51
9.00810348E+01
  0
ARC
  8
0
 62
4
 10
9.06398770E+01
 20
6.36847787E+01
 40
1.00025280E+00
 50
9.00000002E+01
 51
1.79985521E+02
  0
LINE
  8
0
 62
4
 10
9.00896243E+01
 20
5.74850315E+01
 11
9.41896243E+01
 21
5.74850315E+01
  0
LINE
  8
0
 62
4
 10
9.11396243E+01
 20
5.77850315E+01
 11
9.31396243E+01
 21
5.77850315E+01
  0
LINE
  8
0
 62
4
 10
9.11396243E+01
 20
5.77850315E+01
 11
9.11396243E+01
 21
5.74850315E+01
  0
LINE
  8
0
 62
4
 10
9.31396243E+01
 20
5.77850315E+01
 11
9.31396243E+01
 21
5.74850315E+01
  0
LINE
  8
0
 62
4
 10
9.06396243E+01
 20
6.05850315E+01
 11
9.06396243E+01
 21
5.94850315E+01
  0
LINE
  8
0
 62
4
 10
9.36396243E+01
 20
6.05850315E+01
 11
9.36396243E+01
 21
5.94850315E+01
  0
LINE
  8
0
 62
6
 10
9.09096243E+01
 20
6.05850315E+01
 11
9.09096243E+01
 21
5.92150315E+01
  0
LINE
  8
0
 62
6
 10
9.33696243E+01
 20
6.05850315E+01
 11
9.33696243E+01
 21
5.92150315E+01
  0
LINE
  8
0
 62
4
 10
9.73516630E+01
 20
5.77097649E+01
 11
9.76896243E+01
 21
5.79050315E+01
  0
LINE
  8
0
 62
4
 10
9.10896243E+01
 20
5.44850315E+01
 11
9.31896243E+01
 21
5.44850315E+01
  0
LINE
  8
0
 62
4
 10
9.10896243E+01
 20
5.64850315E+01
 11
9.10896243E+01
 21
5.44850315E+01
  0
LINE
  8
0
 62
4
 10
9.10896243E+01
 20
5.64850315E+01
 11
9.31896243E+01
 21
5.64850315E+01
  0
LINE
  8
0
 62
4
 10
9.31896243E+01
 20
5.64850315E+01
 11
9.31896243E+01
 21
5.44850315E+01
  0
LINE
  8
0
 62
4
 10
8.78396243E+01
 20
5.56850315E+01
 11
8.86396243E+01
 21
5.56850315E+01
  0
LINE
  8
0
 62
4
 10
9.56396243E+01
 20
5.49850315E+01
 11
9.64396243E+01
 21
5.49850315E+01
  0
LINE
  8
0
 62
4
 10
8.88896243E+01
 20
5.52850315E+01
 11
9.00896243E+01
 21
5.52850315E+01
  0
LINE
  8
0
 62
4
 10
8.88896243E+01
 20
5.56850315E+01
 11
9.00896243E+01
 21
5.56850315E+01
  0
LINE
  8
0
 62
4
 10
9.78053201E+01
 20
5.47073122E+01
 11
9.76627181E+01
 21
5.46607861E+01
  0
LINE
  8
0
 62
4
 10
9.76627327E+01
 20
5.46607413E+01
 11
9.97229143E+01
 21
4.83463068E+01
  0
LINE
  8
0
 62
4
 10
9.10896243E+01
 20
5.44850315E+01
 11
9.00896243E+01
 21
5.34850315E+01
  0
LINE
  8
0
 62
4
 10
9.41896243E+01
 20
5.34850315E+01
 11
9.31896243E+01
 21
5.44850315E+01
  0
LINE
  8
0
 62
4
 10
8.87896243E+01
 20
5.56850315E+01
 11
8.64293732E+01
 21
5.14207261E+01
  0
LINE
  8
0
 62
4
 10
8.88896243E+01
 20
5.52850315E+01
 11
8.88896243E+01
 21
5.26850315E+01
  0
LINE
  8
0
 62
4
 10
9.70646243E+01
 20
5.85895355E+01
 11
9.95213558E+01
 21
5.10596799E+01
  0
LINE
  8
0
 62
4
 10
9.65646243E+01
 20
5.85100315E+01
 11
1.00363005E+02
 21
4.68680361E+01
  0
LINE
  8
0
 62
4
 10
9.53896243E+01
 20
5.91850315E+01
 11
9.53896243E+01
 21
5.26850315E+01
  0
LINE
  8
0
 62
4
 10
9.00896243E+01
 20
5.74850315E+01
 11
9.00896243E+01
 21
5.34850315E+01
  0
LINE
  8
0
 62
4
 10
9.41896243E+01
 20
5.74850315E+01
 11
9.41896243E+01
 21
5.34850315E+01
  0
LINE
  8
0
  6
CENTER
 62
2
 10
9.21396243E+01
 20
3.21151736E+01
 11
9.21396243E+01
 21
6.71076795E+01
  0
LINE
  8
0
 62
4
 10
7.68396243E+01
 20
4.26850315E+01
 11
7.71396243E+01
 21
4.29850315E+01
  0
LINE
  8
0
 62
4
 10
7.68396243E+01
 20
4.56850315E+01
 11
7.71396243E+01
 21
4.53850315E+01
  0
LINE
  8
0
 62
4
 10
8.31396243E+01
 20
4.31850315E+01
 11
8.31396243E+01
 21
4.51850315E+01
  0
LINE
  8
0
 62
4
 10
8.21396243E+01
 20
4.28850315E+01
 11
8.21396243E+01
 21
4.54850315E+01
  0
LINE
  8
0
 62
4
 10
8.21396243E+01
 20
4.28850315E+01
 11
8.28396243E+01
 21
4.21350315E+01
  0
LINE
  8
0
 62
4
 10
8.54200628E+01
 20
5.10914230E+01
 11
8.52649759E+01
 21
5.15667629E+01
  0
LINE
  8
0
 62
4
 10
8.16173436E+01
 20
4.98507272E+01
 11
8.16638697E+01
 21
4.97081253E+01
  0
LINE
  8
0
 62
4
 10
7.77351202E+01
 20
4.91100315E+01
 11
8.52649759E+01
 21
5.15667629E+01
  0
CIRCLE
  8
0
 62
4
 10
8.08396243E+01
 20
4.41850315E+01
 40
1.30000000E+00
  0
LINE
  8
0
 62
4
 10
7.41396243E+01
 20
4.06850315E+01
 11
7.41396243E+01
 21
4.76850315E+01
  0
LINE
  8
0
 62
4
 10
7.54396243E+01
 20
4.76850315E+01
 11
8.13396243E+01
 21
4.76850315E+01
  0
LINE
  8
0
 62
4
 10
7.54396243E+01
 20
4.06850315E+01
 11
8.06396243E+01
 21
4.06850315E+01
  0
LINE
  8
0
 62
4
 10
7.91418465E+01
 20
4.84850315E+01
 11
7.88705692E+01
 21
4.89545498E+01
  0
LINE
  8
0
 62
4
 10
7.58396243E+01
 20
4.91850315E+01
 11
7.75246243E+01
 21
4.91850315E+01
  0
LINE
  8
0
 62
4
 10
7.58396243E+01
 20
4.91850315E+01
 11
7.58396243E+01
 21
4.99850315E+01
  0
LINE
  8
0
 62
4
 10
7.49396243E+01
 20
4.64700315E+01
 11
7.57396243E+01
 21
4.63300315E+01
  0
LINE
  8
0
 62
4
 10
7.49396243E+01
 20
4.19000315E+01
 11
7.57396243E+01
 21
4.20400315E+01
  0
LINE
  8
0
 62
4
 10
7.57396243E+01
 20
4.20400315E+01
 11
7.57396243E+01
 21
4.63300315E+01
  0
LINE
  8
0
 62
6
 10
7.36396243E+01
 20
4.54150315E+01
 11
7.41396243E+01
 21
4.54150315E+01
  0
LINE
  8
0
 62
6
 10
7.36396243E+01
 20
4.29550315E+01
 11
7.41396243E+01
 21
4.29550315E+01
  0
LINE
  8
0
 62
4
 10
7.49396243E+01
 20
3.98850315E+01
 11
8.06396243E+01
 21
3.98850315E+01
  0
LINE
  8
0
 62
4
 10
8.13396243E+01
 20
4.84850315E+01
 11
7.49396243E+01
 21
4.84850315E+01
  0
LINE
  8
0
 62
4
 10
7.49396243E+01
 20
4.11850315E+01
 11
7.49396243E+01
 21
4.71850315E+01
  0
LINE
  8
0
 62
4
 10
7.58396243E+01
 20
4.99850315E+01
 11
7.79846243E+01
 21
4.99850315E+01
  0
LINE
  8
0
 62
4
 10
7.82156243E+01
 20
4.84850315E+01
 11
7.80914435E+01
 21
4.86991362E+01
  0
LINE
  8
0
 62
4
 10
7.54396243E+01
 20
4.08350315E+01
 11
8.06396243E+01
 21
4.08350315E+01
  0
LINE
  8
0
 62
4
 10
7.54396243E+01
 20
4.06850315E+01
 11
7.54396243E+01
 21
4.08350315E+01
  0
LINE
  8
0
 62
4
 10
7.71396243E+01
 20
4.09350315E+01
 11
7.71396243E+01
 21
4.74350315E+01
  0
LINE
  8
0
 62
4
 10
7.78396243E+01
 20
4.09350315E+01
 11
7.78396243E+01
 21
4.74350315E+01
  0
LINE
  8
0
 62
4
 10
7.53146243E+01
 20
4.86100315E+01
 11
7.78146243E+01
 21
4.86100315E+01
  0
LINE
  8
0
 62
4
 10
7.53146243E+01
 20
4.91100315E+01
 11
7.77351202E+01
 21
4.91100315E+01
  0
LINE
  8
0
 62
4
 10
7.53146243E+01
 20
4.86100315E+01
 11
7.53146243E+01
 21
4.91100315E+01
  0
LINE
  8
0
 62
4
 10
7.31396243E+01
 20
4.56850315E+01
 11
7.41396243E+01
 21
4.56850315E+01
  0
LINE
  8
0
 62
4
 10
7.31396243E+01
 20
4.26850315E+01
 11
7.41396243E+01
 21
4.26850315E+01
  0
LINE
  8
0
 62
4
 10
8.06396243E+01
 20
3.98850315E+01
 11
8.06396243E+01
 21
4.06850315E+01
  0
LINE
  8
0
 62
4
 10
8.13396243E+01
 20
4.76850315E+01
 11
8.13396243E+01
 21
4.84850315E+01
  0
LINE
  8
0
 62
4
 10
7.31396243E+01
 20
4.16850315E+01
 11
7.31396243E+01
 21
4.66850315E+01
  0
LINE
  8
0
 62
4
 10
7.16396243E+01
 20
4.26850315E+01
 11
7.16396243E+01
 21
4.56850315E+01
  0
LINE
  8
0
 62
4
 10
7.26396243E+01
 20
4.16850315E+01
 11
7.31396243E+01
 21
4.16850315E+01
  0
LINE
  8
0
 62
4
 10
7.26396243E+01
 20
4.66850315E+01
 11
7.31396243E+01
 21
4.66850315E+01
  0
LINE
  8
0
 62
4
 10
7.36396243E+01
 20
4.26850315E+01
 11
7.36396243E+01
 21
4.56850315E+01
  0
ARC
  8
0
 62
4
 10
7.49396275E+01
 20
4.06850347E+01
 40
8.00003254E-01
 50
1.80000233E+02
 51
2.70000000E+02
  0
ARC
  8
0
 62
4
 10
7.49379617E+01
 20
4.76866941E+01
 40
7.98339134E-01
 50
8.98806771E+01
 51
1.80119323E+02
  0
ARC
  8
0
 62
4
 10
7.54396286E+01
 20
4.11850357E+01
 40
5.00004290E-01
 50
1.80000491E+02
 51
2.70000000E+02
  0
ARC
  8
0
 62
4
 10
7.54379617E+01
 20
4.71866941E+01
 40
4.98340176E-01
 50
8.98088454E+01
 51
1.80191155E+02
  0
ARC
  8
0
 62
4
 10
7.79864900E+01
 20
4.94848278E+01
 40
5.00207143E-01
 50
3.00132395E+01
 51
9.02137066E+01
  0
ARC
  8
0
 62
4
 10
7.75222686E+01
 20
4.86861797E+01
 40
4.98857363E-01
 50
6.05546317E+01
 51
8.97294375E+01
  0
ARC
  8
0
 62
4
 10
7.26382120E+01
 20
4.56864438E+01
 40
9.98588677E-01
 50
8.99189656E+01
 51
1.80081034E+02
  0
ARC
  8
0
 62
4
 10
7.26398770E+01
 20
4.26852842E+01
 40
1.00025280E+00
 50
1.80014479E+02
 51
2.70000000E+02
  0
LINE
  8
0
 62
4
 10
7.71396243E+01
 20
4.74350315E+01
 11
8.36396243E+01
 21
4.74350315E+01
  0
LINE
  8
0
 62
4
 10
8.39900768E+01
 20
4.70845790E+01
 11
8.36396243E+01
 21
4.74350315E+01
  0
LINE
  8
0
 62
4
 10
8.39900768E+01
 20
4.12854840E+01
 11
8.36396243E+01
 21
4.09350315E+01
  0
LINE
  8
0
 62
4
 10
8.10396243E+01
 20
4.09350315E+01
 11
8.36396243E+01
 21
4.09350315E+01
  0
LINE
  8
0
 62
4
 10
8.10396243E+01
 20
4.09350315E+01
 11
8.10396243E+01
 21
4.21350315E+01
  0
LINE
  8
0
 62
4
 10
8.06396243E+01
 20
4.09350315E+01
 11
8.06396243E+01
 21
4.21350315E+01
  0
LINE
  8
0
 62
4
 10
7.71396243E+01
 20
4.09350315E+01
 11
8.06396243E+01
 21
4.09350315E+01
  0
LINE
  8
0
 62
4
 10
8.28396243E+01
 20
4.21350315E+01
 11
8.28396243E+01
 21
4.62350315E+01
  0
LINE
  8
0
 62
4
 10
7.88396243E+01
 20
4.21350315E+01
 11
7.88396243E+01
 21
4.62350315E+01
  0
LINE
  8
0
 62
4
 10
7.85396243E+01
 20
4.31850315E+01
 11
7.85396243E+01
 21
4.51850315E+01
  0
LINE
  8
0
 62
4
 10
7.95396243E+01
 20
4.28850315E+01
 11
7.95396243E+01
 21
4.54850315E+01
  0
LINE
  8
0
 62
4
 10
7.85396243E+01
 20
4.31850315E+01
 11
7.88396243E+01
 21
4.31850315E+01
  0
LINE
  8
0
 10
8.28396243E+01
 20
4.31850315E+01
 11
8.31396243E+01
 21
4.31850315E+01
  0
LINE
  8
0
 62
4
 10
7.88396243E+01
 20
4.21350315E+01
 11
8.28396243E+01
 21
4.21350315E+01
  0
LINE
  8
0
 62
4
 10
7.95396243E+01
 20
4.28850315E+01
 11
8.21396243E+01
 21
4.28850315E+01
  0
LINE
  8
0
 62
4
 10
7.88396243E+01
 20
4.21350315E+01
 11
7.95396243E+01
 21
4.28850315E+01
  0
LINE
  8
0
 62
4
 10
7.88396243E+01
 20
4.62350315E+01
 11
8.28396243E+01
 21
4.62350315E+01
  0
LINE
  8
0
 62
4
 10
7.85396243E+01
 20
4.51850315E+01
 11
7.88396243E+01
 21
4.51850315E+01
  0
LINE
  8
0
 62
4
 10
8.28396243E+01
 20
4.51850315E+01
 11
8.31396243E+01
 21
4.51850315E+01
  0
LINE
  8
0
 62
4
 10
7.95396243E+01
 20
4.54850315E+01
 11
8.21396243E+01
 21
4.54850315E+01
  0
LINE
  8
0
 62
4
 10
7.95396243E+01
 20
4.54850315E+01
 11
7.88396243E+01
 21
4.62350315E+01
  0
LINE
  8
0
 62
4
 10
8.21396243E+01
 20
4.54850315E+01
 11
8.28396243E+01
 21
4.62350315E+01
  0
LINE
  8
0
 62
4
 10
7.57396243E+01
 20
4.26850315E+01
 11
7.68396243E+01
 21
4.26850315E+01
  0
LINE
  8
0
 62
4
 10
7.57396243E+01
 20
4.56850315E+01
 11
7.68396243E+01
 21
4.56850315E+01
  0
LINE
  8
0
 62
6
 10
7.57396243E+01
 20
4.29550315E+01
 11
7.71096243E+01
 21
4.29550315E+01
  0
LINE
  8
0
 62
6
 10
7.57396243E+01
 20
4.54150315E+01
 11
7.71096243E+01
 21
4.54150315E+01
  0
LINE
  8
0
 62
4
 10
7.86148908E+01
 20
4.93970702E+01
 11
7.84196243E+01
 21
4.97350315E+01
  0
ARC
  8
0
 62
7
 10
9.21396243E+01
 20
4.41850315E+01
 40
9.50000000E+00
 50
1.34595066E+02
 51
1.46525335E+02
  0
LINE
  8
0
 62
4
 10
8.36396243E+01
 20
4.90925088E+01
 11
8.36396243E+01
 21
4.74350315E+01
  0
LINE
  8
0
 62
4
 10
8.42153912E+01
 20
4.94249294E+01
 11
8.36396211E+01
 21
4.90925084E+01
  0
LINE
  8
0
 62
7
 10
8.43114165E+01
 20
3.88027305E+01
 11
8.43114165E+01
 21
4.05051316E+01
  0
LINE
  8
0
 62
7
 10
8.42153912E+01
 20
4.94249294E+01
 11
8.42153912E+01
 21
4.76533208E+01
  0
LINE
  8
0
 62
4
 10
8.43114165E+01
 20
3.88896936E+01
 11
8.36396212E+01
 21
3.92775548E+01
  0
LINE
  8
0
 62
4
 10
8.36396243E+01
 20
4.09350315E+01
 11
8.36396243E+01
 21
3.92775541E+01
  0
LINE
  8
0
 62
4
 10
8.61235346E+01
 20
5.11631597E+01
 11
8.46068934E+01
 21
4.84374790E+01
  0
LINE
  8
0
 62
4
 10
8.63227963E+01
 20
5.12281719E+01
 11
8.48189705E+01
 21
4.85111846E+01
  0
ARC
  8
0
 62
7
 10
9.21396243E+01
 20
4.41850315E+01
 40
9.50000000E+00
 50
2.13474648E+02
 51
2.14510551E+02
  0
ARC
  8
0
 62
7
 10
9.21396243E+01
 20
4.41850315E+01
 40
9.50000000E+00
 50
1.26485460E+02
 51
1.32491528E+02
  0
ARC
  8
0
 62
7
 10
9.21396243E+01
 20
4.41850315E+01
 40
9.50000000E+00
 50
2.16485460E+02
 51
2.43474648E+02
  0
LINE
  8
0
 62
4
 10
8.86396243E+01
 20
5.56850315E+01
 11
8.62308023E+01
 21
5.13559393E+01
  0
CIRCLE
  8
0
 62
4
 10
9.21396228E+01
 20
4.41916880E+01
 40
8.00000000E+00
  0
LINE
  8
0
 62
4
 10
8.06396243E+01
 20
4.08350315E+01
 11
8.80234018E+01
 21
3.67481832E+01
  0
LINE
  8
0
 62
4
 10
8.06396243E+01
 20
4.06850315E+01
 11
8.79337828E+01
 21
3.66263677E+01
  0
LINE
  8
0
 62
4
 10
7.78146243E+01
 20
4.86100315E+01
 11
8.94566196E+01
 21
5.24084119E+01
  0
LINE
  8
0
 62
4
 10
8.16639145E+01
 20
4.97081399E+01
 11
8.95031457E+01
 21
5.22658099E+01
  0
LINE
  8
0
  6
CENTER
 62
2
 10
6.92311127E+01
 20
4.41850315E+01
 11
1.03247538E+02
 21
4.41850315E+01
  0
ARC
  8
0
 62
4
 10
9.21396243E+01
 20
4.41850315E+01
 40
8.65000000E+00
 50
1.50553997E+02
 51
2.30350158E+02
  0
CIRCLE
  8
0
 62
4
 10
9.21396228E+01
 20
4.41916880E+01
 40
8.50000000E+00
  0
LINE
  8
0
  6
CENTER
 62
6
 10
-1.20326312E+02
 20
-4.60748853E+01
 11
-1.20326312E+02
 21
-5.23890238E+01
  0
LINE
  8
0
  6
CENTER
 62
6
 10
-9.11263117E+01
 20
-4.60748853E+01
 11
-9.11263117E+01
 21
-5.23890238E+01
  0
LINE
  8
0
 62
4
 10
-1.26726312E+02
 20
-5.06294654E+01
 11
-8.47263117E+01
 21
-5.06294654E+01
  0
LINE
  8
0
 62
4
 10
-8.47263117E+01
 20
-4.83294654E+01
 11
-8.47263117E+01
 21
-5.06294654E+01
  0
LINE
  8
0
 62
4
 10
-1.26726312E+02
 20
-4.83294654E+01
 11
-1.26726312E+02
 21
-5.06294654E+01
  0
LINE
  8
0
  6
CENTER
 62
6
 10
-1.05726312E+02
 20
-2.82307565E+01
 11
-1.05726312E+02
 21
-4.49052023E+01
  0
LINE
  8
0
  6
CENTER
 62
6
 10
-1.13226312E+02
 20
-3.66294654E+01
 11
-9.82263117E+01
 21
-3.66294654E+01
  0
CIRCLE
  8
0
 62
4
 10
-1.05726312E+02
 20
-3.66294654E+01
 40
6.00000000E+00
  0
LINE
  8
0
 62
4
 10
-1.26726312E+02
 20
-4.83294654E+01
 11
-8.47263117E+01
 21
-4.83294654E+01
  0
ARC
  8
0
 62
4
 10
-1.05726312E+02
 20
-3.66294654E+01
 40
1.00000000E+01
 50
3.62946002E+01
 51
1.43705400E+02
  0
LINE
  8
0
 62
4
 10
-8.47263117E+01
 20
-4.83294654E+01
 11
-9.76664710E+01
 21
-3.07100932E+01
  0
LINE
  8
0
 62
4
 10
-1.26726312E+02
 20
-4.83294654E+01
 11
-1.13786152E+02
 21
-3.07100932E+01
  0
LINE
  8
0
  6
CENTER
 62
6
 10
-7.28263117E+01
 20
-4.60748853E+01
 11
-7.28263117E+01
 21
-5.23890238E+01
  0
LINE
  8
0
 62
4
 10
-7.88263117E+01
 20
-4.83294654E+01
 11
-7.88263117E+01
 21
-5.06294654E+01
  0
LINE
  8
0
 62
4
 10
-7.02263117E+01
 20
-4.83294654E+01
 11
-7.02263117E+01
 21
-5.06294654E+01
  0
LINE
  8
0
 62
4
 10
-7.54263117E+01
 20
-4.83294654E+01
 11
-7.54263117E+01
 21
-5.06294654E+01
  0
LINE
  8
0
 62
4
 10
-6.38263117E+01
 20
-2.66294654E+01
 11
-6.38263117E+01
 21
-4.71794654E+01
  0
LINE
  8
0
 62
4
 10
-6.61263117E+01
 20
-2.66294654E+01
 11
-6.38263117E+01
 21
-2.66294654E+01
  0
LINE
  8
0
  6
CENTER
 62
6
 10
-6.86744785E+01
 20
-3.66294654E+01
 11
-6.13263117E+01
 21
-3.66294654E+01
  0
LINE
  8
0
 62
4
 10
-7.88263117E+01
 20
-5.06294654E+01
 11
-6.72763117E+01
 21
-5.06294654E+01
  0
LINE
  8
0
 62
4
 10
-6.61263117E+01
 20
-2.66294654E+01
 11
-6.61263117E+01
 21
-4.71794654E+01
  0
LINE
  8
0
 62
4
 10
-7.88263117E+01
 20
-4.83294654E+01
 11
-6.72763117E+01
 21
-4.83294654E+01
  0
ARC
  8
0
 62
4
 10
-6.72763117E+01
 20
-4.71794654E+01
 40
1.15000000E+00
 50
2.70000000E+02
 51
0.00000000E+00
  0
ARC
  8
0
 62
4
 10
-6.72763117E+01
 20
-4.71794654E+01
 40
3.45000000E+00
 50
2.70000000E+02
 51
0.00000000E+00
  0
LINE
  8
0
 62
4
 10
-1.26512916E+02
 20
7.22567563E-01
 11
-8.45129161E+01
 21
7.22567563E-01
  0
LINE
  8
0
 62
4
 10
-8.45129161E+01
 20
3.02256756E+00
 11
-8.45129161E+01
 21
-3.37743244E+00
  0
LINE
  8
0
 62
4
 10
-1.26512916E+02
 20
3.02256756E+00
 11
-8.45129161E+01
 21
3.02256756E+00
  0
LINE
  8
0
 62
4
 10
-1.26512916E+02
 20
-1.19774324E+01
 11
-8.45129161E+01
 21
-1.19774324E+01
  0
LINE
  8
0
  6
CENTER
 62
6
 10
-1.05512916E+02
 20
4.41256756E+00
 11
-1.05512916E+02
 21
-1.32174324E+01
  0
LINE
  8
0
  6
CENTER
 62
6
 10
-1.23415880E+02
 20
-5.97743244E+00
 11
-8.80782931E+01
 21
-5.97743244E+00
  0
LINE
  8
0
 62
4
 10
-8.45129161E+01
 20
-8.57743244E+00
 11
-8.45129161E+01
 21
-1.19774324E+01
  0
ARC
  8
0
 62
4
 10
-9.09129161E+01
 20
-5.97743244E+00
 40
2.60000000E+00
 50
9.00000002E+01
 51
2.70000000E+02
  0
LINE
  8
0
  6
CENTER
 62
6
 10
-9.09129161E+01
 20
-9.65040214E+00
 11
-9.09129161E+01
 21
-2.43088806E+00
  0
LINE
  8
0
 62
4
 10
-9.09129161E+01
 20
-8.57743244E+00
 11
-8.45129161E+01
 21
-8.57743244E+00
  0
LINE
  8
0
 62
4
 10
-9.09129161E+01
 20
-3.37743244E+00
 11
-8.45129161E+01
 21
-3.37743244E+00
  0
ARC
  8
0
 62
4
 10
-1.20112916E+02
 20
-5.97743244E+00
 40
2.60000000E+00
 50
2.70000000E+02
 51
9.00000002E+01
  0
LINE
  8
0
  6
CENTER
 62
6
 10
-1.20112916E+02
 20
-9.81083579E+00
 11
-1.20112916E+02
 21
-2.32393229E+00
  0
LINE
  8
0
 62
4
 10
-1.20112916E+02
 20
-8.57743244E+00
 11
-1.26512916E+02
 21
-8.57743244E+00
  0
LINE
  8
0
 62
4
 10
-1.20112916E+02
 20
-3.37743244E+00
 11
-1.26512916E+02
 21
-3.37743244E+00
  0
LINE
  8
0
 62
4
 10
-1.26512916E+02
 20
-8.57743244E+00
 11
-1.26512916E+02
 21
-1.19774324E+01
  0
LINE
  8
0
 62
4
 10
-1.26512916E+02
 20
3.02256756E+00
 11
-1.26512916E+02
 21
-3.37743244E+00
  0
LINE
  8
0
  6
CENTER
 62
6
 10
-3.45743113E+01
 20
-4.11294654E+01
 11
1.30586051E+01
 21
-4.11294654E+01
  0
LINE
  8
0
  6
CENTER
 62
6
 10
-1.07263117E+01
 20
-3.39294654E+01
 11
-1.07263117E+01
 21
-4.84394654E+01
  0
ARC
  8
0
 62
4
 10
3.87368830E+00
 20
-4.11294654E+01
 40
2.60000000E+00
 50
9.00000002E+01
 51
2.70000000E+02
  0
ARC
  8
0
 62
4
 10
-2.53263117E+01
 20
-4.11294654E+01
 40
2.60000000E+00
 50
2.70000000E+02
 51
9.00000002E+01
  0
CIRCLE
  8
0
 62
4
 10
-1.07263117E+01
 20
-4.11294654E+01
 40
6.00000000E+00
  0
LINE
  8
0
  6
CENTER
 62
6
 10
-2.53263117E+01
 20
-3.73694202E+01
 11
-2.53263117E+01
 21
-4.50723884E+01
  0
LINE
  8
0
  6
CENTER
 62
6
 10
3.87368830E+00
 20
-3.73694202E+01
 11
3.87368830E+00
 21
-4.50723884E+01
  0
LINE
  8
0
 62
4
 10
-3.17263117E+01
 20
-4.37294654E+01
 11
-2.53263117E+01
 21
-4.37294654E+01
  0
LINE
  8
0
 62
4
 10
3.87368830E+00
 20
-4.37294654E+01
 11
1.02736883E+01
 21
-4.37294654E+01
  0
LINE
  8
0
 62
4
 10
-3.17263117E+01
 20
-5.11294654E+01
 11
1.02736883E+01
 21
-5.11294654E+01
  0
LINE
  8
0
 62
4
 10
1.02736883E+01
 20
-4.37294654E+01
 11
1.02736883E+01
 21
-5.11294654E+01
  0
LINE
  8
0
 62
4
 10
-3.17263117E+01
 20
-4.37294654E+01
 11
-3.17263117E+01
 21
-5.11294654E+01
  0
LINE
  8
0
 62
4
 10
1.02736883E+01
 20
-3.11294654E+01
 11
1.02736883E+01
 21
-3.85294654E+01
  0
LINE
  8
0
 62
4
 10
-3.17263117E+01
 20
-3.11294654E+01
 11
-3.17263117E+01
 21
-3.85294654E+01
  0
LINE
  8
0
 62
4
 10
-3.17263117E+01
 20
-3.85294654E+01
 11
-2.53263117E+01
 21
-3.85294654E+01
  0
LINE
  8
0
 62
4
 10
3.87368830E+00
 20
-3.85294654E+01
 11
1.02736883E+01
 21
-3.85294654E+01
  0
LINE
  8
0
 62
4
 10
-3.17263117E+01
 20
-3.11294654E+01
 11
1.02736883E+01
 21
-3.11294654E+01
  0
LINE
  8
0
  6
CENTER
 62
6
 10
1.78709590E+01
 20
-4.11294654E+01
 11
2.48100080E+01
 21
-4.11294654E+01
  0
LINE
  8
0
 62
4
 10
2.02736883E+01
 20
-3.11294654E+01
 11
2.02736883E+01
 21
-5.11294654E+01
  0
LINE
  8
0
 62
4
 10
2.25736883E+01
 20
-3.11294654E+01
 11
2.25736883E+01
 21
-5.11294654E+01
  0
LINE
  8
0
 62
4
 10
2.02736883E+01
 20
-4.37294654E+01
 11
2.25736883E+01
 21
-4.37294654E+01
  0
LINE
  8
0
 62
4
 10
2.02736883E+01
 20
-5.11294654E+01
 11
2.25736883E+01
 21
-5.11294654E+01
  0
LINE
  8
0
 62
4
 10
2.02736883E+01
 20
-3.85294654E+01
 11
2.25736883E+01
 21
-3.85294654E+01
  0
LINE
  8
0
 62
4
 10
2.02736883E+01
 20
-3.11294654E+01
 11
2.25736883E+01
 21
-3.11294654E+01
  0
LINE
  8
0
  6
CENTER
 62
6
 10
3.87368833E+00
 20
-5.69305128E+00
 11
3.87368833E+00
 21
-1.18945288E+01
  0
LINE
  8
0
  6
CENTER
 62
6
 10
-2.53263117E+01
 20
-5.69305128E+00
 11
-2.53263117E+01
 21
-1.18945288E+01
  0
LINE
  8
0
 62
4
 10
-3.17263117E+01
 20
-9.92946544E+00
 11
1.02736883E+01
 21
-9.92946544E+00
  0
LINE
  8
0
 62
4
 10
-3.17263117E+01
 20
-7.62946544E+00
 11
1.02736883E+01
 21
-7.62946544E+00
  0
LINE
  8
0
 62
4
 10
-3.17263117E+01
 20
-7.62946544E+00
 11
-3.17263117E+01
 21
-9.92946544E+00
  0
LINE
  8
0
 62
4
 10
1.02736883E+01
 20
-7.62946544E+00
 11
1.02736883E+01
 21
-9.92946544E+00
  0
LINE
  8
0
  6
CENTER
 62
6
 10
-1.07263117E+01
 20
-5.69305128E+00
 11
-1.07263117E+01
 21
-1.18945288E+01
  0
LINE
  8
0
 62
4
 10
8.77990548E+01
 20
1.86715774E+00
 11
8.77896104E+01
 21
-1.51328396E+01
  0
LINE
  8
0
 62
4
 10
8.95490546E+01
 20
1.86618551E+00
 11
8.95466879E+01
 21
-2.39381383E+00
  0
LINE
  8
0
 62
4
 10
8.95419712E+01
 20
-1.08838125E+01
 11
8.95396101E+01
 21
-1.51338119E+01
  0
LINE
  8
0
 62
4
 10
9.50419704E+01
 20
-1.08868681E+01
 11
9.50396093E+01
 21
-1.51368674E+01
  0
LINE
  8
0
 62
4
 10
9.50490537E+01
 20
1.86312996E+00
 11
9.50466870E+01
 21
-2.39686938E+00
  0
LINE
  8
0
 62
4
 10
9.67990534E+01
 20
1.86215774E+00
 11
9.67896090E+01
 21
-1.51378396E+01
  0
LINE
  8
0
  6
CENTER
 62
6
 10
6.17205074E+01
 20
-6.61835549E+00
 11
9.75943311E+01
 21
-6.63828540E+00
  0
CIRCLE
  8
0
 62
6
 10
9.22893289E+01
 20
-6.63535038E+00
 40
2.50000000E+00
  0
LINE
  8
0
 62
4
 10
8.95466879E+01
 20
-2.39381383E+00
 11
9.50466870E+01
 21
-2.39686938E+00
  0
LINE
  8
0
 62
4
 10
8.95419712E+01
 20
-1.08838125E+01
 11
9.50419704E+01
 21
-1.08868681E+01
  0
CIRCLE
  8
0
 62
4
 10
9.22943319E+01
 20
-6.63534095E+00
 40
2.10000000E+00
  0
LINE
  8
0
  6
CENTER
 62
6
 10
9.22963041E+01
 20
-3.08534150E+00
 11
9.22922875E+01
 21
-1.03153404E+01
  0
LINE
  8
0
 62
4
 10
8.77990548E+01
 20
1.86715774E+00
 11
9.67990534E+01
 21
1.86215774E+00
  0
LINE
  8
0
 62
4
 10
8.77896104E+01
 20
-1.51328396E+01
 11
9.67896090E+01
 21
-1.51378396E+01
  0
ARC
  8
0
 62
4
 10
9.38179003E+01
 20
-6.64118738E+00
 40
6.02357350E+00
 50
1.35160339E+02
 51
2.24775999E+02
  0
ARC
  8
0
 62
4
 10
9.07707579E+01
 20
-6.63949452E+00
 40
6.02357350E+00
 50
3.15160339E+02
 51
4.47759987E+01
  0
ARC
  8
0
 62
4
 10
1.17794537E+02
 20
-6.63784095E+00
 40
9.50000000E+00
 50
2.96525352E+02
 51
3.33474648E+02
  0
ARC
  8
0
 62
4
 10
1.17794537E+02
 20
-6.63784095E+00
 40
9.50000000E+00
 50
2.06525352E+02
 51
2.43474648E+02
  0
ARC
  8
0
 62
4
 10
1.17794537E+02
 20
-6.63784095E+00
 40
9.50000000E+00
 50
1.16525352E+02
 51
1.53474648E+02
  0
ARC
  8
0
 62
4
 10
1.17794537E+02
 20
-6.63784095E+00
 40
9.50000000E+00
 50
2.65253520E+01
 51
6.34746480E+01
  0
LINE
  8
0
 62
4
 10
1.09294537E+02
 20
-2.39784095E+00
 11
1.09294537E+02
 21
-1.08878410E+01
  0
LINE
  8
0
 62
4
 10
1.26294537E+02
 20
-2.39784095E+00
 11
1.26294537E+02
 21
-1.08878410E+01
  0
LINE
  8
0
  6
CENTER
 62
6
 10
1.06944537E+02
 20
-6.63784095E+00
 11
1.28994537E+02
 21
-6.63784095E+00
  0
LINE
  8
0
  6
CENTER
 62
6
 10
1.17794537E+02
 20
4.21215905E+00
 11
1.17794537E+02
 21
-1.64378410E+01
  0
LINE
  8
0
 62
4
 10
1.13554537E+02
 20
1.86215905E+00
 11
1.22034537E+02
 21
1.86215905E+00
  0
LINE
  8
0
 62
4
 10
1.13554537E+02
 20
-1.51378410E+01
 11
1.22034537E+02
 21
-1.51378410E+01
  0
CIRCLE
  8
0
 62
4
 10
1.17794537E+02
 20
-6.63784095E+00
 40
8.50000000E+00
  0
LINE
  8
0
  6
CENTER
 62
6
 10
5.59619758E+01
 20
-4.61378410E+01
 11
9.79045373E+01
 21
-4.61378410E+01
  0
LINE
  8
0
 62
6
 10
8.87661228E+01
 20
-5.16378410E+01
 11
8.82976551E+01
 21
-5.16378410E+01
  0
LINE
  8
0
 62
6
 10
9.42976395E+01
 20
-5.16378410E+01
 11
9.27661228E+01
 21
-5.16378410E+01
  0
LINE
  8
0
 62
6
 10
8.87661228E+01
 20
-4.06378410E+01
 11
8.82976551E+01
 21
-4.06378410E+01
  0
LINE
  8
0
 62
4
 10
8.82976551E+01
 20
-4.01378390E+01
 11
8.82976551E+01
 21
-5.21378429E+01
  0
LINE
  8
0
 62
4
 10
9.47976407E+01
 20
-4.11378507E+01
 11
9.37976396E+01
 21
-4.01378496E+01
  0
LINE
  8
0
 62
4
 10
9.37976322E+01
 20
-4.01378410E+01
 11
9.37976322E+01
 21
-5.21378410E+01
  0
LINE
  8
0
 62
4
 10
9.37976551E+01
 20
-4.01378390E+01
 11
9.27661228E+01
 21
-4.01378390E+01
  0
LINE
  8
0
 62
4
 10
8.87661228E+01
 20
-4.01378390E+01
 11
8.67976551E+01
 21
-4.01378390E+01
  0
LINE
  8
0
 62
4
 10
8.87661228E+01
 20
-5.21378429E+01
 11
8.67976551E+01
 21
-5.21378429E+01
  0
LINE
  8
0
 62
4
 10
9.37976551E+01
 20
-5.21378429E+01
 11
9.27661228E+01
 21
-5.21378429E+01
  0
LINE
  8
0
 62
4
 10
9.47976551E+01
 20
-4.11378643E+01
 11
9.47976551E+01
 21
-5.11378343E+01
  0
LINE
  8
0
 62
6
 10
9.42976310E+01
 20
-4.06378410E+01
 11
9.27661228E+01
 21
-4.06378410E+01
  0
LINE
  8
0
 62
4
 10
9.47976488E+01
 20
-5.11378316E+01
 11
9.37976477E+01
 21
-5.21378327E+01
  0
LINE
  8
0
 62
4
 10
8.67945373E+01
 20
-3.76378410E+01
 11
8.67945373E+01
 21
-5.46378410E+01
  0
LINE
  8
0
 62
4
 10
7.95545373E+01
 20
-3.76378410E+01
 11
7.95545373E+01
 21
-4.18878410E+01
  0
LINE
  8
0
 62
4
 10
8.50445373E+01
 20
-3.76378410E+01
 11
8.50445373E+01
 21
-4.18878410E+01
  0
LINE
  8
0
 62
4
 10
7.95545373E+01
 20
-5.03878410E+01
 11
7.95545373E+01
 21
-5.46378410E+01
  0
LINE
  8
0
 62
4
 10
8.50445373E+01
 20
-5.03878410E+01
 11
8.50445373E+01
 21
-5.46378410E+01
  0
LINE
  8
0
 62
4
 10
7.78045373E+01
 20
-3.76378410E+01
 11
7.78045373E+01
 21
-5.46378410E+01
  0
CIRCLE
  8
0
 62
4
 10
8.23045373E+01
 20
-4.61378410E+01
 40
2.10000000E+00
  0
LINE
  8
0
  6
CENTER
 62
6
 10
8.23045373E+01
 20
-4.25878410E+01
 11
8.23045373E+01
 21
-4.98178410E+01
  0
CIRCLE
  8
0
 62
6
 10
8.22995373E+01
 20
-4.61378532E+01
 40
2.50000000E+00
  0
LINE
  8
0
 62
4
 10
7.78045373E+01
 20
-3.76378410E+01
 11
8.67945373E+01
 21
-3.76378410E+01
  0
LINE
  8
0
 62
4
 10
7.78045373E+01
 20
-5.46378410E+01
 11
8.67945373E+01
 21
-5.46378410E+01
  0
ARC
  8
0
 62
4
 10
8.50406125E+01
 20
-5.34992445E+01
 40
7.72588230E+00
 50
3.41485076E+02
 51
1.85207334E+01
  0
ARC
  8
0
 62
4
 10
6.24626408E+01
 20
-4.61391701E+01
 40
3.03034821E+01
 50
3.50683127E+02
 51
9.32266578E+00
  0
ARC
  8
0
 62
4
 10
8.50398769E+01
 20
-3.87768133E+01
 40
7.72587392E+00
 50
3.41485042E+02
 51
1.85207487E+01
  0
ARC
  8
0
 62
4
 10
9.64917249E+01
 20
-3.87762339E+01
 40
7.72597404E+00
 50
1.61485297E+02
 51
1.98520472E+02
  0
ARC
  8
0
 62
4
 10
1.19070746E+02
 20
-4.61363096E+01
 40
3.03046228E+01
 50
1.70683476E+02
 51
1.89322312E+02
  0
ARC
  8
0
 62
4
 10
9.64926483E+01
 20
-5.34986665E+01
 40
7.72615355E+00
 50
1.61485736E+02
 51
1.98520054E+02
  0
LINE
  8
0
 62
4
 10
8.91663647E+01
 20
-5.10452980E+01
 11
9.23663701E+01
 21
-5.10451363E+01
  0
LINE
  8
0
 62
4
 10
8.91658783E+01
 20
-4.12303435E+01
 11
9.23658657E+01
 21
-4.12301818E+01
  0
LINE
  8
0
 62
4
 10
8.91666127E+01
 20
-5.59527753E+01
 11
9.23666181E+01
 21
-5.59526136E+01
  0
LINE
  8
0
 62
4
 10
8.91656303E+01
 20
-3.63228662E+01
 11
9.23656177E+01
 21
-3.63227045E+01
  0
LINE
  8
0
 62
4
 10
9.27664948E+01
 20
-5.34988541E+01
 11
9.27657508E+01
 21
-3.87764229E+01
  0
LINE
  8
0
 62
4
 10
8.87664948E+01
 20
-5.34990569E+01
 11
8.87657508E+01
 21
-3.87766243E+01
  0
LINE
  8
0
 62
4
 10
7.95545373E+01
 20
-4.18878410E+01
 11
8.50445373E+01
 21
-4.18878410E+01
  0
LINE
  8
0
 62
4
 10
7.95545373E+01
 20
-5.03878410E+01
 11
8.50445373E+01
 21
-5.03878410E+01
  0
ARC
  8
0
 62
4
 10
8.38402516E+01
 20
-4.61378410E+01
 40
6.03571429E+00
 50
1.35239730E+02
 51
2.24760270E+02
  0
ARC
  8
0
 62
4
 10
8.07588230E+01
 20
-4.61378410E+01
 40
6.03571429E+00
 50
3.15239730E+02
 51
4.47602701E+01
  0
LINE
  8
0
 62
7
 10
1.20072108E+02
 20
-3.76378410E+01
 11
1.22037178E+02
 21
-3.76378410E+01
  0
LINE
  8
0
 62
7
 10
1.20072108E+02
 20
-5.46378410E+01
 11
1.22037178E+02
 21
-5.46378410E+01
  0
ARC
  8
0
 62
7
 10
1.17794537E+02
 20
-4.61378410E+01
 40
9.50000000E+00
 50
2.13474627E+02
 51
2.43474648E+02
  0
ARC
  8
0
 62
7
 10
1.17794537E+02
 20
-4.61378410E+01
 40
9.50000000E+00
 50
3.34746653E+01
 51
6.34746480E+01
  0
ARC
  8
0
 62
7
 10
1.17794537E+02
 20
-4.61378410E+01
 40
9.50000000E+00
 50
2.96525352E+02
 51
3.26525339E+02
  0
ARC
  8
0
 62
7
 10
1.17794537E+02
 20
-4.61378410E+01
 40
9.50000000E+00
 50
1.16525352E+02
 51
1.46525369E+02
  0
LINE
  8
0
 62
7
 10
1.13551897E+02
 20
-5.46378410E+01
 11
1.15516972E+02
 21
-5.46378410E+01
  0
LINE
  8
0
 62
7
 10
1.13551897E+02
 20
-3.76378410E+01
 11
1.15516972E+02
 21
-3.76378410E+01
  0
LINE
  8
0
 62
4
 10
1.17794539E+02
 20
-3.63228857E+01
 11
1.26294540E+02
 21
-4.12303640E+01
  0
CIRCLE
  8
0
 62
4
 10
1.17794537E+02
 20
-4.61378410E+01
 40
8.50000000E+00
  0
LINE
  8
0
 62
4
 10
1.09294539E+02
 20
-4.12303643E+01
 11
1.17794540E+02
 21
-3.63228860E+01
  0
LINE
  8
0
 62
4
 10
1.09294537E+02
 20
-4.12303636E+01
 11
1.09294537E+02
 21
-5.10453183E+01
  0
LINE
  8
0
 62
4
 10
1.09294539E+02
 20
-5.10453173E+01
 11
1.17794540E+02
 21
-5.59527956E+01
  0
LINE
  8
0
 62
4
 10
1.17794539E+02
 20
-5.59527959E+01
 11
1.26294540E+02
 21
-5.10453176E+01
  0
LINE
  8
0
 62
4
 10
1.26294537E+02
 20
-4.12303636E+01
 11
1.26294537E+02
 21
-5.10453183E+01
  0
CIRCLE
  8
0
 62
4
 10
1.17794537E+02
 20
-4.61378410E+01
 40
6.00000000E+00
  0
CIRCLE
  8
0
 62
6
 10
1.17794537E+02
 20
-4.61378410E+01
 40
5.50000000E+00
  0
LINE
  8
0
  6
CENTER
 62
6
 10
1.17794537E+02
 20
-3.52878410E+01
 11
1.17794537E+02
 21
-5.59378410E+01
  0
LINE
  8
0
  6
CENTER
 62
6
 10
1.06944537E+02
 20
-4.61378410E+01
 11
1.28994537E+02
 21
-4.61378410E+01
  0
LINE
  8
0
 62
7
 10
7.06613771E+01
 20
1.86215905E+00
 11
8.77943298E+01
 21
1.86215905E+00
  0
LINE
  8
0
 62
7
 10
6.47694919E+01
 20
-3.76378410E+01
 11
7.78045373E+01
 21
-3.76378410E+01
  0
LINE
  8
0
 62
6
 10
5.49545373E+01
 20
-5.46378410E+01
 11
6.47694919E+01
 21
-3.76378410E+01
  0
LINE
  8
0
 62
7
 10
5.49545373E+01
 20
-5.46378410E+01
 11
7.78045373E+01
 21
-5.46378410E+01
  0
LINE
  8
0
 62
6
 10
6.08464225E+01
 20
-1.51378410E+01
 11
7.06613771E+01
 21
1.86215905E+00
  0
LINE
  8
0
 62
7
 10
6.08464225E+01
 20
-1.51378410E+01
 11
8.77943298E+01
 21
-1.51378410E+01
  0
TEXT
  8
0
 62
7
 10
-1.03849994E+02
 20
-8.24000031E+01
 40
3.20000005E+00
  1
5
 41
1.00000000E+00
  7
MONOTXT
  0
TEXT
  8
0
 62
7
 10
-1.07049994E+02
 20
-8.84000031E+01
 40
3.20000005E+00
  1
-30
 41
1.00000000E+00
  7
MONOTXT
  0
TEXT
  8
0
 62
7
 10
-9.58499939E+01
 20
-8.24000031E+01
 40
3.20000005E+00
  1
10
 41
1.00000000E+00
  7
MONOTXT
  0
TEXT
  8
0
 62
7
 10
-9.74499940E+01
 20
-8.84000031E+01
 40
3.20000005E+00
  1
-25
 41
1.00000000E+00
  7
MONOTXT
  0
TEXT
  8
0
 62
7
 10
-8.62499939E+01
 20
-8.24000031E+01
 40
3.20000005E+00
  1
15
 41
1.00000000E+00
  7
MONOTXT
  0
TEXT
  8
0
 62
7
 10
-8.78499940E+01
 20
-8.84000031E+01
 40
3.20000005E+00
  1
-20
 41
1.00000000E+00
  7
MONOTXT
  0
TEXT
  8
0
 62
7
 10
-7.50499939E+01
 20
-8.84000031E+01
 40
3.20000005E+00
  1
0
 41
1.00000000E+00
  7
MONOTXT
  0
TEXT
  8
0
 62
7
 10
-6.70499939E+01
 20
-8.84000031E+01
 40
3.20000005E+00
  1
25
 41
1.00000000E+00
  7
MONOTXT
  0
TEXT
  8
0
 62
7
 10
-5.74499939E+01
 20
-8.84000031E+01
 40
3.20000005E+00
  1
40
 41
1.00000000E+00
  7
MONOTXT
  0
TEXT
  8
0
 62
7
 10
-1.10313141E+02
 20
-7.57181748E+01
 40
3.20000005E+00
  1
STRETCH LIST
 41
1.05263158E+00
  7
MONOTXT
  0
TEXT
  8
0
 62
7
 10
-6.04841752E+01
 20
-7.58912073E+01
 40
3.20000005E+00
  1
(mm)
 41
1.00000000E+00
  7
MONOTXT
  0
TEXT
  8
0
 62
7
 10
-1.31249994E+02
 20
-8.84000031E+01
 40
3.20000005E+00
  1
STRETCH
 41
1.00000000E+00
  7
MONOTXT
  0
TEXT
  8
0
 62
7
 10
-1.29649994E+02
 20
-8.24000031E+01
 40
3.20000005E+00
  1
STROKE
 41
1.00000000E+00
  7
MONOTXT
  0
TEXT
  8
0
 62
7
 10
-5.74499939E+01
 20
-8.24000031E+01
 40
3.20000005E+00
  1
60
 41
1.00000000E+00
  7
MONOTXT
  0
LINE
  8
0
 62
7
 10
-4.97999939E+01
 20
-8.98000031E+01
 11
-4.97999939E+01
 21
-7.78000031E+01
  0
TEXT
  8
0
 62
7
 10
-6.70499939E+01
 20
-8.24000031E+01
 40
3.20000005E+00
  1
45
 41
1.00000000E+00
  7
MONOTXT
  0
LINE
  8
0
 62
7
 10
-5.93999939E+01
 20
-8.98000031E+01
 11
-5.93999939E+01
 21
-7.78000031E+01
  0
TEXT
  8
0
 62
7
 10
-7.66499939E+01
 20
-8.24000031E+01
 40
3.20000005E+00
  1
30
 41
1.00000000E+00
  7
MONOTXT
  0
LINE
  8
0
 62
7
 10
-6.89999939E+01
 20
-8.98000031E+01
 11
-6.89999939E+01
 21
-7.78000031E+01
  0
TEXT
  8
0
 62
7
 10
-8.62499939E+01
 20
-8.24000031E+01
 40
3.20000005E+00
  1
15
 41
1.00000000E+00
  7
MONOTXT
  0
LINE
  8
0
 62
7
 10
-7.85999939E+01
 20
-8.98000031E+01
 11
-7.85999939E+01
 21
-7.78000031E+01
  0
TEXT
  8
0
 62
7
 10
-9.58499939E+01
 20
-8.24000031E+01
 40
3.20000005E+00
  1
10
 41
1.00000000E+00
  7
MONOTXT
  0
LINE
  8
0
 62
7
 10
-8.81999939E+01
 20
-8.98000031E+01
 11
-8.81999939E+01
 21
-7.78000031E+01
  0
TEXT
  8
0
 62
7
 10
-1.03849994E+02
 20
-8.24000031E+01
 40
3.20000005E+00
  1
5
 41
1.00000000E+00
  7
MONOTXT
  0
LINE
  8
0
 62
7
 10
-1.33399994E+02
 20
-7.78000031E+01
 11
-4.97999939E+01
 21
-7.78000031E+01
  0
LINE
  8
0
 62
7
 10
-9.77999939E+01
 20
-8.98000031E+01
 11
-9.77999939E+01
 21
-7.78000031E+01
  0
LINE
  8
0
 62
7
 10
-1.07399994E+02
 20
-8.98000031E+01
 11
-1.07399994E+02
 21
-7.78000031E+01
  0
LINE
  8
0
 62
7
 10
-1.33399994E+02
 20
-8.38000031E+01
 11
-4.97999939E+01
 21
-8.38000031E+01
  0
LINE
  8
0
 62
7
 10
-1.33399994E+02
 20
-8.98000031E+01
 11
-1.33399994E+02
 21
-7.78000031E+01
  0
LINE
  8
0
 62
7
 10
-1.33399994E+02
 20
-8.98000031E+01
 11
-4.97999939E+01
 21
-8.98000031E+01
  0
TEXT
  8
0
 10
3.32175296E+00
 20
7.11025693E+01
 40
3.20000005E+00
  1
STRETCH LINE
 41
1.05263158E+00
  7
MONOTXT
  0
LINE
  8
0
 62
7
 10
-1.38399994E+02
 20
9.45000000E+01
 11
1.38350006E+02
 21
9.45000000E+01
  0
LINE
  8
0
 62
7
 10
1.38350006E+02
 20
9.45000000E+01
 11
1.38350006E+02
 21
-9.48000031E+01
  0
LINE
  8
0
 62
7
 10
-1.38399994E+02
 20
-9.48000031E+01
 11
1.38350006E+02
 21
-9.48000031E+01
  0
LINE
  8
0
 62
7
 10
-1.38399994E+02
 20
9.45000000E+01
 11
-1.38399994E+02
 21
-9.48000031E+01
  0
LINE
  8
0
 62
7
 10
7.33500061E+01
 20
-8.48000031E+01
 11
1.38350006E+02
 21
-8.48000031E+01
  0
LINE
  8
0
 62
7
 10
-1.38399994E+02
 20
8.45000000E+01
 11
-7.33999939E+01
 21
8.45000000E+01
  0
LINE
  8
0
 62
7
 10
7.33500061E+01
 20
8.45000000E+01
 11
1.38350006E+02
 21
8.45000000E+01
  0
LINE
  8
0
 62
7
 10
7.33500061E+01
 20
-8.48000031E+01
 11
7.33500061E+01
 21
-9.48000031E+01
  0
LINE
  8
0
 62
7
 10
7.33500061E+01
 20
9.45000000E+01
 11
7.33500061E+01
 21
8.45000000E+01
  0
LINE
  8
0
 62
7
 10
-7.33999939E+01
 20
9.45000000E+01
 11
-7.33999939E+01
 21
8.45000000E+01
  0
TEXT
  8
0
 62
7
 10
7.72426624E+01
 20
-9.20500031E+01
 40
4.50000000E+00
  1
KOGANEI CORP.
 41
1.04838710E+00
  7
MONOTXT
  0
TEXT
  8
0
 62
7
 10
9.35071493E+01
 20
8.79000001E+01
 40
3.19999981E+00
  1
Ver. 1.0
 41
1.08108108E+00
  7
MONOTXT
  0
TEXT
  8
0
 62
7
 10
-1.31042850E+02
 20
8.79000001E+01
 40
3.19999981E+00
  1
NEW PEN CYLINDER
 41
1.08108108E+00
  7
MONOTXT
  0
TEXT
  8
0
 62
7
 10
-1.29085994E+02
 20
7.29000001E+01
 40
3.19999981E+00
  1
MODEL:PBSALS16*ST(30)-ZC230
 41
1.00000000E+00
  7
MONOTXT
  0
ENDSEC
  0
EOF
