  0
SECTION
  2
HEADER
  9
$ACADVER
  1
AC1003
  9
$EXTMIN
 10
-1.38399994E+02
 20
-9.48000031E+01
  9
$EXTMAX
 10
1.38350006E+02
 20
9.45000000E+01
  9
$LIMMIN
 10
-1.38400994E+02
 20
-9.48010031E+01
  9
$LIMMAX
 10
1.38351006E+02
 20
9.45010000E+01
  9
$SNAPUNIT
 10
1
 20
1
  9
$SNAPBASE
 10
0
 20
0
  9
$GRIDMODE
 70
0
  9
$GRIDUNIT
 10
0
 20
0
  9
$LTSCALE
 40
4.61250000E+00
  9
$TEXTSIZE
 40
3.2
  9
$DIMTAD
 70
0
  9
$LUNITS
 70
2
  9
$LUPREC
 70
4
  9
$FILLETRAD
 40
0
  9
$AUNITS
 70
0
  9
$AUPREC
 70
0
  0
ENDSEC
  0
SECTION
  2
TABLES
  0
TABLE
  2
LTYPE
 70
2
  0
LTYPE
  2
CONTINUOUS
 70
64
  3
Solid-Line
 72
65
 73
0
 40
0
  0
LTYPE
  2
DASHED
 70
64
  3
DASHED
 72
65
 73
2
 40
.75
 49
.5
 49
-.25
  0
LTYPE
  2
HIDDEN
 70
64
  3
HIDDEN
 72
65
 73
2
 40
.375
 49
.25
 49
-.125
  0
LTYPE
  2
CENTER
 70
64
  3
CENTER
 72
65
 73
4
 40
2
 49
1.25
 49
-.25
 49
.25
 49
-.25
  0
LTYPE
  2
PHANTOM
 70
64
  3
PHANTOM
 72
65
 73
6
 40
2.5
 49
1.25
 49
-.25
 49
.25
 49
-.25
 49
.25
 49
-.25
  0
ENDTAB
  0
TABLE
  2
LAYER
 70
1
  0
LAYER
  2
1
 70
0
 62
7
  6
CONTINUOUS
 0
ENDTAB
  0
TABLE
  2
STYLE
 70
2
  0
STYLE
  2
MONOTXT
 70
0
 40
0
 41
1
 50
0
 71
0
 42
.2
  3
monotxt
  0
STYLE
  2
BIGFONT
 70
0
 40
0
 41
1
 50
0
 71
0
 42
.2
  3
txt
  4
bigfont
  0
ENDTAB
  0
ENDSEC
  0
SECTION
  2
ENTITIES
  0
LINE
  8
0
  6
CENTER
 62
2
 10
-9.21005068E+01
 20
1.17458782E+01
 11
7.54175132E+01
 21
1.17458782E+01
  0
LINE
  8
0
  6
CENTER
 62
6
 10
2.49130439E+01
 20
2.17458769E+01
 11
2.49130439E+01
 21
1.74587821E+00
  0
LINE
  8
0
 62
4
 10
1.09230439E+01
 20
2.43458782E+01
 11
1.09230439E+01
 21
2.17458782E+01
  0
LINE
  8
0
 62
6
 10
1.58600430E+01
 20
2.43458782E+01
 11
1.32600430E+01
 21
2.17458782E+01
  0
LINE
  8
0
 62
4
 10
7.92304388E+00
 20
2.50458782E+01
 11
7.92304388E+00
 21
2.10458782E+01
  0
LINE
  8
0
  6
CENTER
 62
6
 10
-4.57695612E+00
 20
3.50558782E+01
 11
-4.57695612E+00
 21
2.01121911E+00
  0
LINE
  8
0
 62
4
 10
-1.60769561E+01
 20
2.50458782E+01
 11
-1.60769561E+01
 21
2.10458782E+01
  0
LINE
  8
0
 62
4
 10
-1.70769561E+01
 20
2.40458782E+01
 11
-1.70769561E+01
 21
2.20458782E+01
  0
LINE
  8
0
 62
4
 10
-1.15769561E+01
 20
2.60458782E+01
 11
-1.15769561E+01
 21
2.32458782E+01
  0
LINE
  8
0
 62
4
 10
2.42304388E+00
 20
2.60458782E+01
 11
2.42304388E+00
 21
2.32458782E+01
  0
LINE
  8
0
 62
4
 10
-9.07695612E+00
 20
2.29458782E+01
 11
-9.07695612E+00
 21
2.97458782E+01
  0
LINE
  8
0
 62
4
 10
-7.69561210E-02
 20
2.29458782E+01
 11
-7.69561210E-02
 21
2.97458782E+01
  0
LINE
  8
0
  6
PHANTOM
 10
1.76622884E+01
 20
1.69884805E+01
 11
1.76622884E+01
 21
2.95569861E+01
  0
LINE
  8
0
  6
PHANTOM
 10
7.57964409E+00
 20
6.88179510E+00
 11
7.57964409E+00
 21
1.69884805E+01
  0
LINE
  8
0
  6
PHANTOM
 10
-5.93377116E+01
 20
-3.04878583E+00
 11
-5.93377116E+01
 21
3.15419328E+01
  0
ARC
  8
0
 62
7
 10
6.63993461E+01
 20
1.17508782E+01
 40
6.01657241E+00
 50
1.77122186E+00
 51
4.48740934E+01
  0
ARC
  8
0
 62
7
 10
-2.60649301E+01
 20
1.17508782E+01
 40
6.01538783E+00
 50
1.81915637E+02
 51
2.24885328E+02
  0
LINE
  8
0
  6
PHANTOM
 10
7.57964408E+00
 20
1.69884805E+01
 11
1.76622884E+01
 21
1.69884805E+01
  0
LINE
  8
0
 62
7
 10
-7.69561210E-02
 20
3.24587821E+00
 11
2.04130439E+01
 21
3.24587821E+00
  0
LINE
  8
0
 62
7
 10
2.94130439E+01
 20
3.24587821E+00
 11
4.54130439E+01
 21
3.24587821E+00
  0
LINE
  8
0
 62
7
 10
2.94130439E+01
 20
2.02458782E+01
 11
4.54130439E+01
 21
2.02458782E+01
  0
LINE
  8
0
 62
7
 10
2.42304388E+00
 20
2.02458782E+01
 11
2.04130439E+01
 21
2.02458782E+01
  0
LINE
  8
0
 62
4
 10
2.42304388E+00
 20
2.10458782E+01
 11
7.92304388E+00
 21
2.10458782E+01
  0
LINE
  8
0
 62
4
 10
-1.15769561E+01
 20
2.28458782E+01
 11
-1.15769561E+01
 21
1.97777604E+01
  0
LINE
  8
0
 62
4
 10
2.42304388E+00
 20
2.28458782E+01
 11
2.42304388E+00
 21
1.97777604E+01
  0
LINE
  8
0
 62
4
 10
-9.07695612E+00
 20
2.32458782E+01
 11
-7.69561210E-02
 21
2.32458782E+01
  0
LINE
  8
0
 62
4
 10
-1.15769561E+01
 20
1.97777604E+01
 11
-9.07695610E+00
 21
1.97777604E+01
  0
LINE
  8
0
 62
4
 10
2.42304386E+00
 20
1.97777604E+01
 11
-7.69561427E-02
 21
1.97777604E+01
  0
LINE
  8
0
 62
4
 10
-7.69561210E-02
 20
2.28458782E+01
 11
2.42304388E+00
 21
2.28458782E+01
  0
LINE
  8
0
 62
4
 10
-7.69561210E-02
 20
2.32458782E+01
 11
2.42304388E+00
 21
2.32458782E+01
  0
LINE
  8
0
 62
4
 10
-1.15769561E+01
 20
2.28458782E+01
 11
-9.07695612E+00
 21
2.28458782E+01
  0
LINE
  8
0
 62
4
 10
-1.15769561E+01
 20
2.32458782E+01
 11
-9.07695612E+00
 21
2.32458782E+01
  0
LINE
  8
0
 62
4
 10
-9.07695613E+00
 20
3.09589356E+00
 11
-7.69561210E-02
 21
3.09589356E+00
  0
LINE
  8
0
 62
4
 10
-1.60769561E+01
 20
2.10458782E+01
 11
-1.15769561E+01
 21
2.10458782E+01
  0
LINE
  8
0
 62
4
 10
-1.70769561E+01
 20
2.20458782E+01
 11
-1.60769561E+01
 21
2.10458782E+01
  0
LINE
  8
0
 62
4
 10
-7.69561210E-02
 20
2.29458782E+01
 11
-7.69561210E-02
 21
3.09589356E+00
  0
LINE
  8
0
 62
4
 10
-9.07695612E+00
 20
2.29458782E+01
 11
-9.07695612E+00
 21
3.09589356E+00
  0
LINE
  8
0
 62
4
 10
7.92304388E+00
 20
2.10458782E+01
 11
1.09230439E+01
 21
2.17458782E+01
  0
LINE
  8
0
 62
4
 10
1.09230439E+01
 20
2.17458782E+01
 11
1.32600430E+01
 21
2.17458782E+01
  0
LINE
  8
0
 62
4
 10
2.94130439E+01
 20
3.09587821E+00
 11
2.94130439E+01
 21
2.03958782E+01
  0
LINE
  8
0
 62
4
 10
2.04130439E+01
 20
1.60458782E+01
 11
2.94130439E+01
 21
1.60458782E+01
  0
LINE
  8
0
 62
4
 10
2.04130439E+01
 20
1.66708782E+01
 11
2.94130439E+01
 21
1.66708782E+01
  0
LINE
  8
0
 62
4
 10
2.04130439E+01
 20
1.61708782E+01
 11
2.94130439E+01
 21
1.61708782E+01
  0
LINE
  8
0
 62
4
 10
2.04130439E+01
 20
1.91208782E+01
 11
2.94130439E+01
 21
1.91208782E+01
  0
LINE
  8
0
 62
4
 10
2.29130439E+01
 20
1.75458782E+01
 11
2.69130439E+01
 21
1.75458782E+01
  0
LINE
  8
0
 62
4
 10
2.29130439E+01
 20
1.67458782E+01
 11
2.69130439E+01
 21
1.67458782E+01
  0
LINE
  8
0
 62
4
 10
2.04130439E+01
 20
2.03958782E+01
 11
2.94130439E+01
 21
2.03958782E+01
  0
LINE
  8
0
 62
4
 10
2.69130439E+01
 20
1.75458782E+01
 11
2.69130439E+01
 21
1.66708782E+01
  0
LINE
  8
0
 62
4
 10
2.04130439E+01
 20
7.44587821E+00
 11
2.94130439E+01
 21
7.44587821E+00
  0
LINE
  8
0
 62
4
 10
2.04130439E+01
 20
3.09587821E+00
 11
2.94130439E+01
 21
3.09587821E+00
  0
LINE
  8
0
 62
6
 10
4.53500430E+01
 20
1.30458782E+01
 11
4.27500430E+01
 21
1.04458782E+01
  0
LINE
  8
0
 62
4
 10
4.04130439E+01
 20
1.04458782E+01
 11
4.27500430E+01
 21
1.04458782E+01
  0
LINE
  8
0
 62
4
 10
3.74130439E+01
 20
9.74587821E+00
 11
4.04130439E+01
 21
1.04458782E+01
  0
LINE
  8
0
 62
4
 10
4.04130439E+01
 20
1.30458782E+01
 11
4.04130439E+01
 21
1.04458782E+01
  0
LINE
  8
0
 62
4
 10
4.04130439E+01
 20
1.30458782E+01
 11
4.53500430E+01
 21
1.30458782E+01
  0
LINE
  8
0
 62
4
 10
3.74130439E+01
 20
1.37458782E+01
 11
4.04130439E+01
 21
1.30458782E+01
  0
LINE
  8
0
 62
4
 10
3.74130439E+01
 20
1.37458782E+01
 11
3.74130439E+01
 21
9.74587821E+00
  0
LINE
  8
0
 62
4
 10
2.94130439E+01
 20
1.49958782E+01
 11
3.19130439E+01
 21
1.49958782E+01
  0
LINE
  8
0
 62
4
 10
3.19130439E+01
 20
8.49587821E+00
 11
3.19130439E+01
 21
1.49958782E+01
  0
LINE
  8
0
 62
4
 10
3.19130439E+01
 20
1.37458782E+01
 11
3.74130439E+01
 21
1.37458782E+01
  0
LINE
  8
0
 62
4
 10
3.19130439E+01
 20
9.74587821E+00
 11
3.74130439E+01
 21
9.74587821E+00
  0
LINE
  8
0
 62
4
 10
2.94130439E+01
 20
8.49587821E+00
 11
3.19130439E+01
 21
8.49587821E+00
  0
LINE
  8
0
 62
4
 10
2.04130439E+01
 20
3.09587821E+00
 11
2.04130439E+01
 21
2.03958782E+01
  0
LINE
  8
0
 62
4
 10
2.29130439E+01
 20
1.66708782E+01
 11
2.29130439E+01
 21
1.75458782E+01
  0
LINE
  8
0
 62
4
 10
2.59230439E+01
 20
1.07458782E+01
 11
2.38530439E+01
 21
1.28058782E+01
  0
LINE
  8
0
 62
4
 10
2.38530439E+01
 20
1.06858782E+01
 11
2.59730439E+01
 21
1.28058782E+01
  0
CIRCLE
  8
0
 62
4
 10
2.49121686E+01
 20
1.17434197E+01
 40
2.50000000E+00
  0
LINE
  8
0
 62
4
 10
1.79130439E+01
 20
8.49587821E+00
 11
2.04130439E+01
 21
8.49587821E+00
  0
LINE
  8
0
 62
4
 10
1.34130439E+01
 20
9.74587821E+00
 11
1.79130439E+01
 21
9.74587821E+00
  0
LINE
  8
0
 62
4
 10
1.24130439E+01
 20
1.07458782E+01
 11
1.34130439E+01
 21
9.74587821E+00
  0
LINE
  8
0
 62
4
 10
1.24130439E+01
 20
1.27458782E+01
 11
1.24130439E+01
 21
1.07458782E+01
  0
LINE
  8
0
 62
4
 10
1.79130439E+01
 20
1.49958782E+01
 11
2.04130439E+01
 21
1.49958782E+01
  0
LINE
  8
0
 62
4
 10
1.34130439E+01
 20
1.37458782E+01
 11
1.79130439E+01
 21
1.37458782E+01
  0
LINE
  8
0
 62
4
 10
1.34130439E+01
 20
1.37458782E+01
 11
1.34130439E+01
 21
9.74587821E+00
  0
LINE
  8
0
 62
4
 10
1.79130439E+01
 20
8.49587821E+00
 11
1.79130439E+01
 21
1.49958782E+01
  0
LINE
  8
0
 62
4
 10
1.24130439E+01
 20
1.27458782E+01
 11
1.34130439E+01
 21
1.37458782E+01
  0
ARC
  8
0
 62
4
 10
-8.40622975E+01
 20
8.28177642E+00
 40
2.04465866E+00
 50
1.45615762E+02
 51
2.05615586E+02
  0
ARC
  8
0
 62
4
 10
-7.84642168E+01
 20
1.17458782E+01
 40
7.64273930E+00
 50
1.62412058E+02
 51
1.97587888E+02
  0
ARC
  8
0
 62
4
 10
-8.40622975E+01
 20
1.52099800E+01
 40
2.04465866E+00
 50
1.54384359E+02
 51
2.14384183E+02
  0
ARC
  8
0
 62
4
 10
-8.41516148E+01
 20
1.52099800E+01
 40
2.04465866E+00
 50
3.25615699E+02
 51
2.56155230E+01
  0
ARC
  8
0
 62
4
 10
-8.97496945E+01
 20
1.17458782E+01
 40
7.64273930E+00
 50
3.42412063E+02
 51
1.75878651E+01
  0
ARC
  8
0
 62
4
 10
-8.41516148E+01
 20
8.28177642E+00
 40
2.04465866E+00
 50
3.34384350E+02
 51
3.43841745E+01
  0
LINE
  8
0
 62
4
 10
-8.61069562E+01
 20
7.74587944E+00
 11
-8.57496903E+01
 21
7.12707664E+00
  0
LINE
  8
0
 62
4
 10
-8.61069561E+01
 20
7.74587725E+00
 11
-8.61069561E+01
 21
1.57458773E+01
  0
LINE
  8
0
 62
4
 10
-8.61069562E+01
 20
1.57458770E+01
 11
-8.57496903E+01
 21
1.63646798E+01
  0
LINE
  8
0
 62
4
 10
-8.21069556E+01
 20
1.57458772E+01
 11
-8.24642210E+01
 21
1.63646792E+01
  0
LINE
  8
0
 62
4
 10
-8.24642216E+01
 20
1.63646803E+01
 11
-8.57496906E+01
 21
1.63646803E+01
  0
LINE
  8
0
 62
4
 10
-8.24642204E+01
 20
1.40552788E+01
 11
-8.57496906E+01
 21
1.40552788E+01
  0
LINE
  8
0
 62
4
 10
-8.24642207E+01
 20
9.43647669E+00
 11
-8.57496906E+01
 21
9.43647669E+00
  0
LINE
  8
0
 62
4
 10
-8.21069561E+01
 20
7.74587821E+00
 11
-8.21069561E+01
 21
1.57458782E+01
  0
LINE
  8
0
 62
4
 10
-8.21069556E+01
 20
7.74587917E+00
 11
-8.24642210E+01
 21
7.12707719E+00
  0
LINE
  8
0
 62
4
 10
-8.24642216E+01
 20
7.12707614E+00
 11
-8.57496906E+01
 21
7.12707614E+00
  0
LINE
  8
0
 62
7
 10
4.54130427E+01
 20
2.02458782E+01
 11
4.54130427E+01
 21
3.24587821E+00
  0
ARC
  8
0
 62
7
 10
6.63993461E+01
 20
1.17508782E+01
 40
6.01657241E+00
 50
3.15125907E+02
 51
3.58228778E+02
  0
CIRCLE
  8
0
 62
7
 10
6.44172004E+01
 20
1.17458778E+01
 40
2.50000000E+00
  0
LINE
  8
0
 62
7
 10
7.06630439E+01
 20
7.50587821E+00
 11
7.06630439E+01
 21
3.24587821E+00
  0
LINE
  8
0
 62
7
 10
7.06630439E+01
 20
2.02458782E+01
 11
7.06630439E+01
 21
1.59958782E+01
  0
LINE
  8
0
 62
7
 10
4.71630439E+01
 20
1.59958782E+01
 11
7.06630439E+01
 21
1.59958782E+01
  0
LINE
  8
0
 62
7
 10
4.71630439E+01
 20
7.50587821E+00
 11
7.06630439E+01
 21
7.50587821E+00
  0
LINE
  8
0
  6
CENTER
 62
2
 10
6.44130439E+01
 20
1.59958782E+01
 11
6.44130439E+01
 21
7.50587821E+00
  0
LINE
  8
0
  6
CENTER
 62
2
 10
4.99130439E+01
 20
2.33537345E+01
 11
4.99130439E+01
 21
1.59635040E+01
  0
LINE
  8
0
 62
7
 10
7.24130439E+01
 20
2.02458782E+01
 11
7.24130439E+01
 21
3.24587821E+00
  0
LINE
  8
0
 62
7
 10
4.71630439E+01
 20
1.59955157E+01
 11
4.71630439E+01
 21
2.02555157E+01
  0
LINE
  8
0
 62
7
 10
4.71630439E+01
 20
7.50551570E+00
 11
4.71630439E+01
 21
3.25551570E+00
  0
ARC
  8
0
 62
7
 10
5.14335309E+01
 20
1.17517888E+01
 40
6.02048817E+00
 50
1.35180079E+02
 51
2.24819921E+02
  0
LINE
  8
0
 62
7
 10
4.54130439E+01
 20
3.24587821E+00
 11
7.24130439E+01
 21
3.24587821E+00
  0
LINE
  8
0
 62
7
 10
4.54130439E+01
 20
2.02458782E+01
 11
7.24130439E+01
 21
2.02458782E+01
  0
LINE
  8
0
  6
CENTER
 62
2
 10
-2.50769561E+01
 20
2.16733530E+01
 11
-2.50769561E+01
 21
1.59958782E+01
  0
LINE
  8
0
 62
2
 10
-3.98889561E+01
 20
7.55787821E+00
 11
-3.35769561E+01
 21
7.55787821E+00
  0
LINE
  8
0
 62
7
 10
-4.00769561E+01
 20
7.74587821E+00
 11
-3.90769561E+01
 21
6.74587821E+00
  0
LINE
  8
0
 62
7
 10
-3.90769561E+01
 20
6.74587821E+00
 11
-3.20769561E+01
 21
6.74587821E+00
  0
LINE
  8
0
 62
7
 10
-4.00769561E+01
 20
1.57458782E+01
 11
-3.90769561E+01
 21
1.67458782E+01
  0
LINE
  8
0
 62
2
 10
-3.98889561E+01
 20
1.59338782E+01
 11
-3.35769561E+01
 21
1.59338782E+01
  0
LINE
  8
0
 62
7
 10
-4.00769561E+01
 20
1.57458782E+01
 11
-4.00769561E+01
 21
7.74587821E+00
  0
LINE
  8
0
 62
7
 10
-3.90769561E+01
 20
1.67458782E+01
 11
-3.20769561E+01
 21
1.67458782E+01
  0
LINE
  8
0
 62
7
 10
-3.35769561E+01
 20
1.67458782E+01
 11
-3.35769561E+01
 21
6.74587821E+00
  0
LINE
  8
0
 62
7
 10
-3.90769561E+01
 20
1.67458782E+01
 11
-3.90769561E+01
 21
6.74587821E+00
  0
LINE
  8
0
 62
7
 10
-3.20769561E+01
 20
2.02458782E+01
 11
-3.20769561E+01
 21
6.74587821E+00
  0
LINE
  8
0
 62
7
 10
-2.00769561E+01
 20
2.02458782E+01
 11
-2.00769561E+01
 21
3.24587821E+00
  0
LINE
  8
0
 62
7
 10
-3.20769561E+01
 20
2.02458782E+01
 11
-2.00769561E+01
 21
2.02458782E+01
  0
LINE
  8
0
 62
7
 10
-3.20769561E+01
 20
6.74587821E+00
 11
-3.20769561E+01
 21
3.24587821E+00
  0
LINE
  8
0
 62
7
 10
-3.20769561E+01
 20
3.24587821E+00
 11
-2.00769561E+01
 21
3.24587821E+00
  0
LINE
  8
0
 62
7
 10
-2.00769561E+01
 20
2.02458782E+01
 11
-1.15769561E+01
 21
2.02458782E+01
  0
LINE
  8
0
 62
7
 10
-2.00769561E+01
 20
3.24587821E+00
 11
-9.07695612E+00
 21
3.24587821E+00
  0
LINE
  8
0
 62
7
 10
-3.03269561E+01
 20
1.59958782E+01
 11
-2.18269561E+01
 21
1.59958782E+01
  0
LINE
  8
0
 62
7
 10
-3.03269561E+01
 20
7.50587821E+00
 11
-2.18269561E+01
 21
7.50587821E+00
  0
LINE
  8
0
 62
7
 10
-7.50769561E+01
 20
1.42458782E+01
 11
-7.50769561E+01
 21
9.24587821E+00
  0
LINE
  8
0
 62
7
 10
-3.03269561E+01
 20
2.02458782E+01
 11
-3.03269561E+01
 21
1.59958782E+01
  0
LINE
  8
0
 62
7
 10
-2.18269561E+01
 20
2.02458782E+01
 11
-2.18269561E+01
 21
1.59958782E+01
  0
LINE
  8
0
 62
7
 10
-3.03269561E+01
 20
7.50587821E+00
 11
-3.03269561E+01
 21
3.24587821E+00
  0
LINE
  8
0
 62
7
 10
-2.18269561E+01
 20
7.50587821E+00
 11
-2.18269561E+01
 21
3.24587821E+00
  0
ARC
  8
0
 62
7
 10
-2.60649301E+01
 20
1.17508782E+01
 40
6.01538783E+00
 50
1.35114672E+02
 51
1.78084364E+02
  0
ARC
  8
0
 62
7
 10
-2.61006386E+01
 20
1.17508782E+01
 40
6.02365231E+00
 50
3.15192915E+02
 51
4.48070852E+01
  0
LINE
  8
0
 62
7
 10
-8.95769561E+01
 20
1.42458782E+01
 11
-8.61069561E+01
 21
1.42458782E+01
  0
LINE
  8
0
 62
7
 10
-8.95769561E+01
 20
9.24587821E+00
 11
-8.61069561E+01
 21
9.24587821E+00
  0
LINE
  8
0
 62
7
 10
-9.00769561E+01
 20
1.37458782E+01
 11
-9.00769561E+01
 21
9.74587821E+00
  0
LINE
  8
0
 62
7
 10
-9.00769561E+01
 20
1.37458782E+01
 11
-8.95769561E+01
 21
1.42458782E+01
  0
LINE
  8
0
 62
7
 10
-9.00769561E+01
 20
9.74587821E+00
 11
-8.95769561E+01
 21
9.24587821E+00
  0
LINE
  8
0
 62
7
 10
-8.95769561E+01
 20
1.42458782E+01
 11
-8.95769561E+01
 21
9.24587821E+00
  0
LINE
  8
0
 62
7
 10
-8.21069561E+01
 20
9.24587821E+00
 11
-4.00769561E+01
 21
9.24587821E+00
  0
LINE
  8
0
 62
7
 10
-8.21069561E+01
 20
1.42458782E+01
 11
-4.00769561E+01
 21
1.42458782E+01
  0
LINE
  8
0
 62
2
 10
-9.00099561E+01
 20
9.67887821E+00
 11
-8.61069561E+01
 21
9.67887821E+00
  0
LINE
  8
0
 62
2
 10
-9.00099561E+01
 20
1.38128782E+01
 11
-8.61069561E+01
 21
1.38128782E+01
  0
LINE
  8
0
 62
2
 10
-8.21069561E+01
 20
1.38128782E+01
 11
-7.50769561E+01
 21
1.38128782E+01
  0
LINE
  8
0
 62
2
 10
-8.21069561E+01
 20
9.67887821E+00
 11
-7.50769561E+01
 21
9.67887821E+00
  0
LINE
  8
0
 62
4
 10
2.42304388E+00
 20
2.50458782E+01
 11
7.92304388E+00
 21
2.50458782E+01
  0
LINE
  8
0
 62
4
 10
-7.69561210E-02
 20
2.60458782E+01
 11
2.42304388E+00
 21
2.60458782E+01
  0
LINE
  8
0
 62
4
 10
-1.15769561E+01
 20
2.60458782E+01
 11
-9.07695612E+00
 21
2.60458782E+01
  0
ARC
  8
0
 62
4
 10
-3.07862178E+00
 20
3.12442126E+01
 40
1.00166704E+00
 50
9.52762946E-02
 51
8.99047236E+01
  0
ARC
  8
0
 62
4
 10
-6.07616463E+00
 20
3.12450867E+01
 40
1.00079180E+00
 50
9.00000002E+01
 51
1.79954687E+02
  0
LINE
  8
0
 62
4
 10
-1.70769561E+01
 20
2.40458782E+01
 11
-1.60769561E+01
 21
2.50458782E+01
  0
LINE
  8
0
 62
6
 10
-5.80695612E+00
 20
3.07458782E+01
 11
-5.80695612E+00
 21
2.97458782E+01
  0
LINE
  8
0
 62
6
 10
-3.34695612E+00
 20
3.07458782E+01
 11
-3.34695612E+00
 21
2.97458782E+01
  0
LINE
  8
0
 62
4
 10
-6.07695612E+00
 20
3.07458782E+01
 11
-6.07695612E+00
 21
2.97458782E+01
  0
LINE
  8
0
 62
4
 10
-3.07695612E+00
 20
3.07458782E+01
 11
-3.07695612E+00
 21
2.97458782E+01
  0
LINE
  8
0
 62
4
 10
-6.07695612E+00
 20
3.22458782E+01
 11
-3.07695612E+00
 21
3.22458782E+01
  0
LINE
  8
0
 62
4
 10
-7.07695612E+00
 20
3.07458782E+01
 11
-2.07695612E+00
 21
3.07458782E+01
  0
LINE
  8
0
 62
4
 10
-9.07695612E+00
 20
2.97458782E+01
 11
-7.69561210E-02
 21
2.97458782E+01
  0
LINE
  8
0
 62
4
 10
-1.60769561E+01
 20
2.50458782E+01
 11
-1.15769561E+01
 21
2.50458782E+01
  0
LINE
  8
0
 62
4
 10
-2.07695612E+00
 20
3.12458782E+01
 11
-2.07695612E+00
 21
3.07458782E+01
  0
LINE
  8
0
 62
4
 10
-7.07695612E+00
 20
3.12458782E+01
 11
-7.07695612E+00
 21
3.07458782E+01
  0
LINE
  8
0
 62
4
 10
7.92304388E+00
 20
2.50458782E+01
 11
1.09230439E+01
 21
2.43458782E+01
  0
LINE
  8
0
 62
4
 10
1.09230439E+01
 20
2.43458782E+01
 11
1.58600430E+01
 21
2.43458782E+01
  0
LINE
  8
0
  6
PHANTOM
 10
7.57964408E+00
 20
2.95569861E+01
 11
1.76622884E+01
 21
2.95569861E+01
  0
TEXT
  8
0
 62
7
 10
1.33710638E+00
 20
4.34589356E+00
 40
1.50000000E+00
  1
PBTAS16-7
 41
1.00000000E+00
  7
MONOTXT
  0
LINE
  8
0
  6
PHANTOM
 10
7.57964408E+00
 20
6.88179510E+00
 11
1.76622884E+01
 21
6.88179510E+00
  0
LINE
  8
0
  6
PHANTOM
 10
1.76622884E+01
 20
6.88179510E+00
 11
1.76622884E+01
 21
-3.04878583E+00
  0
LINE
  8
0
  6
CENTER
 62
2
 10
-1.17836956E+02
 20
3.36306294E+01
 11
-1.17836956E+02
 21
1.18630074E+00
  0
ARC
  8
0
 62
4
 10
-1.17836956E+02
 20
1.17654864E+01
 40
8.65000000E+00
 50
3.49314255E+02
 51
1.06857449E+01
  0
LINE
  8
0
 62
4
 10
-1.04312223E+02
 20
1.69775251E+01
 11
-1.04116956E+02
 21
1.73154864E+01
  0
LINE
  8
0
 62
6
 10
-1.01436956E+02
 20
1.29954864E+01
 11
-1.02806956E+02
 21
1.29954864E+01
  0
LINE
  8
0
 62
6
 10
-1.01436956E+02
 20
1.05354864E+01
 11
-1.02806956E+02
 21
1.05354864E+01
  0
LINE
  8
0
 62
4
 10
-1.01436956E+02
 20
1.32654864E+01
 11
-1.02536956E+02
 21
1.32654864E+01
  0
LINE
  8
0
 62
4
 10
-1.01436956E+02
 20
1.02654864E+01
 11
-1.02536956E+02
 21
1.02654864E+01
  0
LINE
  8
0
 62
4
 10
-1.08536956E+02
 20
1.27654864E+01
 11
-1.08836956E+02
 21
1.27654864E+01
  0
LINE
  8
0
 62
4
 10
-1.04236956E+02
 20
1.27654864E+01
 11
-1.04536956E+02
 21
1.27654864E+01
  0
LINE
  8
0
 62
4
 10
-1.04536956E+02
 20
1.38154864E+01
 11
-1.08536956E+02
 21
1.38154864E+01
  0
LINE
  8
0
 62
4
 10
-1.04536956E+02
 20
9.71548641E+00
 11
-1.08536956E+02
 21
9.71548641E+00
  0
LINE
  8
0
 62
4
 10
-1.08536956E+02
 20
1.07654864E+01
 11
-1.08836956E+02
 21
1.07654864E+01
  0
LINE
  8
0
 62
4
 10
-1.04236956E+02
 20
1.07654864E+01
 11
-1.04536956E+02
 21
1.07654864E+01
  0
LINE
  8
0
 62
4
 10
-1.04236956E+02
 20
1.07654864E+01
 11
-1.04236956E+02
 21
1.27654864E+01
  0
LINE
  8
0
 62
4
 10
-1.04536956E+02
 20
9.71548641E+00
 11
-1.04536956E+02
 21
1.38154864E+01
  0
LINE
  8
0
 62
4
 10
-1.08536956E+02
 20
9.71548641E+00
 11
-1.08536956E+02
 21
1.38154864E+01
  0
LINE
  8
0
 62
4
 10
-1.02836956E+02
 20
8.51548641E+00
 11
-1.06336956E+02
 21
8.51548641E+00
  0
LINE
  8
0
 62
4
 10
-1.06336956E+02
 20
8.51548641E+00
 11
-1.06336956E+02
 21
9.71548641E+00
  0
LINE
  8
0
 62
4
 10
-1.06736956E+02
 20
8.51548641E+00
 11
-1.06736956E+02
 21
9.71548641E+00
  0
ARC
  8
0
 62
4
 10
-9.83372089E+01
 20
1.02657392E+01
 40
1.00025280E+00
 50
2.70000000E+02
 51
3.59985521E+02
  0
ARC
  8
0
 62
4
 10
-9.83355438E+01
 20
1.32668987E+01
 40
9.98588677E-01
 50
3.59918966E+02
 51
9.00810348E+01
  0
ARC
  8
0
 62
4
 10
-1.03219600E+02
 20
1.62666346E+01
 40
4.98857363E-01
 50
9.02705623E+01
 51
1.19445368E+02
  0
ARC
  8
0
 62
4
 10
-1.03683822E+02
 20
1.70652827E+01
 40
5.00207143E-01
 50
8.97862932E+01
 51
1.49986761E+02
  0
ARC
  8
0
 62
4
 10
-1.01135294E+02
 20
1.47671490E+01
 40
4.98340176E-01
 50
3.59808845E+02
 51
9.01911544E+01
  0
ARC
  8
0
 62
4
 10
-1.01136960E+02
 20
8.76549070E+00
 40
5.00004290E-01
 50
2.70000000E+02
 51
3.59999509E+02
  0
ARC
  8
0
 62
4
 10
-1.00635294E+02
 20
1.52671490E+01
 40
7.98339134E-01
 50
3.59880678E+02
 51
9.01193227E+01
  0
ARC
  8
0
 62
4
 10
-1.00636959E+02
 20
8.26548966E+00
 40
8.00003254E-01
 50
2.70000000E+02
 51
3.59999767E+02
  0
LINE
  8
0
 62
4
 10
-9.93369561E+01
 20
1.02654864E+01
 11
-9.93369561E+01
 21
1.32654864E+01
  0
LINE
  8
0
 62
4
 10
-9.83369561E+01
 20
1.42654864E+01
 11
-9.88369561E+01
 21
1.42654864E+01
  0
LINE
  8
0
 62
4
 10
-9.83369561E+01
 20
9.26548641E+00
 11
-9.88369561E+01
 21
9.26548641E+00
  0
LINE
  8
0
 62
4
 10
-9.73369561E+01
 20
1.02654864E+01
 11
-9.73369561E+01
 21
1.32654864E+01
  0
LINE
  8
0
 62
4
 10
-9.88369561E+01
 20
9.26548641E+00
 11
-9.88369561E+01
 21
1.42654864E+01
  0
LINE
  8
0
 62
4
 10
-1.07036956E+02
 20
1.52654864E+01
 11
-1.07036956E+02
 21
1.60654864E+01
  0
LINE
  8
0
 62
4
 10
-1.06336956E+02
 20
7.46548641E+00
 11
-1.06336956E+02
 21
8.26548641E+00
  0
LINE
  8
0
 62
4
 10
-9.88369561E+01
 20
1.02654864E+01
 11
-9.98369561E+01
 21
1.02654864E+01
  0
LINE
  8
0
 62
4
 10
-9.88369561E+01
 20
1.32654864E+01
 11
-9.98369561E+01
 21
1.32654864E+01
  0
LINE
  8
0
 62
4
 10
-1.01011956E+02
 20
1.61904864E+01
 11
-1.01011956E+02
 21
1.66904864E+01
  0
LINE
  8
0
 62
4
 10
-1.01011956E+02
 20
1.66904864E+01
 11
-1.03432452E+02
 21
1.66904864E+01
  0
LINE
  8
0
 62
4
 10
-1.01011956E+02
 20
1.61904864E+01
 11
-1.03511956E+02
 21
1.61904864E+01
  0
LINE
  8
0
 62
4
 10
-1.03536956E+02
 20
8.51548641E+00
 11
-1.03536956E+02
 21
1.50154864E+01
  0
LINE
  8
0
 62
4
 10
-1.02836956E+02
 20
8.51548641E+00
 11
-1.02836956E+02
 21
1.50154864E+01
  0
LINE
  8
0
 62
4
 10
-1.01136956E+02
 20
8.26548641E+00
 11
-1.01136956E+02
 21
8.41548641E+00
  0
LINE
  8
0
 62
4
 10
-1.01136956E+02
 20
8.41548641E+00
 11
-1.06336956E+02
 21
8.41548641E+00
  0
LINE
  8
0
 62
4
 10
-1.03912956E+02
 20
1.60654864E+01
 11
-1.03788775E+02
 21
1.62795912E+01
  0
LINE
  8
0
 62
4
 10
-1.01536956E+02
 20
1.75654864E+01
 11
-1.03681956E+02
 21
1.75654864E+01
  0
LINE
  8
0
 62
4
 10
-1.00636956E+02
 20
8.76548641E+00
 11
-1.00636956E+02
 21
1.47654864E+01
  0
LINE
  8
0
 62
4
 10
-1.07036956E+02
 20
1.60654864E+01
 11
-1.00636956E+02
 21
1.60654864E+01
  0
LINE
  8
0
 62
4
 10
-1.00636956E+02
 20
7.46548641E+00
 11
-1.06336956E+02
 21
7.46548641E+00
  0
LINE
  8
0
 62
6
 10
-9.93369561E+01
 20
1.05354864E+01
 11
-9.98369561E+01
 21
1.05354864E+01
  0
LINE
  8
0
 62
6
 10
-9.93369561E+01
 20
1.29954864E+01
 11
-9.98369561E+01
 21
1.29954864E+01
  0
LINE
  8
0
 62
4
 10
-1.01436956E+02
 20
9.62048641E+00
 11
-1.01436956E+02
 21
1.39104864E+01
  0
LINE
  8
0
 62
4
 10
-1.00636956E+02
 20
9.48048641E+00
 11
-1.01436956E+02
 21
9.62048641E+00
  0
LINE
  8
0
 62
4
 10
-1.00636956E+02
 20
1.40504864E+01
 11
-1.01436956E+02
 21
1.39104864E+01
  0
LINE
  8
0
 62
4
 10
-1.01536956E+02
 20
1.67654864E+01
 11
-1.01536956E+02
 21
1.75654864E+01
  0
LINE
  8
0
 62
4
 10
-1.01536956E+02
 20
1.67654864E+01
 11
-1.03221956E+02
 21
1.67654864E+01
  0
LINE
  8
0
 62
4
 10
-1.04839178E+02
 20
1.60654864E+01
 11
-1.04567901E+02
 21
1.65350047E+01
  0
LINE
  8
0
 62
4
 10
-1.01136956E+02
 20
8.26548641E+00
 11
-1.06336956E+02
 21
8.26548641E+00
  0
LINE
  8
0
 62
4
 10
-1.01136956E+02
 20
1.52654864E+01
 11
-1.07036956E+02
 21
1.52654864E+01
  0
LINE
  8
0
 62
4
 10
-9.98369561E+01
 20
8.26548641E+00
 11
-9.98369561E+01
 21
1.52654864E+01
  0
LINE
  8
0
 62
4
 10
-1.07314675E+02
 20
1.74311822E+01
 11
-1.07361201E+02
 21
1.72885802E+01
  0
LINE
  8
0
 62
4
 10
-1.08836956E+02
 20
1.07654864E+01
 11
-1.08836956E+02
 21
1.27654864E+01
  0
LINE
  8
0
 62
4
 10
-1.02536956E+02
 20
1.32654864E+01
 11
-1.02836956E+02
 21
1.29654864E+01
  0
LINE
  8
0
 62
4
 10
-1.02536956E+02
 20
1.02654864E+01
 11
-1.02836956E+02
 21
1.05654864E+01
  0
LINE
  8
0
 62
4
 10
-1.05536956E+02
 20
1.07154864E+01
 11
-1.05536956E+02
 21
1.28154864E+01
  0
LINE
  8
0
 62
4
 10
-1.05536956E+02
 20
1.07154864E+01
 11
-1.07536956E+02
 21
1.07154864E+01
  0
LINE
  8
0
 62
4
 10
-1.07536956E+02
 20
1.07154864E+01
 11
-1.07536956E+02
 21
1.28154864E+01
  0
LINE
  8
0
 62
4
 10
-1.05536956E+02
 20
1.28154864E+01
 11
-1.07536956E+02
 21
1.28154864E+01
  0
LINE
  8
0
 62
4
 10
-1.04536956E+02
 20
1.38154864E+01
 11
-1.05536956E+02
 21
1.28154864E+01
  0
LINE
  8
0
 62
4
 10
-1.08536956E+02
 20
1.38154864E+01
 11
-1.07536956E+02
 21
1.28154864E+01
  0
LINE
  8
0
 62
4
 10
-1.07536956E+02
 20
1.07154864E+01
 11
-1.08536956E+02
 21
9.71548641E+00
  0
LINE
  8
0
 62
4
 10
-1.05536956E+02
 20
1.07154864E+01
 11
-1.04536956E+02
 21
9.71548641E+00
  0
LINE
  8
0
 62
4
 10
-1.03432452E+02
 20
1.66904864E+01
 11
-1.10962308E+02
 21
1.91472179E+01
  0
LINE
  8
0
 62
4
 10
-1.07361246E+02
 20
1.72885948E+01
 11
-1.11164730E+02
 21
1.85295401E+01
  0
LINE
  8
0
 62
4
 10
-1.03511956E+02
 20
1.61904864E+01
 11
-1.11416748E+02
 21
1.87695467E+01
  0
LINE
  8
0
 62
4
 10
-1.06336956E+02
 20
8.26548641E+00
 11
-1.10191937E+02
 21
6.12047261E+00
  0
LINE
  8
0
 62
4
 10
-1.06336956E+02
 20
8.41548641E+00
 11
-1.10002310E+02
 21
6.38674931E+00
  0
LINE
  8
0
 62
4
 10
-1.02836956E+02
 20
1.50154864E+01
 11
-1.09336956E+02
 21
1.50154864E+01
  0
LINE
  8
0
 62
4
 10
-1.06736956E+02
 20
8.51548641E+00
 11
-1.09336956E+02
 21
8.51548641E+00
  0
LINE
  8
0
 62
4
 10
-1.11117395E+02
 20
1.86718780E+01
 11
-1.10962308E+02
 21
1.91472179E+01
  0
ARC
  8
0
 62
4
 10
-1.17836956E+02
 20
1.17654864E+01
 40
8.65000000E+00
 50
1.69314255E+02
 51
1.90685745E+02
  0
ARC
  8
0
 62
4
 10
-1.17836956E+02
 20
1.17654864E+01
 40
8.65000000E+00
 50
2.59314255E+02
 51
2.80685745E+02
  0
LINE
  8
0
 62
4
 10
-1.16786956E+02
 20
2.40654864E+01
 11
-1.15786956E+02
 21
2.50654864E+01
  0
LINE
  8
0
 62
4
 10
-1.16786956E+02
 20
2.20654864E+01
 11
-1.15786956E+02
 21
2.10654864E+01
  0
LINE
  8
0
 62
4
 10
-1.19886956E+02
 20
2.10654864E+01
 11
-1.18886956E+02
 21
2.20654864E+01
  0
LINE
  8
0
 62
4
 10
-1.19886956E+02
 20
2.50654864E+01
 11
-1.18886956E+02
 21
2.40654864E+01
  0
LINE
  8
0
 62
4
 10
-1.18886956E+02
 20
2.40654864E+01
 11
-1.18886956E+02
 21
2.20654864E+01
  0
LINE
  8
0
 62
4
 10
-1.16786956E+02
 20
2.20654864E+01
 11
-1.18886956E+02
 21
2.20654864E+01
  0
LINE
  8
0
 62
4
 10
-1.16786956E+02
 20
2.40654864E+01
 11
-1.16786956E+02
 21
2.20654864E+01
  0
LINE
  8
0
 62
4
 10
-1.16786956E+02
 20
2.40654864E+01
 11
-1.18886956E+02
 21
2.40654864E+01
  0
LINE
  8
0
 62
4
 10
-1.16336956E+02
 20
2.70654864E+01
 11
-1.16636956E+02
 21
2.67654864E+01
  0
LINE
  8
0
 62
4
 10
-1.19336956E+02
 20
2.70654864E+01
 11
-1.19036956E+02
 21
2.67654864E+01
  0
LINE
  8
0
 62
4
 10
-1.16836956E+02
 20
2.07654864E+01
 11
-1.18836956E+02
 21
2.07654864E+01
  0
LINE
  8
0
 62
4
 10
-1.24743348E+02
 20
1.84850478E+01
 11
-1.25218688E+02
 21
1.86401348E+01
  0
LINE
  8
0
 62
4
 10
-1.23502652E+02
 20
2.22877671E+01
 11
-1.23360050E+02
 21
2.22412410E+01
  0
LINE
  8
0
 62
4
 10
-1.22761956E+02
 20
2.61699905E+01
 11
-1.25218688E+02
 21
1.86401348E+01
  0
LINE
  8
0
 62
4
 10
-1.23360065E+02
 20
2.22411962E+01
 11
-1.24601010E+02
 21
1.84377124E+01
  0
LINE
  8
0
 62
4
 10
-1.22261956E+02
 20
2.60904864E+01
 11
-1.24841016E+02
 21
1.81856943E+01
  0
LINE
  8
0
 62
4
 10
-1.14336956E+02
 20
2.32654864E+01
 11
-1.12191942E+02
 21
1.94105056E+01
  0
LINE
  8
0
 62
4
 10
-1.14486956E+02
 20
2.32654864E+01
 11
-1.12458219E+02
 21
1.96001330E+01
  0
ARC
  8
0
 62
4
 10
-1.17836956E+02
 20
1.17654864E+01
 40
8.65000000E+00
 50
7.93142548E+01
 51
1.00685745E+02
  0
LINE
  8
0
 62
4
 10
-1.14336956E+02
 20
2.97654864E+01
 11
-1.21336956E+02
 21
2.97654864E+01
  0
LINE
  8
0
 62
4
 10
-1.21336956E+02
 20
2.84654864E+01
 11
-1.21336956E+02
 21
2.25654864E+01
  0
LINE
  8
0
 62
4
 10
-1.14336956E+02
 20
2.84654864E+01
 11
-1.14336956E+02
 21
2.32654864E+01
  0
LINE
  8
0
 62
4
 10
-1.22136956E+02
 20
2.47632642E+01
 11
-1.22606474E+02
 21
2.50345414E+01
  0
LINE
  8
0
 62
4
 10
-1.22836956E+02
 20
2.80654864E+01
 11
-1.22836956E+02
 21
2.63804864E+01
  0
LINE
  8
0
 62
4
 10
-1.22836956E+02
 20
2.80654864E+01
 11
-1.23636956E+02
 21
2.80654864E+01
  0
LINE
  8
0
 62
4
 10
-1.20121956E+02
 20
2.89654864E+01
 11
-1.19981956E+02
 21
2.81654864E+01
  0
LINE
  8
0
 62
4
 10
-1.15551956E+02
 20
2.89654864E+01
 11
-1.15691956E+02
 21
2.81654864E+01
  0
LINE
  8
0
 62
4
 10
-1.15691956E+02
 20
2.81654864E+01
 11
-1.19981956E+02
 21
2.81654864E+01
  0
LINE
  8
0
 62
6
 10
-1.19066956E+02
 20
3.02654864E+01
 11
-1.19066956E+02
 21
2.97654864E+01
  0
LINE
  8
0
 62
6
 10
-1.16606956E+02
 20
3.02654864E+01
 11
-1.16606956E+02
 21
2.97654864E+01
  0
LINE
  8
0
 62
4
 10
-1.13536956E+02
 20
2.89654864E+01
 11
-1.13536956E+02
 21
2.32654864E+01
  0
LINE
  8
0
 62
4
 10
-1.22136956E+02
 20
2.25654864E+01
 11
-1.22136956E+02
 21
2.89654864E+01
  0
LINE
  8
0
 62
4
 10
-1.14836956E+02
 20
2.89654864E+01
 11
-1.20836956E+02
 21
2.89654864E+01
  0
LINE
  8
0
 62
4
 10
-1.23636956E+02
 20
2.80654864E+01
 11
-1.23636956E+02
 21
2.59204864E+01
  0
LINE
  8
0
 62
4
 10
-1.22136956E+02
 20
2.56894864E+01
 11
-1.22351061E+02
 21
2.58136672E+01
  0
LINE
  8
0
 62
4
 10
-1.14486956E+02
 20
2.84654864E+01
 11
-1.14486956E+02
 21
2.32654864E+01
  0
LINE
  8
0
 62
4
 10
-1.14336956E+02
 20
2.84654864E+01
 11
-1.14486956E+02
 21
2.84654864E+01
  0
LINE
  8
0
 62
4
 10
-1.14586956E+02
 20
2.67654864E+01
 11
-1.21086956E+02
 21
2.67654864E+01
  0
LINE
  8
0
 62
4
 10
-1.14586956E+02
 20
2.60654864E+01
 11
-1.21086956E+02
 21
2.60654864E+01
  0
LINE
  8
0
 62
4
 10
-1.22261956E+02
 20
2.85904864E+01
 11
-1.22261956E+02
 21
2.60904864E+01
  0
LINE
  8
0
 62
4
 10
-1.22761956E+02
 20
2.85904864E+01
 11
-1.22761956E+02
 21
2.61699905E+01
  0
LINE
  8
0
 62
4
 10
-1.22261956E+02
 20
2.85904864E+01
 11
-1.22761956E+02
 21
2.85904864E+01
  0
LINE
  8
0
 62
4
 10
-1.19336956E+02
 20
3.07654864E+01
 11
-1.19336956E+02
 21
2.97654864E+01
  0
LINE
  8
0
 62
4
 10
-1.16336956E+02
 20
3.07654864E+01
 11
-1.16336956E+02
 21
2.97654864E+01
  0
LINE
  8
0
 62
4
 10
-1.13536956E+02
 20
2.32654864E+01
 11
-1.14336956E+02
 21
2.32654864E+01
  0
LINE
  8
0
 62
4
 10
-1.21336956E+02
 20
2.25654864E+01
 11
-1.22136956E+02
 21
2.25654864E+01
  0
LINE
  8
0
 62
4
 10
-1.15336956E+02
 20
3.07654864E+01
 11
-1.20336956E+02
 21
3.07654864E+01
  0
LINE
  8
0
 62
4
 10
-1.16336956E+02
 20
3.22654864E+01
 11
-1.19336956E+02
 21
3.22654864E+01
  0
LINE
  8
0
 62
4
 10
-1.15336956E+02
 20
3.12654864E+01
 11
-1.15336956E+02
 21
3.07654864E+01
  0
LINE
  8
0
 62
4
 10
-1.20336956E+02
 20
3.12654864E+01
 11
-1.20336956E+02
 21
3.07654864E+01
  0
LINE
  8
0
 62
4
 10
-1.16336956E+02
 20
3.02654864E+01
 11
-1.19336956E+02
 21
3.02654864E+01
  0
ARC
  8
0
 62
4
 10
-1.14336959E+02
 20
2.89654832E+01
 40
8.00003254E-01
 50
2.33015758E-04
 51
9.00000002E+01
  0
ARC
  8
0
 62
4
 10
-1.21338619E+02
 20
2.89671490E+01
 40
7.98339134E-01
 50
8.98806771E+01
 51
1.80119323E+02
  0
ARC
  8
0
 62
4
 10
-1.14836960E+02
 20
2.84654821E+01
 40
5.00004290E-01
 50
4.91607912E-04
 51
9.00000002E+01
  0
ARC
  8
0
 62
4
 10
-1.20838619E+02
 20
2.84671490E+01
 40
4.98340176E-01
 50
8.98088454E+01
 51
1.80191155E+02
  0
ARC
  8
0
 62
4
 10
-1.23136752E+02
 20
2.59186207E+01
 40
5.00207143E-01
 50
1.79786293E+02
 51
2.39986760E+02
  0
ARC
  8
0
 62
4
 10
-1.22338104E+02
 20
2.63828421E+01
 40
4.98857363E-01
 50
1.80270562E+02
 51
2.09445368E+02
  0
ARC
  8
0
 62
4
 10
-1.19338368E+02
 20
3.12668987E+01
 40
9.98588677E-01
 50
8.99189656E+01
 51
1.80081034E+02
  0
ARC
  8
0
 62
4
 10
-1.16337209E+02
 20
3.12652336E+01
 40
1.00025280E+00
 50
1.44788446E-02
 51
9.00000002E+01
  0
LINE
  8
0
 62
4
 10
-1.21086956E+02
 20
2.67654864E+01
 11
-1.21086956E+02
 21
2.02654864E+01
  0
LINE
  8
0
 62
4
 10
-1.14586956E+02
 20
2.28654864E+01
 11
-1.14586956E+02
 21
2.02654864E+01
  0
LINE
  8
0
 62
4
 10
-1.14586956E+02
 20
2.28654864E+01
 11
-1.15786956E+02
 21
2.28654864E+01
  0
LINE
  8
0
 62
4
 10
-1.14586956E+02
 20
2.32654864E+01
 11
-1.15786956E+02
 21
2.32654864E+01
  0
LINE
  8
0
 62
4
 10
-1.14586956E+02
 20
2.67654864E+01
 11
-1.14586956E+02
 21
2.32654864E+01
  0
LINE
  8
0
 62
4
 10
-1.15786956E+02
 20
2.10654864E+01
 11
-1.19886956E+02
 21
2.10654864E+01
  0
LINE
  8
0
 62
4
 10
-1.15786956E+02
 20
2.50654864E+01
 11
-1.19886956E+02
 21
2.50654864E+01
  0
LINE
  8
0
 62
4
 10
-1.16836956E+02
 20
2.53654864E+01
 11
-1.18836956E+02
 21
2.53654864E+01
  0
LINE
  8
0
 62
4
 10
-1.16836956E+02
 20
2.53654864E+01
 11
-1.16836956E+02
 21
2.50654864E+01
  0
LINE
  8
0
 62
4
 10
-1.16836956E+02
 20
2.10654864E+01
 11
-1.16836956E+02
 21
2.07654864E+01
  0
LINE
  8
0
 62
4
 10
-1.15786956E+02
 20
2.50654864E+01
 11
-1.15786956E+02
 21
2.10654864E+01
  0
LINE
  8
0
 62
4
 10
-1.19886956E+02
 20
2.50654864E+01
 11
-1.19886956E+02
 21
2.10654864E+01
  0
LINE
  8
0
 62
4
 10
-1.18836956E+02
 20
2.53654864E+01
 11
-1.18836956E+02
 21
2.50654864E+01
  0
LINE
  8
0
 62
4
 10
-1.18836956E+02
 20
2.10654864E+01
 11
-1.18836956E+02
 21
2.07654864E+01
  0
LINE
  8
0
 62
4
 10
-1.16336956E+02
 20
2.81654864E+01
 11
-1.16336956E+02
 21
2.70654864E+01
  0
LINE
  8
0
 62
4
 10
-1.19336956E+02
 20
2.81654864E+01
 11
-1.19336956E+02
 21
2.70654864E+01
  0
LINE
  8
0
 62
6
 10
-1.16606956E+02
 20
2.81654864E+01
 11
-1.16606956E+02
 21
2.67954864E+01
  0
LINE
  8
0
 62
6
 10
-1.19066956E+02
 20
2.81654864E+01
 11
-1.19066956E+02
 21
2.67954864E+01
  0
LINE
  8
0
 62
4
 10
-1.23048995E+02
 20
2.52902199E+01
 11
-1.23386956E+02
 21
2.54854864E+01
  0
ARC
  8
0
 62
2
 10
-1.17836956E+02
 20
1.17654864E+01
 40
4.18800000E+00
 50
4.27673618E+01
 51
7.72326384E+01
  0
ARC
  8
0
 62
2
 10
-1.17836956E+02
 20
1.17654864E+01
 40
4.18800000E+00
 50
3.42767362E+02
 51
1.72326382E+01
  0
ARC
  8
0
 62
2
 10
-1.17836956E+02
 20
1.17654864E+01
 40
4.18800000E+00
 50
2.82767362E+02
 51
3.17232638E+02
  0
ARC
  8
0
 62
2
 10
-1.17836956E+02
 20
1.17654864E+01
 40
4.18800000E+00
 50
2.22767362E+02
 51
2.57232638E+02
  0
ARC
  8
0
 62
2
 10
-1.17836956E+02
 20
1.17654864E+01
 40
4.18800000E+00
 50
1.62767362E+02
 51
1.97232638E+02
  0
ARC
  8
0
 62
2
 10
-1.17836956E+02
 20
1.17654864E+01
 40
4.18800000E+00
 50
1.02767362E+02
 51
1.37232638E+02
  0
CIRCLE
  8
0
 62
2
 10
-1.17836956E+02
 20
1.17654864E+01
 40
2.06700000E+00
  0
LINE
  8
0
 62
4
 10
-1.21836956E+02
 20
9.45608514E+00
 11
-1.21836956E+02
 21
1.40748873E+01
  0
LINE
  8
0
 62
4
 10
-1.21836956E+02
 20
1.40748871E+01
 11
-1.17836956E+02
 21
1.63842882E+01
  0
LINE
  8
0
 62
4
 10
-1.17836956E+02
 20
1.63842884E+01
 11
-1.13836956E+02
 21
1.40748873E+01
  0
LINE
  8
0
 62
4
 10
-1.13836956E+02
 20
1.40748877E+01
 11
-1.13836956E+02
 21
9.45608552E+00
  0
LINE
  8
0
 62
4
 10
-1.13836956E+02
 20
9.45608571E+00
 11
-1.17836956E+02
 21
7.14668463E+00
  0
LINE
  8
0
 62
4
 10
-1.17836956E+02
 20
7.14668444E+00
 11
-1.21836956E+02
 21
9.45608552E+00
  0
LINE
  8
0
 62
7
 10
-1.09336956E+02
 20
1.60154864E+01
 11
-1.09336956E+02
 21
7.52548641E+00
  0
LINE
  8
0
 62
7
 10
-1.26336956E+02
 20
1.60154864E+01
 11
-1.26336956E+02
 21
7.52548641E+00
  0
LINE
  8
0
 62
7
 10
-1.22076956E+02
 20
3.26548641E+00
 11
-1.13586956E+02
 21
3.26548641E+00
  0
LINE
  8
0
 62
7
 10
-1.22076956E+02
 20
2.02654864E+01
 11
-1.13586956E+02
 21
2.02654864E+01
  0
LINE
  8
0
  6
CENTER
 62
2
 10
-1.28152451E+02
 20
1.17654864E+01
 11
-9.57081220E+01
 21
1.17654864E+01
  0
CIRCLE
  8
0
 62
7
 10
-1.17836956E+02
 20
1.17654860E+01
 40
2.50000000E+00
  0
CIRCLE
  8
0
 62
7
 10
-1.17836956E+02
 20
1.17654860E+01
 40
8.50000000E+00
  0
ARC
  8
0
 62
7
 10
-1.17836956E+02
 20
1.17654862E+01
 40
9.50328916E+00
 50
2.65650517E+01
 51
6.34349484E+01
  0
ARC
  8
0
 62
7
 10
-1.17841948E+02
 20
1.17605021E+01
 40
9.50105520E+00
 50
1.16470744E+02
 51
1.53394601E+02
  0
ARC
  8
0
 62
7
 10
-1.17836956E+02
 20
1.17654862E+01
 40
9.49882072E+00
 50
2.06511100E+02
 51
2.43488900E+02
  0
ARC
  8
0
 62
7
 10
-1.17841940E+02
 20
1.17604939E+01
 40
9.50105469E+00
 50
2.96605398E+02
 51
3.33529257E+02
  0
CIRCLE
  8
0
 62
4
 10
-1.17836956E+02
 20
1.17654860E+01
 40
4.00000000E+00
  0
CIRCLE
  8
0
 62
7
 10
-1.17836956E+02
 20
1.17654860E+01
 40
5.00000000E+00
  0
LINE
  8
0
  6
CENTER
 62
2
 10
1.01823044E+02
 20
7.22506344E-01
 11
1.01823044E+02
 21
3.39516315E+01
  0
ARC
  8
0
 62
4
 10
1.01823044E+02
 20
1.17654864E+01
 40
8.65000000E+00
 50
7.93142548E+01
 51
1.00685745E+02
  0
LINE
  8
0
 62
4
 10
9.51034824E+01
 20
1.86718780E+01
 11
9.49483955E+01
 21
1.91472179E+01
  0
LINE
  8
0
 62
4
 10
8.82983104E+01
 20
1.69775251E+01
 11
8.81030439E+01
 21
1.73154864E+01
  0
LINE
  8
0
 62
6
 10
8.54230439E+01
 20
1.29954864E+01
 11
8.67930439E+01
 21
1.29954864E+01
  0
LINE
  8
0
 62
6
 10
8.54230439E+01
 20
1.05354864E+01
 11
8.67930439E+01
 21
1.05354864E+01
  0
LINE
  8
0
 62
4
 10
8.54230439E+01
 20
1.32654864E+01
 11
8.65230439E+01
 21
1.32654864E+01
  0
LINE
  8
0
 62
4
 10
8.54230439E+01
 20
1.02654864E+01
 11
8.65230439E+01
 21
1.02654864E+01
  0
LINE
  8
0
 62
4
 10
9.18230439E+01
 20
1.30654864E+01
 11
9.25230439E+01
 21
1.38154864E+01
  0
LINE
  8
0
 62
4
 10
8.92230439E+01
 20
1.30654864E+01
 11
8.85230439E+01
 21
1.38154864E+01
  0
LINE
  8
0
 62
4
 10
8.92230439E+01
 20
1.30654864E+01
 11
9.18230439E+01
 21
1.30654864E+01
  0
LINE
  8
0
 62
4
 10
9.25230439E+01
 20
1.27654864E+01
 11
9.28230439E+01
 21
1.27654864E+01
  0
LINE
  8
0
 62
4
 10
8.82230439E+01
 20
1.27654864E+01
 11
8.85230439E+01
 21
1.27654864E+01
  0
LINE
  8
0
 62
4
 10
8.85230439E+01
 20
1.38154864E+01
 11
9.25230439E+01
 21
1.38154864E+01
  0
LINE
  8
0
 62
4
 10
8.85230439E+01
 20
9.71548641E+00
 11
8.92230439E+01
 21
1.04654864E+01
  0
LINE
  8
0
 62
4
 10
8.92230439E+01
 20
1.04654864E+01
 11
9.18230439E+01
 21
1.04654864E+01
  0
LINE
  8
0
 62
4
 10
8.85230439E+01
 20
9.71548641E+00
 11
9.25230439E+01
 21
9.71548641E+00
  0
LINE
  8
0
 62
4
 10
9.25230439E+01
 20
1.07654864E+01
 11
9.28230439E+01
 21
1.07654864E+01
  0
LINE
  8
0
 62
4
 10
8.82230439E+01
 20
1.07654864E+01
 11
8.85230439E+01
 21
1.07654864E+01
  0
LINE
  8
0
 62
4
 10
8.92230439E+01
 20
1.04654864E+01
 11
8.92230439E+01
 21
1.30654864E+01
  0
LINE
  8
0
 62
4
 10
8.82230439E+01
 20
1.07654864E+01
 11
8.82230439E+01
 21
1.27654864E+01
  0
LINE
  8
0
 62
4
 10
8.85230439E+01
 20
9.71548641E+00
 11
8.85230439E+01
 21
1.38154864E+01
  0
LINE
  8
0
 62
4
 10
9.25230439E+01
 20
9.71548641E+00
 11
9.25230439E+01
 21
1.38154864E+01
  0
LINE
  8
0
 62
4
 10
8.68230439E+01
 20
8.51548641E+00
 11
9.03230439E+01
 21
8.51548641E+00
  0
LINE
  8
0
 62
4
 10
9.03230439E+01
 20
8.51548641E+00
 11
9.03230439E+01
 21
9.71548641E+00
  0
LINE
  8
0
 62
4
 10
9.07230439E+01
 20
8.51548641E+00
 11
9.07230439E+01
 21
9.71548641E+00
  0
ARC
  8
0
 62
4
 10
8.23232966E+01
 20
1.02657392E+01
 40
1.00025280E+00
 50
1.80014479E+02
 51
2.70000000E+02
  0
ARC
  8
0
 62
4
 10
8.23216316E+01
 20
1.32668987E+01
 40
9.98588677E-01
 50
8.99189656E+01
 51
1.80081034E+02
  0
ARC
  8
0
 62
4
 10
8.72056882E+01
 20
1.62666346E+01
 40
4.98857363E-01
 50
6.05546317E+01
 51
8.97294375E+01
  0
ARC
  8
0
 62
4
 10
8.76699096E+01
 20
1.70652827E+01
 40
5.00207143E-01
 50
3.00132395E+01
 51
9.02137066E+01
  0
ARC
  8
0
 62
4
 10
8.51213813E+01
 20
1.47671490E+01
 40
4.98340176E-01
 50
8.98088454E+01
 51
1.80191155E+02
  0
ARC
  8
0
 62
4
 10
8.51230482E+01
 20
8.76549070E+00
 40
5.00004290E-01
 50
1.80000491E+02
 51
2.70000000E+02
  0
ARC
  8
0
 62
4
 10
8.46213813E+01
 20
1.52671490E+01
 40
7.98339134E-01
 50
8.98806771E+01
 51
1.80119323E+02
  0
ARC
  8
0
 62
4
 10
8.46230471E+01
 20
8.26548966E+00
 40
8.00003254E-01
 50
1.80000233E+02
 51
2.70000000E+02
  0
LINE
  8
0
 62
4
 10
8.33230439E+01
 20
1.02654864E+01
 11
8.33230439E+01
 21
1.32654864E+01
  0
LINE
  8
0
 62
4
 10
8.23230439E+01
 20
1.42654864E+01
 11
8.28230439E+01
 21
1.42654864E+01
  0
LINE
  8
0
 62
4
 10
8.23230439E+01
 20
9.26548641E+00
 11
8.28230439E+01
 21
9.26548641E+00
  0
LINE
  8
0
 62
4
 10
8.13230439E+01
 20
1.02654864E+01
 11
8.13230439E+01
 21
1.32654864E+01
  0
LINE
  8
0
 62
4
 10
8.28230439E+01
 20
9.26548641E+00
 11
8.28230439E+01
 21
1.42654864E+01
  0
LINE
  8
0
 62
4
 10
9.10230439E+01
 20
1.52654864E+01
 11
9.10230439E+01
 21
1.60654864E+01
  0
LINE
  8
0
 62
4
 10
9.03230439E+01
 20
7.46548641E+00
 11
9.03230439E+01
 21
8.26548641E+00
  0
LINE
  8
0
 62
4
 10
8.28230439E+01
 20
1.02654864E+01
 11
8.38230439E+01
 21
1.02654864E+01
  0
LINE
  8
0
 62
4
 10
8.28230439E+01
 20
1.32654864E+01
 11
8.38230439E+01
 21
1.32654864E+01
  0
LINE
  8
0
 62
4
 10
8.49980439E+01
 20
1.61904864E+01
 11
8.49980439E+01
 21
1.66904864E+01
  0
LINE
  8
0
 62
4
 10
8.49980439E+01
 20
1.66904864E+01
 11
8.74185398E+01
 21
1.66904864E+01
  0
LINE
  8
0
 62
4
 10
8.49980439E+01
 20
1.61904864E+01
 11
8.74980439E+01
 21
1.61904864E+01
  0
LINE
  8
0
 62
4
 10
8.75230439E+01
 20
8.51548641E+00
 11
8.75230439E+01
 21
1.50154864E+01
  0
LINE
  8
0
 62
4
 10
8.68230439E+01
 20
8.51548641E+00
 11
8.68230439E+01
 21
1.50154864E+01
  0
LINE
  8
0
 62
4
 10
8.51230439E+01
 20
8.26548641E+00
 11
8.51230439E+01
 21
8.41548641E+00
  0
LINE
  8
0
 62
4
 10
8.51230439E+01
 20
8.41548641E+00
 11
9.03230439E+01
 21
8.41548641E+00
  0
LINE
  8
0
 62
4
 10
8.78990439E+01
 20
1.60654864E+01
 11
8.77748631E+01
 21
1.62795912E+01
  0
LINE
  8
0
 62
4
 10
8.55230439E+01
 20
1.75654864E+01
 11
8.76680439E+01
 21
1.75654864E+01
  0
LINE
  8
0
 62
4
 10
8.46230439E+01
 20
8.76548641E+00
 11
8.46230439E+01
 21
1.47654864E+01
  0
LINE
  8
0
 62
4
 10
9.10230439E+01
 20
1.60654864E+01
 11
8.46230439E+01
 21
1.60654864E+01
  0
LINE
  8
0
 62
4
 10
8.46230439E+01
 20
7.46548641E+00
 11
9.03230439E+01
 21
7.46548641E+00
  0
LINE
  8
0
 62
6
 10
8.33230439E+01
 20
1.05354864E+01
 11
8.38230439E+01
 21
1.05354864E+01
  0
LINE
  8
0
 62
6
 10
8.33230439E+01
 20
1.29954864E+01
 11
8.38230439E+01
 21
1.29954864E+01
  0
LINE
  8
0
 62
4
 10
8.54230439E+01
 20
9.62048641E+00
 11
8.54230439E+01
 21
1.39104864E+01
  0
LINE
  8
0
 62
4
 10
8.46230439E+01
 20
9.48048641E+00
 11
8.54230439E+01
 21
9.62048641E+00
  0
LINE
  8
0
 62
4
 10
8.46230439E+01
 20
1.40504864E+01
 11
8.54230439E+01
 21
1.39104864E+01
  0
LINE
  8
0
 62
4
 10
8.55230439E+01
 20
1.67654864E+01
 11
8.55230439E+01
 21
1.75654864E+01
  0
LINE
  8
0
 62
4
 10
8.55230439E+01
 20
1.67654864E+01
 11
8.72080439E+01
 21
1.67654864E+01
  0
LINE
  8
0
 62
4
 10
8.88252661E+01
 20
1.60654864E+01
 11
8.85539888E+01
 21
1.65350047E+01
  0
LINE
  8
0
 62
4
 10
8.51230439E+01
 20
8.26548641E+00
 11
9.03230439E+01
 21
8.26548641E+00
  0
LINE
  8
0
 62
4
 10
8.51230439E+01
 20
1.52654864E+01
 11
9.10230439E+01
 21
1.52654864E+01
  0
LINE
  8
0
 62
4
 10
8.38230439E+01
 20
8.26548641E+00
 11
8.38230439E+01
 21
1.52654864E+01
  0
CIRCLE
  8
0
 62
4
 10
9.05230439E+01
 20
1.17654864E+01
 40
1.30000000E+00
  0
LINE
  8
0
 62
4
 10
9.13007632E+01
 20
1.74311822E+01
 11
9.13472893E+01
 21
1.72885802E+01
  0
LINE
  8
0
 62
4
 10
9.18230439E+01
 20
1.04654864E+01
 11
9.25230439E+01
 21
9.71548641E+00
  0
LINE
  8
0
 62
4
 10
9.18230439E+01
 20
1.04654864E+01
 11
9.18230439E+01
 21
1.30654864E+01
  0
LINE
  8
0
 62
4
 10
9.28230439E+01
 20
1.07654864E+01
 11
9.28230439E+01
 21
1.27654864E+01
  0
LINE
  8
0
 62
4
 10
8.65230439E+01
 20
1.32654864E+01
 11
8.68230439E+01
 21
1.29654864E+01
  0
LINE
  8
0
 62
4
 10
8.65230439E+01
 20
1.02654864E+01
 11
8.68230439E+01
 21
1.05654864E+01
  0
LINE
  8
0
 62
4
 10
8.74185398E+01
 20
1.66904864E+01
 11
9.49483955E+01
 21
1.91472179E+01
  0
LINE
  8
0
 62
4
 10
9.13473341E+01
 20
1.72885948E+01
 11
9.51604557E+01
 21
1.85326846E+01
  0
LINE
  8
0
 62
4
 10
8.74980439E+01
 20
1.61904864E+01
 11
9.54122367E+01
 21
1.87726138E+01
  0
LINE
  8
0
 62
4
 10
9.03230439E+01
 20
8.26548641E+00
 11
9.41853433E+01
 21
6.11640032E+00
  0
LINE
  8
0
 62
4
 10
9.03230439E+01
 20
8.41548641E+00
 11
9.39955993E+01
 21
6.38276307E+00
  0
LINE
  8
0
 62
4
 10
8.68230439E+01
 20
1.50154864E+01
 11
9.33230439E+01
 21
1.50154864E+01
  0
LINE
  8
0
 62
4
 10
9.07230439E+01
 20
8.51548641E+00
 11
9.33230439E+01
 21
8.51548641E+00
  0
LINE
  8
0
  6
CENTER
 62
2
 10
1.12866024E+02
 20
1.17654864E+01
 11
7.90725231E+01
 21
1.17654864E+01
  0
ARC
  8
0
 62
4
 10
1.01823044E+02
 20
1.17654864E+01
 40
8.65000000E+00
 50
2.59314255E+02
 51
2.80685745E+02
  0
ARC
  8
0
 62
4
 10
1.01823044E+02
 20
1.17654864E+01
 40
8.65000000E+00
 50
3.49314256E+02
 51
1.06857436E+01
  0
LINE
  8
0
 62
4
 10
1.00323044E+02
 20
2.70654864E+01
 11
1.00623044E+02
 21
2.67654864E+01
  0
LINE
  8
0
 62
4
 10
1.03323044E+02
 20
2.70654864E+01
 11
1.03023044E+02
 21
2.67654864E+01
  0
LINE
  8
0
 62
4
 10
1.00823044E+02
 20
2.07654864E+01
 11
1.02823044E+02
 21
2.07654864E+01
  0
LINE
  8
0
 62
4
 10
1.00523044E+02
 20
2.17654864E+01
 11
1.03123044E+02
 21
2.17654864E+01
  0
LINE
  8
0
 62
4
 10
1.00523044E+02
 20
2.17654864E+01
 11
9.97730439E+01
 21
2.10654864E+01
  0
LINE
  8
0
 62
4
 10
1.08729435E+02
 20
1.84850478E+01
 11
1.09204775E+02
 21
1.86401348E+01
  0
LINE
  8
0
 62
4
 10
1.07488740E+02
 20
2.22877671E+01
 11
1.07346138E+02
 21
2.22412410E+01
  0
LINE
  8
0
 62
4
 10
1.06748044E+02
 20
2.61699905E+01
 11
1.09204775E+02
 21
1.86401348E+01
  0
LINE
  8
0
 62
4
 10
1.07346152E+02
 20
2.22411962E+01
 11
1.08590242E+02
 21
1.84280746E+01
  0
LINE
  8
0
 62
4
 10
1.06248044E+02
 20
2.60904864E+01
 11
1.08830171E+02
 21
1.81762935E+01
  0
LINE
  8
0
 62
4
 10
9.83230439E+01
 20
2.32654864E+01
 11
9.61739578E+01
 21
1.94031870E+01
  0
LINE
  8
0
 62
4
 10
9.84730439E+01
 20
2.32654864E+01
 11
9.64403205E+01
 21
1.95929310E+01
  0
ARC
  8
0
 62
4
 10
1.01823044E+02
 20
1.17654864E+01
 40
8.65000000E+00
 50
1.69314255E+02
 51
1.90685745E+02
  0
CIRCLE
  8
0
 62
4
 10
1.01823044E+02
 20
2.30654864E+01
 40
1.30000000E+00
  0
LINE
  8
0
 62
4
 10
9.83230439E+01
 20
2.97654864E+01
 11
1.05323044E+02
 21
2.97654864E+01
  0
LINE
  8
0
 62
4
 10
1.05323044E+02
 20
2.84654864E+01
 11
1.05323044E+02
 21
2.25654864E+01
  0
LINE
  8
0
 62
4
 10
9.83230439E+01
 20
2.84654864E+01
 11
9.83230439E+01
 21
2.32654864E+01
  0
LINE
  8
0
 62
4
 10
1.06123044E+02
 20
2.47632642E+01
 11
1.06592562E+02
 21
2.50345414E+01
  0
LINE
  8
0
 62
4
 10
1.06823044E+02
 20
2.80654864E+01
 11
1.06823044E+02
 21
2.63804864E+01
  0
LINE
  8
0
 62
4
 10
1.06823044E+02
 20
2.80654864E+01
 11
1.07623044E+02
 21
2.80654864E+01
  0
LINE
  8
0
 62
4
 10
1.04108044E+02
 20
2.89654864E+01
 11
1.03968044E+02
 21
2.81654864E+01
  0
LINE
  8
0
 62
4
 10
9.95380439E+01
 20
2.89654864E+01
 11
9.96780439E+01
 21
2.81654864E+01
  0
LINE
  8
0
 62
4
 10
9.96780439E+01
 20
2.81654864E+01
 11
1.03968044E+02
 21
2.81654864E+01
  0
LINE
  8
0
 62
6
 10
1.03053044E+02
 20
3.02654864E+01
 11
1.03053044E+02
 21
2.97654864E+01
  0
LINE
  8
0
 62
6
 10
1.00593044E+02
 20
3.02654864E+01
 11
1.00593044E+02
 21
2.97654864E+01
  0
LINE
  8
0
 62
4
 10
9.75230439E+01
 20
2.89654864E+01
 11
9.75230439E+01
 21
2.32654864E+01
  0
LINE
  8
0
 62
4
 10
1.06123044E+02
 20
2.25654864E+01
 11
1.06123044E+02
 21
2.89654864E+01
  0
LINE
  8
0
 62
4
 10
9.88230439E+01
 20
2.89654864E+01
 11
1.04823044E+02
 21
2.89654864E+01
  0
LINE
  8
0
 62
4
 10
1.07623044E+02
 20
2.80654864E+01
 11
1.07623044E+02
 21
2.59204864E+01
  0
LINE
  8
0
 62
4
 10
1.06123044E+02
 20
2.56894864E+01
 11
1.06337149E+02
 21
2.58136672E+01
  0
LINE
  8
0
 62
4
 10
9.84730439E+01
 20
2.84654864E+01
 11
9.84730439E+01
 21
2.32654864E+01
  0
LINE
  8
0
 62
4
 10
9.83230439E+01
 20
2.84654864E+01
 11
9.84730439E+01
 21
2.84654864E+01
  0
LINE
  8
0
 62
4
 10
9.85730439E+01
 20
2.67654864E+01
 11
1.05073044E+02
 21
2.67654864E+01
  0
LINE
  8
0
 62
4
 10
9.85730439E+01
 20
2.60654864E+01
 11
1.05073044E+02
 21
2.60654864E+01
  0
LINE
  8
0
 62
4
 10
1.06248044E+02
 20
2.85904864E+01
 11
1.06248044E+02
 21
2.60904864E+01
  0
LINE
  8
0
 62
4
 10
1.06748044E+02
 20
2.85904864E+01
 11
1.06748044E+02
 21
2.61699905E+01
  0
LINE
  8
0
 62
4
 10
1.06248044E+02
 20
2.85904864E+01
 11
1.06748044E+02
 21
2.85904864E+01
  0
LINE
  8
0
 62
4
 10
1.03323044E+02
 20
3.07654864E+01
 11
1.03323044E+02
 21
2.97654864E+01
  0
LINE
  8
0
 62
4
 10
1.00323044E+02
 20
3.07654864E+01
 11
1.00323044E+02
 21
2.97654864E+01
  0
LINE
  8
0
 62
4
 10
9.75230439E+01
 20
2.32654864E+01
 11
9.83230439E+01
 21
2.32654864E+01
  0
LINE
  8
0
 62
4
 10
1.05323044E+02
 20
2.25654864E+01
 11
1.06123044E+02
 21
2.25654864E+01
  0
LINE
  8
0
 62
4
 10
9.93230439E+01
 20
3.07654864E+01
 11
1.04323044E+02
 21
3.07654864E+01
  0
LINE
  8
0
 62
4
 10
1.00323044E+02
 20
3.22654864E+01
 11
1.03323044E+02
 21
3.22654864E+01
  0
LINE
  8
0
 62
4
 10
9.93230439E+01
 20
3.12654864E+01
 11
9.93230439E+01
 21
3.07654864E+01
  0
LINE
  8
0
 62
4
 10
1.04323044E+02
 20
3.12654864E+01
 11
1.04323044E+02
 21
3.07654864E+01
  0
LINE
  8
0
 62
4
 10
1.00323044E+02
 20
3.02654864E+01
 11
1.03323044E+02
 21
3.02654864E+01
  0
ARC
  8
0
 62
4
 10
9.83230471E+01
 20
2.89654832E+01
 40
8.00003254E-01
 50
9.00000002E+01
 51
1.79999767E+02
  0
ARC
  8
0
 62
4
 10
1.05324706E+02
 20
2.89671490E+01
 40
7.98339134E-01
 50
3.59880678E+02
 51
9.01193227E+01
  0
ARC
  8
0
 62
4
 10
9.88230482E+01
 20
2.84654821E+01
 40
5.00004290E-01
 50
9.00000002E+01
 51
1.79999508E+02
  0
ARC
  8
0
 62
4
 10
1.04824706E+02
 20
2.84671490E+01
 40
4.98340176E-01
 50
3.59808845E+02
 51
9.01911544E+01
  0
ARC
  8
0
 62
4
 10
1.07122840E+02
 20
2.59186207E+01
 40
5.00207143E-01
 50
3.00013240E+02
 51
2.13706628E-01
  0
ARC
  8
0
 62
4
 10
1.06324192E+02
 20
2.63828421E+01
 40
4.98857363E-01
 50
3.30554632E+02
 51
3.59729437E+02
  0
ARC
  8
0
 62
4
 10
1.03324456E+02
 20
3.12668987E+01
 40
9.98588677E-01
 50
3.59918966E+02
 51
9.00810348E+01
  0
ARC
  8
0
 62
4
 10
1.00323297E+02
 20
3.12652336E+01
 40
1.00025280E+00
 50
9.00000002E+01
 51
1.79985521E+02
  0
LINE
  8
0
 62
4
 10
1.05073044E+02
 20
2.67654864E+01
 11
1.05073044E+02
 21
2.02654864E+01
  0
LINE
  8
0
 62
4
 10
9.85730439E+01
 20
2.28654864E+01
 11
9.85730439E+01
 21
2.02654864E+01
  0
LINE
  8
0
 62
4
 10
9.85730439E+01
 20
2.28654864E+01
 11
9.97730439E+01
 21
2.28654864E+01
  0
LINE
  8
0
 62
4
 10
9.85730439E+01
 20
2.32654864E+01
 11
9.97730439E+01
 21
2.32654864E+01
  0
LINE
  8
0
 62
4
 10
9.85730439E+01
 20
2.67654864E+01
 11
9.85730439E+01
 21
2.32654864E+01
  0
LINE
  8
0
 62
4
 10
9.97730439E+01
 20
2.10654864E+01
 11
1.03873044E+02
 21
2.10654864E+01
  0
LINE
  8
0
 62
4
 10
9.97730439E+01
 20
2.50654864E+01
 11
1.03873044E+02
 21
2.50654864E+01
  0
LINE
  8
0
 62
4
 10
1.00823044E+02
 20
2.53654864E+01
 11
1.02823044E+02
 21
2.53654864E+01
  0
LINE
  8
0
 62
4
 10
1.00523044E+02
 20
2.43654864E+01
 11
1.03123044E+02
 21
2.43654864E+01
  0
LINE
  8
0
 62
4
 10
1.00823044E+02
 20
2.53654864E+01
 11
1.00823044E+02
 21
2.50654864E+01
  0
LINE
  8
0
 62
4
 10
1.00823044E+02
 20
2.10654864E+01
 11
1.00823044E+02
 21
2.07654864E+01
  0
LINE
  8
0
 62
4
 10
9.97730439E+01
 20
2.50654864E+01
 11
9.97730439E+01
 21
2.10654864E+01
  0
LINE
  8
0
 62
4
 10
1.00523044E+02
 20
2.43654864E+01
 11
1.00523044E+02
 21
2.17654864E+01
  0
LINE
  8
0
 62
4
 10
9.97730439E+01
 20
2.50654864E+01
 11
1.00523044E+02
 21
2.43654864E+01
  0
LINE
  8
0
 62
4
 10
1.03873044E+02
 20
2.50654864E+01
 11
1.03873044E+02
 21
2.10654864E+01
  0
LINE
  8
0
 62
4
 10
1.02823044E+02
 20
2.53654864E+01
 11
1.02823044E+02
 21
2.50654864E+01
  0
LINE
  8
0
 62
4
 10
1.02823044E+02
 20
2.10654864E+01
 11
1.02823044E+02
 21
2.07654864E+01
  0
LINE
  8
0
 62
4
 10
1.03123044E+02
 20
2.43654864E+01
 11
1.03123044E+02
 21
2.17654864E+01
  0
LINE
  8
0
 62
4
 10
1.03123044E+02
 20
2.43654864E+01
 11
1.03873044E+02
 21
2.50654864E+01
  0
LINE
  8
0
 62
4
 10
1.03123044E+02
 20
2.17654864E+01
 11
1.03873044E+02
 21
2.10654864E+01
  0
LINE
  8
0
 62
4
 10
1.00323044E+02
 20
2.81654864E+01
 11
1.00323044E+02
 21
2.70654864E+01
  0
LINE
  8
0
 62
4
 10
1.03323044E+02
 20
2.81654864E+01
 11
1.03323044E+02
 21
2.70654864E+01
  0
LINE
  8
0
 62
6
 10
1.00593044E+02
 20
2.81654864E+01
 11
1.00593044E+02
 21
2.67954864E+01
  0
LINE
  8
0
 62
6
 10
1.03053044E+02
 20
2.81654864E+01
 11
1.03053044E+02
 21
2.67954864E+01
  0
LINE
  8
0
 62
4
 10
1.07035083E+02
 20
2.52902199E+01
 11
1.07373044E+02
 21
2.54854864E+01
  0
LINE
  8
0
 62
7
 10
1.10323044E+02
 20
7.52548641E+00
 11
1.10323044E+02
 21
1.60154864E+01
  0
LINE
  8
0
 62
7
 10
9.33230439E+01
 20
7.52548641E+00
 11
9.33230439E+01
 21
1.60154864E+01
  0
LINE
  8
0
 62
7
 10
9.75830439E+01
 20
2.02654864E+01
 11
1.06063044E+02
 21
2.02654864E+01
  0
LINE
  8
0
 62
7
 10
9.75830439E+01
 20
3.26548641E+00
 11
1.06063044E+02
 21
3.26548641E+00
  0
LINE
  8
0
 62
7
 10
1.05123044E+02
 20
3.26548641E+00
 11
1.05123044E+02
 21
2.02654864E+01
  0
LINE
  8
0
 62
7
 10
9.85230439E+01
 20
3.26548641E+00
 11
9.85230439E+01
 21
2.02654864E+01
  0
ARC
  8
0
 62
7
 10
1.01821375E+02
 20
1.17571707E+01
 40
9.50551887E+00
 50
1.16479727E+02
 51
1.53385619E+02
  0
ARC
  8
0
 62
7
 10
1.01826373E+02
 20
1.17688152E+01
 40
9.50328580E+00
 50
2.06520101E+02
 51
2.43479899E+02
  0
ARC
  8
0
 62
7
 10
1.01826372E+02
 20
1.17621588E+01
 40
9.49435798E+00
 50
2.96502094E+02
 51
3.33497906E+02
  0
ARC
  8
0
 62
7
 10
1.01838069E+02
 20
1.17535301E+01
 40
9.49428151E+00
 50
2.66589370E+01
 51
6.36021455E+01
  0
ARC
  8
0
 62
7
 10
1.01829167E+02
 20
1.17662895E+01
 40
8.49387723E+00
 50
2.92817324E+02
 51
6.71826762E+01
  0
ARC
  8
0
 62
7
 10
1.01829700E+02
 20
1.17654864E+01
 40
8.49958100E+00
 50
1.12894629E+02
 51
2.47105371E+02
  0
LINE
  8
0
  6
CENTER
 62
6
 10
2.49129993E+01
 20
2.54555573E+01
 11
2.49130625E+01
 21
5.85002164E+01
  0
LINE
  8
0
  6
PHANTOM
 10
-5.93377445E+01
 20
3.15617730E+01
 11
-5.93376837E+01
 21
6.33614680E+01
  0
LINE
  8
0
 62
4
 10
2.69130127E+01
 20
3.24655535E+01
 11
2.69130180E+01
 21
3.52405534E+01
  0
LINE
  8
0
 62
4
 10
2.29130127E+01
 20
3.24655611E+01
 11
2.29130180E+01
 21
3.52405611E+01
  0
LINE
  8
0
 62
4
 10
2.29130180E+01
 20
3.52405611E+01
 11
2.69130180E+01
 21
3.52405535E+01
  0
LINE
  8
0
 62
4
 10
2.29130127E+01
 20
3.24655611E+01
 11
2.69130127E+01
 21
3.24655535E+01
  0
LINE
  8
0
 62
4
 10
2.04130117E+01
 20
3.19405659E+01
 11
2.94130117E+01
 21
3.19405487E+01
  0
LINE
  8
0
  6
PHANTOM
 10
1.76622733E+01
 20
4.09032300E+01
 11
1.76623163E+01
 21
6.33613208E+01
  0
LINE
  8
0
  6
PHANTOM
 10
7.57960738E+00
 20
2.95766984E+01
 11
7.57962904E+00
 21
4.09032492E+01
  0
LINE
  8
0
  6
PHANTOM
 10
7.57962904E+00
 20
4.09032492E+01
 11
1.76622733E+01
 21
4.09032300E+01
  0
LINE
  8
0
 62
7
 10
3.19130276E+01
 20
4.02655439E+01
 11
4.54130276E+01
 21
4.02655181E+01
  0
LINE
  8
0
 62
7
 10
2.94130601E+01
 20
5.72655487E+01
 11
4.54130601E+01
 21
5.72655181E+01
  0
LINE
  8
0
 62
4
 10
2.04130604E+01
 20
5.74155505E+01
 11
2.94130604E+01
 21
5.74155333E+01
  0
LINE
  8
0
 62
4
 10
2.24130066E+01
 20
2.92655621E+01
 11
2.24130075E+01
 21
2.97655621E+01
  0
LINE
  8
0
 62
4
 10
2.74130066E+01
 20
2.92655525E+01
 11
2.74130075E+01
 21
2.97655525E+01
  0
LINE
  8
0
 62
4
 10
2.04130094E+01
 20
3.07655659E+01
 11
2.94130094E+01
 21
3.07655487E+01
  0
LINE
  8
0
 62
4
 10
2.24130075E+01
 20
2.97655621E+01
 11
2.74130075E+01
 21
2.97655525E+01
  0
LINE
  8
0
 62
4
 10
2.34130047E+01
 20
2.82655602E+01
 11
2.64130047E+01
 21
2.82655544E+01
  0
LINE
  8
0
 62
4
 10
2.64130075E+01
 20
2.97655544E+01
 11
2.64130094E+01
 21
3.07655544E+01
  0
LINE
  8
0
 62
4
 10
2.34130075E+01
 20
2.97655602E+01
 11
2.34130094E+01
 21
3.07655602E+01
  0
LINE
  8
0
 62
6
 10
2.61430075E+01
 20
2.97655549E+01
 11
2.61430094E+01
 21
3.07655549E+01
  0
LINE
  8
0
 62
6
 10
2.36830075E+01
 20
2.97655596E+01
 11
2.36830094E+01
 21
3.07655596E+01
  0
ARC
  8
0
 62
4
 10
2.34137981E+01
 20
2.92663516E+01
 40
1.00079180E+00
 50
1.80045203E+02
 51
2.70000000E+02
  0
ARC
  8
0
 62
4
 10
2.64113409E+01
 20
2.92672201E+01
 40
1.00166704E+00
 50
2.70095167E+02
 51
3.59904614E+02
  0
LINE
  8
0
 62
4
 10
1.34130261E+01
 20
3.94655793E+01
 11
1.79130261E+01
 21
3.94655707E+01
  0
LINE
  8
0
 62
4
 10
1.79130285E+01
 20
4.07336885E+01
 11
2.04130285E+01
 21
4.07336837E+01
  0
LINE
  8
0
 62
4
 10
3.19130285E+01
 20
4.07336617E+01
 11
2.94130285E+01
 21
4.07336665E+01
  0
LINE
  8
0
 62
4
 10
3.19130261E+01
 20
3.94655439E+01
 11
3.74130261E+01
 21
3.94655334E+01
  0
LINE
  8
0
 62
4
 10
4.04130198E+01
 20
3.61655276E+01
 11
4.04130248E+01
 21
3.87655276E+01
  0
LINE
  8
0
 62
4
 10
4.04130198E+01
 20
3.61655276E+01
 11
4.27500189E+01
 21
3.61655232E+01
  0
LINE
  8
0
 62
4
 10
3.74130184E+01
 20
3.54655334E+01
 11
4.04130198E+01
 21
3.61655276E+01
  0
LINE
  8
0
 62
4
 10
1.34130184E+01
 20
3.54655793E+01
 11
1.79130184E+01
 21
3.54655707E+01
  0
LINE
  8
0
 62
4
 10
1.24130204E+01
 20
3.64655812E+01
 11
1.24130242E+01
 21
3.84655812E+01
  0
LINE
  8
0
 62
4
 10
1.24130204E+01
 20
3.64655812E+01
 11
1.34130184E+01
 21
3.54655793E+01
  0
LINE
  8
0
 62
4
 10
1.79130165E+01
 20
3.44655707E+01
 11
2.04130165E+01
 21
3.44655659E+01
  0
LINE
  8
0
 62
4
 10
2.94130165E+01
 20
3.44655487E+01
 11
3.19130165E+01
 21
3.44655439E+01
  0
LINE
  8
0
 62
4
 10
3.19130184E+01
 20
3.54655439E+01
 11
3.74130184E+01
 21
3.54655334E+01
  0
LINE
  8
0
 62
4
 10
1.79130165E+01
 20
3.44655707E+01
 11
1.79130285E+01
 21
4.07336885E+01
  0
LINE
  8
0
 62
4
 10
3.19130165E+01
 20
3.44655439E+01
 11
3.19130285E+01
 21
4.07336617E+01
  0
LINE
  8
0
 62
4
 10
2.94130225E+01
 20
3.75655487E+01
 11
2.94130094E+01
 21
3.07655487E+01
  0
LINE
  8
0
 62
4
 10
2.04130225E+01
 20
3.75655659E+01
 11
2.04130094E+01
 21
3.07655659E+01
  0
LINE
  8
0
 62
4
 10
1.24130242E+01
 20
3.84655812E+01
 11
1.34130261E+01
 21
3.94655793E+01
  0
LINE
  8
0
 62
4
 10
1.34130184E+01
 20
3.54655793E+01
 11
1.34130261E+01
 21
3.94655793E+01
  0
LINE
  8
0
 62
4
 10
2.94130225E+01
 20
3.75655487E+01
 11
2.94130604E+01
 21
5.74155333E+01
  0
LINE
  8
0
 62
4
 10
2.04130225E+01
 20
3.75655659E+01
 11
2.04130604E+01
 21
5.74155505E+01
  0
LINE
  8
0
 62
4
 10
3.74130261E+01
 20
3.94655334E+01
 11
4.04130247E+01
 21
3.87655276E+01
  0
LINE
  8
0
 62
4
 10
3.74130184E+01
 20
3.54655334E+01
 11
3.74130261E+01
 21
3.94655334E+01
  0
LINE
  8
0
 62
6
 10
4.53500238E+01
 20
3.87655182E+01
 11
4.27500189E+01
 21
3.61655232E+01
  0
LINE
  8
0
 62
4
 10
4.04130247E+01
 20
3.87655276E+01
 11
4.53500238E+01
 21
3.87655182E+01
  0
LINE
  8
0
 62
7
 10
-7.69723801E-02
 20
4.02656051E+01
 11
1.79130276E+01
 21
4.02655707E+01
  0
LINE
  8
0
 62
7
 10
-7.69398613E-02
 20
5.72656051E+01
 11
2.04130601E+01
 21
5.72655659E+01
  0
LINE
  8
0
 62
4
 10
-7.69726671E-02
 20
4.01156051E+01
 11
-7.69395744E-02
 21
5.74156051E+01
  0
LINE
  8
0
  6
CENTER
 62
6
 10
-4.57693699E+00
 20
5.87656124E+01
 11
-4.57697525E+00
 21
3.87656137E+01
  0
LINE
  8
0
 62
4
 10
-9.07694787E+00
 20
5.30656223E+01
 11
-7.69478670E-02
 21
5.30656051E+01
  0
LINE
  8
0
 62
4
 10
-9.07694667E+00
 20
5.36906223E+01
 11
-7.69466714E-02
 21
5.36906051E+01
  0
LINE
  8
0
 62
4
 10
-9.07694763E+00
 20
5.31906223E+01
 11
-7.69476279E-02
 21
5.31906051E+01
  0
LINE
  8
0
 62
4
 10
-9.07694198E+00
 20
5.61406223E+01
 11
-7.69420133E-02
 21
5.61406051E+01
  0
LINE
  8
0
 62
4
 10
-6.57694500E+00
 20
5.45656175E+01
 11
-2.57694500E+00
 21
5.45656099E+01
  0
LINE
  8
0
 62
4
 10
-6.57694653E+00
 20
5.37656175E+01
 11
-2.57694656E+00
 21
5.37656099E+01
  0
LINE
  8
0
 62
4
 10
-9.07693957E+00
 20
5.74156223E+01
 11
-7.69395744E-02
 21
5.74156051E+01
  0
LINE
  8
0
 62
4
 10
-2.57694503E+00
 20
5.45656099E+01
 11
-2.57694670E+00
 21
5.36906099E+01
  0
LINE
  8
0
 62
4
 10
-9.07696432E+00
 20
4.44656223E+01
 11
-7.69643461E-02
 21
4.44656051E+01
  0
LINE
  8
0
 62
4
 10
-9.07697267E+00
 20
4.01156223E+01
 11
-7.69726671E-02
 21
4.01156051E+01
  0
LINE
  8
0
 62
6
 10
1.58600454E+01
 20
5.00655746E+01
 11
1.32600405E+01
 21
4.74655796E+01
  0
LINE
  8
0
 62
4
 10
1.09230414E+01
 20
4.74655840E+01
 11
1.32600405E+01
 21
4.74655796E+01
  0
LINE
  8
0
 62
4
 10
7.92304005E+00
 20
4.67655898E+01
 11
1.09230414E+01
 21
4.74655840E+01
  0
LINE
  8
0
 62
4
 10
1.09230464E+01
 20
5.00655840E+01
 11
1.09230414E+01
 21
4.74655840E+01
  0
LINE
  8
0
 62
4
 10
1.09230464E+01
 20
5.00655840E+01
 11
1.58600454E+01
 21
5.00655746E+01
  0
LINE
  8
0
 62
4
 10
7.92304771E+00
 20
5.07655898E+01
 11
1.09230464E+01
 21
5.00655840E+01
  0
LINE
  8
0
 62
4
 10
7.92304771E+00
 20
5.07655898E+01
 11
7.92304005E+00
 21
4.67655898E+01
  0
LINE
  8
0
 62
4
 10
-7.69499039E-02
 20
5.20156051E+01
 11
2.42305010E+00
 21
5.20156003E+01
  0
LINE
  8
0
 62
4
 10
2.42303766E+00
 20
4.55156003E+01
 11
2.42305010E+00
 21
5.20156003E+01
  0
LINE
  8
0
 62
4
 10
2.42304771E+00
 20
5.07656003E+01
 11
7.92304771E+00
 21
5.07655898E+01
  0
LINE
  8
0
 62
4
 10
2.42304005E+00
 20
4.67656003E+01
 11
7.92304005E+00
 21
4.67655898E+01
  0
LINE
  8
0
 62
4
 10
-7.69623376E-02
 20
4.55156051E+01
 11
2.42303766E+00
 21
4.55156003E+01
  0
LINE
  8
0
 62
4
 10
-9.07697267E+00
 20
4.01156223E+01
 11
-9.07693957E+00
 21
5.74156223E+01
  0
LINE
  8
0
 62
4
 10
-6.57694670E+00
 20
5.36906175E+01
 11
-6.57694503E+00
 21
5.45656175E+01
  0
LINE
  8
0
 62
4
 10
-3.56695803E+00
 20
4.77656118E+01
 11
-5.63695409E+00
 21
4.98256157E+01
  0
LINE
  8
0
 62
4
 10
-5.63695815E+00
 20
4.77056157E+01
 11
-3.51695409E+00
 21
4.98256117E+01
  0
CIRCLE
  8
0
 62
4
 10
-4.57783137E+00
 20
4.87631552E+01
 40
2.50000000E+00
  0
LINE
  8
0
 62
4
 10
-1.15769623E+01
 20
4.55156271E+01
 11
-9.07696234E+00
 21
4.55156223E+01
  0
LINE
  8
0
 62
4
 10
-1.60769599E+01
 20
4.67656357E+01
 11
-1.15769599E+01
 21
4.67656271E+01
  0
LINE
  8
0
 62
4
 10
-1.70769580E+01
 20
4.77656376E+01
 11
-1.60769599E+01
 21
4.67656357E+01
  0
LINE
  8
0
 62
4
 10
-1.70769542E+01
 20
4.97656376E+01
 11
-1.70769580E+01
 21
4.77656376E+01
  0
LINE
  8
0
 62
4
 10
-1.15769499E+01
 20
5.20156271E+01
 11
-9.07694990E+00
 21
5.20156223E+01
  0
LINE
  8
0
 62
4
 10
-1.60769523E+01
 20
5.07656357E+01
 11
-1.15769523E+01
 21
5.07656271E+01
  0
LINE
  8
0
 62
4
 10
-1.60769523E+01
 20
5.07656357E+01
 11
-1.60769599E+01
 21
4.67656357E+01
  0
LINE
  8
0
 62
4
 10
-1.15769623E+01
 20
4.55156271E+01
 11
-1.15769499E+01
 21
5.20156271E+01
  0
LINE
  8
0
 62
4
 10
-1.70769542E+01
 20
4.97656376E+01
 11
-1.60769523E+01
 21
5.07656357E+01
  0
ARC
  8
0
 62
4
 10
-8.03302513E+01
 20
4.67657586E+01
 40
5.77670860E+00
 50
1.59743735E+02
 51
2.00255991E+02
  0
ARC
  8
0
 62
4
 10
-8.03302437E+01
 20
5.07657586E+01
 40
5.77670860E+00
 50
1.59743735E+02
 51
2.00255991E+02
  0
ARC
  8
0
 62
4
 10
-8.78836609E+01
 20
5.07657730E+01
 40
5.77670860E+00
 50
3.39743699E+02
 51
2.02559552E+01
  0
ARC
  8
0
 62
4
 10
-8.78836685E+01
 20
4.67657730E+01
 40
5.77670860E+00
 50
3.39743753E+02
 51
2.02560098E+01
  0
LINE
  8
0
 62
4
 10
-8.61069638E+01
 20
4.47657696E+01
 11
-8.61069485E+01
 21
5.27657696E+01
  0
LINE
  8
0
 62
4
 10
-8.21069485E+01
 20
5.27657620E+01
 11
-8.61069485E+01
 21
5.27657696E+01
  0
LINE
  8
0
 62
4
 10
-8.21069638E+01
 20
4.47657620E+01
 11
-8.21069485E+01
 21
5.27657620E+01
  0
LINE
  8
0
 62
4
 10
-8.24642217E+01
 20
4.87657627E+01
 11
-8.57496916E+01
 21
4.87657690E+01
  0
LINE
  8
0
 62
4
 10
-8.21069638E+01
 20
4.47657620E+01
 11
-8.61069638E+01
 21
4.47657696E+01
  0
LINE
  8
0
 62
7
 10
-8.95769513E+01
 20
5.12657763E+01
 11
-8.95769609E+01
 21
4.62657763E+01
  0
LINE
  8
0
 62
7
 10
-9.00769599E+01
 20
4.67657772E+01
 11
-8.95769609E+01
 21
4.62657763E+01
  0
LINE
  8
0
 62
7
 10
-9.00769523E+01
 20
5.07657772E+01
 11
-8.95769513E+01
 21
5.12657763E+01
  0
LINE
  8
0
 62
7
 10
-7.50769513E+01
 20
5.12657485E+01
 11
-7.50769609E+01
 21
4.62657485E+01
  0
LINE
  8
0
 62
7
 10
-9.00769523E+01
 20
5.07657772E+01
 11
-9.00769599E+01
 21
4.67657772E+01
  0
LINE
  8
0
 62
7
 10
-8.95769609E+01
 20
4.62657763E+01
 11
-8.61069609E+01
 21
4.62657696E+01
  0
LINE
  8
0
 62
7
 10
-8.95769513E+01
 20
5.12657763E+01
 11
-8.61069513E+01
 21
5.12657696E+01
  0
LINE
  8
0
 62
2
 10
-9.00769601E+01
 20
4.66987772E+01
 11
-8.61069601E+01
 21
4.66987696E+01
  0
LINE
  8
0
 62
2
 10
-9.00099522E+01
 20
5.08327771E+01
 11
-8.61069522E+01
 21
5.08327696E+01
  0
LINE
  8
0
 62
2
 10
-8.21069601E+01
 20
4.66987620E+01
 11
-7.50769601E+01
 21
4.66987485E+01
  0
LINE
  8
0
 62
2
 10
-8.21069522E+01
 20
5.08327620E+01
 11
-7.50769522E+01
 21
5.08327485E+01
  0
LINE
  8
0
 62
7
 10
-8.21069609E+01
 20
4.62657620E+01
 11
-4.00769609E+01
 21
4.62656816E+01
  0
LINE
  8
0
 62
7
 10
-8.21069513E+01
 20
5.12657620E+01
 11
-4.00769513E+01
 21
5.12656816E+01
  0
LINE
  8
0
 62
7
 10
-4.00769638E+01
 20
4.47656816E+01
 11
-3.90769657E+01
 21
4.37656797E+01
  0
LINE
  8
0
 62
2
 10
-3.98889641E+01
 20
4.45776812E+01
 11
-3.35769641E+01
 21
4.45776692E+01
  0
LINE
  8
0
 62
7
 10
-4.00769485E+01
 20
5.27656816E+01
 11
-4.00769638E+01
 21
4.47656816E+01
  0
LINE
  8
0
 62
7
 10
-3.90769657E+01
 20
4.37656797E+01
 11
-3.20769657E+01
 21
4.37656663E+01
  0
LINE
  8
0
 62
2
 10
-3.98889481E+01
 20
5.29536812E+01
 11
-3.35769481E+01
 21
5.29536692E+01
  0
LINE
  8
0
 62
7
 10
-3.90769466E+01
 20
5.37656797E+01
 11
-3.20769466E+01
 21
5.37656663E+01
  0
LINE
  8
0
 62
7
 10
-4.00769485E+01
 20
5.27656816E+01
 11
-3.90769466E+01
 21
5.37656797E+01
  0
LINE
  8
0
 62
7
 10
-3.35769466E+01
 20
5.37656692E+01
 11
-3.35769657E+01
 21
4.37656692E+01
  0
LINE
  8
0
 62
7
 10
-3.90769466E+01
 20
5.37656797E+01
 11
-3.90769657E+01
 21
4.37656797E+01
  0
LINE
  8
0
 62
7
 10
-3.20769724E+01
 20
4.02656663E+01
 11
-9.07697238E+00
 21
4.02656223E+01
  0
LINE
  8
0
 62
7
 10
-3.03269643E+01
 20
4.45156629E+01
 11
-2.18269643E+01
 21
4.45156467E+01
  0
LINE
  8
0
 62
7
 10
-3.03269643E+01
 20
4.45156629E+01
 11
-3.03269724E+01
 21
4.02656629E+01
  0
LINE
  8
0
 62
7
 10
-2.18269643E+01
 20
4.45156467E+01
 11
-2.18269724E+01
 21
4.02656467E+01
  0
LINE
  8
0
  6
CENTER
 62
2
 10
-2.50769480E+01
 20
5.30056529E+01
 11
-2.50769643E+01
 21
4.45156529E+01
  0
LINE
  8
0
 62
7
 10
-3.20769724E+01
 20
4.02656663E+01
 11
-3.20769399E+01
 21
5.72656663E+01
  0
LINE
  8
0
 62
7
 10
-3.20769399E+01
 20
5.72656663E+01
 11
-9.07693986E+00
 21
5.72656223E+01
  0
LINE
  8
0
 62
7
 10
-3.03269480E+01
 20
5.30056629E+01
 11
-2.18269480E+01
 21
5.30056467E+01
  0
LINE
  8
0
 62
7
 10
-2.00769724E+01
 20
4.02656433E+01
 11
-2.00769399E+01
 21
5.72656433E+01
  0
LINE
  8
0
 62
7
 10
-3.03269480E+01
 20
5.30056629E+01
 11
-3.03269399E+01
 21
5.72656629E+01
  0
LINE
  8
0
 62
7
 10
-2.18269480E+01
 20
5.30056467E+01
 11
-2.18269399E+01
 21
5.72656467E+01
  0
LINE
  8
0
  6
CENTER
 62
2
 10
-9.21005068E+01
 20
4.87657811E+01
 11
5.64844290E+01
 21
4.87654969E+01
  0
LINE
  8
0
 62
7
 10
7.24130601E+01
 20
5.72654664E+01
 11
7.24130502E+01
 21
5.20654664E+01
  0
LINE
  8
0
  6
CENTER
 62
2
 10
4.99130520E+01
 20
5.30055095E+01
 11
4.99130357E+01
 21
4.45155095E+01
  0
LINE
  8
0
  6
CENTER
 62
2
 10
6.44130640E+01
 20
5.92990109E+01
 11
6.44130227E+01
 21
3.77122743E+01
  0
LINE
  8
0
 62
7
 10
4.54130276E+01
 20
4.02655181E+01
 11
7.24130276E+01
 21
4.02654664E+01
  0
LINE
  8
0
 62
7
 10
4.71630357E+01
 20
4.45155147E+01
 11
7.06630357E+01
 21
4.45154698E+01
  0
LINE
  8
0
 62
7
 10
4.71630520E+01
 20
5.30055147E+01
 11
7.06630520E+01
 21
5.30054698E+01
  0
LINE
  8
0
 62
7
 10
4.54130601E+01
 20
5.72655181E+01
 11
7.24130601E+01
 21
5.72654664E+01
  0
LINE
  8
0
 62
7
 10
7.06630601E+01
 20
5.72654698E+01
 11
7.06630520E+01
 21
5.30054698E+01
  0
LINE
  8
0
 62
7
 10
7.06630357E+01
 20
4.45154698E+01
 11
7.06630276E+01
 21
4.02654698E+01
  0
LINE
  8
0
 62
7
 10
5.44130502E+01
 20
5.20655009E+01
 11
5.44130376E+01
 21
4.54655009E+01
  0
LINE
  8
0
 62
7
 10
5.44130376E+01
 20
4.54655009E+01
 11
7.24130376E+01
 21
4.54654664E+01
  0
LINE
  8
0
 62
7
 10
5.44130502E+01
 20
5.20655009E+01
 11
7.24130502E+01
 21
5.20654664E+01
  0
LINE
  8
0
 62
7
 10
7.24130376E+01
 20
4.54654664E+01
 11
7.24130276E+01
 21
4.02654664E+01
  0
LINE
  8
0
 62
7
 10
4.54130601E+01
 20
5.72655181E+01
 11
4.54130276E+01
 21
4.02655181E+01
  0
LINE
  8
0
 62
7
 10
4.71630520E+01
 20
5.30055147E+01
 11
4.71630601E+01
 21
5.72655147E+01
  0
LINE
  8
0
 62
7
 10
4.71630357E+01
 20
4.45155147E+01
 11
4.71630276E+01
 21
4.02655147E+01
  0
ARC
  8
0
 62
7
 10
-2.60650147E+01
 20
4.87654549E+01
 40
6.01194142E+00
 50
1.35146406E+02
 51
2.24853375E+02
  0
ARC
  8
0
 62
7
 10
-2.60988720E+01
 20
4.87613382E+01
 40
6.02191737E+00
 50
3.15167239E+02
 51
4.48142086E+01
  0
ARC
  8
0
 62
7
 10
6.63699151E+01
 20
4.87289810E+01
 40
6.01536046E+00
 50
3.15536188E+02
 51
3.27143977E+02
  0
CIRCLE
  8
0
 62
2
 10
-2.50827844E+01
 20
4.87656544E+01
 40
2.50000000E+00
  0
CIRCLE
  8
0
 62
2
 10
4.99172080E+01
 20
4.87655110E+01
 40
2.50000000E+00
  0
ARC
  8
0
 62
7
 10
6.63917505E+01
 20
4.87748577E+01
 40
6.01182959E+00
 50
3.31858074E+01
 51
4.47257891E+01
  0
ARC
  8
0
 62
7
 10
5.14370555E+01
 20
4.87606878E+01
 40
6.02401354E+00
 50
1.79954058E+02
 51
2.24805993E+02
  0
ARC
  8
0
 62
7
 10
5.14335309E+01
 20
4.87617796E+01
 40
6.02048817E+00
 50
1.35179969E+02
 51
1.79964422E+02
  0
CIRCLE
  8
0
 62
7
 10
-2.50769561E+01
 20
4.87656529E+01
 40
2.06700000E+00
  0
CIRCLE
  8
0
 62
7
 10
4.99130439E+01
 20
4.87655095E+01
 40
2.06700000E+00
  0
TEXT
  8
0
 62
7
 10
1.33709222E+00
 20
4.13656024E+01
 40
1.50000000E+00
  1
PBTAS16-7
 50
3.59999890E+02
 41
1.00000000E+00
  7
MONOTXT
  0
LINE
  8
0
  6
CENTER
 62
6
 10
-1.21925763E+02
 20
-2.95709466E+01
 11
-9.44888886E+01
 21
-2.95709466E+01
  0
LINE
  8
0
 62
4
 10
-1.20167347E+02
 20
-1.99509466E+01
 11
-1.14167347E+02
 21
-1.99509466E+01
  0
LINE
  8
0
 62
4
 10
-1.20167347E+02
 20
-3.94687448E+01
 11
-1.14167347E+02
 21
-3.94687448E+01
  0
LINE
  8
0
 62
4
 10
-1.20167347E+02
 20
-3.94687448E+01
 11
-1.20167347E+02
 21
-1.99509466E+01
  0
LINE
  8
0
 62
4
 10
-1.14167347E+02
 20
-3.94687448E+01
 11
-1.14167347E+02
 21
-1.99509466E+01
  0
LINE
  8
0
 62
4
 10
-1.20167347E+02
 20
-2.02409466E+01
 11
-1.14167347E+02
 21
-2.02409466E+01
  0
LINE
  8
0
 62
4
 10
-1.20167347E+02
 20
-2.29166457E+01
 11
-1.14167347E+02
 21
-2.29166457E+01
  0
LINE
  8
0
 62
4
 10
-1.06167347E+02
 20
-2.55709466E+01
 11
-1.00167347E+02
 21
-2.55709466E+01
  0
LINE
  8
0
 62
4
 10
-1.06167347E+02
 20
-3.35709466E+01
 11
-1.00167347E+02
 21
-3.35709466E+01
  0
CIRCLE
  8
0
 62
4
 10
-1.01167347E+02
 20
-2.95709466E+01
 40
2.00000000E+00
  0
CIRCLE
  8
0
 62
4
 10
-1.01167347E+02
 20
-2.95709466E+01
 40
2.50000000E+00
  0
LINE
  8
0
  6
CENTER
 62
6
 10
-1.01167347E+02
 20
-2.55709466E+01
 11
-1.01167347E+02
 21
-3.35709466E+01
  0
LINE
  8
0
 62
4
 10
-1.06167347E+02
 20
-3.35709466E+01
 11
-1.06167347E+02
 21
-3.20709466E+01
  0
LINE
  8
0
 62
4
 10
-1.14167347E+02
 20
-2.70709466E+01
 11
-1.06167347E+02
 21
-2.70709466E+01
  0
LINE
  8
0
 62
4
 10
-1.14167347E+02
 20
-3.20709466E+01
 11
-1.06167347E+02
 21
-3.20709466E+01
  0
LINE
  8
0
 62
4
 10
-1.06167347E+02
 20
-2.70709466E+01
 11
-1.06167347E+02
 21
-2.55709466E+01
  0
ARC
  8
0
 62
4
 10
-1.00167347E+02
 20
-2.95709466E+01
 40
4.00000000E+00
 50
2.70000000E+02
 51
9.00000002E+01
  0
LINE
  8
0
  6
CENTER
 62
6
 10
-5.66673468E+01
 20
-1.99068910E+01
 11
-5.66673468E+01
 21
-4.17888536E+01
  0
ARC
  8
0
 62
4
 10
-5.66655864E+01
 20
-2.95775574E+01
 40
9.89118734E+00
 50
1.94600742E+02
 51
3.48373449E+02
  0
ARC
  8
0
 62
4
 10
-6.53013813E+01
 20
-2.29166457E+01
 40
1.00392057E+00
 50
3.22272848E+02
 51
4.46636107E+01
  0
ARC
  8
0
 62
4
 10
-6.53012022E+01
 20
-2.29196763E+01
 40
1.40190405E+00
 50
3.22610924E+02
 51
4.48518702E+01
  0
ARC
  8
0
 62
4
 10
-4.80334865E+01
 20
-2.29196767E+01
 40
1.40190777E+00
 50
1.35148263E+02
 51
2.17388943E+02
  0
ARC
  8
0
 62
4
 10
-4.80333073E+01
 20
-2.29166460E+01
 40
1.00392430E+00
 50
1.35336575E+02
 51
2.17726966E+02
  0
ARC
  8
0
 62
4
 10
-5.66584443E+01
 20
-2.95594357E+01
 40
9.89686572E+00
 50
1.42473295E+02
 51
1.65437133E+02
  0
ARC
  8
0
 62
4
 10
-5.66722655E+01
 20
-2.95668748E+01
 40
9.89824120E+00
 50
1.16331547E+01
 51
3.75749018E+01
  0
ARC
  8
0
 62
4
 10
-5.66640186E+01
 20
-2.95742749E+01
 40
9.49435721E+00
 50
1.95245994E+02
 51
3.33497907E+02
  0
ARC
  8
0
 62
4
 10
-5.66582454E+01
 20
-2.95537092E+01
 40
9.49929101E+00
 50
1.53606440E+02
 51
1.64849050E+02
  0
ARC
  8
0
 62
4
 10
-5.66590305E+01
 20
-2.95692786E+01
 40
9.50551964E+00
 50
1.41899873E+02
 51
1.53520272E+02
  0
ARC
  8
0
 62
4
 10
-5.66706751E+01
 20
-2.95742749E+01
 40
9.50328503E+00
 50
2.65200996E+01
 51
3.80087786E+01
  0
LINE
  8
0
 62
4
 10
-4.81673468E+01
 20
-3.35709466E+01
 11
-4.77673468E+01
 21
-3.35709466E+01
  0
LINE
  8
0
 62
4
 10
-6.66673468E+01
 20
-2.70709466E+01
 11
-6.66673468E+01
 21
-3.20709466E+01
  0
LINE
  8
0
 62
4
 10
-6.71673468E+01
 20
-3.15709466E+01
 11
-6.66673468E+01
 21
-3.20709466E+01
  0
LINE
  8
0
 62
4
 10
-6.66673468E+01
 20
-2.70709466E+01
 11
-6.71673468E+01
 21
-2.75709466E+01
  0
LINE
  8
0
 62
4
 10
-6.71673468E+01
 20
-3.15709466E+01
 11
-6.71673468E+01
 21
-2.75709466E+01
  0
LINE
  8
0
 62
4
 10
-6.62773468E+01
 20
-1.99509466E+01
 11
-6.65673468E+01
 21
-2.02409466E+01
  0
LINE
  8
0
 62
4
 10
-6.45873468E+01
 20
-2.22109466E+01
 11
-6.65673468E+01
 21
-2.02409466E+01
  0
LINE
  8
0
 62
4
 10
-6.43073468E+01
 20
-2.19309466E+01
 11
-6.62773468E+01
 21
-1.99509466E+01
  0
LINE
  8
0
 62
4
 10
-4.70573468E+01
 20
-1.99509466E+01
 11
-4.67673468E+01
 21
-2.02409466E+01
  0
LINE
  8
0
 62
4
 10
-4.90273468E+01
 20
-2.19309466E+01
 11
-4.70573468E+01
 21
-1.99609466E+01
  0
LINE
  8
0
 62
4
 10
-4.81673468E+01
 20
-2.55709466E+01
 11
-4.77673468E+01
 21
-2.55709466E+01
  0
LINE
  8
0
 62
4
 10
-4.87473468E+01
 20
-2.22109466E+01
 11
-4.67673468E+01
 21
-2.02409466E+01
  0
LINE
  8
0
 62
4
 10
-4.67673468E+01
 20
-3.15709466E+01
 11
-4.67673468E+01
 21
-2.75709466E+01
  0
LINE
  8
0
 62
4
 10
-4.77673468E+01
 20
-2.75709466E+01
 11
-4.67673468E+01
 21
-2.75709466E+01
  0
LINE
  8
0
 62
4
 10
-4.77673468E+01
 20
-3.15709466E+01
 11
-4.67673468E+01
 21
-3.15709466E+01
  0
LINE
  8
0
 62
4
 10
-4.77673468E+01
 20
-3.35709466E+01
 11
-4.77673468E+01
 21
-2.55709466E+01
  0
LINE
  8
0
 62
4
 10
-6.66673468E+01
 20
-3.20709466E+01
 11
-4.81673468E+01
 21
-3.20709466E+01
  0
LINE
  8
0
 62
4
 10
-6.66673468E+01
 20
-2.70709466E+01
 11
-4.81673468E+01
 21
-2.70709466E+01
  0
LINE
  8
0
 62
4
 10
-4.81673468E+01
 20
-2.53309466E+01
 11
-4.81673468E+01
 21
-3.38109466E+01
  0
LINE
  8
0
  6
CENTER
 62
6
 10
-6.94137367E+01
 20
-2.95709466E+01
 11
-4.48973468E+01
 21
-2.95709466E+01
  0
LINE
  8
0
 62
4
 10
2.16862486E+01
 20
-8.90436016E+01
 11
3.46862486E+01
 21
-8.90436016E+01
  0
LINE
  8
0
 62
4
 10
2.16862486E+01
 20
-9.10436016E+01
 11
3.46862486E+01
 21
-9.10436016E+01
  0
LINE
  8
0
  6
CENTER
 62
6
 10
4.56862486E+01
 20
-4.71194417E+01
 11
4.56862486E+01
 21
-9.40436016E+01
  0
LINE
  8
0
 62
4
 10
4.24862486E+01
 20
-4.90436016E+01
 11
4.24862486E+01
 21
-7.00436016E+01
  0
LINE
  8
0
 62
4
 10
4.88862486E+01
 20
-4.90436016E+01
 11
4.88862486E+01
 21
-7.00436016E+01
  0
LINE
  8
0
  6
CENTER
 62
6
 10
6.32862486E+01
 20
-8.60436016E+01
 11
6.32862486E+01
 21
-9.40436016E+01
  0
LINE
  8
0
  6
CENTER
 62
6
 10
2.80862486E+01
 20
-8.60436016E+01
 11
2.80862486E+01
 21
-9.40436016E+01
  0
LINE
  8
0
 62
4
 10
4.88862486E+01
 20
-7.00436016E+01
 11
5.16862486E+01
 21
-7.00436016E+01
  0
LINE
  8
0
  6
CENTER
 62
6
 10
4.11362486E+01
 20
-5.60436016E+01
 11
5.02362486E+01
 21
-5.60436016E+01
  0
LINE
  8
0
 62
4
 10
5.16862486E+01
 20
-7.00436016E+01
 11
5.16862486E+01
 21
-8.10436016E+01
  0
LINE
  8
0
 62
4
 10
3.86862486E+01
 20
-8.10436016E+01
 11
5.26862486E+01
 21
-8.10436016E+01
  0
LINE
  8
0
 62
4
 10
4.24862486E+01
 20
-7.00436016E+01
 11
3.96862486E+01
 21
-7.00436016E+01
  0
LINE
  8
0
 62
4
 10
3.96862486E+01
 20
-7.00436016E+01
 11
3.96862486E+01
 21
-8.10436016E+01
  0
LINE
  8
0
 62
4
 10
4.15862486E+01
 20
-8.90436016E+01
 11
4.97862486E+01
 21
-8.90436016E+01
  0
LINE
  8
0
 62
4
 10
4.15862486E+01
 20
-8.30436016E+01
 11
4.15862486E+01
 21
-8.90436016E+01
  0
LINE
  8
0
 62
4
 10
4.97862486E+01
 20
-8.30436016E+01
 11
4.97862486E+01
 21
-8.90436016E+01
  0
LINE
  8
0
 62
4
 10
4.15862486E+01
 20
-8.40436016E+01
 11
4.97862486E+01
 21
-8.40436016E+01
  0
LINE
  8
0
 62
4
 10
4.24862486E+01
 20
-5.06536016E+01
 11
4.88862486E+01
 21
-5.06536016E+01
  0
LINE
  8
0
 62
4
 10
3.86862486E+01
 20
-8.30436016E+01
 11
5.26862486E+01
 21
-8.30436016E+01
  0
LINE
  8
0
 62
4
 10
3.56862486E+01
 20
-8.40436016E+01
 11
3.56862486E+01
 21
-8.80436016E+01
  0
LINE
  8
0
 62
4
 10
3.76862486E+01
 20
-8.40436016E+01
 11
3.76862486E+01
 21
-8.80436016E+01
  0
LINE
  8
0
 62
4
 10
5.36862486E+01
 20
-8.40436016E+01
 11
5.36862486E+01
 21
-8.80436016E+01
  0
LINE
  8
0
 62
4
 10
5.56862486E+01
 20
-8.40436016E+01
 11
5.56862486E+01
 21
-8.80436016E+01
  0
LINE
  8
0
 62
4
 10
6.96862486E+01
 20
-8.90436016E+01
 11
6.96862486E+01
 21
-9.10436016E+01
  0
LINE
  8
0
 62
4
 10
5.66862486E+01
 20
-9.10436016E+01
 11
6.96862486E+01
 21
-9.10436016E+01
  0
LINE
  8
0
 62
4
 10
5.66862486E+01
 20
-8.90436016E+01
 11
6.96862486E+01
 21
-8.90436016E+01
  0
ARC
  8
0
 62
4
 10
3.46862486E+01
 20
-8.80436016E+01
 40
1.00000000E+00
 50
2.70000000E+02
 51
0.00000000E+00
  0
ARC
  8
0
 62
4
 10
3.86862486E+01
 20
-8.40436016E+01
 40
1.00000000E+00
 50
9.00000002E+01
 51
1.80000000E+02
  0
ARC
  8
0
 62
4
 10
5.66862486E+01
 20
-8.80436016E+01
 40
1.00000000E+00
 50
1.80000000E+02
 51
2.70000000E+02
  0
ARC
  8
0
 62
4
 10
5.26862486E+01
 20
-8.40436016E+01
 40
1.00000000E+00
 50
0.00000000E+00
 51
9.00000002E+01
  0
ARC
  8
0
 62
4
 10
5.66862486E+01
 20
-8.80436016E+01
 40
3.00000000E+00
 50
1.80000000E+02
 51
2.70000000E+02
  0
ARC
  8
0
 62
4
 10
3.46862486E+01
 20
-8.80436016E+01
 40
3.00000000E+00
 50
2.70000000E+02
 51
0.00000000E+00
  0
ARC
  8
0
 62
4
 10
5.26862486E+01
 20
-8.40436016E+01
 40
3.00000000E+00
 50
0.00000000E+00
 51
9.00000002E+01
  0
ARC
  8
0
 62
4
 10
3.86862486E+01
 20
-8.40436016E+01
 40
3.00000000E+00
 50
9.00000002E+01
 51
1.80000000E+02
  0
LINE
  8
0
 62
4
 10
4.24862486E+01
 20
-4.90436016E+01
 11
4.88862486E+01
 21
-4.90436016E+01
  0
LINE
  8
0
 62
4
 10
2.16862486E+01
 20
-8.90436016E+01
 11
2.16862486E+01
 21
-9.10436016E+01
  0
LINE
  8
0
  6
CENTER
 62
6
 10
1.06862486E+01
 20
-8.60436016E+01
 11
1.06862486E+01
 21
-9.40436016E+01
  0
LINE
  8
0
  6
CENTER
 62
6
 10
-5.31375145E+00
 20
-8.60436016E+01
 11
-5.31375145E+00
 21
-9.40436016E+01
  0
LINE
  8
0
  6
CENTER
 62
6
 10
2.68624855E+00
 20
-4.71194417E+01
 11
2.68624855E+00
 21
-9.40436016E+01
  0
LINE
  8
0
 62
4
 10
-7.91375145E+00
 20
-8.90436016E+01
 11
-7.91375145E+00
 21
-9.10436016E+01
  0
LINE
  8
0
 62
4
 10
-1.13137514E+01
 20
-8.10436016E+01
 11
-1.13137514E+01
 21
-9.10436016E+01
  0
LINE
  8
0
 62
4
 10
-3.31375145E+00
 20
-7.00436016E+01
 11
8.68624855E+00
 21
-7.00436016E+01
  0
LINE
  8
0
 62
4
 10
8.68624855E+00
 20
-5.06536016E+01
 11
8.68624855E+00
 21
-8.10436016E+01
  0
LINE
  8
0
 62
4
 10
-3.31375145E+00
 20
-5.06536016E+01
 11
-3.31375145E+00
 21
-8.10436016E+01
  0
LINE
  8
0
 62
4
 10
8.08624855E+00
 20
-8.90436016E+01
 11
8.08624855E+00
 21
-9.10436016E+01
  0
LINE
  8
0
 62
4
 10
-2.71375145E+00
 20
-8.90436016E+01
 11
-2.71375145E+00
 21
-9.10436016E+01
  0
CIRCLE
  8
0
 62
4
 10
2.68624855E+00
 20
-5.60436016E+01
 40
2.54999924E+00
  0
ARC
  8
0
 62
4
 10
2.68624855E+00
 20
-6.10436036E+01
 40
1.19980057E+01
 50
5.99945013E+01
 51
1.20005499E+02
  0
LINE
  8
0
 62
4
 10
1.66862486E+01
 20
-8.10436016E+01
 11
1.66862486E+01
 21
-9.10436016E+01
  0
LINE
  8
0
 62
4
 10
1.32862486E+01
 20
-8.90436016E+01
 11
1.32862486E+01
 21
-9.10436016E+01
  0
LINE
  8
0
  6
CENTER
 62
6
 10
-6.31375145E+00
 20
-5.60436016E+01
 11
1.16862486E+01
 21
-5.60436016E+01
  0
LINE
  8
0
 62
4
 10
-1.13137514E+01
 20
-8.90436016E+01
 11
1.66862486E+01
 21
-8.90436016E+01
  0
LINE
  8
0
 62
4
 10
-1.13137514E+01
 20
-9.10436016E+01
 11
1.66862486E+01
 21
-9.10436016E+01
  0
LINE
  8
0
 62
4
 10
-1.13137514E+01
 20
-8.10436016E+01
 11
1.66862486E+01
 21
-8.10436016E+01
  0
LINE
  8
0
  6
CENTER
 62
6
 10
7.26862486E+01
 20
-2.60436074E+01
 11
1.86862486E+01
 21
-2.60436074E+01
  0
LINE
  8
0
 62
4
 10
3.56862486E+01
 20
-1.20436074E+01
 11
3.56862486E+01
 21
-4.00436074E+01
  0
LINE
  8
0
 62
4
 10
3.96862486E+01
 20
-2.00436074E+01
 11
3.96862486E+01
 21
-3.20436074E+01
  0
LINE
  8
0
  6
CENTER
 62
6
 10
4.56862486E+01
 20
-1.01263205E+01
 11
4.56862486E+01
 21
-4.17921322E+01
  0
LINE
  8
0
 62
4
 10
5.16862486E+01
 20
-2.00436074E+01
 11
5.16862486E+01
 21
-3.20436074E+01
  0
LINE
  8
0
 62
4
 10
5.56862486E+01
 20
-1.20436074E+01
 11
5.56862486E+01
 21
-4.00436074E+01
  0
LINE
  8
0
 62
4
 10
5.16862486E+01
 20
-3.20436074E+01
 11
3.96862486E+01
 21
-3.20436074E+01
  0
LINE
  8
0
 62
4
 10
6.96862486E+01
 20
-4.00436074E+01
 11
2.16862486E+01
 21
-4.00436074E+01
  0
LINE
  8
0
 62
4
 10
5.16862486E+01
 20
-2.00436074E+01
 11
3.96862486E+01
 21
-2.00436074E+01
  0
LINE
  8
0
 62
4
 10
6.96862486E+01
 20
-1.20436074E+01
 11
2.16862486E+01
 21
-1.20436074E+01
  0
LINE
  8
0
 62
4
 10
4.88862486E+01
 20
-2.00436074E+01
 11
4.88862486E+01
 21
-3.20436074E+01
  0
LINE
  8
0
 62
4
 10
4.24862486E+01
 20
-2.00436074E+01
 11
4.24862486E+01
 21
-3.20436074E+01
  0
LINE
  8
0
  6
CENTER
 62
6
 10
7.02130971E+01
 20
-3.40436074E+01
 11
5.76862486E+01
 21
-3.40436074E+01
  0
LINE
  8
0
  6
CENTER
 62
6
 10
6.32862486E+01
 20
-2.84436074E+01
 11
6.32862486E+01
 21
-3.96436074E+01
  0
LINE
  8
0
 62
4
 10
6.96862486E+01
 20
-3.14436074E+01
 11
6.32862486E+01
 21
-3.14436074E+01
  0
LINE
  8
0
 62
4
 10
6.96862486E+01
 20
-3.66436074E+01
 11
6.32862486E+01
 21
-3.66436074E+01
  0
LINE
  8
0
 62
4
 10
6.96862486E+01
 20
-1.20436074E+01
 11
6.96862486E+01
 21
-1.54436074E+01
  0
LINE
  8
0
 62
4
 10
6.96862486E+01
 20
-2.06436074E+01
 11
6.32862486E+01
 21
-2.06436074E+01
  0
LINE
  8
0
  6
CENTER
 62
6
 10
7.02130971E+01
 20
-1.80436074E+01
 11
5.76862486E+01
 21
-1.80436074E+01
  0
LINE
  8
0
 62
4
 10
6.96862486E+01
 20
-1.54436074E+01
 11
6.32862486E+01
 21
-1.54436074E+01
  0
LINE
  8
0
  6
CENTER
 62
6
 10
6.32862486E+01
 20
-2.36436074E+01
 11
6.32862486E+01
 21
-1.24436074E+01
  0
LINE
  8
0
 62
4
 10
2.16862486E+01
 20
-3.14436074E+01
 11
2.80862486E+01
 21
-3.14436074E+01
  0
LINE
  8
0
  6
CENTER
 62
6
 10
2.14350317E+01
 20
-3.40436074E+01
 11
3.36862486E+01
 21
-3.40436074E+01
  0
LINE
  8
0
 62
4
 10
2.16862486E+01
 20
-3.66436074E+01
 11
2.80862486E+01
 21
-3.66436074E+01
  0
LINE
  8
0
  6
CENTER
 62
6
 10
2.80862486E+01
 20
-2.84436074E+01
 11
2.80862486E+01
 21
-3.96436074E+01
  0
LINE
  8
0
 62
4
 10
2.16862486E+01
 20
-2.06436074E+01
 11
2.80862486E+01
 21
-2.06436074E+01
  0
LINE
  8
0
  6
CENTER
 62
6
 10
2.14350317E+01
 20
-1.80436074E+01
 11
3.36862486E+01
 21
-1.80436074E+01
  0
LINE
  8
0
 62
4
 10
2.16862486E+01
 20
-1.54436074E+01
 11
2.80862486E+01
 21
-1.54436074E+01
  0
LINE
  8
0
  6
CENTER
 62
6
 10
2.80862486E+01
 20
-2.36436074E+01
 11
2.80862486E+01
 21
-1.24436074E+01
  0
LINE
  8
0
 62
4
 10
2.16862486E+01
 20
-1.20436074E+01
 11
2.16862486E+01
 21
-1.54436074E+01
  0
LINE
  8
0
 62
4
 10
2.16862486E+01
 20
-2.06436074E+01
 11
2.16862486E+01
 21
-3.14436074E+01
  0
LINE
  8
0
 62
4
 10
2.16862486E+01
 20
-3.66436074E+01
 11
2.16862486E+01
 21
-4.00436074E+01
  0
LINE
  8
0
 62
4
 10
6.96862486E+01
 20
-3.66436074E+01
 11
6.96862486E+01
 21
-4.00436074E+01
  0
LINE
  8
0
 62
4
 10
6.96862486E+01
 20
-2.06436074E+01
 11
6.96862486E+01
 21
-3.14436074E+01
  0
ARC
  8
0
 62
4
 10
2.80862486E+01
 20
-3.40436074E+01
 40
2.60000000E+00
 50
2.70000000E+02
 51
9.00000002E+01
  0
ARC
  8
0
 62
4
 10
6.32862486E+01
 20
-1.80436074E+01
 40
2.60000000E+00
 50
9.00000002E+01
 51
2.70000000E+02
  0
ARC
  8
0
 62
4
 10
2.80862486E+01
 20
-1.80436074E+01
 40
2.60000000E+00
 50
2.70000000E+02
 51
9.00000002E+01
  0
ARC
  8
0
 62
4
 10
6.32862486E+01
 20
-3.40436074E+01
 40
2.60000000E+00
 50
9.00000002E+01
 51
2.70000000E+02
  0
TEXT
  8
0
 62
7
 10
-1.03642994E+02
 20
-5.83963843E+01
 40
3.20000005E+00
  1
STRETCH LIST
 41
1.05263158E+00
  7
MONOTXT
  0
LINE
  8
0
 62
7
 10
-4.83999939E+01
 20
-5.98000031E+01
 11
-4.83999939E+01
 21
-8.98000031E+01
  0
TEXT
  8
0
 62
7
 10
-5.71374690E+01
 20
-8.84000011E+01
 40
3.20000005E+00
  1
-5
 41
1.00000000E+00
  7
MONOTXT
  0
TEXT
  8
0
 62
7
 10
-5.71374690E+01
 20
-8.24000031E+01
 40
3.20000005E+00
  1
-5
 41
1.00000000E+00
  7
MONOTXT
  0
TEXT
  8
0
 62
7
 10
-5.71374690E+01
 20
-7.03963805E+01
 40
3.20000005E+00
  1
25
 41
1.00000000E+00
  7
MONOTXT
  0
LINE
  8
0
 62
7
 10
-6.03999939E+01
 20
-5.98000031E+01
 11
-6.03999939E+01
 21
-8.98000031E+01
  0
TEXT
  8
0
 62
7
 10
-7.07374691E+01
 20
-8.84000011E+01
 40
3.20000005E+00
  1
-10
 41
1.00000000E+00
  7
MONOTXT
  0
TEXT
  8
0
 62
7
 10
-7.07374691E+01
 20
-8.24000031E+01
 40
3.20000005E+00
  1
-10
 41
1.00000000E+00
  7
MONOTXT
  0
TEXT
  8
0
 62
7
 10
-6.91374690E+01
 20
-7.03963805E+01
 40
3.20000005E+00
  1
20
 41
1.00000000E+00
  7
MONOTXT
  0
LINE
  8
0
 62
7
 10
-1.33399994E+02
 20
-8.98000031E+01
 11
-3.63999939E+01
 21
-8.98000031E+01
  0
LINE
  8
0
 62
7
 10
-1.33399994E+02
 20
-8.38000031E+01
 11
-3.63999939E+01
 21
-8.38000031E+01
  0
LINE
  8
0
 62
7
 10
-1.08399994E+02
 20
-5.98000031E+01
 11
-1.08399994E+02
 21
-8.98000031E+01
  0
LINE
  8
0
 62
7
 10
-9.63999939E+01
 20
-5.98000031E+01
 11
-9.63999939E+01
 21
-8.98000031E+01
  0
LINE
  8
0
 62
7
 10
-8.43999939E+01
 20
-5.98000031E+01
 11
-8.43999939E+01
 21
-8.98000031E+01
  0
LINE
  8
0
 62
7
 10
-7.23999939E+01
 20
-5.98000031E+01
 11
-7.23999939E+01
 21
-8.98000031E+01
  0
LINE
  8
0
 62
7
 10
-3.63999939E+01
 20
-5.98000031E+01
 11
-3.63999939E+01
 21
-8.98000031E+01
  0
LINE
  8
0
 62
7
 10
-1.33399994E+02
 20
-5.98000031E+01
 11
-3.63999939E+01
 21
-5.98000031E+01
  0
LINE
  8
0
 62
7
 10
-1.33399994E+02
 20
-7.78000031E+01
 11
-3.63999939E+01
 21
-7.78000031E+01
  0
LINE
  8
0
 62
7
 10
-1.08399994E+02
 20
-7.78000031E+01
 11
-1.10509994E+02
 21
-6.58000031E+01
  0
LINE
  8
0
 62
7
 10
-1.33399994E+02
 20
-6.58000031E+01
 11
-1.10509994E+02
 21
-6.58000031E+01
  0
LINE
  8
0
 62
7
 10
-1.33399994E+02
 20
-5.98000031E+01
 11
-1.33399994E+02
 21
-8.98000031E+01
  0
TEXT
  8
0
 62
7
 10
-1.29037469E+02
 20
-6.43963843E+01
 40
3.20000005E+00
  1
STROKE
 41
1.00000000E+00
  7
MONOTXT
  0
TEXT
  8
0
 62
7
 10
-4.51374690E+01
 20
-7.03963805E+01
 40
3.20000005E+00
  1
30
 41
1.00000000E+00
  7
MONOTXT
  0
TEXT
  8
0
 62
7
 10
-8.11374690E+01
 20
-7.03963805E+01
 40
3.20000005E+00
  1
15
 41
1.00000000E+00
  7
MONOTXT
  0
TEXT
  8
0
 62
7
 10
-9.31374690E+01
 20
-7.03963805E+01
 40
3.20000005E+00
  1
10
 41
1.00000000E+00
  7
MONOTXT
  0
TEXT
  8
0
 62
7
 10
-1.03537469E+02
 20
-7.03963805E+01
 40
3.20000005E+00
  1
5
 41
1.00000000E+00
  7
MONOTXT
  0
TEXT
  8
0
 62
7
 10
-4.35374690E+01
 20
-8.24000031E+01
 40
3.20000005E+00
  1
0
 41
1.00000000E+00
  7
MONOTXT
  0
TEXT
  8
0
 62
7
 10
-8.27374691E+01
 20
-8.24000031E+01
 40
3.20000005E+00
  1
-15
 41
1.00000000E+00
  7
MONOTXT
  0
TEXT
  8
0
 62
7
 10
-9.47374691E+01
 20
-8.24000031E+01
 40
3.20000005E+00
  1
-20
 41
1.00000000E+00
  7
MONOTXT
  0
TEXT
  8
0
 62
7
 10
-1.06737469E+02
 20
-8.24000031E+01
 40
3.20000005E+00
  1
-25
 41
1.00000000E+00
  7
MONOTXT
  0
TEXT
  8
0
 62
7
 10
-1.32241000E+02
 20
-7.19763780E+01
 40
3.20000005E+00
  1
STRETCH
 41
1.00000000E+00
  7
MONOTXT
  0
TEXT
  8
0
 62
7
 10
-1.32241000E+02
 20
-7.67763782E+01
 40
3.20000005E+00
  1
  PLACE
 41
1.20689655E+00
  7
MONOTXT
  0
TEXT
  8
0
 62
7
 10
-1.22037469E+02
 20
-8.24000031E+01
 40
3.20000005E+00
  1
A
 41
1.00000000E+00
  7
MONOTXT
  0
TEXT
  8
0
 62
7
 10
-1.22037469E+02
 20
-8.84000031E+01
 40
3.20000005E+00
  1
B
 41
1.00000000E+00
  7
MONOTXT
  0
TEXT
  8
0
 62
7
 10
-4.35374690E+01
 20
-8.84000011E+01
 40
3.20000005E+00
  1
0
 41
1.00000000E+00
  7
MONOTXT
  0
TEXT
  8
0
 62
7
 10
-8.27374691E+01
 20
-8.84000011E+01
 40
3.20000005E+00
  1
-20
 41
1.00000000E+00
  7
MONOTXT
  0
TEXT
  8
0
 62
7
 10
-9.47374691E+01
 20
-8.84000011E+01
 40
3.20000005E+00
  1
-25
 41
1.00000000E+00
  7
MONOTXT
  0
TEXT
  8
0
 62
7
 10
-1.06737469E+02
 20
-8.84000011E+01
 40
3.20000005E+00
  1
-30
 41
1.00000000E+00
  7
MONOTXT
  0
TEXT
  8
0
 62
7
 10
-4.83429940E+01
 20
-5.83963843E+01
 40
3.20000005E+00
  1
(mm)
 41
1.00000000E+00
  7
MONOTXT
  0
TEXT
  8
0
 10
-8.00624654E+01
 20
6.74718033E+01
 40
3.20000005E+00
  1
STRETCH LINE A
 41
1.09375000E+00
  7
MONOTXT
  0
TEXT
  8
0
 10
-4.06246534E+00
 20
6.74718033E+01
 40
3.20000005E+00
  1
STRETCH LINE B
 41
1.09375000E+00
  7
MONOTXT
  0
LINE
  8
0
 62
7
 10
-1.38399994E+02
 20
9.45000000E+01
 11
1.38350006E+02
 21
9.45000000E+01
  0
LINE
  8
0
 62
7
 10
1.38350006E+02
 20
9.45000000E+01
 11
1.38350006E+02
 21
-9.48000031E+01
  0
LINE
  8
0
 62
7
 10
-1.38399994E+02
 20
-9.48000031E+01
 11
1.38350006E+02
 21
-9.48000031E+01
  0
LINE
  8
0
 62
7
 10
-1.38399994E+02
 20
9.45000000E+01
 11
-1.38399994E+02
 21
-9.48000031E+01
  0
LINE
  8
0
 62
7
 10
7.33500061E+01
 20
-8.48000031E+01
 11
1.38350006E+02
 21
-8.48000031E+01
  0
LINE
  8
0
 62
7
 10
-1.38399994E+02
 20
8.45000000E+01
 11
-7.33999939E+01
 21
8.45000000E+01
  0
LINE
  8
0
 62
7
 10
7.33500061E+01
 20
8.45000000E+01
 11
1.38350006E+02
 21
8.45000000E+01
  0
LINE
  8
0
 62
7
 10
7.33500061E+01
 20
-8.48000031E+01
 11
7.33500061E+01
 21
-9.48000031E+01
  0
LINE
  8
0
 62
7
 10
7.33500061E+01
 20
9.45000000E+01
 11
7.33500061E+01
 21
8.45000000E+01
  0
LINE
  8
0
 62
7
 10
-7.33999939E+01
 20
9.45000000E+01
 11
-7.33999939E+01
 21
8.45000000E+01
  0
TEXT
  8
0
 62
7
 10
7.72426624E+01
 20
-9.20500031E+01
 40
4.50000000E+00
  1
KOGANEI CORP.
 41
1.04838710E+00
  7
MONOTXT
  0
TEXT
  8
0
 62
7
 10
9.35071483E+01
 20
8.79000000E+01
 40
3.20000005E+00
  1
Ver. 1.1
 41
1.08108108E+00
  7
MONOTXT
  0
TEXT
  8
0
 62
7
 10
-1.31042852E+02
 20
8.79000000E+01
 40
3.20000005E+00
  1
NEW PEN CYLINDER
 41
1.08108108E+00
  7
MONOTXT
  0
TEXT
  8
0
 62
7
 10
-1.29085994E+02
 20
7.29000000E+01
 40
3.20000005E+00
  1
MODEL:PBTAS16*ST(30)-7-ZC230
 41
1.00000000E+00
  7
MONOTXT
  0
ENDSEC
  0
EOF
