  0
SECTION
  2
HEADER
  0
ENDSEC
  0
SECTION
  2
TABLES
  0
TABLE
  2
LTYPE
 70
     4
  0
LTYPE
  2
CONTINUOUS
 70
    64
  3
Solid line
 72
    65
 73
     0
 40
0.000000
  0
LTYPE
  2
DASHED
 70
    64
  3
__ __ __ __ __ __ __ __ __ __ __ __ __ __ __
 72
    65
 73
     2
 40
3.500000
 49
2.000000
 49
-1.500000
  0
LTYPE
  2
CENTER
 70
    64
  3
____ _ ____ _ ____ _ ____ _ ____ _ ____ _ ____
 72
    65
 73
     4
 40
17.500000
 49
13.000000
 49
-1.500000
 49
1.500000
 49
-1.500000
  0
LTYPE
  2
PHANTOM
 70
    64
  3
_____ _ _ _____ _ _ _____ _ _ _____ _ _ ____  
 72
    65
 73
     6
 40
15.500000
 49
8.000000
 49
-1.500000
 49
1.500000
 49
-1.500000
 49
1.500000
 49
-1.500000
  0
LTYPE
  2
DASHED1
 70
    64
  3
__ __ __ __ __ __ __ __ __ __ __ __ __ __ __
 72
    65
 73
     2
 40
1.500000
 49
1.000000
 49
-0.500000
  0
LTYPE
  2
DASHED2
 70
    64
  3
__ __ __ __ __ __ __ __ __ __ __ __ __ __ __
 72
    65
 73
     2
 40
3.500000
 49
2.500000
 49
-1.000000
  0
LTYPE
  2
DASHED3
 70
    64
  3
__ __ __ __ __ __ __ __ __ __ __ __ __ __ __
 72
    65
 73
     2
 40
6.000000
 49
4.000000
 49
-2.000000
  0
LTYPE
  2
DASHED4
 70
    64
  3
__ __ __ __ __ __ __ __ __ __ __ __ __ __ __
 72
    65
 73
     2
 40
12.000000
 49
10.000000
 49
-2.000000
  0
LTYPE
  2
DASHED5
 70
    64
  3
__ __ __ __ __ __ __ __ __ __ __ __ __ __ __
 72
    65
 73
     2
 40
17.000000
 49
15.000000
 49
-2.000000
  0
LTYPE
  2
DASHED6
 70
    64
  3
__ __ __ __ __ __ __ __ __ __ __ __ __ __ __
 72
    65
 73
     2
 40
29.000000
 49
27.000000
 49
-2.000000
  0
LTYPE
  2
PHANTOM1
 70
    64
  3
_____ _ _ _____ _ _ _____ _ _ _____ _ _ ____  
 72
    65
 73
     6
 40
31.000000
 49
25.000000
 49
-1.500000
 49
1.000000
 49
-1.000000
 49
1.000000
 49
-1.500000
  0
LTYPE
  2
PHANTOM2
 70
    64
  3
_____ _ _ _____ _ _ _____ _ _ _____ _ _ ____  
 72
    65
 73
     6
 40
36.000000
 49
27.000000
 49
-1.500000
 49
2.500000
 49
-1.000000
 49
2.500000
 49
-1.500000
  0
LTYPE
  2
PHANTOM3
 70
    64
  3
_____ _ _ _____ _ _ _____ _ _ _____ _ _ ____  
 72
    65
 73
     6
 40
78.000000
 49
64.000000
 49
-2.000000
 49
4.000000
 49
-2.000000
 49
4.000000
 49
-2.000000
  0
LTYPE
  2
CENTER1
 70
    64
  3
____ _ ____ _ ____ _ ____ _ ____ _ ____ _ ____
 72
    65
 73
     4
 40
19.000000
 49
14.000000
 49
-1.000000
 49
3.000000
 49
-1.000000
  0
LTYPE
  2
CENTER2
 70
    64
  3
____ _ ____ _ ____ _ ____ _ ____ _ ____ _ ____
 72
    65
 73
     4
 40
28.500000
 49
25.000000
 49
-1.000000
 49
1.500000
 49
-1.000000
  0
LTYPE
  2
CENTER3
 70
    64
  3
____ _ ____ _ ____ _ ____ _ ____ _ ____ _ ____
 72
    65
 73
     4
 40
31.500000
 49
27.000000
 49
-1.000000
 49
2.500000
 49
-1.000000
  0
LTYPE
  2
CENTER4
 70
    64
  3
____ _ ____ _ ____ _ ____ _ ____ _ ____ _ ____
 72
    65
 73
     4
 40
50.000000
 49
45.000000
 49
-1.000000
 49
3.000000
 49
-1.000000
  0
LTYPE
  2
CENTER5
 70
    64
  3
____ _ ____ _ ____ _ ____ _ ____ _ ____ _ ____
 72
    65
 73
     4
 40
100.000000
 49
92.000000
 49
-2.000000
 49
4.000000
 49
-2.000000
  0
LTYPE
  2
SBK1
 70
    64
  3
______ _ _ _ ______ _ _ _ ______ _ _ _ _____  
 72
    65
 73
     8
 40
60.500000
 49
45.000000
 49
-2.000000
 49
2.500000
 49
-2.000000
 49
2.500000
 49
-2.000000
 49
2.500000
 49
-2.000000
  0
LTYPE
  2
SBK2
 70
    64
  3
______ _ _ _ ______ _ _ _ ______ _ _ _ _____  
 72
    65
 73
     8
 40
84.000000
 49
64.000000
 49
-2.000000
 49
4.000000
 49
-2.000000
 49
4.000000
 49
-2.000000
 49
4.000000
 49
-2.000000
  0
LTYPE
  2
STCH
 70
    64
  3
__ __ __ __ __ __ __ __ __ __ __ __ __ __ __
 72
    65
 73
     2
 40
3.000000
 49
1.000000
 49
-2.000000
  0
LTYPE
  2
MTCH
 70
    64
  3
_____ _ _ _____ _ _ _____ _ _ _____ _ _ ____  
 72
    65
 73
     6
 40
80.000000
 49
66.000000
 49
-2.000000
 49
4.000000
 49
-2.000000
 49
4.000000
 49
-2.000000
  0
ENDTAB
  0
TABLE
  2
LAYER
 70
     1
  0
LAYER
  2
0
 70
     0
 62
     7
  6
CONTINUOUS
  0
ENDTAB
  0
TABLE
  2
STYLE
 70
     1
  0
STYLE
  2
STANDARD
 70
     0
 40
0.000000
 41
1.000000
 50
0.000000
 71
     0
 42
0.200000
  3
txt
  4
BIGFONT
  0
ENDTAB
  0
TABLE
  2
VIEW
 70
     0
  0
ENDTAB
  0
ENDSEC
  0
SECTION
  2
BLOCKS
  0
ENDSEC
  0
SECTION
  2
ENTITIES
  0
LINE
  8
0
  6
CENTER
 62
     2
 10
105.000000
 20
43.000008
 11
45.000000
 21
43.000008
  0
LINE
  8
0
  6
CENTER
 62
     2
 10
45.000000
 20
-20.499994
 11
45.000000
 21
-33.499992
  0
LINE
  8
0
  6
CENTER
 62
     2
 10
51.500000
 20
-26.999994
 11
38.500000
 21
-26.999994
  0
LINE
  8
0
  6
CENTER
 62
     2
 10
45.000000
 20
3.000006
 11
45.000000
 21
-6.999994
  0
LINE
  8
0
  6
CENTER
 62
     2
 10
50.000000
 20
-1.999994
 11
40.000000
 21
-1.999994
  0
LINE
  8
0
  6
CENTER
 62
     2
 10
105.000000
 20
-20.499994
 11
105.000000
 21
-33.499992
  0
LINE
  8
0
  6
CENTER
 62
     2
 10
111.500000
 20
-26.999994
 11
98.500000
 21
-26.999994
  0
LINE
  8
0
  6
CENTER
 62
     2
 10
105.000000
 20
3.000006
 11
105.000000
 21
-6.999994
  0
LINE
  8
0
  6
CENTER
 62
     2
 10
110.000000
 20
-1.999994
 11
100.000000
 21
-1.999994
  0
LINE
  8
0
  6
CENTER
 62
     2
 10
105.000000
 20
29.500006
 11
105.000000
 21
16.500006
  0
LINE
  8
0
  6
CENTER
 62
     2
 10
111.500000
 20
23.000006
 11
98.500000
 21
23.000006
  0
LINE
  8
0
  6
CENTER
 62
     2
 10
45.000000
 20
29.500006
 11
45.000000
 21
16.500006
  0
LINE
  8
0
  6
CENTER
 62
     2
 10
51.500000
 20
23.000006
 11
38.500000
 21
23.000006
  0
LINE
  8
0
 10
-95.000000
 20
74.000008
 11
-95.000000
 21
-35.999992
  0
LINE
  8
0
  6
CENTER
 62
     2
 10
-96.589996
 20
43.000008
 11
-32.369999
 21
43.000008
  0
LINE
  8
0
  6
CENTER
 62
     2
 10
75.000000
 20
78.410004
 11
75.000000
 21
-39.999992
  0
LINE
  8
0
 10
110.000000
 20
-36.999992
 11
40.000000
 21
-36.999992
  0
LINE
  8
0
 10
80.000000
 20
12.600006
 11
80.000000
 21
-33.999992
  0
LINE
  8
0
 10
70.000000
 20
12.600006
 11
70.000000
 21
-33.999992
  0
LINE
  8
0
 10
115.000000
 20
30.110006
 11
115.000000
 21
-31.999994
  0
LINE
  8
0
 10
35.000000
 20
30.110006
 11
35.000000
 21
-31.999994
  0
LINE
  8
0
 10
37.500000
 20
34.440006
 11
45.500000
 21
39.060005
  0
LINE
  8
0
 10
104.490005
 20
39.060009
 11
112.500008
 21
34.440006
  0
LINE
  8
0
 10
73.900002
 20
75.000008
 11
57.000000
 21
75.000008
  0
LINE
  8
0
 10
73.900002
 20
75.000008
 11
73.900002
 21
62.970005
  0
LINE
  8
0
 10
93.000000
 20
75.000008
 11
76.099998
 21
75.000008
  0
LINE
  8
0
 10
76.099998
 20
75.000008
 11
76.099998
 21
62.970005
  0
LINE
  8
0
 10
95.000000
 20
74.000008
 11
95.000000
 21
62.970005
  0
LINE
  8
0
  6
CENTER
 62
     2
 10
105.589996
 20
69.000008
 11
44.599998
 21
69.000008
  0
LINE
  8
0
 10
55.000000
 20
74.000008
 11
55.000000
 21
62.970005
  0
LINE
  8
0
 10
-35.000000
 20
72.000008
 11
-35.000000
 21
19.350006
  0
LINE
  8
0
 10
-94.000000
 20
-36.999992
 11
-79.980003
 21
-36.999992
  0
LINE
  8
0
 10
-94.000000
 20
75.000008
 11
-38.000000
 21
75.000008
  0
LINE
  8
0
 10
-93.800003
 20
33.000008
 11
-84.269997
 21
33.000008
  0
LINE
  8
0
 10
-95.000000
 20
61.130005
 11
-38.000000
 21
61.130005
  0
LINE
  8
0
 10
-83.000000
 20
16.000006
 11
-38.000000
 21
16.000006
  0
LINE
  8
0
 10
-83.000000
 20
40.560005
 11
-83.000000
 21
-33.999992
  0
LINE
  8
0
 10
-94.999992
 20
-35.999992
 11
-94.000000
 21
-36.999992
  0
LINE
  8
0
 10
-95.000000
 20
74.000008
 11
-94.000000
 21
75.000008
  0
LINE
  8
0
 10
-37.009998
 20
13.320006
 11
-71.989998
 21
-33.019989
  0
LINE
  8
0
  6
DASHED
 10
-92.000000
 20
10.000006
 11
-92.000000
 21
-13.999994
  0
LINE
  8
0
 10
-94.000000
 20
75.000008
 11
-94.000000
 21
-36.999992
  0
LINE
  8
0
 10
96.000000
 20
74.000008
 11
96.000000
 21
64.000008
  0
LINE
  8
0
 10
96.000000
 20
74.000008
 11
95.000000
 21
74.000008
  0
LINE
  8
0
 10
96.000000
 20
64.000008
 11
95.000000
 21
64.000008
  0
LINE
  8
0
 10
54.000000
 20
64.000008
 11
54.000000
 21
74.000008
  0
LINE
  8
0
 10
54.000000
 20
64.000008
 11
55.000000
 21
64.000008
  0
LINE
  8
0
 10
54.000000
 20
74.000008
 11
55.000000
 21
74.000008
  0
LINE
  8
0
 10
97.299995
 20
69.650009
 11
96.000000
 21
69.990005
  0
LINE
  8
0
 10
96.000000
 20
68.350006
 11
97.299995
 21
68.000008
  0
LINE
  8
0
 10
96.000000
 20
64.400009
 11
97.300003
 21
64.400009
  0
LINE
  8
0
 10
97.300003
 20
64.400009
 11
97.300003
 21
73.600006
  0
LINE
  8
0
 10
96.000000
 20
73.600006
 11
97.300003
 21
73.600006
  0
LINE
  8
0
 10
102.000000
 20
73.000008
 11
97.300003
 21
73.000008
  0
LINE
  8
0
 10
101.639999
 20
69.000008
 11
97.650002
 21
69.000008
  0
LINE
  8
0
 10
102.000000
 20
73.000008
 11
102.000000
 21
65.000008
  0
LINE
  8
0
 10
102.000000
 20
65.000008
 11
97.300003
 21
65.000008
  0
LINE
  8
0
 10
46.400002
 20
64.750008
 11
54.000000
 21
64.750008
  0
LINE
  8
0
 10
49.300003
 20
64.750008
 11
49.000004
 21
65.270004
  0
LINE
  8
0
 10
49.000000
 20
65.270004
 11
49.000000
 21
72.730003
  0
LINE
  8
0
 10
49.299999
 20
64.750008
 11
49.299999
 21
73.250008
  0
LINE
  8
0
 10
49.300003
 20
73.250008
 11
49.000000
 21
72.730011
  0
LINE
  8
0
 10
46.400002
 20
73.250008
 11
54.000000
 21
73.250008
  0
LINE
  8
0
 10
103.099998
 20
66.500008
 11
103.099998
 21
71.500008
  0
LINE
  8
0
 10
104.000000
 20
67.400009
 11
104.000000
 21
70.600006
  0
LINE
  8
0
 10
104.000000
 20
67.400002
 11
103.099998
 21
66.500008
  0
LINE
  8
0
 10
104.000000
 20
70.600006
 11
103.099998
 21
71.500000
  0
LINE
  8
0
 10
102.000000
 20
71.500008
 11
103.099998
 21
71.500008
  0
LINE
  8
0
 62
     2
 10
102.000000
 20
71.060005
 11
103.529999
 21
71.060005
  0
LINE
  8
0
 62
     2
 10
102.000000
 20
66.930008
 11
103.529999
 21
66.930008
  0
LINE
  8
0
 10
102.000000
 20
66.500008
 11
103.099998
 21
66.500008
  0
LINE
  8
0
 10
76.099998
 20
66.500008
 11
73.900002
 21
66.500008
  0
LINE
  8
0
 10
76.099998
 20
71.500008
 11
73.900002
 21
71.500008
  0
LINE
  8
0
 10
46.400002
 20
64.750008
 11
46.100002
 21
65.270004
  0
LINE
  8
0
 10
46.099998
 20
65.270004
 11
46.099998
 21
72.730003
  0
LINE
  8
0
 10
46.400002
 20
64.750008
 11
46.400002
 21
73.250008
  0
LINE
  8
0
 10
46.400002
 20
73.250008
 11
46.100002
 21
72.730011
  0
LINE
  8
0
  6
CENTER
 62
     2
 10
-51.389999
 20
69.000008
 11
-38.799999
 21
69.000008
  0
LINE
  8
0
  6
CENTER
 62
     2
 10
-45.000000
 20
75.230003
 11
-45.000000
 21
62.740005
  0
LINE
  8
0
 10
-43.000000
 20
70.230003
 11
-43.000000
 21
67.760010
  0
LINE
  8
0
 10
-47.000000
 20
70.230003
 11
-47.000000
 21
67.760010
  0
LINE
  8
0
 10
-47.000004
 20
70.230011
 11
-45.000004
 21
71.350006
  0
LINE
  8
0
 10
-45.000000
 20
71.350006
 11
-42.999996
 21
70.230011
  0
LINE
  8
0
 10
-43.000000
 20
67.760010
 11
-45.000000
 21
66.650009
  0
LINE
  8
0
 10
-44.999996
 20
66.650009
 11
-47.000004
 21
67.760010
  0
LINE
  8
0
  6
CENTER
 62
     2
 10
-91.389999
 20
69.000008
 11
-78.800003
 21
69.000008
  0
LINE
  8
0
  6
CENTER
 62
     2
 10
-85.000000
 20
75.230003
 11
-85.000000
 21
62.740005
  0
LINE
  8
0
 10
-83.000000
 20
70.230003
 11
-83.000000
 21
67.760010
  0
LINE
  8
0
 10
-87.000000
 20
70.230003
 11
-87.000000
 21
67.760010
  0
LINE
  8
0
 10
-87.000008
 20
70.230011
 11
-85.000008
 21
71.350006
  0
LINE
  8
0
 10
-85.000000
 20
71.350006
 11
-83.000000
 21
70.230011
  0
LINE
  8
0
 10
-83.000000
 20
67.760010
 11
-85.000000
 21
66.650009
  0
LINE
  8
0
 10
-85.000000
 20
66.650009
 11
-87.000000
 21
67.760002
  0
LINE
  8
0
  6
CENTER
 62
     2
 10
-71.389999
 20
69.000008
 11
-58.799999
 21
69.000008
  0
LINE
  8
0
  6
CENTER
 62
     2
 10
-65.000000
 20
75.230003
 11
-65.000000
 21
62.740005
  0
LINE
  8
0
 10
-63.000000
 20
70.230003
 11
-63.000000
 21
67.760010
  0
LINE
  8
0
 10
-67.000000
 20
70.230003
 11
-67.000000
 21
67.760010
  0
LINE
  8
0
 10
-67.000000
 20
70.230003
 11
-65.000000
 21
71.350006
  0
LINE
  8
0
 10
-65.000000
 20
71.350006
 11
-62.999996
 21
70.230003
  0
LINE
  8
0
 10
-63.000000
 20
67.760002
 11
-65.000000
 21
66.650002
  0
LINE
  8
0
 10
-65.000000
 20
66.650009
 11
-67.000000
 21
67.760010
  0
LINE
  8
0
 10
-194.250000
 20
132.600006
 11
194.800003
 21
132.600006
  0
LINE
  8
0
 10
194.800003
 20
132.600006
 11
194.800003
 21
-133.500000
  0
LINE
  8
0
 10
-194.250000
 20
132.600006
 11
-194.250000
 21
-133.500000
  0
LINE
  8
0
 10
-194.250000
 20
-133.500000
 11
194.800003
 21
-133.500000
  0
ARC
  8
0
 10
40.000000
 20
-31.999994
 40
5.000000
 50
180.000000
 51
270.000000
  0
ARC
  8
0
 10
110.000000
 20
-31.999994
 40
4.999998
 50
270.000000
 51
0.000000
  0
CIRCLE
  8
0
 10
105.000000
 20
-26.999994
 40
3.500000
  0
CIRCLE
  8
0
 10
45.000000
 20
-26.999994
 40
3.500000
  0
CIRCLE
  8
0
 10
45.000000
 20
23.000006
 40
3.500000
  0
CIRCLE
  8
0
 10
105.000000
 20
23.000006
 40
3.500000
  0
ARC
  8
0
 10
39.998543
 20
30.110720
 40
4.998546
 50
119.990387
 51
180.008179
  0
ARC
  8
0
 10
110.001457
 20
30.110720
 40
4.998543
 50
359.991821
 51
60.009647
  0
ARC
  8
0
 10
65.001442
 20
12.600641
 40
4.998558
 50
359.992706
 51
71.832191
  0
ARC
  8
0
 10
85.000122
 20
12.602803
 40
5.000122
 50
108.301460
 51
180.032059
  0
ARC
  8
0
 10
106.997009
 20
43.394661
 40
5.007429
 50
180.739822
 51
239.956436
  0
ARC
  8
0
 10
43.000423
 20
43.390308
 40
4.999941
 50
299.994781
 51
359.308960
  0
ARC
  8
0
 10
57.000000
 20
73.000008
 40
2.000000
 50
90.000000
 51
180.000000
  0
ARC
  8
0
 10
93.000000
 20
73.000008
 40
2.000000
 50
0.000000
 51
90.000000
  0
ARC
  8
0
 10
50.001232
 20
62.978481
 40
4.998776
 50
321.255524
 51
359.902832
  0
ARC
  8
0
 10
75.000076
 20
42.999752
 40
27.002670
 50
141.389572
 51
251.786148
  0
ARC
  8
0
 10
75.000000
 20
43.000008
 40
20.000273
 50
93.152809
 51
86.847191
  0
ARC
  8
0
 10
74.999107
 20
42.997017
 40
26.997204
 50
288.197144
 51
38.627132
  0
ARC
  8
0
 10
100.002678
 20
62.967335
 40
5.002678
 50
179.969421
 51
218.545181
  0
ARC
  8
0
 10
-86.000000
 20
-33.999992
 40
3.000000
 50
270.000000
 51
0.000000
  0
ARC
  8
0
 10
-79.976204
 20
-26.997509
 40
10.002484
 50
269.978241
 51
322.979645
  0
ARC
  8
0
  6
DASHED
 10
-95.000000
 20
10.000006
 40
3.000000
 50
0.000000
 51
90.000000
  0
ARC
  8
0
  6
DASHED
 10
-95.000000
 20
-13.999994
 40
3.000000
 50
270.000000
 51
0.000000
  0
ARC
  8
0
 10
-38.000000
 20
19.000006
 40
3.000000
 50
270.000000
 51
0.000000
  0
ARC
  8
0
 10
-45.005032
 20
19.335016
 40
10.005044
 50
323.044281
 51
0.085842
  0
ARC
  8
0
 10
-37.995827
 20
58.134178
 40
2.995830
 50
359.920197
 51
90.079811
  0
ARC
  8
0
 10
-38.000000
 20
72.000008
 40
3.000000
 50
0.000000
 51
90.000000
  0
ARC
  8
0
 10
73.000000
 20
-33.999992
 40
3.000000
 50
180.000000
 51
270.000000
  0
ARC
  8
0
 10
77.000000
 20
-33.999992
 40
3.000000
 50
270.000000
 51
0.000000
  0
ARC
  8
0
 10
75.000000
 20
43.000008
 40
20.998833
 50
93.002747
 51
86.997253
  0
CIRCLE
  8
0
 10
45.000000
 20
-1.999994
 40
2.000000
  0
CIRCLE
  8
0
 10
105.000000
 20
-1.999994
 40
2.000000
  0
ARC
  8
0
 10
96.223297
 20
71.000008
 40
5.774137
 50
339.734436
 51
20.265575
  0
ARC
  8
0
 10
96.223297
 20
67.000008
 40
5.774137
 50
339.734436
 51
20.265575
  0
ARC
  8
0
 10
103.076706
 20
67.000008
 40
5.783522
 50
159.768753
 51
200.231247
  0
ARC
  8
0
 10
103.076706
 20
71.000008
 40
5.783522
 50
159.768753
 51
200.231247
  0
CIRCLE
  8
0
 10
-45.000000
 20
69.000008
 40
4.250000
  0
CIRCLE
  8
0
 10
-45.000000
 20
69.000008
 40
5.000000
  0
CIRCLE
  8
0
 10
-85.000000
 20
69.000008
 40
4.250000
  0
CIRCLE
  8
0
 10
-85.000000
 20
69.000008
 40
5.000000
  0
CIRCLE
  8
0
 10
-65.000000
 20
69.000008
 40
4.250000
  0
TEXT
  8
0
 10
-186.892654
 20
104.550003
 40
4.500000
  1
MODEL:PHB-40
 50
0.000000
 41
1.052632
 51
0.000000
  7
STANDARD
  0
ENDSEC
  0
EOF
