  0
SECTION
  2
HEADER
  0
ENDSEC
  0
SECTION
  2
TABLES
  0
TABLE
  2
LTYPE
 70
     4
  0
LTYPE
  2
CONTINUOUS
 70
    64
  3
Solid line
 72
    65
 73
     0
 40
0.000000
  0
LTYPE
  2
DASHED
 70
    64
  3
__ __ __ __ __ __ __ __ __ __ __ __ __ __ __
 72
    65
 73
     2
 40
3.500000
 49
2.000000
 49
-1.500000
  0
LTYPE
  2
CENTER
 70
    64
  3
____ _ ____ _ ____ _ ____ _ ____ _ ____ _ ____
 72
    65
 73
     4
 40
17.500000
 49
13.000000
 49
-1.500000
 49
1.500000
 49
-1.500000
  0
LTYPE
  2
PHANTOM
 70
    64
  3
_____ _ _ _____ _ _ _____ _ _ _____ _ _ ____  
 72
    65
 73
     6
 40
15.500000
 49
8.000000
 49
-1.500000
 49
1.500000
 49
-1.500000
 49
1.500000
 49
-1.500000
  0
LTYPE
  2
DASHED1
 70
    64
  3
__ __ __ __ __ __ __ __ __ __ __ __ __ __ __
 72
    65
 73
     2
 40
1.500000
 49
1.000000
 49
-0.500000
  0
LTYPE
  2
DASHED2
 70
    64
  3
__ __ __ __ __ __ __ __ __ __ __ __ __ __ __
 72
    65
 73
     2
 40
3.500000
 49
2.500000
 49
-1.000000
  0
LTYPE
  2
DASHED3
 70
    64
  3
__ __ __ __ __ __ __ __ __ __ __ __ __ __ __
 72
    65
 73
     2
 40
6.000000
 49
4.000000
 49
-2.000000
  0
LTYPE
  2
DASHED4
 70
    64
  3
__ __ __ __ __ __ __ __ __ __ __ __ __ __ __
 72
    65
 73
     2
 40
12.000000
 49
10.000000
 49
-2.000000
  0
LTYPE
  2
DASHED5
 70
    64
  3
__ __ __ __ __ __ __ __ __ __ __ __ __ __ __
 72
    65
 73
     2
 40
17.000000
 49
15.000000
 49
-2.000000
  0
LTYPE
  2
DASHED6
 70
    64
  3
__ __ __ __ __ __ __ __ __ __ __ __ __ __ __
 72
    65
 73
     2
 40
29.000000
 49
27.000000
 49
-2.000000
  0
LTYPE
  2
PHANTOM1
 70
    64
  3
_____ _ _ _____ _ _ _____ _ _ _____ _ _ ____  
 72
    65
 73
     6
 40
31.000000
 49
25.000000
 49
-1.500000
 49
1.000000
 49
-1.000000
 49
1.000000
 49
-1.500000
  0
LTYPE
  2
PHANTOM2
 70
    64
  3
_____ _ _ _____ _ _ _____ _ _ _____ _ _ ____  
 72
    65
 73
     6
 40
36.000000
 49
27.000000
 49
-1.500000
 49
2.500000
 49
-1.000000
 49
2.500000
 49
-1.500000
  0
LTYPE
  2
PHANTOM3
 70
    64
  3
_____ _ _ _____ _ _ _____ _ _ _____ _ _ ____  
 72
    65
 73
     6
 40
78.000000
 49
64.000000
 49
-2.000000
 49
4.000000
 49
-2.000000
 49
4.000000
 49
-2.000000
  0
LTYPE
  2
CENTER1
 70
    64
  3
____ _ ____ _ ____ _ ____ _ ____ _ ____ _ ____
 72
    65
 73
     4
 40
19.000000
 49
14.000000
 49
-1.000000
 49
3.000000
 49
-1.000000
  0
LTYPE
  2
CENTER2
 70
    64
  3
____ _ ____ _ ____ _ ____ _ ____ _ ____ _ ____
 72
    65
 73
     4
 40
28.500000
 49
25.000000
 49
-1.000000
 49
1.500000
 49
-1.000000
  0
LTYPE
  2
CENTER3
 70
    64
  3
____ _ ____ _ ____ _ ____ _ ____ _ ____ _ ____
 72
    65
 73
     4
 40
31.500000
 49
27.000000
 49
-1.000000
 49
2.500000
 49
-1.000000
  0
LTYPE
  2
CENTER4
 70
    64
  3
____ _ ____ _ ____ _ ____ _ ____ _ ____ _ ____
 72
    65
 73
     4
 40
50.000000
 49
45.000000
 49
-1.000000
 49
3.000000
 49
-1.000000
  0
LTYPE
  2
CENTER5
 70
    64
  3
____ _ ____ _ ____ _ ____ _ ____ _ ____ _ ____
 72
    65
 73
     4
 40
100.000000
 49
92.000000
 49
-2.000000
 49
4.000000
 49
-2.000000
  0
LTYPE
  2
SBK1
 70
    64
  3
______ _ _ _ ______ _ _ _ ______ _ _ _ _____  
 72
    65
 73
     8
 40
60.500000
 49
45.000000
 49
-2.000000
 49
2.500000
 49
-2.000000
 49
2.500000
 49
-2.000000
 49
2.500000
 49
-2.000000
  0
LTYPE
  2
SBK2
 70
    64
  3
______ _ _ _ ______ _ _ _ ______ _ _ _ _____  
 72
    65
 73
     8
 40
84.000000
 49
64.000000
 49
-2.000000
 49
4.000000
 49
-2.000000
 49
4.000000
 49
-2.000000
 49
4.000000
 49
-2.000000
  0
LTYPE
  2
STCH
 70
    64
  3
__ __ __ __ __ __ __ __ __ __ __ __ __ __ __
 72
    65
 73
     2
 40
3.000000
 49
1.000000
 49
-2.000000
  0
LTYPE
  2
MTCH
 70
    64
  3
_____ _ _ _____ _ _ _____ _ _ _____ _ _ ____  
 72
    65
 73
     6
 40
80.000000
 49
66.000000
 49
-2.000000
 49
4.000000
 49
-2.000000
 49
4.000000
 49
-2.000000
  0
ENDTAB
  0
TABLE
  2
LAYER
 70
     1
  0
LAYER
  2
0
 70
     0
 62
     7
  6
CONTINUOUS
  0
ENDTAB
  0
TABLE
  2
STYLE
 70
     1
  0
STYLE
  2
STANDARD
 70
     0
 40
0.000000
 41
1.000000
 50
0.000000
 71
     0
 42
0.200000
  3
txt
  4
BIGFONT
  0
ENDTAB
  0
TABLE
  2
VIEW
 70
     0
  0
ENDTAB
  0
ENDSEC
  0
SECTION
  2
BLOCKS
  0
ENDSEC
  0
SECTION
  2
ENTITIES
  0
LINE
  8
0
  6
CENTER
 62
     2
 10
-70.000000
 20
-18.999994
 11
-80.000000
 21
-18.999994
  0
LINE
  8
0
  6
CENTER
 62
     2
 10
-70.000000
 20
49.000008
 11
-80.000000
 21
49.000008
  0
LINE
  8
0
 10
54.000000
 20
-4.999994
 11
65.019997
 21
-4.999994
  0
LINE
  8
0
 10
54.000000
 20
35.000008
 11
65.019997
 21
35.000008
  0
LINE
  8
0
  6
CENTER
 62
     2
 10
-108.120003
 20
15.000006
 11
-41.430000
 21
15.000006
  0
LINE
  8
0
 10
-105.000000
 20
16.100006
 11
-45.000000
 21
16.100006
  0
LINE
  8
0
 10
-105.000000
 20
13.900006
 11
-45.000000
 21
13.900006
  0
LINE
  8
0
  6
CENTER
 62
     2
 10
49.310001
 20
15.000006
 11
118.150002
 21
15.000006
  0
LINE
  8
0
 10
115.000000
 20
54.000008
 11
115.000000
 21
-23.999994
  0
LINE
  8
0
 10
107.000000
 20
53.000008
 11
107.000000
 21
38.210007
  0
LINE
  8
0
 10
53.000000
 20
33.000008
 11
53.000000
 21
16.100006
  0
LINE
  8
0
 10
109.000000
 20
-24.999994
 11
114.000000
 21
-24.999994
  0
LINE
  8
0
 10
109.000000
 20
55.000008
 11
114.000000
 21
55.000008
  0
LINE
  8
0
  6
CENTER
 62
     2
 10
104.279999
 20
-14.999994
 11
117.639999
 21
-14.999994
  0
LINE
  8
0
  6
CENTER
 62
     2
 10
104.279999
 20
45.000008
 11
118.150002
 21
45.000008
  0
LINE
  8
0
 10
114.000000
 20
55.000008
 11
115.000000
 21
54.000008
  0
LINE
  8
0
 10
115.000000
 20
-23.999998
 11
114.000000
 21
-24.999996
  0
LINE
  8
0
 10
107.000000
 20
-8.209994
 11
107.000000
 21
-22.999994
  0
LINE
  8
0
 10
53.000000
 20
16.100006
 11
65.029999
 21
16.100006
  0
LINE
  8
0
 10
53.000000
 20
13.900006
 11
65.029999
 21
13.900006
  0
LINE
  8
0
  6
DASHED
 10
70.849998
 20
38.000008
 11
99.139999
 21
38.000008
  0
LINE
  8
0
  6
DASHED
 10
70.849998
 20
-7.999994
 11
99.139999
 21
-7.999994
  0
LINE
  8
0
  6
DASHED
 10
107.000000
 20
41.500008
 11
115.000000
 21
41.500008
  0
LINE
  8
0
  6
DASHED
 10
107.000000
 20
48.500008
 11
115.000000
 21
48.500008
  0
LINE
  8
0
  6
DASHED
 10
107.000000
 20
-18.499994
 11
115.000000
 21
-18.499994
  0
LINE
  8
0
  6
DASHED
 10
107.000000
 20
-11.499994
 11
115.000000
 21
-11.499994
  0
LINE
  8
0
  6
CENTER
 62
     2
 10
59.000000
 20
44.900005
 11
59.000000
 21
-17.939995
  0
LINE
  8
0
 10
-45.000000
 20
50.000008
 11
-45.000000
 21
-19.999994
  0
LINE
  8
0
 10
-105.000000
 20
50.000008
 11
-105.000000
 21
-19.999994
  0
LINE
  8
0
 10
-103.000000
 20
35.000008
 11
-47.000000
 21
35.000008
  0
LINE
  8
0
 10
-100.000000
 20
-24.999994
 11
-50.000000
 21
-24.999994
  0
LINE
  8
0
 10
-100.000000
 20
55.000008
 11
-50.000000
 21
55.000008
  0
LINE
  8
0
 10
-103.000000
 20
-11.999994
 11
-101.320000
 21
-11.999994
  0
LINE
  8
0
 10
-103.000000
 20
42.000008
 11
-101.320000
 21
42.000008
  0
LINE
  8
0
 10
-88.669998
 20
42.000008
 11
-79.250000
 21
42.000008
  0
LINE
  8
0
 10
-48.669998
 20
42.000008
 11
-47.000000
 21
42.000008
  0
LINE
  8
0
 10
-48.669998
 20
-11.999994
 11
-47.000000
 21
-11.999994
  0
LINE
  8
0
 10
-88.669998
 20
-11.999994
 11
-61.320000
 21
-11.999994
  0
LINE
  8
0
 10
53.000000
 20
13.900006
 11
53.000000
 21
-2.999994
  0
LINE
  8
0
 10
114.000000
 20
55.000008
 11
114.000000
 21
-24.999994
  0
LINE
  8
0
  6
CENTER
 62
     2
 10
-103.160004
 20
45.000008
 11
-86.889999
 21
45.000008
  0
LINE
  8
0
  6
CENTER
 62
     2
 10
-103.160004
 20
-14.999994
 11
-86.889999
 21
-14.999994
  0
LINE
  8
0
 10
-103.000000
 20
-4.999994
 11
-47.000000
 21
-4.999994
  0
LINE
  8
0
 10
-100.000000
 20
-5.999994
 11
-90.000000
 21
-5.999994
  0
LINE
  8
0
 10
-100.000000
 20
-5.999994
 11
-100.000000
 21
-4.999994
  0
LINE
  8
0
 10
-90.000000
 20
-5.999994
 11
-90.000000
 21
-4.999994
  0
LINE
  8
0
 10
-60.000000
 20
-5.999994
 11
-50.000000
 21
-5.999994
  0
LINE
  8
0
 10
-60.000000
 20
-5.999994
 11
-60.000000
 21
-4.999994
  0
LINE
  8
0
 10
-50.000000
 20
-5.999994
 11
-50.000000
 21
-4.999994
  0
LINE
  8
0
 10
-95.650002
 20
-7.299995
 11
-95.990005
 21
-5.999994
  0
LINE
  8
0
 10
-94.349998
 20
-5.999994
 11
-94.000000
 21
-7.299994
  0
LINE
  8
0
 10
-90.400002
 20
-5.999994
 11
-90.400002
 21
-7.299994
  0
LINE
  8
0
 10
-90.400002
 20
-7.299994
 11
-99.599998
 21
-7.299994
  0
LINE
  8
0
 10
-99.599998
 20
-5.999994
 11
-99.599998
 21
-7.299994
  0
LINE
  8
0
 10
-55.650002
 20
-7.299994
 11
-55.989998
 21
-5.999993
  0
LINE
  8
0
 10
-54.350002
 20
-5.999994
 11
-54.000000
 21
-7.299994
  0
LINE
  8
0
 10
-50.400002
 20
-5.999994
 11
-50.400002
 21
-7.299994
  0
LINE
  8
0
 10
-50.400002
 20
-7.299994
 11
-59.599998
 21
-7.299994
  0
LINE
  8
0
 10
-59.599998
 20
-5.999994
 11
-59.599998
 21
-7.299994
  0
LINE
  8
0
 10
-90.000000
 20
36.000008
 11
-100.000000
 21
36.000008
  0
LINE
  8
0
 10
-90.000000
 20
36.000008
 11
-90.000000
 21
35.000008
  0
LINE
  8
0
 10
-100.000000
 20
36.000008
 11
-100.000000
 21
35.000008
  0
LINE
  8
0
 10
-50.000000
 20
36.000008
 11
-60.000000
 21
36.000008
  0
LINE
  8
0
 10
-50.000000
 20
36.000008
 11
-50.000000
 21
35.000008
  0
LINE
  8
0
 10
-60.000000
 20
36.000008
 11
-60.000000
 21
35.000008
  0
LINE
  8
0
 10
-99.610001
 20
-11.639994
 11
-99.610001
 21
-7.649994
  0
LINE
  8
0
 10
-99.000000
 20
-11.999995
 11
-99.610001
 21
-11.639997
  0
LINE
  8
0
 10
-99.000000
 20
-11.999994
 11
-91.000000
 21
-11.999994
  0
LINE
  8
0
 10
-97.300003
 20
-11.639994
 11
-97.300003
 21
-7.649994
  0
LINE
  8
0
 10
-92.690002
 20
-11.639994
 11
-92.690002
 21
-7.649994
  0
LINE
  8
0
 10
-90.379997
 20
-11.639994
 11
-90.379997
 21
-7.649994
  0
LINE
  8
0
 10
-91.000000
 20
-11.999993
 11
-90.379997
 21
-11.639992
  0
LINE
  8
0
 10
-91.000008
 20
-7.299992
 11
-90.379997
 21
-7.649995
  0
LINE
  8
0
 10
-99.000008
 20
-7.299994
 11
-99.610001
 21
-7.649994
  0
LINE
  8
0
 10
-59.610001
 20
-11.639994
 11
-59.610001
 21
-7.649994
  0
LINE
  8
0
 10
-59.000000
 20
-11.999995
 11
-59.610001
 21
-11.639995
  0
LINE
  8
0
 10
-59.000000
 20
-11.999994
 11
-51.000000
 21
-11.999994
  0
LINE
  8
0
 10
-57.299999
 20
-11.639994
 11
-57.299999
 21
-7.649994
  0
LINE
  8
0
 10
-52.689999
 20
-11.639994
 11
-52.689999
 21
-7.649994
  0
LINE
  8
0
 10
-50.380001
 20
-11.639994
 11
-50.380001
 21
-7.649994
  0
LINE
  8
0
 10
-51.000000
 20
-11.999994
 11
-50.380001
 21
-11.639994
  0
LINE
  8
0
 10
-51.000000
 20
-7.299996
 11
-50.380001
 21
-7.649995
  0
LINE
  8
0
 10
-59.000004
 20
-7.299994
 11
-59.610001
 21
-7.649994
  0
LINE
  8
0
 10
-90.750000
 20
40.700005
 11
-90.750000
 21
36.000008
  0
LINE
  8
0
 10
-90.750000
 20
40.700005
 11
-91.269997
 21
41.000004
  0
LINE
  8
0
 10
-91.269997
 20
41.000008
 11
-98.730003
 21
41.000008
  0
LINE
  8
0
 10
-90.750000
 20
40.700005
 11
-99.250000
 21
40.700005
  0
LINE
  8
0
 10
-99.250000
 20
40.700008
 11
-98.729996
 21
41.000008
  0
LINE
  8
0
 10
-99.250000
 20
40.700005
 11
-99.250000
 21
36.000008
  0
LINE
  8
0
 10
-92.500000
 20
16.100006
 11
-92.500000
 21
13.900006
  0
LINE
  8
0
 62
     2
 10
-92.930000
 20
16.100006
 11
-92.930000
 21
13.900006
  0
LINE
  8
0
 10
-97.500000
 20
16.100006
 11
-97.500000
 21
13.900006
  0
LINE
  8
0
 62
     2
 10
-97.059998
 20
16.100006
 11
-97.059998
 21
13.900006
  0
LINE
  8
0
 10
-92.500000
 20
-13.099994
 11
-97.500000
 21
-13.099994
  0
LINE
  8
0
 10
-93.400002
 20
-13.999994
 11
-96.599998
 21
-13.999994
  0
LINE
  8
0
 10
-93.399994
 20
-13.999990
 11
-92.500000
 21
-13.099993
  0
LINE
  8
0
 10
-96.599998
 20
-13.999996
 11
-97.500000
 21
-13.099996
  0
LINE
  8
0
 10
-50.750000
 20
40.700005
 11
-50.750000
 21
36.000008
  0
LINE
  8
0
 10
-50.750000
 20
40.700005
 11
-51.270000
 21
41.000004
  0
LINE
  8
0
 10
-51.270000
 20
41.000008
 11
-58.730000
 21
41.000008
  0
LINE
  8
0
 10
-50.750000
 20
40.700005
 11
-59.250000
 21
40.700005
  0
LINE
  8
0
 10
-59.250000
 20
40.700005
 11
-58.730000
 21
41.000008
  0
LINE
  8
0
 10
-59.250000
 20
40.700005
 11
-59.250000
 21
36.000008
  0
LINE
  8
0
 10
-52.500000
 20
16.100006
 11
-52.500000
 21
13.900006
  0
LINE
  8
0
 62
     2
 10
-52.930000
 20
16.100006
 11
-52.930000
 21
13.900006
  0
LINE
  8
0
 10
-57.500000
 20
16.100006
 11
-57.500000
 21
13.900006
  0
LINE
  8
0
 62
     2
 10
-57.060001
 20
16.100006
 11
-57.060001
 21
13.900006
  0
LINE
  8
0
 10
-52.500000
 20
-13.099994
 11
-57.500000
 21
-13.099994
  0
LINE
  8
0
 10
-53.400002
 20
-13.999994
 11
-56.599998
 21
-13.999994
  0
LINE
  8
0
 10
-53.399998
 20
-13.999993
 11
-52.500000
 21
-13.099993
  0
LINE
  8
0
 10
-56.599998
 20
-13.999993
 11
-57.500000
 21
-13.099993
  0
LINE
  8
0
 10
-70.750000
 20
43.600006
 11
-70.750000
 21
38.900005
  0
LINE
  8
0
 10
-70.750000
 20
43.600006
 11
-71.270004
 21
43.900005
  0
LINE
  8
0
 10
-71.269997
 20
43.900005
 11
-78.730003
 21
43.900005
  0
LINE
  8
0
 10
-70.750000
 20
43.600006
 11
-79.250000
 21
43.600006
  0
LINE
  8
0
 10
-79.250000
 20
43.600002
 11
-78.730003
 21
43.900005
  0
LINE
  8
0
 10
-79.250000
 20
43.600006
 11
-79.250000
 21
38.900005
  0
LINE
  8
0
 10
-70.750000
 20
38.900005
 11
-79.250000
 21
38.900005
  0
LINE
  8
0
 10
-72.500000
 20
38.900005
 11
-72.500000
 21
35.000008
  0
LINE
  8
0
 62
     2
 10
-72.930000
 20
36.500008
 11
-72.930000
 21
35.000008
  0
LINE
  8
0
 62
     2
 10
-72.929993
 20
36.500004
 11
-72.499992
 21
38.900005
  0
LINE
  8
0
 10
-72.500000
 20
36.500008
 11
-77.500000
 21
36.500008
  0
LINE
  8
0
 62
     2
 10
-77.059998
 20
36.500008
 11
-77.500000
 21
38.900005
  0
LINE
  8
0
 10
-77.500000
 20
38.900005
 11
-77.500000
 21
35.000008
  0
LINE
  8
0
 62
     2
 10
-77.059998
 20
36.500008
 11
-77.059998
 21
35.000008
  0
LINE
  8
0
 10
-72.500000
 20
14.800006
 11
-77.500000
 21
14.800006
  0
LINE
  8
0
 10
-73.400002
 20
13.900006
 11
-72.500000
 21
14.800007
  0
LINE
  8
0
 10
-76.599998
 20
13.900006
 11
-77.500000
 21
14.800007
  0
LINE
  8
0
 10
54.000000
 20
-5.999994
 11
64.000000
 21
-5.999994
  0
LINE
  8
0
 10
54.000000
 20
-5.999994
 11
54.000000
 21
-4.999994
  0
LINE
  8
0
 10
64.000000
 20
-5.999994
 11
64.000000
 21
-4.999994
  0
LINE
  8
0
 10
64.000000
 20
36.000008
 11
54.000000
 21
36.000008
  0
LINE
  8
0
 10
64.000000
 20
36.000008
 11
64.000000
 21
35.000008
  0
LINE
  8
0
 10
54.000000
 20
36.000008
 11
54.000000
 21
35.000008
  0
LINE
  8
0
 10
58.349998
 20
-7.299994
 11
57.999996
 21
-5.999995
  0
LINE
  8
0
 10
59.650002
 20
-5.999995
 11
59.989998
 21
-7.299994
  0
LINE
  8
0
 10
63.599998
 20
-5.999994
 11
63.599998
 21
-7.299994
  0
LINE
  8
0
 10
63.599998
 20
-7.299994
 11
54.400002
 21
-7.299994
  0
LINE
  8
0
 10
54.400002
 20
-5.999994
 11
54.400002
 21
-7.299994
  0
LINE
  8
0
 10
55.000000
 20
-11.999994
 11
55.000000
 21
-7.299994
  0
LINE
  8
0
 10
59.000000
 20
-11.639994
 11
59.000000
 21
-7.649994
  0
LINE
  8
0
 10
55.000000
 20
-11.999994
 11
63.000000
 21
-11.999994
  0
LINE
  8
0
 10
63.000000
 20
-11.999994
 11
63.000000
 21
-7.299994
  0
LINE
  8
0
 10
63.250000
 20
43.600006
 11
63.250000
 21
36.000008
  0
LINE
  8
0
 10
63.250004
 20
40.700008
 11
62.730003
 21
41.000008
  0
LINE
  8
0
 10
62.730000
 20
41.000008
 11
55.270000
 21
41.000008
  0
LINE
  8
0
 10
63.250000
 20
40.700005
 11
54.750000
 21
40.700005
  0
LINE
  8
0
 10
54.750000
 20
40.700005
 11
55.270000
 21
41.000008
  0
LINE
  8
0
 10
54.750000
 20
43.600006
 11
54.750000
 21
36.000008
  0
LINE
  8
0
 10
61.500000
 20
16.100006
 11
61.500000
 21
13.900006
  0
LINE
  8
0
 62
     2
 10
61.060001
 20
16.100006
 11
61.060001
 21
13.900006
  0
LINE
  8
0
 10
56.500000
 20
16.100006
 11
56.500000
 21
13.900006
  0
LINE
  8
0
 62
     2
 10
56.930000
 20
16.100006
 11
56.930000
 21
13.900006
  0
LINE
  8
0
 10
61.500000
 20
-13.099994
 11
56.500000
 21
-13.099994
  0
LINE
  8
0
 10
60.599998
 20
-13.999994
 11
57.400002
 21
-13.999994
  0
LINE
  8
0
 10
60.599998
 20
-13.999993
 11
61.499996
 21
-13.099993
  0
LINE
  8
0
 10
57.399998
 20
-13.999993
 11
56.499996
 21
-13.099993
  0
LINE
  8
0
 10
56.500000
 20
-11.999994
 11
56.500000
 21
-13.099994
  0
LINE
  8
0
 62
     2
 10
56.930000
 20
-11.999994
 11
56.930000
 21
-13.529994
  0
LINE
  8
0
 62
     2
 10
61.060001
 20
-11.999994
 11
61.060001
 21
-13.529994
  0
LINE
  8
0
 10
61.500000
 20
-11.999994
 11
61.500000
 21
-13.099994
  0
LINE
  8
0
 10
-97.500000
 20
-11.999994
 11
-97.500000
 21
-13.099994
  0
LINE
  8
0
 62
     2
 10
-97.059998
 20
-11.999994
 11
-97.059998
 21
-13.529994
  0
LINE
  8
0
 62
     2
 10
-92.930000
 20
-11.999994
 11
-92.930000
 21
-13.529994
  0
LINE
  8
0
 10
-92.500000
 20
-11.999994
 11
-92.500000
 21
-13.099994
  0
LINE
  8
0
 10
-57.500000
 20
-11.999994
 11
-57.500000
 21
-13.099994
  0
LINE
  8
0
 62
     2
 10
-57.060001
 20
-11.999994
 11
-57.060001
 21
-13.529994
  0
LINE
  8
0
 62
     2
 10
-52.930000
 20
-11.999994
 11
-52.930000
 21
-13.529994
  0
LINE
  8
0
 10
-52.500000
 20
-11.999994
 11
-52.500000
 21
-13.099994
  0
LINE
  8
0
 10
-72.500000
 20
16.100006
 11
-72.500000
 21
14.800006
  0
LINE
  8
0
 62
     2
 10
-72.930000
 20
16.100006
 11
-72.930000
 21
14.360006
  0
LINE
  8
0
 62
     2
 10
-77.059998
 20
16.100006
 11
-77.059998
 21
14.360006
  0
LINE
  8
0
 10
-77.500000
 20
16.100006
 11
-77.500000
 21
14.800006
  0
LINE
  8
0
 10
-70.750000
 20
42.000008
 11
-61.320000
 21
42.000008
  0
LINE
  8
0
  6
CENTER
 62
     2
 10
-95.000000
 20
52.120007
 11
-95.000000
 21
-22.049994
  0
LINE
  8
0
  6
CENTER
 62
     2
 10
-75.000000
 20
53.680008
 11
-75.000000
 21
-23.709993
  0
LINE
  8
0
  6
CENTER
 62
     2
 10
-55.000000
 20
52.120007
 11
-55.000000
 21
-22.309994
  0
LINE
  8
0
  6
CENTER
 62
     2
 10
-62.180000
 20
-14.999994
 11
-47.450001
 21
-14.999994
  0
LINE
  8
0
  6
CENTER
 62
     2
 10
-62.450001
 20
45.000008
 11
-47.980000
 21
45.000008
  0
LINE
  8
0
  6
CENTER
 62
     2
 10
85.000000
 20
46.860004
 11
85.000000
 21
-17.049994
  0
LINE
  8
0
 10
63.250000
 20
43.600002
 11
62.730000
 21
43.900005
  0
LINE
  8
0
 10
62.730000
 20
43.900005
 11
55.270000
 21
43.900005
  0
LINE
  8
0
 10
54.750000
 20
43.600006
 11
55.270004
 21
43.900005
  0
LINE
  8
0
 10
63.250000
 20
43.600006
 11
54.750000
 21
43.600006
  0
LINE
  8
0
 10
-194.250000
 20
132.600006
 11
194.800003
 21
132.600006
  0
LINE
  8
0
 10
194.800003
 20
132.600006
 11
194.800003
 21
-133.500000
  0
LINE
  8
0
 10
-194.250000
 20
132.600006
 11
-194.250000
 21
-133.500000
  0
LINE
  8
0
 10
-194.250000
 20
-133.500000
 11
194.800003
 21
-133.500000
  0
ARC
  8
0
 10
85.000000
 20
15.000006
 40
20.000273
 50
183.152817
 51
176.847183
  0
ARC
  8
0
 10
84.996384
 20
15.000028
 40
26.998610
 50
50.691189
 51
128.633957
  0
ARC
  8
0
 10
109.000000
 20
-22.999994
 40
2.000000
 50
180.000000
 51
270.000000
  0
ARC
  8
0
 10
109.000000
 20
53.000008
 40
2.000000
 50
90.000000
 51
180.000000
  0
ARC
  8
0
 10
84.996384
 20
14.999985
 40
26.998608
 50
231.366043
 51
309.308807
  0
ARC
  8
0
 10
103.998169
 20
38.215511
 40
3.001836
 50
230.777283
 51
359.894928
  0
ARC
  8
0
 10
103.998169
 20
-8.215501
 40
3.001836
 50
0.105102
 51
129.222687
  0
ARC
  8
0
 10
65.023758
 20
-9.999557
 40
4.999565
 50
51.442291
 51
90.043106
  0
ARC
  8
0
 10
65.023758
 20
39.999569
 40
4.999563
 50
269.956909
 51
308.557709
  0
ARC
  8
0
 10
55.000000
 20
33.000008
 40
2.000000
 50
90.000000
 51
180.000000
  0
ARC
  8
0
 10
85.000000
 20
15.000006
 40
21.008820
 50
183.001312
 51
176.998688
  0
ARC
  8
0
 10
-100.000000
 20
-19.999994
 40
5.000000
 50
180.000000
 51
270.000000
  0
ARC
  8
0
 10
-50.000000
 20
-19.999994
 40
5.000000
 50
270.000000
 51
0.000000
  0
ARC
  8
0
 10
-50.000000
 20
50.000008
 40
5.000000
 50
0.000000
 51
90.000000
  0
ARC
  8
0
 10
-100.000000
 20
50.000008
 40
5.000000
 50
90.000000
 51
180.000000
  0
ARC
  8
0
 10
-103.000000
 20
33.000008
 40
2.000000
 50
90.000000
 51
180.000000
  0
ARC
  8
0
 10
-103.000000
 20
-2.999994
 40
2.000000
 50
180.000000
 51
270.000000
  0
ARC
  8
0
 10
-47.000000
 20
-2.999994
 40
2.000000
 50
270.000000
 51
0.000000
  0
ARC
  8
0
 10
-47.000000
 20
33.000008
 40
2.000000
 50
0.000000
 51
90.000000
  0
ARC
  8
0
 10
-95.000000
 20
-14.999994
 40
3.500357
 50
135.578735
 51
44.421272
  0
ARC
  8
0
 10
-55.000000
 20
-14.999994
 40
3.500357
 50
135.578735
 51
44.421272
  0
CIRCLE
  8
0
 10
-55.000000
 20
45.000008
 40
3.500000
  0
CIRCLE
  8
0
 10
-95.000000
 20
45.000008
 40
3.500000
  0
ARC
  8
0
 10
-94.993950
 20
-15.008003
 40
7.002892
 50
25.438261
 51
48.786755
  0
ARC
  8
0
 10
-54.993950
 20
-15.008003
 40
7.002888
 50
25.438274
 51
48.786732
  0
ARC
  8
0
 10
-54.986191
 20
44.982918
 40
7.001063
 50
205.218109
 51
232.481125
  0
ARC
  8
0
 10
-94.986191
 20
44.982918
 40
7.001063
 50
205.218109
 51
232.481094
  0
ARC
  8
0
 10
-103.000000
 20
40.000008
 40
2.000000
 50
90.000000
 51
180.000000
  0
ARC
  8
0
 10
-47.000000
 20
40.000008
 40
2.000000
 50
0.000000
 51
90.000000
  0
ARC
  8
0
 10
-47.000000
 20
-9.999994
 40
2.000000
 50
270.000000
 51
0.000000
  0
ARC
  8
0
 10
-103.000000
 20
-9.999994
 40
2.000000
 50
180.000000
 51
270.000000
  0
ARC
  8
0
 10
55.000000
 20
-2.999994
 40
2.000000
 50
180.000000
 51
270.000000
  0
CIRCLE
  8
0
 10
-75.000000
 20
49.000008
 40
2.000000
  0
CIRCLE
  8
0
 10
-75.000000
 20
-18.999994
 40
2.000000
  0
ARC
  8
0
 10
-98.449471
 20
-9.954214
 40
2.040377
 50
244.122070
 51
304.288544
  0
ARC
  8
0
 10
-94.995003
 20
-4.357254
 40
7.638804
 50
252.437332
 51
287.562683
  0
ARC
  8
0
 10
-91.540588
 20
-9.954987
 40
2.039707
 50
235.700470
 51
295.888763
  0
ARC
  8
0
 10
-91.539856
 20
-9.344947
 40
2.048339
 50
64.251144
 51
124.159698
  0
ARC
  8
0
 10
-94.995003
 20
-14.942735
 40
7.648339
 50
72.459930
 51
107.540070
  0
ARC
  8
0
 10
-98.450203
 20
-9.345716
 40
2.049007
 50
55.851143
 51
115.738174
  0
ARC
  8
0
 10
-58.449471
 20
-9.954214
 40
2.040375
 50
244.122162
 51
304.288544
  0
ARC
  8
0
 10
-54.994999
 20
-4.357254
 40
7.638804
 50
252.437332
 51
287.562683
  0
ARC
  8
0
 10
-51.540588
 20
-9.954987
 40
2.039707
 50
235.700470
 51
295.888763
  0
ARC
  8
0
 10
-51.539856
 20
-9.344947
 40
2.048339
 50
64.251144
 51
124.159607
  0
ARC
  8
0
 10
-54.994999
 20
-14.942735
 40
7.648339
 50
72.459930
 51
107.540070
  0
ARC
  8
0
 10
-58.450199
 20
-9.345716
 40
2.049007
 50
55.851143
 51
115.738174
  0
ARC
  8
0
 10
57.000000
 20
-6.223285
 40
5.774143
 50
249.734451
 51
290.265564
  0
ARC
  8
0
 10
61.000000
 20
-6.223285
 40
5.774143
 50
249.734451
 51
290.265564
  0
ARC
  8
0
 10
61.000000
 20
-13.076703
 40
5.783525
 50
69.768761
 51
110.231239
  0
ARC
  8
0
 10
57.000000
 20
-13.076703
 40
5.783525
 50
69.768761
 51
110.231239
  0
ARC
  8
0
 10
-95.002419
 20
-15.003188
 40
6.995071
 50
131.200027
 51
154.574936
  0
ARC
  8
0
 10
-55.002415
 20
-15.003188
 40
6.995074
 50
131.200043
 51
154.574951
  0
ARC
  8
0
 10
-55.001762
 20
44.997833
 40
7.005579
 50
307.366455
 51
334.664398
  0
ARC
  8
0
 10
-95.001762
 20
44.997833
 40
7.005581
 50
307.366455
 51
334.664398
  0
TEXT
  8
0
 10
-186.892654
 20
104.550003
 40
4.500000
  1
MODEL:PHU-40
 50
0.000000
 41
1.052632
 51
0.000000
  7
STANDARD
  0
ENDSEC
  0
EOF
