  0
SECTION
  2
HEADER
  0
ENDSEC
  0
SECTION
  2
TABLES
  0
TABLE
  2
LTYPE
 70
     4
  0
LTYPE
  2
CONTINUOUS
 70
    64
  3
Solid line
 72
    65
 73
     0
 40
0.000000
  0
LTYPE
  2
DASHED
 70
    64
  3
__ __ __ __ __ __ __ __ __ __ __ __ __ __ __
 72
    65
 73
     2
 40
3.500000
 49
2.000000
 49
-1.500000
  0
LTYPE
  2
CENTER
 70
    64
  3
____ _ ____ _ ____ _ ____ _ ____ _ ____ _ ____
 72
    65
 73
     4
 40
17.500000
 49
13.000000
 49
-1.500000
 49
1.500000
 49
-1.500000
  0
LTYPE
  2
PHANTOM
 70
    64
  3
_____ _ _ _____ _ _ _____ _ _ _____ _ _ ____  
 72
    65
 73
     6
 40
15.500000
 49
8.000000
 49
-1.500000
 49
1.500000
 49
-1.500000
 49
1.500000
 49
-1.500000
  0
LTYPE
  2
DASHED1
 70
    64
  3
__ __ __ __ __ __ __ __ __ __ __ __ __ __ __
 72
    65
 73
     2
 40
1.500000
 49
1.000000
 49
-0.500000
  0
LTYPE
  2
DASHED2
 70
    64
  3
__ __ __ __ __ __ __ __ __ __ __ __ __ __ __
 72
    65
 73
     2
 40
3.500000
 49
2.500000
 49
-1.000000
  0
LTYPE
  2
DASHED3
 70
    64
  3
__ __ __ __ __ __ __ __ __ __ __ __ __ __ __
 72
    65
 73
     2
 40
6.000000
 49
4.000000
 49
-2.000000
  0
LTYPE
  2
DASHED4
 70
    64
  3
__ __ __ __ __ __ __ __ __ __ __ __ __ __ __
 72
    65
 73
     2
 40
12.000000
 49
10.000000
 49
-2.000000
  0
LTYPE
  2
DASHED5
 70
    64
  3
__ __ __ __ __ __ __ __ __ __ __ __ __ __ __
 72
    65
 73
     2
 40
17.000000
 49
15.000000
 49
-2.000000
  0
LTYPE
  2
DASHED6
 70
    64
  3
__ __ __ __ __ __ __ __ __ __ __ __ __ __ __
 72
    65
 73
     2
 40
29.000000
 49
27.000000
 49
-2.000000
  0
LTYPE
  2
PHANTOM1
 70
    64
  3
_____ _ _ _____ _ _ _____ _ _ _____ _ _ ____  
 72
    65
 73
     6
 40
31.000000
 49
25.000000
 49
-1.500000
 49
1.000000
 49
-1.000000
 49
1.000000
 49
-1.500000
  0
LTYPE
  2
PHANTOM2
 70
    64
  3
_____ _ _ _____ _ _ _____ _ _ _____ _ _ ____  
 72
    65
 73
     6
 40
36.000000
 49
27.000000
 49
-1.500000
 49
2.500000
 49
-1.000000
 49
2.500000
 49
-1.500000
  0
LTYPE
  2
PHANTOM3
 70
    64
  3
_____ _ _ _____ _ _ _____ _ _ _____ _ _ ____  
 72
    65
 73
     6
 40
78.000000
 49
64.000000
 49
-2.000000
 49
4.000000
 49
-2.000000
 49
4.000000
 49
-2.000000
  0
LTYPE
  2
CENTER1
 70
    64
  3
____ _ ____ _ ____ _ ____ _ ____ _ ____ _ ____
 72
    65
 73
     4
 40
19.000000
 49
14.000000
 49
-1.000000
 49
3.000000
 49
-1.000000
  0
LTYPE
  2
CENTER2
 70
    64
  3
____ _ ____ _ ____ _ ____ _ ____ _ ____ _ ____
 72
    65
 73
     4
 40
28.500000
 49
25.000000
 49
-1.000000
 49
1.500000
 49
-1.000000
  0
LTYPE
  2
CENTER3
 70
    64
  3
____ _ ____ _ ____ _ ____ _ ____ _ ____ _ ____
 72
    65
 73
     4
 40
31.500000
 49
27.000000
 49
-1.000000
 49
2.500000
 49
-1.000000
  0
LTYPE
  2
CENTER4
 70
    64
  3
____ _ ____ _ ____ _ ____ _ ____ _ ____ _ ____
 72
    65
 73
     4
 40
50.000000
 49
45.000000
 49
-1.000000
 49
3.000000
 49
-1.000000
  0
LTYPE
  2
CENTER5
 70
    64
  3
____ _ ____ _ ____ _ ____ _ ____ _ ____ _ ____
 72
    65
 73
     4
 40
100.000000
 49
92.000000
 49
-2.000000
 49
4.000000
 49
-2.000000
  0
LTYPE
  2
SBK1
 70
    64
  3
______ _ _ _ ______ _ _ _ ______ _ _ _ _____  
 72
    65
 73
     8
 40
60.500000
 49
45.000000
 49
-2.000000
 49
2.500000
 49
-2.000000
 49
2.500000
 49
-2.000000
 49
2.500000
 49
-2.000000
  0
LTYPE
  2
SBK2
 70
    64
  3
______ _ _ _ ______ _ _ _ ______ _ _ _ _____  
 72
    65
 73
     8
 40
84.000000
 49
64.000000
 49
-2.000000
 49
4.000000
 49
-2.000000
 49
4.000000
 49
-2.000000
 49
4.000000
 49
-2.000000
  0
LTYPE
  2
STCH
 70
    64
  3
__ __ __ __ __ __ __ __ __ __ __ __ __ __ __
 72
    65
 73
     2
 40
3.000000
 49
1.000000
 49
-2.000000
  0
LTYPE
  2
MTCH
 70
    64
  3
_____ _ _ _____ _ _ _____ _ _ _____ _ _ ____  
 72
    65
 73
     6
 40
80.000000
 49
66.000000
 49
-2.000000
 49
4.000000
 49
-2.000000
 49
4.000000
 49
-2.000000
  0
ENDTAB
  0
TABLE
  2
LAYER
 70
     1
  0
LAYER
  2
0
 70
     0
 62
     7
  6
CONTINUOUS
  0
ENDTAB
  0
TABLE
  2
STYLE
 70
     1
  0
STYLE
  2
STANDARD
 70
     0
 40
0.000000
 41
1.000000
 50
0.000000
 71
     0
 42
0.200000
  3
txt
  4
BIGFONT
  0
ENDTAB
  0
TABLE
  2
VIEW
 70
     0
  0
ENDTAB
  0
ENDSEC
  0
SECTION
  2
BLOCKS
  0
ENDSEC
  0
SECTION
  2
ENTITIES
  0
LINE
  8
0
  6
CENTER
 62
     2
 10
74.997040
 20
60.000008
 11
74.997040
 21
-49.999992
  0
LINE
  8
0
  6
CENTER
 62
     2
 10
-79.000000
 20
65.000008
 11
-91.000000
 21
65.000008
  0
LINE
  8
0
  6
CENTER
 62
     2
 10
-79.000000
 20
-54.999992
 11
-91.000000
 21
-54.999992
  0
LINE
  8
0
  6
CENTER
 62
     2
 10
-46.500000
 20
-49.999992
 11
-63.500000
 21
-49.999992
  0
LINE
  8
0
  6
CENTER
 62
     2
 10
-106.500000
 20
-49.999992
 11
-123.500000
 21
-49.999992
  0
LINE
  8
0
  6
CENTER
 62
     2
 10
-55.000000
 20
-58.499992
 11
-55.000000
 21
68.500008
  0
LINE
  8
0
  6
CENTER
 62
     2
 10
-46.500000
 20
60.000008
 11
-63.500000
 21
60.000008
  0
LINE
  8
0
  6
CENTER
 62
     2
 10
-115.000000
 20
-58.499992
 11
-115.000000
 21
68.500008
  0
LINE
  8
0
  6
CENTER
 62
     2
 10
-106.500000
 20
60.000008
 11
-123.500000
 21
60.000008
  0
LINE
  8
0
 10
21.500000
 20
-29.999994
 11
41.770000
 21
-29.999994
  0
LINE
  8
0
 10
21.500000
 20
40.000008
 11
41.770000
 21
40.000008
  0
LINE
  8
0
  6
CENTER
 62
     2
 10
-133.529999
 20
5.000006
 11
-38.110001
 21
5.000006
  0
LINE
  8
0
 10
-130.000000
 20
6.100006
 11
-40.000000
 21
6.100006
  0
LINE
  8
0
 10
-130.000000
 20
3.900006
 11
-40.000000
 21
3.900006
  0
LINE
  8
0
  6
CENTER
 62
     2
 10
18.309999
 20
5.000006
 11
124.370003
 21
5.000006
  0
LINE
  8
0
 10
22.000000
 20
6.100006
 11
38.009998
 21
6.100006
  0
LINE
  8
0
 10
22.000000
 20
3.900006
 11
38.009998
 21
3.900006
  0
LINE
  8
0
 10
-120.000000
 20
-64.999992
 11
-50.000000
 21
-64.999992
  0
LINE
  8
0
 10
-120.000000
 20
75.000008
 11
-50.000000
 21
75.000008
  0
LINE
  8
0
 10
-40.000000
 20
65.000008
 11
-40.000000
 21
-54.999992
  0
LINE
  8
0
 10
-130.000000
 20
65.000008
 11
-130.000000
 21
-54.999992
  0
LINE
  8
0
 10
-127.000000
 20
-29.999994
 11
-43.000000
 21
-29.999994
  0
LINE
  8
0
 10
-127.000000
 20
40.000008
 11
-43.000000
 21
40.000008
  0
LINE
  8
0
 10
-127.000000
 20
52.000008
 11
-122.550003
 21
52.000008
  0
LINE
  8
0
 10
-107.449997
 20
52.000008
 11
-62.549999
 21
52.000008
  0
LINE
  8
0
 10
-47.450001
 20
52.000008
 11
-43.000000
 21
52.000008
  0
LINE
  8
0
 10
-47.450001
 20
-41.999992
 11
-43.000000
 21
-41.999992
  0
LINE
  8
0
 10
-107.449997
 20
-41.999992
 11
-62.549999
 21
-41.999992
  0
LINE
  8
0
 10
-127.000000
 20
-41.999992
 11
-122.550003
 21
-41.999992
  0
LINE
  8
0
 10
122.000000
 20
74.000008
 11
122.000000
 21
-63.999992
  0
LINE
  8
0
 10
110.000000
 20
73.000008
 11
110.000000
 21
47.470005
  0
LINE
  8
0
 10
22.000000
 20
38.000008
 11
22.000000
 21
6.100006
  0
LINE
  8
0
 10
112.000000
 20
75.000008
 11
121.000000
 21
75.000008
  0
LINE
  8
0
  6
CENTER
 62
     2
 10
107.639999
 20
60.000008
 11
125.110001
 21
60.000008
  0
LINE
  8
0
  6
DASHED
 10
58.470001
 20
49.000008
 11
91.519997
 21
49.000008
  0
LINE
  8
0
 10
120.999992
 20
75.000000
 11
121.999992
 21
74.000000
  0
LINE
  8
0
  6
DASHED
 10
58.470001
 20
-38.999992
 11
91.519997
 21
-38.999992
  0
LINE
  8
0
 10
110.000000
 20
-62.999992
 11
110.000000
 21
-37.469994
  0
LINE
  8
0
 10
112.000000
 20
-64.999992
 11
121.000000
 21
-64.999992
  0
LINE
  8
0
  6
CENTER
 62
     2
 10
106.160004
 20
-49.999992
 11
125.849998
 21
-49.999992
  0
LINE
  8
0
 10
120.999992
 20
-64.999985
 11
121.999992
 21
-63.999989
  0
LINE
  8
0
  6
DASHED
 10
110.000000
 20
54.500008
 11
122.000000
 21
54.500008
  0
LINE
  8
0
  6
DASHED
 10
110.000000
 20
65.500008
 11
122.000000
 21
65.500008
  0
LINE
  8
0
  6
DASHED
 10
110.000000
 20
-55.499992
 11
122.000000
 21
-55.499992
  0
LINE
  8
0
  6
DASHED
 10
110.000000
 20
-44.499992
 11
122.000000
 21
-44.499992
  0
LINE
  8
0
 10
121.000000
 20
75.000008
 11
121.000000
 21
-64.999992
  0
LINE
  8
0
 10
22.000000
 20
3.900006
 11
22.000000
 21
-27.999994
  0
LINE
  8
0
 10
21.500000
 20
41.600006
 11
38.500000
 21
41.600006
  0
LINE
  8
0
 10
21.500000
 20
40.000008
 11
21.500000
 21
41.600006
  0
LINE
  8
0
 10
38.500000
 20
40.000008
 11
38.500000
 21
41.600006
  0
LINE
  8
0
 10
-63.500000
 20
41.600006
 11
-46.500000
 21
41.600006
  0
LINE
  8
0
 10
-63.500000
 20
40.000008
 11
-63.500000
 21
41.600006
  0
LINE
  8
0
 10
-46.500000
 20
40.000008
 11
-46.500000
 21
41.600006
  0
LINE
  8
0
 10
-123.500000
 20
41.600006
 11
-106.500000
 21
41.600006
  0
LINE
  8
0
 10
-123.500000
 20
40.000008
 11
-123.500000
 21
41.600006
  0
LINE
  8
0
 10
-106.500000
 20
40.000008
 11
-106.500000
 21
41.600006
  0
LINE
  8
0
 10
-106.500000
 20
-31.599995
 11
-123.500000
 21
-31.599995
  0
LINE
  8
0
 10
-106.500000
 20
-29.999994
 11
-106.500000
 21
-31.599995
  0
LINE
  8
0
 10
-123.500000
 20
-29.999994
 11
-123.500000
 21
-31.599995
  0
LINE
  8
0
 10
-46.500000
 20
-31.599995
 11
-63.500000
 21
-31.599995
  0
LINE
  8
0
 10
-46.500000
 20
-29.999994
 11
-46.500000
 21
-31.599995
  0
LINE
  8
0
 10
-63.500000
 20
-29.999994
 11
-63.500000
 21
-31.599995
  0
LINE
  8
0
 10
38.500000
 20
-31.599995
 11
21.500000
 21
-31.599995
  0
LINE
  8
0
 10
38.500000
 20
-29.999994
 11
38.500000
 21
-31.599995
  0
LINE
  8
0
 10
21.500000
 20
-29.999994
 11
21.500000
 21
-31.599995
  0
LINE
  8
0
 10
-107.300003
 20
-33.599995
 11
-122.699997
 21
-33.599995
  0
LINE
  8
0
 10
-107.300003
 20
-31.599995
 11
-107.300003
 21
-33.599995
  0
LINE
  8
0
 10
-122.699997
 20
-31.599995
 11
-122.699997
 21
-33.599995
  0
LINE
  8
0
 10
-114.719994
 20
-31.599993
 11
-113.999992
 21
-33.599991
  0
LINE
  8
0
 10
-116.000000
 20
-31.599995
 11
-115.270004
 21
-33.599995
  0
LINE
  8
0
 10
-47.299999
 20
-33.599995
 11
-62.700001
 21
-33.599995
  0
LINE
  8
0
 10
-47.299999
 20
-31.599995
 11
-47.299999
 21
-33.599995
  0
LINE
  8
0
 10
-62.700001
 20
-31.599995
 11
-62.700001
 21
-33.599995
  0
LINE
  8
0
 10
-54.719997
 20
-31.599993
 11
-54.000000
 21
-33.599995
  0
LINE
  8
0
 10
-56.000004
 20
-31.599995
 11
-55.270004
 21
-33.599995
  0
LINE
  8
0
 10
37.700001
 20
-33.599995
 11
22.299999
 21
-33.599995
  0
LINE
  8
0
 10
37.700001
 20
-31.599995
 11
37.700001
 21
-33.599995
  0
LINE
  8
0
 10
22.299999
 20
-31.599995
 11
22.299999
 21
-33.599995
  0
LINE
  8
0
 10
30.270000
 20
-31.599997
 11
31.000000
 21
-33.599995
  0
LINE
  8
0
 10
28.999998
 20
-31.599993
 11
29.719997
 21
-33.599995
  0
LINE
  8
0
 10
34.000000
 20
6.100006
 11
34.000000
 21
3.900006
  0
LINE
  8
0
 10
26.000000
 20
6.100006
 11
26.000000
 21
3.900006
  0
LINE
  8
0
 10
35.630001
 20
49.600006
 11
24.360001
 21
49.600006
  0
LINE
  8
0
 10
36.500000
 20
51.400005
 11
36.500000
 21
41.600006
  0
LINE
  8
0
 10
23.500000
 20
51.400005
 11
23.500000
 21
41.600006
  0
LINE
  8
0
 10
32.799999
 20
-43.399994
 11
27.200001
 21
-43.399994
  0
LINE
  8
0
 10
32.799999
 20
-43.399990
 11
34.000000
 21
-42.199993
  0
LINE
  8
0
 10
27.199999
 20
-43.399994
 11
26.000000
 21
-42.199993
  0
LINE
  8
0
 10
33.369999
 20
6.100006
 11
33.369999
 21
3.900006
  0
LINE
  8
0
 10
26.620001
 20
6.100006
 11
26.620001
 21
3.900006
  0
LINE
  8
0
 10
34.000000
 20
-42.199993
 11
26.000000
 21
-42.199993
  0
LINE
  8
0
 10
36.500000
 20
49.100006
 11
23.500000
 21
49.100006
  0
LINE
  8
0
 10
35.630001
 20
49.600006
 11
36.500000
 21
49.100006
  0
LINE
  8
0
 10
24.360001
 20
49.600006
 11
23.500002
 21
49.100006
  0
LINE
  8
0
 10
-51.000000
 20
6.100006
 11
-51.000000
 21
3.900006
  0
LINE
  8
0
 10
-59.000000
 20
6.100006
 11
-59.000000
 21
3.900006
  0
LINE
  8
0
 10
-49.360001
 20
49.600006
 11
-60.630001
 21
49.600006
  0
LINE
  8
0
 10
-48.500000
 20
49.100006
 11
-48.500000
 21
41.600006
  0
LINE
  8
0
 10
-61.500000
 20
49.100006
 11
-61.500000
 21
41.600006
  0
LINE
  8
0
 10
-52.200001
 20
-43.399994
 11
-57.799999
 21
-43.399994
  0
LINE
  8
0
 10
-52.199997
 20
-43.399994
 11
-51.000000
 21
-42.199997
  0
LINE
  8
0
 10
-57.799999
 20
-43.399994
 11
-59.000000
 21
-42.199993
  0
LINE
  8
0
 10
-51.619999
 20
6.100006
 11
-51.619999
 21
3.900006
  0
LINE
  8
0
 10
-58.369999
 20
6.100006
 11
-58.369999
 21
3.900006
  0
LINE
  8
0
 10
-51.000000
 20
-42.199993
 11
-59.000000
 21
-42.199993
  0
LINE
  8
0
 10
-48.500000
 20
49.100006
 11
-61.500000
 21
49.100006
  0
LINE
  8
0
 10
-49.360001
 20
49.600006
 11
-48.500004
 21
49.100006
  0
LINE
  8
0
 10
-60.630001
 20
49.600006
 11
-61.500000
 21
49.100010
  0
LINE
  8
0
 10
-111.000000
 20
6.100006
 11
-111.000000
 21
3.900006
  0
LINE
  8
0
 10
-119.000000
 20
6.100006
 11
-119.000000
 21
3.900006
  0
LINE
  8
0
 10
-109.360001
 20
49.600006
 11
-120.629997
 21
49.600006
  0
LINE
  8
0
 10
-108.500000
 20
49.100006
 11
-108.500000
 21
41.600006
  0
LINE
  8
0
 10
-121.500000
 20
49.100006
 11
-121.500000
 21
41.600006
  0
LINE
  8
0
 10
-112.199997
 20
-43.399994
 11
-117.800003
 21
-43.399994
  0
LINE
  8
0
 10
-112.199997
 20
-43.399990
 11
-111.000000
 21
-42.199993
  0
LINE
  8
0
 10
-117.800003
 20
-43.399994
 11
-119.000000
 21
-42.199993
  0
LINE
  8
0
 10
-111.620003
 20
6.100006
 11
-111.620003
 21
3.900006
  0
LINE
  8
0
 10
-118.370003
 20
6.100006
 11
-118.370003
 21
3.900006
  0
LINE
  8
0
 10
-111.000000
 20
-42.199993
 11
-119.000000
 21
-42.199993
  0
LINE
  8
0
 10
-108.500000
 20
49.100006
 11
-121.500000
 21
49.100006
  0
LINE
  8
0
 10
-109.360001
 20
49.600006
 11
-108.500000
 21
49.100006
  0
LINE
  8
0
 10
-120.629997
 20
49.600002
 11
-121.499992
 21
49.100006
  0
LINE
  8
0
 10
-107.500000
 20
-34.099995
 11
-107.500000
 21
-39.589993
  0
LINE
  8
0
 10
-122.500000
 20
-34.099995
 11
-122.500000
 21
-39.589993
  0
LINE
  8
0
 10
-108.379997
 20
-40.099995
 11
-121.620003
 21
-40.099995
  0
LINE
  8
0
 62
     2
 10
-111.000000
 20
-34.099995
 11
-111.000000
 21
-40.099995
  0
LINE
  8
0
 62
     2
 10
-119.000000
 20
-34.099995
 11
-119.000000
 21
-39.589993
  0
LINE
  8
0
 10
-121.619995
 20
-33.599995
 11
-122.500000
 21
-34.099995
  0
LINE
  8
0
 10
-107.500000
 20
-39.589993
 11
-108.379997
 21
-40.099995
  0
LINE
  8
0
 10
-108.379997
 20
-33.599987
 11
-107.500000
 21
-34.099987
  0
LINE
  8
0
 10
-122.500000
 20
-39.589996
 11
-121.619995
 21
-40.099998
  0
LINE
  8
0
 10
-47.500000
 20
-34.099995
 11
-47.500000
 21
-39.589993
  0
LINE
  8
0
 10
-62.500000
 20
-34.099995
 11
-62.500000
 21
-39.589993
  0
LINE
  8
0
 10
-48.380001
 20
-40.099995
 11
-61.619999
 21
-40.099995
  0
LINE
  8
0
 62
     2
 10
-51.000000
 20
-34.099995
 11
-51.000000
 21
-39.589993
  0
LINE
  8
0
 62
     2
 10
-59.000000
 20
-34.099995
 11
-59.000000
 21
-39.589993
  0
LINE
  8
0
 10
-61.619999
 20
-33.599995
 11
-62.499996
 21
-34.099995
  0
LINE
  8
0
 10
-47.500000
 20
-39.589993
 11
-48.380001
 21
-40.099995
  0
LINE
  8
0
 10
-48.380001
 20
-33.599995
 11
-47.500000
 21
-34.099995
  0
LINE
  8
0
 10
-62.500004
 20
-39.589996
 11
-61.620003
 21
-40.099995
  0
LINE
  8
0
 10
30.000000
 20
-34.099995
 11
30.000000
 21
-39.589993
  0
LINE
  8
0
 10
36.500000
 20
-40.099995
 11
23.500000
 21
-40.099995
  0
LINE
  8
0
 10
36.500000
 20
-33.599995
 11
36.500000
 21
-40.099995
  0
LINE
  8
0
 10
23.500000
 20
-33.599995
 11
23.500000
 21
-40.099995
  0
LINE
  8
0
 10
-81.000000
 20
43.900005
 11
-81.000000
 21
40.000008
  0
LINE
  8
0
 10
-89.000000
 20
43.900005
 11
-89.000000
 21
40.000008
  0
LINE
  8
0
 10
-78.500000
 20
43.900005
 11
-91.500000
 21
43.900005
  0
LINE
  8
0
 10
-79.360001
 20
51.900005
 11
-90.629997
 21
51.900005
  0
LINE
  8
0
 10
-78.500000
 20
51.400005
 11
-78.500000
 21
43.900005
  0
LINE
  8
0
 10
-91.500000
 20
51.400005
 11
-91.500000
 21
43.900005
  0
LINE
  8
0
 10
-82.199997
 20
3.900006
 11
-81.000000
 21
5.100006
  0
LINE
  8
0
 10
-87.800003
 20
3.900006
 11
-89.000000
 21
5.100003
  0
LINE
  8
0
 10
-81.620003
 20
6.100006
 11
-81.620003
 21
4.470006
  0
LINE
  8
0
 10
-88.370003
 20
6.100006
 11
-88.370003
 21
4.470006
  0
LINE
  8
0
 10
-81.000000
 20
5.100006
 11
-89.000000
 21
5.100006
  0
LINE
  8
0
 10
-78.500000
 20
51.400005
 11
-91.500000
 21
51.400005
  0
LINE
  8
0
 10
-79.360001
 20
51.900009
 11
-78.500000
 21
51.400005
  0
LINE
  8
0
 10
-90.629997
 20
51.900002
 11
-91.500000
 21
51.400002
  0
LINE
  8
0
 10
-89.000000
 20
6.100006
 11
-89.000000
 21
5.100006
  0
LINE
  8
0
 10
-81.000000
 20
6.100006
 11
-81.000000
 21
5.100006
  0
LINE
  8
0
 10
-119.000000
 20
-40.099995
 11
-119.000000
 21
-42.199993
  0
LINE
  8
0
 10
-118.370003
 20
-40.099995
 11
-118.370003
 21
-42.819992
  0
LINE
  8
0
 10
-111.620003
 20
-40.099995
 11
-111.620003
 21
-42.819992
  0
LINE
  8
0
 10
-111.000000
 20
-40.099995
 11
-111.000000
 21
-42.199993
  0
LINE
  8
0
 10
-59.000000
 20
-40.099995
 11
-59.000000
 21
-42.199993
  0
LINE
  8
0
 10
-58.369999
 20
-40.099995
 11
-58.369999
 21
-42.819992
  0
LINE
  8
0
 10
-51.000000
 20
-40.099995
 11
-51.000000
 21
-42.199993
  0
LINE
  8
0
 10
-51.619999
 20
-40.099995
 11
-51.619999
 21
-42.819992
  0
LINE
  8
0
 10
26.000000
 20
-40.099995
 11
26.000000
 21
-42.199993
  0
LINE
  8
0
 10
26.620001
 20
-40.099995
 11
26.620001
 21
-42.819992
  0
LINE
  8
0
 10
34.000000
 20
-40.099995
 11
34.000000
 21
-42.199993
  0
LINE
  8
0
 10
33.369999
 20
-40.099995
 11
33.369999
 21
-42.819992
  0
LINE
  8
0
  6
CENTER
 62
     2
 10
-85.000000
 20
72.030006
 11
-85.000000
 21
-61.219994
  0
LINE
  8
0
  6
CENTER
 62
     2
 10
30.000000
 20
55.140007
 11
30.000000
 21
-49.629993
  0
LINE
  8
0
 10
35.630001
 20
51.900005
 11
24.360001
 21
51.900005
  0
LINE
  8
0
 10
36.500000
 20
51.400005
 11
23.500000
 21
51.400005
  0
LINE
  8
0
 10
35.630001
 20
51.900005
 11
36.500000
 21
51.400005
  0
LINE
  8
0
 10
24.360003
 20
51.900005
 11
23.500000
 21
51.400005
  0
LINE
  8
0
 10
-194.250000
 20
132.600006
 11
194.800003
 21
132.600006
  0
LINE
  8
0
 10
194.800003
 20
132.600006
 11
194.800003
 21
-133.500000
  0
LINE
  8
0
 10
-194.250000
 20
132.600006
 11
-194.250000
 21
-133.500000
  0
LINE
  8
0
 10
-194.250000
 20
-133.500000
 11
194.800003
 21
-133.500000
  0
ARC
  8
0
 10
74.997040
 20
5.000049
 40
38.002960
 50
181.658600
 51
178.341400
  0
ARC
  8
0
 10
74.996826
 20
5.000053
 40
37.003178
 50
181.703415
 51
178.296585
  0
ARC
  8
0
 10
-50.000000
 20
65.000008
 40
10.000000
 50
0.000000
 51
90.000000
  0
ARC
  8
0
 10
-50.000000
 20
-54.999992
 40
10.000000
 50
270.000000
 51
0.000000
  0
ARC
  8
0
 10
-120.000000
 20
-54.999992
 40
10.000000
 50
180.000000
 51
270.000000
  0
ARC
  8
0
 10
-120.000000
 20
65.000008
 40
10.000000
 50
90.000000
 51
180.000000
  0
ARC
  8
0
 10
-43.000000
 20
49.000008
 40
3.000000
 50
0.000000
 51
90.000000
  0
ARC
  8
0
 10
-43.000000
 20
-38.999992
 40
3.000000
 50
270.000000
 51
0.000000
  0
ARC
  8
0
 10
-127.000000
 20
-38.999992
 40
3.000000
 50
180.000000
 51
270.000000
  0
ARC
  8
0
 10
-127.000000
 20
49.000008
 40
3.000000
 50
90.000000
 51
180.000000
  0
ARC
  8
0
 10
-43.000000
 20
37.000008
 40
3.000000
 50
0.000000
 51
90.000000
  0
ARC
  8
0
 10
-43.000000
 20
-26.999994
 40
3.000000
 50
270.000000
 51
0.000000
  0
ARC
  8
0
 10
-127.000000
 20
-26.999994
 40
3.000000
 50
180.000000
 51
270.000000
  0
ARC
  8
0
 10
-127.000000
 20
37.000008
 40
3.000000
 50
90.000000
 51
180.000000
  0
ARC
  8
0
 10
-115.002411
 20
60.001461
 40
10.999518
 50
226.671936
 51
251.019287
  0
ARC
  8
0
 10
-55.002407
 20
60.001461
 40
10.999518
 50
226.671936
 51
251.019272
  0
CIRCLE
  8
0
 10
-55.000000
 20
60.000008
 40
5.500000
  0
CIRCLE
  8
0
 10
-115.000000
 20
60.000008
 40
5.500000
  0
CIRCLE
  8
0
 10
-115.000000
 20
-49.999992
 40
5.500000
  0
CIRCLE
  8
0
 10
-55.000000
 20
-49.999992
 40
5.500000
  0
ARC
  8
0
 10
-55.005848
 20
-49.995956
 40
11.001194
 50
46.621040
 51
64.097069
  0
ARC
  8
0
 10
-115.005844
 20
-49.995956
 40
11.001194
 50
46.621040
 51
64.097069
  0
CIRCLE
  8
0
 10
-85.000000
 20
65.000008
 40
3.000000
  0
CIRCLE
  8
0
 10
-85.000000
 20
-54.999992
 40
3.000000
  0
ARC
  8
0
 10
112.000000
 20
73.000008
 40
2.000000
 50
90.000000
 51
180.000000
  0
ARC
  8
0
 10
24.000000
 20
38.000008
 40
2.000000
 50
90.000000
 51
180.000000
  0
ARC
  8
0
 10
74.995811
 20
4.999842
 40
46.999832
 50
54.767220
 51
129.721924
  0
ARC
  8
0
 10
104.998642
 20
47.472816
 40
5.001358
 50
234.720093
 51
359.967834
  0
ARC
  8
0
 10
41.770206
 20
44.998821
 40
4.998814
 50
269.997650
 51
309.651001
  0
ARC
  8
0
 10
41.770206
 20
-34.998810
 40
4.998815
 50
50.348984
 51
90.002357
  0
ARC
  8
0
 10
74.995811
 20
5.000171
 40
46.999832
 50
230.278076
 51
305.232788
  0
ARC
  8
0
 10
104.998642
 20
-37.472801
 40
5.001359
 50
0.032164
 51
125.279907
  0
ARC
  8
0
 10
112.000000
 20
-62.999992
 40
2.000000
 50
180.000000
 51
270.000000
  0
ARC
  8
0
 10
24.000000
 20
-27.999994
 40
2.000000
 50
180.000000
 51
270.000000
  0
ARC
  8
0
 10
-115.000000
 20
-24.100000
 40
15.998124
 50
255.520752
 51
284.479248
  0
ARC
  8
0
 10
-115.000000
 20
-49.599998
 40
16.007818
 50
75.529716
 51
104.470284
  0
ARC
  8
0
 10
-120.750000
 20
-36.867882
 40
3.274709
 50
57.696865
 51
122.303139
  0
ARC
  8
0
 10
-109.250000
 20
-36.867882
 40
3.274709
 50
57.696865
 51
122.303139
  0
ARC
  8
0
 10
-109.250000
 20
-36.832115
 40
3.266250
 50
237.602997
 51
302.397003
  0
ARC
  8
0
 10
-120.750000
 20
-36.832115
 40
3.266250
 50
237.602997
 51
302.397003
  0
ARC
  8
0
 10
-55.000000
 20
-24.100000
 40
15.998124
 50
255.520752
 51
284.479248
  0
ARC
  8
0
 10
-55.000000
 20
-49.599998
 40
16.007818
 50
75.529716
 51
104.470284
  0
ARC
  8
0
 10
-60.750000
 20
-36.867882
 40
3.274709
 50
57.696865
 51
122.303139
  0
ARC
  8
0
 10
-49.250000
 20
-36.867882
 40
3.274709
 50
57.696865
 51
122.303139
  0
ARC
  8
0
 10
-49.250000
 20
-36.832115
 40
3.266250
 50
237.602997
 51
302.397003
  0
ARC
  8
0
 10
-60.750000
 20
-36.832115
 40
3.266250
 50
237.602997
 51
302.397003
  0
ARC
  8
0
 10
33.250000
 20
-44.248726
 40
10.656418
 50
72.243004
 51
107.756996
  0
ARC
  8
0
 10
33.250000
 20
-29.451273
 40
10.646888
 50
252.226578
 51
287.773407
  0
ARC
  8
0
 10
26.750000
 20
-29.451273
 40
10.646888
 50
252.226578
 51
287.773407
  0
ARC
  8
0
 10
26.750000
 20
-44.248726
 40
10.656418
 50
72.243004
 51
107.756996
  0
ARC
  8
0
 10
-115.005951
 20
-50.004089
 40
10.999014
 50
115.782280
 51
133.305206
  0
ARC
  8
0
 10
-55.005947
 20
-50.004089
 40
10.999015
 50
115.782295
 51
133.305206
  0
ARC
  8
0
 10
-115.004211
 20
59.997456
 40
11.001149
 50
289.069336
 51
313.367462
  0
ARC
  8
0
 10
-55.004211
 20
59.997456
 40
11.001150
 50
289.069336
 51
313.367462
  0
TEXT
  8
0
 10
-186.892654
 20
104.550003
 40
4.500000
  1
MODEL:PHU-74
 50
0.000000
 41
1.052632
 51
0.000000
  7
STANDARD
  0
ENDSEC
  0
EOF
