  0
SECTION
  2
HEADER
  9
$ACADVER
  1
AC1012
  9
$DWGCODEPAGE
  3
dos932
  9
$INSBASE
 10
0.0
 20
0.0
 30
0.0
  9
$EXTMIN
 10
-491.20328
 20
-468.90576
 30
0.0
  9
$EXTMAX
 10
478.79672
 20
439.09424
 30
0.0
  9
$LIMMIN
 10
0.0
 20
0.0
  9
$LIMMAX
 10
12.0
 20
9.0
  9
$ORTHOMODE
 70
     0
  9
$REGENMODE
 70
     1
  9
$FILLMODE
 70
     1
  9
$QTEXTMODE
 70
     0
  9
$MIRRTEXT
 70
     1
  9
$DRAGMODE
 70
     2
  9
$LTSCALE
 40
1.0
  9
$OSMODE
 70
     0
  9
$ATTMODE
 70
     1
  9
$TEXTSIZE
 40
0.2
  9
$TRACEWID
 40
0.05
  9
$TEXTSTYLE
  7
STANDARD
  9
$CLAYER
  8
0
  9
$CELTYPE
  6
CONTINUOUS
  9
$CECOLOR
 62
   256
  9
$CELTSCALE
 40
1.0
  9
$DELOBJ
 70
     1
  9
$DISPSILH
 70
     0
  9
$DIMSCALE
 40
1.0
  9
$DIMASZ
 40
0.18
  9
$DIMEXO
 40
0.0625
  9
$DIMDLI
 40
0.38
  9
$DIMRND
 40
0.0
  9
$DIMDLE
 40
0.0
  9
$DIMEXE
 40
0.18
  9
$DIMTP
 40
0.0
  9
$DIMTM
 40
0.0
  9
$DIMTXT
 40
0.18
  9
$DIMCEN
 40
0.09
  9
$DIMTSZ
 40
0.0
  9
$DIMTOL
 70
     0
  9
$DIMLIM
 70
     0
  9
$DIMTIH
 70
     1
  9
$DIMTOH
 70
     1
  9
$DIMSE1
 70
     0
  9
$DIMSE2
 70
     0
  9
$DIMTAD
 70
     0
  9
$DIMZIN
 70
     0
  9
$DIMBLK
  1

  9
$DIMASO
 70
     1
  9
$DIMSHO
 70
     1
  9
$DIMPOST
  1

  9
$DIMAPOST
  1

  9
$DIMALT
 70
     0
  9
$DIMALTD
 70
     2
  9
$DIMALTF
 40
25.4
  9
$DIMLFAC
 40
1.0
  9
$DIMTOFL
 70
     0
  9
$DIMTVP
 40
0.0
  9
$DIMTIX
 70
     0
  9
$DIMSOXD
 70
     0
  9
$DIMSAH
 70
     0
  9
$DIMBLK1
  1

  9
$DIMBLK2
  1

  9
$DIMSTYLE
  2
STANDARD
  9
$DIMCLRD
 70
     0
  9
$DIMCLRE
 70
     0
  9
$DIMCLRT
 70
     0
  9
$DIMTFAC
 40
1.0
  9
$DIMGAP
 40
0.09
  9
$DIMJUST
 70
     0
  9
$DIMSD1
 70
     0
  9
$DIMSD2
 70
     0
  9
$DIMTOLJ
 70
     1
  9
$DIMTZIN
 70
     0
  9
$DIMALTZ
 70
     0
  9
$DIMALTTZ
 70
     0
  9
$DIMFIT
 70
     3
  9
$DIMUPT
 70
     0
  9
$DIMUNIT
 70
     2
  9
$DIMDEC
 70
     4
  9
$DIMTDEC
 70
     4
  9
$DIMALTU
 70
     2
  9
$DIMALTTD
 70
     2
  9
$DIMTXSTY
  7
STANDARD
  9
$DIMAUNIT
 70
     0
  9
$LUNITS
 70
     2
  9
$LUPREC
 70
     4
  9
$SKETCHINC
 40
0.1
  9
$FILLETRAD
 40
0.0
  9
$AUNITS
 70
     0
  9
$AUPREC
 70
     0
  9
$MENU
  1
.
  9
$ELEVATION
 40
0.0
  9
$PELEVATION
 40
0.0
  9
$THICKNESS
 40
0.0
  9
$LIMCHECK
 70
     0
  9
$BLIPMODE
 70
     1
  9
$CHAMFERA
 40
0.0
  9
$CHAMFERB
 40
0.0
  9
$CHAMFERC
 40
0.0
  9
$CHAMFERD
 40
0.0
  9
$SKPOLY
 70
     0
  9
$TDCREATE
 40
0.0000000000
  9
$TDUPDATE
 40
2452163.604769676
  9
$TDINDWG
 40
0.0142031250
  9
$TDUSRTIMER
 40
0.0142031250
  9
$USRTIMER
 70
     1
  9
$ANGBASE
 50
0.0
  9
$ANGDIR
 70
     0
  9
$PDMODE
 70
     0
  9
$PDSIZE
 40
0.0
  9
$PLINEWID
 40
0.0
  9
$COORDS
 70
     1
  9
$SPLFRAME
 70
     0
  9
$SPLINETYPE
 70
     6
  9
$SPLINESEGS
 70
     8
  9
$ATTDIA
 70
     0
  9
$ATTREQ
 70
     1
  9
$HANDLING
 70
     1
  9
$HANDSEED
  5
96B
  9
$SURFTAB1
 70
     6
  9
$SURFTAB2
 70
     6
  9
$SURFTYPE
 70
     6
  9
$SURFU
 70
     6
  9
$SURFV
 70
     6
  9
$UCSNAME
  2

  9
$UCSORG
 10
0.0
 20
0.0
 30
0.0
  9
$UCSXDIR
 10
1.0
 20
0.0
 30
0.0
  9
$UCSYDIR
 10
0.0
 20
1.0
 30
0.0
  9
$PUCSNAME
  2

  9
$PUCSORG
 10
0.0
 20
0.0
 30
0.0
  9
$PUCSXDIR
 10
1.0
 20
0.0
 30
0.0
  9
$PUCSYDIR
 10
0.0
 20
1.0
 30
0.0
  9
$USERI1
 70
     0
  9
$USERI2
 70
     0
  9
$USERI3
 70
     0
  9
$USERI4
 70
     0
  9
$USERI5
 70
     0
  9
$USERR1
 40
0.0
  9
$USERR2
 40
0.0
  9
$USERR3
 40
0.0
  9
$USERR4
 40
0.0
  9
$USERR5
 40
0.0
  9
$WORLDVIEW
 70
     1
  9
$SHADEDGE
 70
     3
  9
$SHADEDIF
 70
    70
  9
$TILEMODE
 70
     1
  9
$MAXACTVP
 70
    16
  9
$PINSBASE
 10
0.0
 20
0.0
 30
0.0
  9
$PLIMCHECK
 70
     0
  9
$PEXTMIN
 10
1.000000E+20
 20
1.000000E+20
 30
1.000000E+20
  9
$PEXTMAX
 10
-1.000000E+20
 20
-1.000000E+20
 30
-1.000000E+20
  9
$PLIMMIN
 10
0.0
 20
0.0
  9
$PLIMMAX
 10
12.0
 20
9.0
  9
$UNITMODE
 70
     0
  9
$VISRETAIN
 70
     0
  9
$PLINEGEN
 70
     0
  9
$PSLTSCALE
 70
     1
  9
$TREEDEPTH
 70
  3020
  9
$PICKSTYLE
 70
     1
  9
$CMLSTYLE
  2
STANDARD
  9
$CMLJUST
 70
     0
  9
$CMLSCALE
 40
1.0
  9
$SAVEIMAGES
 70
     0
  0
ENDSEC
  0
SECTION
  2
CLASSES
  0
ENDSEC
  0
SECTION
  2
TABLES
  0
TABLE
  2
VPORT
  5
8
100
AcDbSymbolTable
 70
     4
  0
VPORT
  5
96A
100
AcDbSymbolTableRecord
100
AcDbViewportTableRecord
  2
*ACTIVE
 70
     0
 10
0.0
 20
0.0
 11
1.0
 21
1.0
 12
-80.099157
 22
77.761604
 13
0.0
 23
0.0
 14
1.0
 24
1.0
 15
0.0
 25
0.0
 16
0.0
 26
0.0
 36
1.0
 17
0.0
 27
0.0
 37
0.0
 40
908.000048
 41
1.820976
 42
50.0
 43
0.0
 44
0.0
 50
0.0
 51
0.0
 71
     0
 72
   100
 73
     1
 74
     1
 75
     0
 76
     0
 77
     0
 78
     0
  0
ENDTAB
  0
TABLE
  2
LTYPE
  5
5
100
AcDbSymbolTable
 70
     5
  0
LTYPE
  5
13
100
AcDbSymbolTableRecord
100
AcDbLinetypeTableRecord
  2
BYBLOCK
 70
     0
  3

 72
    65
 73
     0
 40
0.0
  0
LTYPE
  5
14
100
AcDbSymbolTableRecord
100
AcDbLinetypeTableRecord
  2
BYLAYER
 70
     0
  3

 72
    65
 73
     0
 40
0.0
  0
LTYPE
  5
15
100
AcDbSymbolTableRecord
100
AcDbLinetypeTableRecord
  2
CONTINUOUS
 70
    64
  3
Solid line
 72
    65
 73
     0
 40
0.0
  0
LTYPE
  5
1E
100
AcDbSymbolTableRecord
100
AcDbLinetypeTableRecord
  2
DASHED
 70
    64
  3
__ __ __ __ __ __ __ __ __ __ __ __ __ __ __
 72
    65
 73
     2
 40
3.5
 49
2.0
 74
     0
 49
-1.5
 74
     0
  0
LTYPE
  5
1F
100
AcDbSymbolTableRecord
100
AcDbLinetypeTableRecord
  2
CENTER
 70
    64
  3
____ _ ____ _ ____ _ ____ _ ____ _ ____ _ ____
 72
    65
 73
     4
 40
17.5
 49
13.0
 74
     0
 49
-1.5
 74
     0
 49
1.5
 74
     0
 49
-1.5
 74
     0
  0
LTYPE
  5
20
100
AcDbSymbolTableRecord
100
AcDbLinetypeTableRecord
  2
PHANTOM
 70
    64
  3
_____ _ _ _____ _ _ _____ _ _ _____ _ _ ____  
 72
    65
 73
     6
 40
15.5
 49
8.0
 74
     0
 49
-1.5
 74
     0
 49
1.5
 74
     0
 49
-1.5
 74
     0
 49
1.5
 74
     0
 49
-1.5
 74
     0
  0
LTYPE
  5
21
100
AcDbSymbolTableRecord
100
AcDbLinetypeTableRecord
  2
DOT
 70
    64
  3
. . . . . . . . . . . . . . . . . . . . . . . .
 72
    65
 73
     2
 40
0.25
 49
0.0
 74
     0
 49
-0.25
 74
     0
  0
ENDTAB
  0
TABLE
  2
LAYER
  5
2
100
AcDbSymbolTable
 70
     1
  0
LAYER
  5
F
100
AcDbSymbolTableRecord
100
AcDbLayerTableRecord
  2
0
 70
     0
 62
     7
  6
CONTINUOUS
  0
ENDTAB
  0
TABLE
  2
STYLE
  5
3
100
AcDbSymbolTable
 70
     1
  0
STYLE
  5
10
100
AcDbSymbolTableRecord
100
AcDbTextStyleTableRecord
  2
STANDARD
 70
     0
 40
0.0
 41
1.0
 50
0.0
 71
     0
 42
0.2
  3
txt
  4

  0
ENDTAB
  0
TABLE
  2
VIEW
  5
6
100
AcDbSymbolTable
 70
     0
  0
ENDTAB
  0
TABLE
  2
UCS
  5
7
100
AcDbSymbolTable
 70
     0
  0
ENDTAB
  0
TABLE
  2
APPID
  5
9
100
AcDbSymbolTable
 70
     1
  0
APPID
  5
11
100
AcDbSymbolTableRecord
100
AcDbRegAppTableRecord
  2
ACAD
 70
     0
  0
ENDTAB
  0
TABLE
  2
DIMSTYLE
  5
A
100
AcDbSymbolTable
 70
     1
  0
DIMSTYLE
105
967
100
AcDbSymbolTableRecord
100
AcDbDimStyleTableRecord
  2
STANDARD
 70
     0
  3

  4

  5

  6

  7

 40
1.0
 41
0.18
 42
0.0625
 43
0.38
 44
0.18
 45
0.0
 46
0.0
 47
0.0
 48
0.0
140
0.18
141
0.09
142
0.0
143
25.4
144
1.0
145
0.0
146
1.0
147
0.09
 71
     0
 72
     0
 73
     1
 74
     1
 75
     0
 76
     0
 77
     0
 78
     0
170
     0
171
     2
172
     0
173
     0
174
     0
175
     0
176
     0
177
     0
178
     0
270
     2
271
     4
272
     4
273
     2
274
     2
340
10
275
     0
280
     0
281
     0
282
     0
283
     1
284
     0
285
     0
286
     0
287
     3
288
     0
  0
ENDTAB
  0
TABLE
  2
BLOCK_RECORD
  5
1
100
AcDbSymbolTable
 70
     0
  0
BLOCK_RECORD
  5
19
100
AcDbSymbolTableRecord
100
AcDbBlockTableRecord
  2
*MODEL_SPACE
  0
BLOCK_RECORD
  5
16
100
AcDbSymbolTableRecord
100
AcDbBlockTableRecord
  2
*PAPER_SPACE
  0
ENDTAB
  0
ENDSEC
  0
SECTION
  2
BLOCKS
  0
BLOCK
  5
1A
100
AcDbEntity
  8
0
100
AcDbBlockBegin
  2
*MODEL_SPACE
 70
     0
 10
0.0
 20
0.0
 30
0.0
  3
*MODEL_SPACE
  1

  0
ENDBLK
  5
1B
100
AcDbEntity
  8
0
100
AcDbBlockEnd
  0
BLOCK
  5
17
100
AcDbEntity
 67
     1
  8
0
100
AcDbBlockBegin
  2
*PAPER_SPACE
 70
     0
 10
0.0
 20
0.0
 30
0.0
  3
*PAPER_SPACE
  1

  0
ENDBLK
  5
18
100
AcDbEntity
 67
     1
  8
0
100
AcDbBlockEnd
  0
ENDSEC
  0
SECTION
  2
ENTITIES
  0
LINE
  5
22
100
AcDbEntity
  8
0
  6
CONTINUOUS
 62
     7
100
AcDbLine
 10
328.79672
 20
431.09424
 30
0.0
 11
478.79672
 21
431.09424
 31
0.0
  0
LINE
  5
23
100
AcDbEntity
  8
0
  6
CONTINUOUS
 62
     7
100
AcDbLine
 10
-401.20328
 20
423.09424
 30
0.0
 11
-401.20328
 21
-120.90575
 31
0.0
  0
LINE
  5
24
100
AcDbEntity
  8
0
  6
CONTINUOUS
 62
     7
100
AcDbLine
 10
-491.20328
 20
423.09424
 30
0.0
 11
478.79672
 21
423.09424
 31
0.0
  0
LINE
  5
25
100
AcDbEntity
  8
0
  6
CONTINUOUS
 62
     7
100
AcDbLine
 10
-491.20328
 20
399.09424
 30
0.0
 11
478.79672
 21
399.09424
 31
0.0
  0
LINE
  5
26
100
AcDbEntity
  8
0
  6
CONTINUOUS
 62
     7
100
AcDbLine
 10
-491.20328
 20
415.09424
 30
0.0
 11
478.79672
 21
415.09424
 31
0.0
  0
LINE
  5
27
100
AcDbEntity
  8
0
  6
CONTINUOUS
 62
     7
100
AcDbLine
 10
-491.20328
 20
439.09424
 30
0.0
 11
-491.20328
 21
-468.90576
 31
0.0
  0
LINE
  5
28
100
AcDbEntity
  8
0
  6
CONTINUOUS
 62
     7
100
AcDbLine
 10
-491.20328
 20
407.09424
 30
0.0
 11
478.79672
 21
407.09424
 31
0.0
  0
LINE
  5
29
100
AcDbEntity
  8
0
  6
CONTINUOUS
 62
     7
100
AcDbLine
 10
38.796711
 20
407.09424
 30
0.0
 11
38.796711
 21
153.09425
 31
0.0
  0
LINE
  5
2A
100
AcDbEntity
  8
0
  6
CONTINUOUS
 62
     7
100
AcDbLine
 10
-181.20329
 20
399.09424
 30
0.0
 11
-181.20329
 21
153.09425
 31
0.0
  0
LINE
  5
2B
100
AcDbEntity
  8
0
  6
CONTINUOUS
 62
     7
100
AcDbLine
 10
258.79672
 20
399.09424
 30
0.0
 11
258.79672
 21
153.09425
 31
0.0
  0
LINE
  5
2C
100
AcDbEntity
  8
0
  6
CONTINUOUS
 62
     7
100
AcDbLine
 10
-491.20328
 20
391.09424
 30
0.0
 11
478.79672
 21
391.09424
 31
0.0
  0
LINE
  5
2D
100
AcDbEntity
  8
0
  6
CONTINUOUS
 62
     7
100
AcDbLine
 10
478.79672
 20
439.09424
 30
0.0
 11
478.79672
 21
-368.90576
 31
0.0
  0
LINE
  5
2E
100
AcDbEntity
  8
0
  6
CONTINUOUS
 62
     7
100
AcDbLine
 10
-491.20328
 20
439.09424
 30
0.0
 11
478.79672
 21
439.09424
 31
0.0
  0
LINE
  5
2F
100
AcDbEntity
  8
0
  6
CONTINUOUS
 62
     7
100
AcDbLine
 10
-491.20328
 20
153.09425
 30
0.0
 11
478.79672
 21
153.09425
 31
0.0
  0
LINE
  5
30
100
AcDbEntity
  8
0
  6
CONTINUOUS
 62
     7
100
AcDbLine
 10
-491.20328
 20
129.09425
 30
0.0
 11
478.79672
 21
129.09425
 31
0.0
  0
LINE
  5
31
100
AcDbEntity
  8
0
  6
CONTINUOUS
 62
     7
100
AcDbLine
 10
-491.20328
 20
145.09425
 30
0.0
 11
478.79672
 21
145.09425
 31
0.0
  0
LINE
  5
32
100
AcDbEntity
  8
0
  6
CONTINUOUS
 62
     7
100
AcDbLine
 10
-491.20328
 20
121.09425
 30
0.0
 11
478.79672
 21
121.09425
 31
0.0
  0
LINE
  5
33
100
AcDbEntity
  8
0
  6
CONTINUOUS
 62
     7
100
AcDbLine
 10
-491.20328
 20
137.09425
 30
0.0
 11
478.79672
 21
137.09425
 31
0.0
  0
LINE
  5
34
100
AcDbEntity
  8
0
  6
CONTINUOUS
 62
     7
100
AcDbLine
 10
-491.20328
 20
-120.90575
 30
0.0
 11
478.79672
 21
-120.90575
 31
0.0
  0
LINE
  5
35
100
AcDbEntity
  8
0
  6
CONTINUOUS
 62
     7
100
AcDbLine
 10
-491.20328
 20
-128.90575
 30
0.0
 11
478.79672
 21
-128.90575
 31
0.0
  0
LINE
  5
36
100
AcDbEntity
  8
0
  6
CONTINUOUS
 62
     7
100
AcDbLine
 10
-491.20328
 20
-468.90576
 30
0.0
 11
108.79671
 21
-468.90576
 31
0.0
  0
LINE
  5
37
100
AcDbEntity
  8
0
  6
CONTINUOUS
 62
     7
100
AcDbLine
 10
-211.20329
 20
-120.90575
 30
0.0
 11
-211.20329
 21
-468.90576
 31
0.0
  0
LINE
  5
38
100
AcDbEntity
  8
0
  6
CONTINUOUS
 62
     7
100
AcDbLine
 10
108.79671
 20
-368.90576
 30
0.0
 11
478.79672
 21
-368.90576
 31
0.0
  0
LINE
  5
39
100
AcDbEntity
  8
0
  6
CONTINUOUS
 62
     7
100
AcDbLine
 10
108.79671
 20
-120.90575
 30
0.0
 11
108.79671
 21
-468.90576
 31
0.0
  0
LINE
  5
3A
100
AcDbEntity
  8
0
  6
CONTINUOUS
 62
     7
100
AcDbLine
 10
-181.20329
 20
129.09425
 30
0.0
 11
-181.20329
 21
-120.90575
 31
0.0
  0
LINE
  5
3B
100
AcDbEntity
  8
0
  6
CONTINUOUS
 62
     7
100
AcDbLine
 10
38.796711
 20
137.09425
 30
0.0
 11
38.796711
 21
-120.90575
 31
0.0
  0
LINE
  5
3C
100
AcDbEntity
  8
0
  6
CONTINUOUS
 62
     7
100
AcDbLine
 10
258.79672
 20
129.09425
 30
0.0
 11
258.79672
 21
-120.90575
 31
0.0
  0
LINE
  5
3D
100
AcDbEntity
  8
0
  6
CONTINUOUS
 62
     7
100
AcDbLine
 10
388.79672
 20
439.09424
 30
0.0
 11
388.79672
 21
423.09424
 31
0.0
  0
LINE
  5
3E
100
AcDbEntity
  8
0
  6
CONTINUOUS
 62
     7
100
AcDbLine
 10
328.79672
 20
439.09424
 30
0.0
 11
328.79672
 21
423.09424
 31
0.0
  0
LINE
  5
3F
100
AcDbEntity
  8
0
  6
CONTINUOUS
 62
     7
100
AcDbLine
 10
418.79672
 20
439.09424
 30
0.0
 11
418.79672
 21
423.09424
 31
0.0
  0
LINE
  5
40
100
AcDbEntity
  8
0
  6
CONTINUOUS
 62
     7
100
AcDbLine
 10
-391.20328
 20
439.09424
 30
0.0
 11
-391.20328
 21
423.09424
 31
0.0
  0
TEXT
  5
41
100
AcDbEntity
  8
0
  6
CONTINUOUS
 62
     7
100
AcDbText
 10
-472.94628
 20
401.49424
 30
0.0
 40
3.2
  1
Screwing position
 41
1.002863
100
AcDbText
  0
TEXT
  5
42
100
AcDbEntity
  8
0
  6
CONTINUOUS
 62
     7
100
AcDbText
 10
-464.94628
 20
409.49424
 30
0.0
 40
3.2
  1
Bracket type
 41
1.004089
100
AcDbText
  0
TEXT
  5
43
100
AcDbEntity
  8
0
  6
CONTINUOUS
 62
     7
100
AcDbText
 10
-450.54628
 20
417.49424
 30
0.0
 40
3.2
  1
use
 41
1.017891
100
AcDbText
  0
TEXT
  5
44
100
AcDbEntity
  8
0
  6
CONTINUOUS
 62
     7
100
AcDbText
 10
-316.34628
 20
123.49425
 30
0.0
 40
3.2
  1
Outside (PUM-204-HA)
 41
1.003045
100
AcDbText
  0
TEXT
  5
45
100
AcDbEntity
  8
0
  6
CONTINUOUS
 62
     7
100
AcDbText
 10
396.25372
 20
433.49424
 30
0.0
 40
3.2
  1
TITLE
 41
1.010223
100
AcDbText
  0
TEXT
  5
46
100
AcDbEntity
  8
0
  6
CONTINUOUS
 62
     7
100
AcDbText
 10
426.85372
 20
433.49424
 30
0.0
 40
3.2
  1
Plachain Ducts
 41
1.003491
100
AcDbText
  0
TEXT
  5
47
100
AcDbEntity
  8
0
  6
CONTINUOUS
 62
     7
100
AcDbText
 10
396.25372
 20
425.49424
 30
0.0
 40
3.2
  1
MODEL
 41
1.010223
100
AcDbText
  0
TEXT
  5
48
100
AcDbEntity
  8
0
  6
CONTINUOUS
 62
     7
100
AcDbText
 10
354.45372
 20
425.49424
 30
0.0
 40
3.2
  1
1:1
 41
1.017891
100
AcDbText
  0
TEXT
  5
49
100
AcDbEntity
  8
0
  6
CONTINUOUS
 62
     7
100
AcDbText
 10
433.25372
 20
425.49424
 30
0.0
 40
3.2
  1
PO204-38,-50
 41
1.004935
100
AcDbText
  0
TEXT
  5
4A
100
AcDbEntity
  8
0
  6
CONTINUOUS
 62
     7
100
AcDbText
 10
341.65372
 20
433.49424
 30
0.0
 40
3.2
  1
KOGANEI CORP.
 41
1.004473
100
AcDbText
  0
TEXT
  5
4B
100
AcDbEntity
  8
0
  6
CONTINUOUS
 62
     7
100
AcDbText
 10
-463.34628
 20
393.49424
 30
0.0
 40
3.2
  1
Orientation
 41
1.004473
100
AcDbText
  0
TEXT
  5
4C
100
AcDbEntity
  8
0
  6
CONTINUOUS
 62
     7
100
AcDbText
 10
-8.746289
 20
409.49424
 30
0.0
 40
3.2
  1
Hole type (for moving end) (M)
 41
1.001608
100
AcDbText
  0
TEXT
  5
4D
100
AcDbEntity
  8
0
  6
CONTINUOUS
 62
     7
100
AcDbText
 10
-450.54628
 20
147.49425
 30
0.0
 40
3.2
  1
use
 41
1.017891
100
AcDbText
  0
TEXT
  5
4E
100
AcDbEntity
  8
0
  6
CONTINUOUS
 62
     7
100
AcDbText
 10
-464.94628
 20
139.49425
 30
0.0
 40
3.2
  1
Bracket type
 41
1.004089
100
AcDbText
  0
TEXT
  5
4F
100
AcDbEntity
  8
0
  6
CONTINUOUS
 62
     7
100
AcDbText
 10
-472.94628
 20
131.49425
 30
0.0
 40
3.2
  1
Screwing position
 41
1.002863
100
AcDbText
  0
TEXT
  5
50
100
AcDbEntity
  8
0
  6
CONTINUOUS
 62
     7
100
AcDbText
 10
-463.34628
 20
123.49425
 30
0.0
 40
3.2
  1
Orientation
 41
1.004473
100
AcDbText
  0
TEXT
  5
51
100
AcDbEntity
  8
0
  6
CONTINUOUS
 62
     7
100
AcDbText
 10
-94.746285
 20
123.49425
 30
0.0
 40
3.2
  1
Inside (PUM-204-HA)
 41
1.003253
100
AcDbText
  0
TEXT
  5
52
100
AcDbEntity
  8
0
  6
CONTINUOUS
 62
     7
100
AcDbText
 10
-196.74629
 20
131.49425
 30
0.0
 40
3.2
  1
Inside (A)
 41
1.004935
100
AcDbText
  0
TEXT
  5
53
100
AcDbEntity
  8
0
  6
CONTINUOUS
 62
     7
100
AcDbText
 10
284.65372
 20
-126.50575
 30
0.0
 40
3.2
  1
1BLOCK
 41
1.008419
100
AcDbText
  0
TEXT
  5
54
100
AcDbEntity
  8
0
  6
CONTINUOUS
 62
     7
100
AcDbText
 10
-316.34628
 20
393.49424
 30
0.0
 40
3.2
  1
Outside (PUM-204-PA)
 41
1.003045
100
AcDbText
  0
TEXT
  5
55
100
AcDbEntity
  8
0
  6
CONTINUOUS
 62
     7
100
AcDbText
 10
-94.746285
 20
393.49424
 30
0.0
 40
3.2
  1
Inside (PUM-204-PB)
 41
1.003253
100
AcDbText
  0
TEXT
  5
56
100
AcDbEntity
  8
0
  6
CONTINUOUS
 62
     7
100
AcDbText
 10
-196.74629
 20
401.49424
 30
0.0
 40
3.2
  1
Inside (A)
 41
1.004935
100
AcDbText
  0
TEXT
  5
57
100
AcDbEntity
  8
0
  6
CONTINUOUS
 62
     7
100
AcDbText
 10
16.853711
 20
417.49424
 30
0.0
 40
3.2
  1
for moving end
 41
1.003491
100
AcDbText
  0
TEXT
  5
58
100
AcDbEntity
  8
0
  6
CONTINUOUS
 62
     7
100
AcDbText
 10
-8.746289
 20
139.49425
 30
0.0
 40
3.2
  1
Pivot type (for fixed end) (F)
 41
1.001608
100
AcDbText
  0
TEXT
  5
59
100
AcDbEntity
  8
0
  6
CONTINUOUS
 62
     7
100
AcDbText
 10
18.453711
 20
147.49425
 30
0.0
 40
3.2
  1
for fixed end
 41
1.003766
100
AcDbText
  0
TEXT
  5
5A
100
AcDbEntity
  8
0
  6
CONTINUOUS
 62
     7
100
AcDbText
 10
345.25372
 20
123.49425
 30
0.0
 40
3.2
  1
Inside (PUM-204-HAE)
 41
1.003253
100
AcDbText
  0
TEXT
  5
5B
100
AcDbEntity
  8
0
  6
CONTINUOUS
 62
     7
100
AcDbText
 10
123.65371
 20
123.49425
 30
0.0
 40
3.2
  1
Outside (PUM-204-HAE)
 41
1.003045
100
AcDbText
  0
TEXT
  5
5C
100
AcDbEntity
  8
0
  6
CONTINUOUS
 62
     7
100
AcDbText
 10
241.65372
 20
131.49425
 30
0.0
 40
3.2
  1
Outside (B)
 41
1.004473
100
AcDbText
  0
TEXT
  5
5D
100
AcDbEntity
  8
0
  6
CONTINUOUS
 62
     7
100
AcDbText
 10
-355.54628
 20
-126.50575
 30
0.0
 40
3.2
  1
PO204-38
 41
1.017891
100
AcDbText
  0
TEXT
  5
5E
100
AcDbEntity
  8
0
  6
CONTINUOUS
 62
     7
100
AcDbText
 10
345.25372
 20
393.49424
 30
0.0
 40
3.2
  1
Inside (PUM-204-PB)
 41
1.003253
100
AcDbText
  0
TEXT
  5
5F
100
AcDbEntity
  8
0
  6
CONTINUOUS
 62
     7
100
AcDbText
 10
123.65371
 20
393.49424
 30
0.0
 40
3.2
  1
Outside (PUM-204-PA)
 41
1.003045
100
AcDbText
  0
TEXT
  5
60
100
AcDbEntity
  8
0
  6
CONTINUOUS
 62
     7
100
AcDbText
 10
241.65372
 20
401.49424
 30
0.0
 40
3.2
  1
Outside (B)
 41
1.004473
100
AcDbText
  0
TEXT
  5
61
100
AcDbEntity
  8
0
  6
CONTINUOUS
 62
     7
100
AcDbText
 10
-55.546289
 20
-126.50575
 30
0.0
 40
3.2
  1
PO204-50
 41
1.017891
100
AcDbText
  0
TEXT
  5
62
100
AcDbEntity
  8
0
  6
CONTINUOUS
 62
     7
100
AcDbText
 10
-460.48921
 20
428.59424
 30
0.0
 40
5.0
  1
PO204
 41
1.006223
100
AcDbText
  0
POINT
  5
63
100
AcDbEntity
  8
0
  6
CONTINUOUS
 62
     7
100
AcDbPoint
 10
-436.20328
 20
348.09424
 30
0.0
  0
POINT
  5
64
100
AcDbEntity
  8
0
  6
CONTINUOUS
 62
     7
100
AcDbPoint
 10
-421.70328
 20
348.09424
 30
0.0
  0
LINE
  5
65
100
AcDbEntity
  8
0
  6
CONTINUOUS
 62
     7
100
AcDbLine
 10
-466.11276
 20
328.09424
 30
0.0
 11
-441.51275
 21
328.09424
 31
0.0
  0
LINE
  5
66
100
AcDbEntity
  8
0
  6
CENTER
 62
     7
100
AcDbLine
 10
-478.70328
 20
348.09424
 30
0.0
 11
-421.70328
 21
348.09424
 31
0.0
  0
LINE
  5
67
100
AcDbEntity
  8
0
  6
CONTINUOUS
 62
     7
100
AcDbLine
 10
-466.11276
 20
368.09424
 30
0.0
 11
-441.51275
 21
368.09424
 31
0.0
  0
LINE
  5
68
100
AcDbEntity
  8
0
  6
CONTINUOUS
 62
     7
100
AcDbLine
 10
-463.20328
 20
359.09424
 30
0.0
 11
-453.20328
 21
359.09424
 31
0.0
  0
LINE
  5
69
100
AcDbEntity
  8
0
  6
CONTINUOUS
 62
     7
100
AcDbLine
 10
-466.11276
 20
363.59424
 30
0.0
 11
-463.20328
 21
363.59424
 31
0.0
  0
LINE
  5
6A
100
AcDbEntity
  8
0
  6
CONTINUOUS
 62
     7
100
AcDbLine
 10
-463.20328
 20
337.09424
 30
0.0
 11
-453.20328
 21
337.09424
 31
0.0
  0
LINE
  5
6B
100
AcDbEntity
  8
0
  6
CONTINUOUS
 62
     7
100
AcDbLine
 10
-466.11276
 20
332.59424
 30
0.0
 11
-463.20328
 21
332.59424
 31
0.0
  0
LINE
  5
6C
100
AcDbEntity
  8
0
  6
CONTINUOUS
 62
     7
100
AcDbLine
 10
-441.51275
 20
368.09424
 30
0.0
 11
-441.51275
 21
363.59424
 31
0.0
  0
LINE
  5
6D
100
AcDbEntity
  8
0
  6
CONTINUOUS
 62
     7
100
AcDbLine
 10
-463.20328
 20
363.59424
 30
0.0
 11
-463.20328
 21
332.59424
 31
0.0
  0
LINE
  5
6E
100
AcDbEntity
  8
0
  6
CONTINUOUS
 62
     7
100
AcDbLine
 10
-453.20328
 20
329.69424
 30
0.0
 11
-446.20328
 21
329.69424
 31
0.0
  0
LINE
  5
6F
100
AcDbEntity
  8
0
  6
CENTER
 62
     7
100
AcDbLine
 10
-436.20328
 20
373.09424
 30
0.0
 11
-436.20328
 21
323.09424
 31
0.0
  0
LINE
  5
70
100
AcDbEntity
  8
0
  6
CENTER
 62
     7
100
AcDbLine
 10
-462.20328
 20
373.09424
 30
0.0
 11
-462.20328
 21
323.09424
 31
0.0
  0
LINE
  5
71
100
AcDbEntity
  8
0
  6
CONTINUOUS
 62
     7
100
AcDbLine
 10
-453.20328
 20
366.49424
 30
0.0
 11
-453.20328
 21
359.09424
 31
0.0
  0
LINE
  5
72
100
AcDbEntity
  8
0
  6
CONTINUOUS
 62
     7
100
AcDbLine
 10
-453.20328
 20
366.49424
 30
0.0
 11
-446.20328
 21
366.49424
 31
0.0
  0
LINE
  5
73
100
AcDbEntity
  8
0
  6
CONTINUOUS
 62
     7
100
AcDbLine
 10
-437.60328
 20
359.09424
 30
0.0
 11
-437.60328
 21
337.09424
 31
0.0
  0
LINE
  5
74
100
AcDbEntity
  8
0
  6
CONTINUOUS
 62
     7
100
AcDbLine
 10
-446.20328
 20
366.49424
 30
0.0
 11
-446.20328
 21
359.09424
 31
0.0
  0
LINE
  5
75
100
AcDbEntity
  8
0
  6
CONTINUOUS
 62
     7
100
AcDbLine
 10
-441.51275
 20
328.09424
 30
0.0
 11
-441.51275
 21
332.59424
 31
0.0
  0
LINE
  5
76
100
AcDbEntity
  8
0
  6
CONTINUOUS
 62
     7
100
AcDbLine
 10
-453.20328
 20
337.09424
 30
0.0
 11
-453.20328
 21
329.69424
 31
0.0
  0
LINE
  5
77
100
AcDbEntity
  8
0
  6
CONTINUOUS
 62
     7
100
AcDbLine
 10
-446.20328
 20
337.09424
 30
0.0
 11
-446.20328
 21
329.69424
 31
0.0
  0
LINE
  5
78
100
AcDbEntity
  8
0
  6
CONTINUOUS
 62
     7
100
AcDbLine
 10
-446.20328
 20
359.09424
 30
0.0
 11
-437.60328
 21
359.09424
 31
0.0
  0
LINE
  5
79
100
AcDbEntity
  8
0
  6
CONTINUOUS
 62
     7
100
AcDbLine
 10
-446.20328
 20
337.09424
 30
0.0
 11
-437.60328
 21
337.09424
 31
0.0
  0
LINE
  5
7A
100
AcDbEntity
  8
0
  6
CONTINUOUS
 62
     7
100
AcDbLine
 10
-453.20328
 20
329.89424
 30
0.0
 11
-446.20328
 21
329.89424
 31
0.0
  0
LINE
  5
7B
100
AcDbEntity
  8
0
  6
CONTINUOUS
 62
     7
100
AcDbLine
 10
-453.20328
 20
366.29424
 30
0.0
 11
-446.20328
 21
366.29424
 31
0.0
  0
LINE
  5
7C
100
AcDbEntity
  8
0
  6
CONTINUOUS
 62
     7
100
AcDbLine
 10
-441.51275
 20
363.59424
 30
0.0
 11
-437.60328
 21
363.59424
 31
0.0
  0
LINE
  5
7D
100
AcDbEntity
  8
0
  6
CONTINUOUS
 62
     7
100
AcDbLine
 10
-441.51275
 20
332.59424
 30
0.0
 11
-437.60328
 21
332.59424
 31
0.0
  0
LINE
  5
7E
100
AcDbEntity
  8
0
  6
CENTER
 62
     7
100
AcDbLine
 10
-455.20328
 20
363.09424
 30
0.0
 11
-444.20328
 21
363.09424
 31
0.0
  0
LINE
  5
7F
100
AcDbEntity
  8
0
  6
CENTER
 62
     7
100
AcDbLine
 10
-455.20328
 20
333.09424
 30
0.0
 11
-444.20328
 21
333.09424
 31
0.0
  0
POINT
  5
80
100
AcDbEntity
  8
0
  6
CONTINUOUS
 62
     7
100
AcDbPoint
 10
-436.20328
 20
272.09424
 30
0.0
  0
POINT
  5
81
100
AcDbEntity
  8
0
  6
CONTINUOUS
 62
     7
100
AcDbPoint
 10
-430.20328
 20
272.09424
 30
0.0
  0
LINE
  5
82
100
AcDbEntity
  8
0
  6
CENTER
 62
     7
100
AcDbLine
 10
-436.20328
 20
278.09424
 30
0.0
 11
-436.20328
 21
266.09424
 31
0.0
  0
LINE
  5
83
100
AcDbEntity
  8
0
  6
CENTER
 62
     7
100
AcDbLine
 10
-456.20328
 20
272.09424
 30
0.0
 11
-468.20328
 21
272.09424
 31
0.0
  0
LINE
  5
84
100
AcDbEntity
  8
0
  6
CONTINUOUS
 62
     7
100
AcDbLine
 10
-462.20328
 20
283.09424
 30
0.0
 11
-436.20328
 21
283.09424
 31
0.0
  0
LINE
  5
85
100
AcDbEntity
  8
0
  6
CENTER
 62
     7
100
AcDbLine
 10
-430.20328
 20
272.09424
 30
0.0
 11
-442.20328
 21
272.09424
 31
0.0
  0
LINE
  5
86
100
AcDbEntity
  8
0
  6
CONTINUOUS
 62
     7
100
AcDbLine
 10
-462.20328
 20
261.09424
 30
0.0
 11
-441.80906
 21
261.09424
 31
0.0
  0
LINE
  5
87
100
AcDbEntity
  8
0
  6
CENTER
 62
     7
100
AcDbLine
 10
-462.20328
 20
278.09424
 30
0.0
 11
-462.20328
 21
266.09424
 31
0.0
  0
LINE
  5
88
100
AcDbEntity
  8
0
  6
CONTINUOUS
 62
     7
100
AcDbLine
 10
-438.70328
 20
275.21674
 30
0.0
 11
-438.70328
 21
268.97174
 31
0.0
  0
LINE
  5
89
100
AcDbEntity
  8
0
  6
CONTINUOUS
 62
     7
100
AcDbLine
 10
-443.59534
 20
263.28473
 30
0.0
 11
-441.61622
 21
261.62405
 31
0.0
  0
ARC
  5
8A
100
AcDbEntity
  8
0
  6
CONTINUOUS
 62
     7
100
AcDbCircle
 10
-462.20328
 20
272.09424
 30
0.0
 40
11.0
100
AcDbArc
 50
90.000003
 51
270.0
  0
CIRCLE
  5
8B
100
AcDbEntity
  8
0
  6
CONTINUOUS
 62
     7
100
AcDbCircle
 10
-436.20328
 20
272.09424
 30
0.0
 40
4.0
  0
ARC
  5
8C
100
AcDbEntity
  8
0
  6
CONTINUOUS
 62
     7
100
AcDbCircle
 10
-436.20328
 20
272.09424
 30
0.0
 40
11.5
100
AcDbArc
 50
118.95503
 51
230.00001
  0
ARC
  5
8D
100
AcDbEntity
  8
0
  6
CONTINUOUS
 62
     7
100
AcDbCircle
 10
-442.01275
 20
282.59424
 30
0.0
 40
0.5
100
AcDbArc
 50
298.95503
 51
90.000003
  0
ARC
  5
8E
100
AcDbEntity
  8
0
  6
CONTINUOUS
 62
     7
100
AcDbCircle
 10
-441.80906
 20
261.39424
 30
0.0
 40
0.3
100
AcDbArc
 50
270.0
 51
50.0
  0
POINT
  5
8F
100
AcDbEntity
  8
0
  6
CONTINUOUS
 62
     7
100
AcDbPoint
 10
-436.20328
 20
196.09425
 30
0.0
  0
POINT
  5
90
100
AcDbEntity
  8
0
  6
CONTINUOUS
 62
     7
100
AcDbPoint
 10
-421.70328
 20
196.09425
 30
0.0
  0
LINE
  5
91
100
AcDbEntity
  8
0
  6
CONTINUOUS
 62
     7
100
AcDbLine
 10
-441.50906
 20
211.59425
 30
0.0
 11
-436.70328
 21
211.59425
 31
0.0
  0
LINE
  5
92
100
AcDbEntity
  8
0
  6
CONTINUOUS
 62
     7
100
AcDbLine
 10
-441.50906
 20
180.59425
 30
0.0
 11
-436.70328
 21
180.59425
 31
0.0
  0
LINE
  5
93
100
AcDbEntity
  8
0
  6
CENTER
 62
     7
100
AcDbLine
 10
-462.20328
 20
221.09425
 30
0.0
 11
-462.20328
 21
171.09425
 31
0.0
  0
LINE
  5
94
100
AcDbEntity
  8
0
  6
CENTER
 62
     7
100
AcDbLine
 10
-436.20328
 20
221.09425
 30
0.0
 11
-436.20328
 21
171.09425
 31
0.0
  0
LINE
  5
95
100
AcDbEntity
  8
0
  6
CONTINUOUS
 62
     7
100
AcDbLine
 10
-441.50906
 20
216.09425
 30
0.0
 11
-441.50906
 21
211.59425
 31
0.0
  0
LINE
  5
96
100
AcDbEntity
  8
0
  6
CONTINUOUS
 62
     7
100
AcDbLine
 10
-467.50906
 20
176.09425
 30
0.0
 11
-441.50906
 21
176.09425
 31
0.0
  0
LINE
  5
97
100
AcDbEntity
  8
0
  6
CONTINUOUS
 62
     7
100
AcDbLine
 10
-462.70328
 20
211.59425
 30
0.0
 11
-462.70328
 21
180.59425
 31
0.0
  0
LINE
  5
98
100
AcDbEntity
  8
0
  6
CENTER
 62
     7
100
AcDbLine
 10
-478.70328
 20
196.09425
 30
0.0
 11
-421.70328
 21
196.09425
 31
0.0
  0
LINE
  5
99
100
AcDbEntity
  8
0
  6
CONTINUOUS
 62
     7
100
AcDbLine
 10
-441.50906
 20
180.59425
 30
0.0
 11
-441.50906
 21
176.09425
 31
0.0
  0
LINE
  5
9A
100
AcDbEntity
  8
0
  6
CONTINUOUS
 62
     7
100
AcDbLine
 10
-467.50906
 20
180.59425
 30
0.0
 11
-462.70328
 21
180.59425
 31
0.0
  0
LINE
  5
9B
100
AcDbEntity
  8
0
  6
CONTINUOUS
 62
     7
100
AcDbLine
 10
-467.50906
 20
216.09425
 30
0.0
 11
-441.50906
 21
216.09425
 31
0.0
  0
LINE
  5
9C
100
AcDbEntity
  8
0
  6
CONTINUOUS
 62
     7
100
AcDbLine
 10
-467.50906
 20
211.59425
 30
0.0
 11
-462.70328
 21
211.59425
 31
0.0
  0
POINT
  5
9D
100
AcDbEntity
  8
0
  6
CONTINUOUS
 62
     7
100
AcDbPoint
 10
-321.20328
 20
338.79425
 30
0.0
  0
POINT
  5
9E
100
AcDbEntity
  8
0
  6
CONTINUOUS
 62
     7
100
AcDbPoint
 10
-303.20328
 20
338.79425
 30
0.0
  0
LINE
  5
9F
100
AcDbEntity
  8
0
  6
CONTINUOUS
 62
     7
100
AcDbLine
 10
-369.11276
 20
332.59425
 30
0.0
 11
-366.20328
 21
332.59425
 31
0.0
  0
LINE
  5
A0
100
AcDbEntity
  8
0
  6
CONTINUOUS
 62
     7
100
AcDbLine
 10
-369.11276
 20
363.59425
 30
0.0
 11
-366.20328
 21
363.59425
 31
0.0
  0
LINE
  5
A1
100
AcDbEntity
  8
0
  6
CENTER
 62
     7
100
AcDbLine
 10
-381.70328
 20
348.09425
 30
0.0
 11
-303.20328
 21
348.09425
 31
0.0
  0
LINE
  5
A2
100
AcDbEntity
  8
0
  6
CONTINUOUS
 62
     7
100
AcDbLine
 10
-344.51275
 20
332.79425
 30
0.0
 11
-328.20328
 21
332.79425
 31
0.0
  0
LINE
  5
A3
100
AcDbEntity
  8
0
  6
CONTINUOUS
 62
     7
100
AcDbLine
 10
-369.11276
 20
368.09425
 30
0.0
 11
-344.51275
 21
368.09425
 31
0.0
  0
LINE
  5
A4
100
AcDbEntity
  8
0
  6
CONTINUOUS
 62
     7
100
AcDbLine
 10
-369.11276
 20
328.09425
 30
0.0
 11
-344.51275
 21
328.09425
 31
0.0
  0
LINE
  5
A5
100
AcDbEntity
  8
0
  6
CONTINUOUS
 62
     7
100
AcDbLine
 10
-366.20328
 20
337.09425
 30
0.0
 11
-356.20328
 21
337.09425
 31
0.0
  0
LINE
  5
A6
100
AcDbEntity
  8
0
  6
CONTINUOUS
 62
     7
100
AcDbLine
 10
-366.20328
 20
359.09425
 30
0.0
 11
-356.20328
 21
359.09425
 31
0.0
  0
LINE
  5
A7
100
AcDbEntity
  8
0
  6
CONTINUOUS
 62
     7
100
AcDbLine
 10
-344.51275
 20
365.39425
 30
0.0
 11
-296.20328
 21
365.39425
 31
0.0
  0
LINE
  5
A8
100
AcDbEntity
  8
0
  6
CONTINUOUS
 62
     7
100
AcDbLine
 10
-329.20328
 20
363.39425
 30
0.0
 11
-329.20328
 21
359.09425
 31
0.0
  0
LINE
  5
A9
100
AcDbEntity
  8
0
  6
CONTINUOUS
 62
     7
100
AcDbLine
 10
-332.20328
 20
359.09425
 30
0.0
 11
-332.20328
 21
337.09425
 31
0.0
  0
LINE
  5
AA
100
AcDbEntity
  8
0
  6
CONTINUOUS
 62
     7
100
AcDbLine
 10
-356.20328
 20
366.49425
 30
0.0
 11
-356.20328
 21
359.09425
 31
0.0
  0
LINE
  5
AB
100
AcDbEntity
  8
0
  6
CENTER
 62
     7
100
AcDbLine
 10
-365.20328
 20
373.09425
 30
0.0
 11
-365.20328
 21
323.09425
 31
0.0
  0
LINE
  5
AC
100
AcDbEntity
  8
0
  6
CENTER
 62
     7
100
AcDbLine
 10
-339.20328
 20
373.09425
 30
0.0
 11
-339.20328
 21
323.09425
 31
0.0
  0
LINE
  5
AD
100
AcDbEntity
  8
0
  6
CONTINUOUS
 62
     7
100
AcDbLine
 10
-356.20328
 20
329.69425
 30
0.0
 11
-349.20328
 21
329.69425
 31
0.0
  0
LINE
  5
AE
100
AcDbEntity
  8
0
  6
CONTINUOUS
 62
     7
100
AcDbLine
 10
-366.20328
 20
363.59425
 30
0.0
 11
-366.20328
 21
332.59425
 31
0.0
  0
LINE
  5
AF
100
AcDbEntity
  8
0
  6
CONTINUOUS
 62
     7
100
AcDbLine
 10
-344.51275
 20
368.09425
 30
0.0
 11
-344.51275
 21
363.39425
 31
0.0
  0
LINE
  5
B0
100
AcDbEntity
  8
0
  6
CONTINUOUS
 62
     7
100
AcDbLine
 10
-356.20328
 20
366.49425
 30
0.0
 11
-349.20328
 21
366.49425
 31
0.0
  0
LINE
  5
B1
100
AcDbEntity
  8
0
  6
CONTINUOUS
 62
     7
100
AcDbLine
 10
-340.60328
 20
359.09425
 30
0.0
 11
-340.60328
 21
337.09425
 31
0.0
  0
LINE
  5
B2
100
AcDbEntity
  8
0
  6
CONTINUOUS
 62
     7
100
AcDbLine
 10
-349.20328
 20
366.49425
 30
0.0
 11
-349.20328
 21
359.09425
 31
0.0
  0
LINE
  5
B3
100
AcDbEntity
  8
0
  6
CONTINUOUS
 62
     7
100
AcDbLine
 10
-344.51275
 20
328.09425
 30
0.0
 11
-344.51275
 21
332.79425
 31
0.0
  0
LINE
  5
B4
100
AcDbEntity
  8
0
  6
CONTINUOUS
 62
     7
100
AcDbLine
 10
-356.20328
 20
337.09425
 30
0.0
 11
-356.20328
 21
329.69425
 31
0.0
  0
LINE
  5
B5
100
AcDbEntity
  8
0
  6
CONTINUOUS
 62
     7
100
AcDbLine
 10
-349.20328
 20
337.09425
 30
0.0
 11
-349.20328
 21
329.69425
 31
0.0
  0
LINE
  5
B6
100
AcDbEntity
  8
0
  6
CONTINUOUS
 62
     7
100
AcDbLine
 10
-349.20328
 20
359.09425
 30
0.0
 11
-329.20328
 21
359.09425
 31
0.0
  0
LINE
  5
B7
100
AcDbEntity
  8
0
  6
CONTINUOUS
 62
     7
100
AcDbLine
 10
-349.20328
 20
337.09425
 30
0.0
 11
-329.20328
 21
337.09425
 31
0.0
  0
LINE
  5
B8
100
AcDbEntity
  8
0
  6
CONTINUOUS
 62
     7
100
AcDbLine
 10
-356.20328
 20
329.89425
 30
0.0
 11
-349.20328
 21
329.89425
 31
0.0
  0
LINE
  5
B9
100
AcDbEntity
  8
0
  6
CONTINUOUS
 62
     7
100
AcDbLine
 10
-356.20328
 20
366.29425
 30
0.0
 11
-349.20328
 21
366.29425
 31
0.0
  0
LINE
  5
BA
100
AcDbEntity
  8
0
  6
CENTER
 62
     7
100
AcDbLine
 10
-298.30328
 20
357.39425
 30
0.0
 11
-308.10328
 21
357.39425
 31
0.0
  0
LINE
  5
BB
100
AcDbEntity
  8
0
  6
CONTINUOUS
 62
     7
100
AcDbLine
 10
-296.20328
 20
365.39425
 30
0.0
 11
-296.20328
 21
354.39425
 31
0.0
  0
LINE
  5
BC
100
AcDbEntity
  8
0
  6
CONTINUOUS
 62
     7
100
AcDbLine
 10
-344.51275
 20
363.39425
 30
0.0
 11
-328.20328
 21
363.39425
 31
0.0
  0
LINE
  5
BD
100
AcDbEntity
  8
0
  6
CONTINUOUS
 62
     7
100
AcDbLine
 10
-325.20328
 20
351.39425
 30
0.0
 11
-299.20328
 21
351.39425
 31
0.0
  0
LINE
  5
BE
100
AcDbEntity
  8
0
  6
CONTINUOUS
 62
     7
100
AcDbLine
 10
-328.20328
 20
365.39425
 30
0.0
 11
-328.20328
 21
354.39425
 31
0.0
  0
LINE
  5
BF
100
AcDbEntity
  8
0
  6
CENTER
 62
     7
100
AcDbLine
 10
-316.30328
 20
357.39425
 30
0.0
 11
-326.10328
 21
357.39425
 31
0.0
  0
LINE
  5
C0
100
AcDbEntity
  8
0
  6
CONTINUOUS
 62
     7
100
AcDbLine
 10
-344.51275
 20
330.79425
 30
0.0
 11
-296.20328
 21
330.79425
 31
0.0
  0
LINE
  5
C1
100
AcDbEntity
  8
0
  6
CENTER
 62
     7
100
AcDbLine
 10
-303.20328
 20
362.29425
 30
0.0
 11
-303.20328
 21
352.49425
 31
0.0
  0
LINE
  5
C2
100
AcDbEntity
  8
0
  6
CONTINUOUS
 62
     7
100
AcDbLine
 10
-329.20328
 20
337.09425
 30
0.0
 11
-329.20328
 21
332.79425
 31
0.0
  0
LINE
  5
C3
100
AcDbEntity
  8
0
  6
CENTER
 62
     7
100
AcDbLine
 10
-321.20328
 20
362.29425
 30
0.0
 11
-321.20328
 21
352.49425
 31
0.0
  0
LINE
  5
C4
100
AcDbEntity
  8
0
  6
CENTER
 62
     7
100
AcDbLine
 10
-298.30328
 20
338.79425
 30
0.0
 11
-308.10328
 21
338.79425
 31
0.0
  0
LINE
  5
C5
100
AcDbEntity
  8
0
  6
CONTINUOUS
 62
     7
100
AcDbLine
 10
-296.20328
 20
330.79425
 30
0.0
 11
-296.20328
 21
341.79425
 31
0.0
  0
LINE
  5
C6
100
AcDbEntity
  8
0
  6
CONTINUOUS
 62
     7
100
AcDbLine
 10
-325.20328
 20
344.79425
 30
0.0
 11
-299.20328
 21
344.79425
 31
0.0
  0
LINE
  5
C7
100
AcDbEntity
  8
0
  6
CONTINUOUS
 62
     7
100
AcDbLine
 10
-328.20328
 20
330.79425
 30
0.0
 11
-328.20328
 21
341.79425
 31
0.0
  0
LINE
  5
C8
100
AcDbEntity
  8
0
  6
CENTER
 62
     7
100
AcDbLine
 10
-316.30328
 20
338.79425
 30
0.0
 11
-326.10328
 21
338.79425
 31
0.0
  0
LINE
  5
C9
100
AcDbEntity
  8
0
  6
CENTER
 62
     7
100
AcDbLine
 10
-303.20328
 20
333.89425
 30
0.0
 11
-303.20328
 21
343.69425
 31
0.0
  0
LINE
  5
CA
100
AcDbEntity
  8
0
  6
CENTER
 62
     7
100
AcDbLine
 10
-321.20328
 20
333.89425
 30
0.0
 11
-321.20328
 21
343.69425
 31
0.0
  0
LINE
  5
CB
100
AcDbEntity
  8
0
  6
CENTER
 62
     7
100
AcDbLine
 10
-358.20328
 20
363.09425
 30
0.0
 11
-347.20328
 21
363.09425
 31
0.0
  0
LINE
  5
CC
100
AcDbEntity
  8
0
  6
CENTER
 62
     7
100
AcDbLine
 10
-358.20328
 20
333.09425
 30
0.0
 11
-347.20328
 21
333.09425
 31
0.0
  0
ARC
  5
CD
100
AcDbEntity
  8
0
  6
CONTINUOUS
 62
     7
100
AcDbCircle
 10
-325.20328
 20
354.39425
 30
0.0
 40
3.0
100
AcDbArc
 50
179.99999
 51
270.0
  0
ARC
  5
CE
100
AcDbEntity
  8
0
  6
CONTINUOUS
 62
     7
100
AcDbCircle
 10
-299.20328
 20
354.39425
 30
0.0
 40
3.0
100
AcDbArc
 50
270.0
 51
0.0
  0
CIRCLE
  5
CF
100
AcDbEntity
  8
0
  6
CONTINUOUS
 62
     7
100
AcDbCircle
 10
-321.20328
 20
357.39425
 30
0.0
 40
2.9
  0
CIRCLE
  5
D0
100
AcDbEntity
  8
0
  6
CONTINUOUS
 62
     7
100
AcDbCircle
 10
-303.20328
 20
357.39425
 30
0.0
 40
2.9
  0
ARC
  5
D1
100
AcDbEntity
  8
0
  6
CONTINUOUS
 62
     7
100
AcDbCircle
 10
-325.20328
 20
341.79425
 30
0.0
 40
3.0
100
AcDbArc
 50
90.000003
 51
180.00001
  0
ARC
  5
D2
100
AcDbEntity
  8
0
  6
CONTINUOUS
 62
     7
100
AcDbCircle
 10
-299.20328
 20
341.79425
 30
0.0
 40
3.0
100
AcDbArc
 50
0.0
 51
90.000003
  0
CIRCLE
  5
D3
100
AcDbEntity
  8
0
  6
CONTINUOUS
 62
     7
100
AcDbCircle
 10
-321.20328
 20
338.79425
 30
0.0
 40
2.9
  0
CIRCLE
  5
D4
100
AcDbEntity
  8
0
  6
CONTINUOUS
 62
     7
100
AcDbCircle
 10
-303.20328
 20
338.79425
 30
0.0
 40
2.9
  0
POINT
  5
D5
100
AcDbEntity
  8
0
  6
CONTINUOUS
 62
     7
100
AcDbPoint
 10
-321.20328
 20
283.09424
 30
0.0
  0
POINT
  5
D6
100
AcDbEntity
  8
0
  6
CONTINUOUS
 62
     7
100
AcDbPoint
 10
-303.20328
 20
283.09424
 30
0.0
  0
LINE
  5
D7
100
AcDbEntity
  8
0
  6
CENTER
 62
     7
100
AcDbLine
 10
-339.20328
 20
278.09424
 30
0.0
 11
-339.20328
 21
266.09424
 31
0.0
  0
LINE
  5
D8
100
AcDbEntity
  8
0
  6
CENTER
 62
     7
100
AcDbLine
 10
-359.20328
 20
272.09424
 30
0.0
 11
-371.20328
 21
272.09424
 31
0.0
  0
LINE
  5
D9
100
AcDbEntity
  8
0
  6
CENTER
 62
     7
100
AcDbLine
 10
-333.20328
 20
272.09424
 30
0.0
 11
-345.20328
 21
272.09424
 31
0.0
  0
LINE
  5
DA
100
AcDbEntity
  8
0
  6
CONTINUOUS
 62
     7
100
AcDbLine
 10
-365.20328
 20
283.09424
 30
0.0
 11
-333.20328
 21
283.09424
 31
0.0
  0
LINE
  5
DB
100
AcDbEntity
  8
0
  6
CENTER
 62
     7
100
AcDbLine
 10
-365.20328
 20
278.09424
 30
0.0
 11
-365.20328
 21
266.09424
 31
0.0
  0
LINE
  5
DC
100
AcDbEntity
  8
0
  6
CONTINUOUS
 62
     7
100
AcDbLine
 10
-365.20328
 20
261.09424
 30
0.0
 11
-339.04327
 21
261.09424
 31
0.0
  0
LINE
  5
DD
100
AcDbEntity
  8
0
  6
CONTINUOUS
 62
     7
100
AcDbLine
 10
-341.70328
 20
275.21674
 30
0.0
 11
-341.70328
 21
268.97174
 31
0.0
  0
LINE
  5
DE
100
AcDbEntity
  8
0
  6
CONTINUOUS
 62
     7
100
AcDbLine
 10
-346.59534
 20
263.28473
 30
0.0
 11
-344.61622
 21
261.62405
 31
0.0
  0
LINE
  5
DF
100
AcDbEntity
  8
0
  6
CENTER
 62
     7
100
AcDbLine
 10
-321.20328
 20
286.09424
 30
0.0
 11
-321.20328
 21
278.09424
 31
0.0
  0
LINE
  5
E0
100
AcDbEntity
  8
0
  6
DASHED
 62
     7
100
AcDbLine
 10
-328.20328
 20
281.09424
 30
0.0
 11
-296.40532
 21
281.09424
 31
0.0
  0
LINE
  5
E1
100
AcDbEntity
  8
0
  6
CONTINUOUS
 62
     7
100
AcDbLine
 10
-348.86402
 20
276.19424
 30
0.0
 11
-344.50233
 21
276.19424
 31
0.0
  0
LINE
  5
E2
100
AcDbEntity
  8
0
  6
CENTER
 62
     7
100
AcDbLine
 10
-303.20328
 20
286.09424
 30
0.0
 11
-303.20328
 21
278.09424
 31
0.0
  0
LINE
  5
E3
100
AcDbEntity
  8
0
  6
CONTINUOUS
 62
     7
100
AcDbLine
 10
-296.20328
 20
283.09424
 30
0.0
 11
-296.20328
 21
281.09424
 31
0.0
  0
LINE
  5
E4
100
AcDbEntity
  8
0
  6
CONTINUOUS
 62
     7
100
AcDbLine
 10
-335.27049
 20
261.76147
 30
0.0
 11
-302.57143
 21
273.70081
 31
0.0
  0
LINE
  5
E5
100
AcDbEntity
  8
0
  6
CONTINUOUS
 62
     7
100
AcDbLine
 10
-345.90253
 20
271.99423
 30
0.0
 11
-349.88644
 21
271.99423
 31
0.0
  0
LINE
  5
E6
100
AcDbEntity
  8
0
  6
DASHED
 62
     7
100
AcDbLine
 10
-328.20328
 20
283.09424
 30
0.0
 11
-328.20328
 21
281.09424
 31
0.0
  0
ARC
  5
E7
100
AcDbEntity
  8
0
  6
CONTINUOUS
 62
     7
100
AcDbCircle
 10
-365.20328
 20
272.09424
 30
0.0
 40
11.0
100
AcDbArc
 50
90.000003
 51
270.0
  0
ARC
  5
E8
100
AcDbEntity
  8
0
  6
CONTINUOUS
 62
     7
100
AcDbCircle
 10
-339.20328
 20
272.09424
 30
0.0
 40
11.5
100
AcDbArc
 50
118.95503
 51
230.00001
  0
ARC
  5
E9
100
AcDbEntity
  8
0
  6
CONTINUOUS
 62
     7
100
AcDbCircle
 10
-344.80906
 20
261.39424
 30
0.0
 40
0.3
100
AcDbArc
 50
270.0
 51
50.0
  0
ARC
  5
EA
100
AcDbEntity
  8
0
  6
CONTINUOUS
 62
     7
100
AcDbCircle
 10
-345.01275
 20
282.59424
 30
0.0
 40
0.5
100
AcDbArc
 50
298.95503
 51
90.000003
  0
CIRCLE
  5
EB
100
AcDbEntity
  8
0
  6
CONTINUOUS
 62
     7
100
AcDbCircle
 10
-339.20328
 20
272.09424
 30
0.0
 40
4.0
  0
ARC
  5
EC
100
AcDbEntity
  8
0
  6
CONTINUOUS
 62
     7
100
AcDbCircle
 10
-339.20328
 20
272.09424
 30
0.0
 40
11.2
100
AcDbArc
 50
183.21457
 51
259.15594
  0
ARC
  5
ED
100
AcDbEntity
  8
0
  6
CONTINUOUS
 62
     7
100
AcDbCircle
 10
-339.20328
 20
272.09424
 30
0.0
 40
11.2
100
AcDbArc
 50
100.84406
 51
154.53838
  0
ARC
  5
EE
100
AcDbEntity
  8
0
  6
CONTINUOUS
 62
     7
100
AcDbCircle
 10
-349.88644
 20
271.49423
 30
0.0
 40
0.5
100
AcDbArc
 50
90.000003
 51
183.21457
  0
ARC
  5
EF
100
AcDbEntity
  8
0
  6
CONTINUOUS
 62
     7
100
AcDbCircle
 10
-339.04327
 20
272.09424
 30
0.0
 40
11.0
100
AcDbArc
 50
269.16656
 51
290.1438
  0
ARC
  5
F0
100
AcDbEntity
  8
0
  6
CONTINUOUS
 62
     7
100
AcDbCircle
 10
-339.20328
 20
272.09424
 30
0.0
 40
6.7
100
AcDbArc
 50
142.27008
 51
180.85524
  0
ARC
  5
F1
100
AcDbEntity
  8
0
  6
CONTINUOUS
 62
     7
100
AcDbCircle
 10
-330.70328
 20
283.09424
 30
0.0
 40
2.5
100
AcDbArc
 50
179.99999
 51
0.00001
  0
ARC
  5
F2
100
AcDbEntity
  8
0
  6
CONTINUOUS
 62
     7
100
AcDbCircle
 10
-306.00124
 20
283.09424
 30
0.0
 40
10.0
100
AcDbArc
 50
290.05856
 51
348.46304
  0
ARC
  5
F3
100
AcDbEntity
  8
0
  6
CONTINUOUS
 62
     7
100
AcDbCircle
 10
-348.86402
 20
276.69424
 30
0.0
 40
0.5
100
AcDbArc
 50
154.53838
 51
270.0
  0
POLYLINE
  5
F4
100
AcDbEntity
  8
0
  6
CONTINUOUS
 62
     7
100
AcDb2dPolyline
 66
     1
 10
0.0
 20
0.0
 30
0.0
  0
VERTEX
  5
F5
100
AcDbEntity
  8
0
  6
CONTINUOUS
 62
     7
100
AcDbVertex
100
AcDb2dVertex
 10
-328.20328
 20
283.09424
 30
0.0
  0
VERTEX
  5
F6
100
AcDbEntity
  8
0
  6
CONTINUOUS
 62
     7
100
AcDbVertex
100
AcDb2dVertex
 10
-296.20328
 20
283.09424
 30
0.0
  0
SEQEND
  5
F7
100
AcDbEntity
  8
0
 62
     7
  0
POINT
  5
F8
100
AcDbEntity
  8
0
  6
CONTINUOUS
 62
     7
100
AcDbPoint
 10
-321.20328
 20
205.39424
 30
0.0
  0
POINT
  5
F9
100
AcDbEntity
  8
0
  6
CONTINUOUS
 62
     7
100
AcDbPoint
 10
-303.20328
 20
205.39424
 30
0.0
  0
LINE
  5
FA
100
AcDbEntity
  8
0
  6
CONTINUOUS
 62
     7
100
AcDbLine
 10
-344.50906
 20
180.79424
 30
0.0
 11
-296.20328
 21
180.79424
 31
0.0
  0
LINE
  5
FB
100
AcDbEntity
  8
0
  6
CENTER
 62
     7
100
AcDbLine
 10
-339.20328
 20
221.09424
 30
0.0
 11
-339.20328
 21
171.09424
 31
0.0
  0
LINE
  5
FC
100
AcDbEntity
  8
0
  6
CENTER
 62
     7
100
AcDbLine
 10
-365.20328
 20
221.09424
 30
0.0
 11
-365.20328
 21
171.09424
 31
0.0
  0
LINE
  5
FD
100
AcDbEntity
  8
0
  6
CONTINUOUS
 62
     7
100
AcDbLine
 10
-344.50906
 20
216.09424
 30
0.0
 11
-344.50906
 21
211.39424
 31
0.0
  0
LINE
  5
FE
100
AcDbEntity
  8
0
  6
CONTINUOUS
 62
     7
100
AcDbLine
 10
-370.50906
 20
176.09424
 30
0.0
 11
-344.50906
 21
176.09424
 31
0.0
  0
LINE
  5
FF
100
AcDbEntity
  8
0
  6
CONTINUOUS
 62
     7
100
AcDbLine
 10
-365.70328
 20
211.59424
 30
0.0
 11
-365.70328
 21
180.59424
 31
0.0
  0
LINE
  5
100
100
AcDbEntity
  8
0
  6
CENTER
 62
     7
100
AcDbLine
 10
-381.70328
 20
196.09424
 30
0.0
 11
-303.20328
 21
196.09424
 31
0.0
  0
LINE
  5
101
100
AcDbEntity
  8
0
  6
CONTINUOUS
 62
     7
100
AcDbLine
 10
-344.50906
 20
180.79424
 30
0.0
 11
-344.50906
 21
176.09424
 31
0.0
  0
LINE
  5
102
100
AcDbEntity
  8
0
  6
CONTINUOUS
 62
     7
100
AcDbLine
 10
-370.50906
 20
180.59424
 30
0.0
 11
-365.70328
 21
180.59424
 31
0.0
  0
LINE
  5
103
100
AcDbEntity
  8
0
  6
CONTINUOUS
 62
     7
100
AcDbLine
 10
-370.50906
 20
216.09424
 30
0.0
 11
-344.50906
 21
216.09424
 31
0.0
  0
LINE
  5
104
100
AcDbEntity
  8
0
  6
CONTINUOUS
 62
     7
100
AcDbLine
 10
-370.50906
 20
211.59424
 30
0.0
 11
-365.70328
 21
211.59424
 31
0.0
  0
LINE
  5
105
100
AcDbEntity
  8
0
  6
CONTINUOUS
 62
     7
100
AcDbLine
 10
-344.50906
 20
213.39424
 30
0.0
 11
-296.20328
 21
213.39424
 31
0.0
  0
LINE
  5
106
100
AcDbEntity
  8
0
  6
CONTINUOUS
 62
     7
100
AcDbLine
 10
-329.20328
 20
211.39424
 30
0.0
 11
-329.20328
 21
207.09424
 31
0.0
  0
LINE
  5
107
100
AcDbEntity
  8
0
  6
CONTINUOUS
 62
     7
100
AcDbLine
 10
-332.20328
 20
207.09424
 30
0.0
 11
-332.20328
 21
185.09424
 31
0.0
  0
LINE
  5
108
100
AcDbEntity
  8
0
  6
CONTINUOUS
 62
     7
100
AcDbLine
 10
-338.33172
 20
207.09424
 30
0.0
 11
-329.20328
 21
207.09424
 31
0.0
  0
LINE
  5
109
100
AcDbEntity
  8
0
  6
CONTINUOUS
 62
     7
100
AcDbLine
 10
-338.33172
 20
185.09424
 30
0.0
 11
-329.20328
 21
185.09424
 31
0.0
  0
LINE
  5
10A
100
AcDbEntity
  8
0
  6
CENTER
 62
     7
100
AcDbLine
 10
-298.30328
 20
205.39424
 30
0.0
 11
-308.10328
 21
205.39424
 31
0.0
  0
LINE
  5
10B
100
AcDbEntity
  8
0
  6
CONTINUOUS
 62
     7
100
AcDbLine
 10
-296.20328
 20
213.39424
 30
0.0
 11
-296.20328
 21
202.39424
 31
0.0
  0
LINE
  5
10C
100
AcDbEntity
  8
0
  6
CONTINUOUS
 62
     7
100
AcDbLine
 10
-344.50906
 20
211.39424
 30
0.0
 11
-296.20328
 21
211.39424
 31
0.0
  0
LINE
  5
10D
100
AcDbEntity
  8
0
  6
CONTINUOUS
 62
     7
100
AcDbLine
 10
-325.20328
 20
199.39424
 30
0.0
 11
-299.20328
 21
199.39424
 31
0.0
  0
LINE
  5
10E
100
AcDbEntity
  8
0
  6
CONTINUOUS
 62
     7
100
AcDbLine
 10
-328.20328
 20
211.39424
 30
0.0
 11
-328.20328
 21
202.39424
 31
0.0
  0
LINE
  5
10F
100
AcDbEntity
  8
0
  6
CENTER
 62
     7
100
AcDbLine
 10
-316.30328
 20
205.39424
 30
0.0
 11
-326.10328
 21
205.39424
 31
0.0
  0
LINE
  5
110
100
AcDbEntity
  8
0
  6
CONTINUOUS
 62
     7
100
AcDbLine
 10
-344.50906
 20
178.79424
 30
0.0
 11
-296.20328
 21
178.79424
 31
0.0
  0
LINE
  5
111
100
AcDbEntity
  8
0
  6
CENTER
 62
     7
100
AcDbLine
 10
-303.20328
 20
210.29424
 30
0.0
 11
-303.20328
 21
200.49424
 31
0.0
  0
LINE
  5
112
100
AcDbEntity
  8
0
  6
CONTINUOUS
 62
     7
100
AcDbLine
 10
-329.20328
 20
185.09424
 30
0.0
 11
-329.20328
 21
180.79424
 31
0.0
  0
LINE
  5
113
100
AcDbEntity
  8
0
  6
CENTER
 62
     7
100
AcDbLine
 10
-321.20328
 20
210.29424
 30
0.0
 11
-321.20328
 21
200.49424
 31
0.0
  0
LINE
  5
114
100
AcDbEntity
  8
0
  6
CENTER
 62
     7
100
AcDbLine
 10
-298.30328
 20
186.79424
 30
0.0
 11
-308.10328
 21
186.79424
 31
0.0
  0
LINE
  5
115
100
AcDbEntity
  8
0
  6
CONTINUOUS
 62
     7
100
AcDbLine
 10
-296.20328
 20
178.79424
 30
0.0
 11
-296.20328
 21
189.79424
 31
0.0
  0
LINE
  5
116
100
AcDbEntity
  8
0
  6
CONTINUOUS
 62
     7
100
AcDbLine
 10
-325.20328
 20
192.79424
 30
0.0
 11
-299.20328
 21
192.79424
 31
0.0
  0
LINE
  5
117
100
AcDbEntity
  8
0
  6
CONTINUOUS
 62
     7
100
AcDbLine
 10
-328.20328
 20
180.79424
 30
0.0
 11
-328.20328
 21
189.79424
 31
0.0
  0
LINE
  5
118
100
AcDbEntity
  8
0
  6
CENTER
 62
     7
100
AcDbLine
 10
-316.30328
 20
186.79424
 30
0.0
 11
-326.10328
 21
186.79424
 31
0.0
  0
LINE
  5
119
100
AcDbEntity
  8
0
  6
CENTER
 62
     7
100
AcDbLine
 10
-303.20328
 20
181.89424
 30
0.0
 11
-303.20328
 21
191.69424
 31
0.0
  0
LINE
  5
11A
100
AcDbEntity
  8
0
  6
CENTER
 62
     7
100
AcDbLine
 10
-321.20328
 20
181.89424
 30
0.0
 11
-321.20328
 21
191.69424
 31
0.0
  0
LINE
  5
11B
100
AcDbEntity
  8
0
  6
CONTINUOUS
 62
     7
100
AcDbLine
 10
-338.33172
 20
207.09424
 30
0.0
 11
-338.33172
 21
185.09424
 31
0.0
  0
ARC
  5
11C
100
AcDbEntity
  8
0
  6
CONTINUOUS
 62
     7
100
AcDbCircle
 10
-325.20328
 20
202.39424
 30
0.0
 40
3.0
100
AcDbArc
 50
179.99999
 51
270.0
  0
ARC
  5
11D
100
AcDbEntity
  8
0
  6
CONTINUOUS
 62
     7
100
AcDbCircle
 10
-299.20328
 20
202.39424
 30
0.0
 40
3.0
100
AcDbArc
 50
270.0
 51
0.0
  0
CIRCLE
  5
11E
100
AcDbEntity
  8
0
  6
CONTINUOUS
 62
     7
100
AcDbCircle
 10
-321.20328
 20
205.39424
 30
0.0
 40
2.9
  0
CIRCLE
  5
11F
100
AcDbEntity
  8
0
  6
CONTINUOUS
 62
     7
100
AcDbCircle
 10
-303.20328
 20
205.39424
 30
0.0
 40
2.9
  0
ARC
  5
120
100
AcDbEntity
  8
0
  6
CONTINUOUS
 62
     7
100
AcDbCircle
 10
-325.20328
 20
189.79424
 30
0.0
 40
3.0
100
AcDbArc
 50
90.000003
 51
180.00001
  0
ARC
  5
121
100
AcDbEntity
  8
0
  6
CONTINUOUS
 62
     7
100
AcDbCircle
 10
-299.20328
 20
189.79424
 30
0.0
 40
3.0
100
AcDbArc
 50
0.0
 51
90.000003
  0
CIRCLE
  5
122
100
AcDbEntity
  8
0
  6
CONTINUOUS
 62
     7
100
AcDbCircle
 10
-321.20328
 20
186.79424
 30
0.0
 40
2.9
  0
CIRCLE
  5
123
100
AcDbEntity
  8
0
  6
CONTINUOUS
 62
     7
100
AcDbCircle
 10
-303.20328
 20
186.79424
 30
0.0
 40
2.9
  0
POINT
  5
124
100
AcDbEntity
  8
0
  6
CONTINUOUS
 62
     7
100
AcDbPoint
 10
-236.20329
 20
283.09424
 30
0.0
  0
POINT
  5
125
100
AcDbEntity
  8
0
  6
CONTINUOUS
 62
     7
100
AcDbPoint
 10
-217.60329
 20
283.09424
 30
0.0
  0
LINE
  5
126
100
AcDbEntity
  8
0
  6
CENTER
 62
     7
100
AcDbLine
 10
-251.90329
 20
272.09424
 30
0.0
 11
-201.90329
 21
272.09424
 31
0.0
  0
LINE
  5
127
100
AcDbEntity
  8
0
  6
CONTINUOUS
 62
     7
100
AcDbLine
 10
-246.90329
 20
283.09424
 30
0.0
 11
-246.90329
 21
261.09424
 31
0.0
  0
LINE
  5
128
100
AcDbEntity
  8
0
  6
CONTINUOUS
 62
     7
100
AcDbLine
 10
-206.90329
 20
283.09424
 30
0.0
 11
-206.90329
 21
261.09424
 31
0.0
  0
LINE
  5
129
100
AcDbEntity
  8
0
  6
CENTER
 62
     7
100
AcDbLine
 10
-226.90329
 20
288.09424
 30
0.0
 11
-226.90329
 21
256.09424
 31
0.0
  0
LINE
  5
12A
100
AcDbEntity
  8
0
  6
CONTINUOUS
 62
     7
100
AcDbLine
 10
-211.60329
 20
281.09424
 30
0.0
 11
-211.60329
 21
261.09424
 31
0.0
  0
LINE
  5
12B
100
AcDbEntity
  8
0
  6
CONTINUOUS
 62
     7
100
AcDbLine
 10
-242.20329
 20
281.09424
 30
0.0
 11
-242.20329
 21
261.09424
 31
0.0
  0
LINE
  5
12C
100
AcDbEntity
  8
0
  6
CONTINUOUS
 62
     7
100
AcDbLine
 10
-215.90329
 20
281.09424
 30
0.0
 11
-215.90329
 21
261.59424
 31
0.0
  0
LINE
  5
12D
100
AcDbEntity
  8
0
  6
CONTINUOUS
 62
     7
100
AcDbLine
 10
-237.90329
 20
281.09424
 30
0.0
 11
-237.90329
 21
261.59424
 31
0.0
  0
LINE
  5
12E
100
AcDbEntity
  8
0
  6
CONTINUOUS
 62
     7
100
AcDbLine
 10
-246.90329
 20
283.09424
 30
0.0
 11
-230.20329
 21
283.09424
 31
0.0
  0
LINE
  5
12F
100
AcDbEntity
  8
0
  6
CONTINUOUS
 62
     7
100
AcDbLine
 10
-246.90329
 20
261.09424
 30
0.0
 11
-242.20329
 21
261.09424
 31
0.0
  0
LINE
  5
130
100
AcDbEntity
  8
0
  6
CONTINUOUS
 62
     7
100
AcDbLine
 10
-237.90329
 20
266.09424
 30
0.0
 11
-215.90329
 21
266.09424
 31
0.0
  0
LINE
  5
131
100
AcDbEntity
  8
0
  6
CONTINUOUS
 62
     7
100
AcDbLine
 10
-242.20329
 20
281.09424
 30
0.0
 11
-230.20329
 21
281.09424
 31
0.0
  0
LINE
  5
132
100
AcDbEntity
  8
0
  6
CONTINUOUS
 62
     7
100
AcDbLine
 10
-242.20329
 20
261.59424
 30
0.0
 11
-211.60329
 21
261.59424
 31
0.0
  0
LINE
  5
133
100
AcDbEntity
  8
0
  6
CENTER
 62
     7
100
AcDbLine
 10
-236.20329
 20
288.09424
 30
0.0
 11
-236.20329
 21
276.09424
 31
0.0
  0
LINE
  5
134
100
AcDbEntity
  8
0
  6
CONTINUOUS
 62
     7
100
AcDbLine
 10
-211.60329
 20
261.09424
 30
0.0
 11
-206.90329
 21
261.09424
 31
0.0
  0
LINE
  5
135
100
AcDbEntity
  8
0
  6
CONTINUOUS
 62
     7
100
AcDbLine
 10
-230.20329
 20
283.09424
 30
0.0
 11
-230.20329
 21
281.09424
 31
0.0
  0
LINE
  5
136
100
AcDbEntity
  8
0
  6
CONTINUOUS
 62
     7
100
AcDbLine
 10
-244.20329
 20
283.09424
 30
0.0
 11
-244.20329
 21
261.09424
 31
0.0
  0
LINE
  5
137
100
AcDbEntity
  8
0
  6
CENTER
 62
     7
100
AcDbLine
 10
-217.60329
 20
288.09424
 30
0.0
 11
-217.60329
 21
276.09424
 31
0.0
  0
LINE
  5
138
100
AcDbEntity
  8
0
  6
CONTINUOUS
 62
     7
100
AcDbLine
 10
-223.60329
 20
283.09424
 30
0.0
 11
-223.60329
 21
281.09424
 31
0.0
  0
LINE
  5
139
100
AcDbEntity
  8
0
  6
CONTINUOUS
 62
     7
100
AcDbLine
 10
-223.60329
 20
281.09424
 30
0.0
 11
-211.60329
 21
281.09424
 31
0.0
  0
LINE
  5
13A
100
AcDbEntity
  8
0
  6
CONTINUOUS
 62
     7
100
AcDbLine
 10
-209.60329
 20
283.09424
 30
0.0
 11
-209.60329
 21
261.09424
 31
0.0
  0
LINE
  5
13B
100
AcDbEntity
  8
0
  6
CONTINUOUS
 62
     7
100
AcDbLine
 10
-223.60329
 20
283.09424
 30
0.0
 11
-206.90329
 21
283.09424
 31
0.0
  0
LINE
  5
13C
100
AcDbEntity
  8
0
  6
CONTINUOUS
 62
     7
100
AcDbLine
 10
-237.90329
 20
279.09424
 30
0.0
 11
-215.90329
 21
279.09424
 31
0.0
  0
LINE
  5
13D
100
AcDbEntity
  8
0
  6
CONTINUOUS
 62
     7
100
AcDbLine
 10
-230.20329
 20
282.79424
 30
0.0
 11
-223.60329
 21
282.79424
 31
0.0
  0
POINT
  5
13E
100
AcDbEntity
  8
0
  6
CONTINUOUS
 62
     7
100
AcDbPoint
 10
-106.20329
 20
338.79425
 30
0.0
  0
POINT
  5
13F
100
AcDbEntity
  8
0
  6
CONTINUOUS
 62
     7
100
AcDbPoint
 10
-88.203285
 20
338.79425
 30
0.0
  0
LINE
  5
140
100
AcDbEntity
  8
0
  6
CONTINUOUS
 62
     7
100
AcDbLine
 10
-154.11277
 20
332.59425
 30
0.0
 11
-151.20329
 21
332.59425
 31
0.0
  0
LINE
  5
141
100
AcDbEntity
  8
0
  6
CONTINUOUS
 62
     7
100
AcDbLine
 10
-129.51276
 20
332.79425
 30
0.0
 11
-81.203285
 21
332.79425
 31
0.0
  0
LINE
  5
142
100
AcDbEntity
  8
0
  6
CENTER
 62
     7
100
AcDbLine
 10
-166.70329
 20
348.09425
 30
0.0
 11
-88.203285
 21
348.09425
 31
0.0
  0
LINE
  5
143
100
AcDbEntity
  8
0
  6
CONTINUOUS
 62
     7
100
AcDbLine
 10
-154.11277
 20
363.59425
 30
0.0
 11
-151.20329
 21
363.59425
 31
0.0
  0
LINE
  5
144
100
AcDbEntity
  8
0
  6
CONTINUOUS
 62
     7
100
AcDbLine
 10
-154.11277
 20
368.09425
 30
0.0
 11
-129.51276
 21
368.09425
 31
0.0
  0
LINE
  5
145
100
AcDbEntity
  8
0
  6
CONTINUOUS
 62
     7
100
AcDbLine
 10
-154.11277
 20
328.09425
 30
0.0
 11
-129.51276
 21
328.09425
 31
0.0
  0
LINE
  5
146
100
AcDbEntity
  8
0
  6
CONTINUOUS
 62
     7
100
AcDbLine
 10
-151.20329
 20
337.09425
 30
0.0
 11
-141.20329
 21
337.09425
 31
0.0
  0
LINE
  5
147
100
AcDbEntity
  8
0
  6
CONTINUOUS
 62
     7
100
AcDbLine
 10
-151.20329
 20
359.09425
 30
0.0
 11
-141.20329
 21
359.09425
 31
0.0
  0
LINE
  5
148
100
AcDbEntity
  8
0
  6
CONTINUOUS
 62
     7
100
AcDbLine
 10
-129.51276
 20
365.39425
 30
0.0
 11
-81.203285
 21
365.39425
 31
0.0
  0
LINE
  5
149
100
AcDbEntity
  8
0
  6
CONTINUOUS
 62
     7
100
AcDbLine
 10
-114.20329
 20
363.39425
 30
0.0
 11
-114.20329
 21
359.09425
 31
0.0
  0
LINE
  5
14A
100
AcDbEntity
  8
0
  6
CONTINUOUS
 62
     7
100
AcDbLine
 10
-117.20329
 20
359.09425
 30
0.0
 11
-117.20329
 21
337.09425
 31
0.0
  0
LINE
  5
14B
100
AcDbEntity
  8
0
  6
CONTINUOUS
 62
     7
100
AcDbLine
 10
-141.20329
 20
366.49425
 30
0.0
 11
-141.20329
 21
359.09425
 31
0.0
  0
LINE
  5
14C
100
AcDbEntity
  8
0
  6
CENTER
 62
     7
100
AcDbLine
 10
-150.20329
 20
373.09425
 30
0.0
 11
-150.20329
 21
323.09425
 31
0.0
  0
LINE
  5
14D
100
AcDbEntity
  8
0
  6
CENTER
 62
     7
100
AcDbLine
 10
-124.20329
 20
373.09425
 30
0.0
 11
-124.20329
 21
323.09425
 31
0.0
  0
LINE
  5
14E
100
AcDbEntity
  8
0
  6
CONTINUOUS
 62
     7
100
AcDbLine
 10
-141.20329
 20
329.69425
 30
0.0
 11
-134.20329
 21
329.69425
 31
0.0
  0
LINE
  5
14F
100
AcDbEntity
  8
0
  6
CONTINUOUS
 62
     7
100
AcDbLine
 10
-151.20329
 20
363.59425
 30
0.0
 11
-151.20329
 21
332.59425
 31
0.0
  0
LINE
  5
150
100
AcDbEntity
  8
0
  6
CONTINUOUS
 62
     7
100
AcDbLine
 10
-129.51276
 20
368.09425
 30
0.0
 11
-129.51276
 21
363.39425
 31
0.0
  0
LINE
  5
151
100
AcDbEntity
  8
0
  6
CONTINUOUS
 62
     7
100
AcDbLine
 10
-141.20329
 20
366.49425
 30
0.0
 11
-134.20329
 21
366.49425
 31
0.0
  0
LINE
  5
152
100
AcDbEntity
  8
0
  6
CONTINUOUS
 62
     7
100
AcDbLine
 10
-125.60328
 20
359.09425
 30
0.0
 11
-125.60328
 21
337.09425
 31
0.0
  0
LINE
  5
153
100
AcDbEntity
  8
0
  6
CONTINUOUS
 62
     7
100
AcDbLine
 10
-134.20329
 20
366.49425
 30
0.0
 11
-134.20329
 21
359.09425
 31
0.0
  0
LINE
  5
154
100
AcDbEntity
  8
0
  6
CONTINUOUS
 62
     7
100
AcDbLine
 10
-129.51276
 20
328.09425
 30
0.0
 11
-129.51276
 21
332.79425
 31
0.0
  0
LINE
  5
155
100
AcDbEntity
  8
0
  6
CONTINUOUS
 62
     7
100
AcDbLine
 10
-141.20329
 20
337.09425
 30
0.0
 11
-141.20329
 21
329.69425
 31
0.0
  0
LINE
  5
156
100
AcDbEntity
  8
0
  6
CONTINUOUS
 62
     7
100
AcDbLine
 10
-134.20329
 20
337.09425
 30
0.0
 11
-134.20329
 21
329.69425
 31
0.0
  0
LINE
  5
157
100
AcDbEntity
  8
0
  6
CONTINUOUS
 62
     7
100
AcDbLine
 10
-134.20329
 20
359.09425
 30
0.0
 11
-114.20329
 21
359.09425
 31
0.0
  0
LINE
  5
158
100
AcDbEntity
  8
0
  6
CONTINUOUS
 62
     7
100
AcDbLine
 10
-134.20329
 20
337.09425
 30
0.0
 11
-114.20329
 21
337.09425
 31
0.0
  0
LINE
  5
159
100
AcDbEntity
  8
0
  6
CONTINUOUS
 62
     7
100
AcDbLine
 10
-141.20329
 20
329.89425
 30
0.0
 11
-134.20329
 21
329.89425
 31
0.0
  0
LINE
  5
15A
100
AcDbEntity
  8
0
  6
CONTINUOUS
 62
     7
100
AcDbLine
 10
-141.20329
 20
366.29425
 30
0.0
 11
-134.20329
 21
366.29425
 31
0.0
  0
LINE
  5
15B
100
AcDbEntity
  8
0
  6
CENTER
 62
     7
100
AcDbLine
 10
-83.303286
 20
357.39425
 30
0.0
 11
-93.103285
 21
357.39425
 31
0.0
  0
LINE
  5
15C
100
AcDbEntity
  8
0
  6
CONTINUOUS
 62
     7
100
AcDbLine
 10
-81.203285
 20
365.39425
 30
0.0
 11
-81.203285
 21
354.39425
 31
0.0
  0
LINE
  5
15D
100
AcDbEntity
  8
0
  6
CONTINUOUS
 62
     7
100
AcDbLine
 10
-129.51276
 20
363.39425
 30
0.0
 11
-81.203285
 21
363.39425
 31
0.0
  0
LINE
  5
15E
100
AcDbEntity
  8
0
  6
CONTINUOUS
 62
     7
100
AcDbLine
 10
-110.20329
 20
351.39425
 30
0.0
 11
-84.203285
 21
351.39425
 31
0.0
  0
LINE
  5
15F
100
AcDbEntity
  8
0
  6
CONTINUOUS
 62
     7
100
AcDbLine
 10
-113.20329
 20
363.39425
 30
0.0
 11
-113.20329
 21
354.39425
 31
0.0
  0
LINE
  5
160
100
AcDbEntity
  8
0
  6
CENTER
 62
     7
100
AcDbLine
 10
-101.30329
 20
357.39425
 30
0.0
 11
-111.10329
 21
357.39425
 31
0.0
  0
LINE
  5
161
100
AcDbEntity
  8
0
  6
CONTINUOUS
 62
     7
100
AcDbLine
 10
-129.51276
 20
330.79425
 30
0.0
 11
-81.203285
 21
330.79425
 31
0.0
  0
LINE
  5
162
100
AcDbEntity
  8
0
  6
CENTER
 62
     7
100
AcDbLine
 10
-88.203285
 20
362.29425
 30
0.0
 11
-88.203285
 21
352.49425
 31
0.0
  0
LINE
  5
163
100
AcDbEntity
  8
0
  6
CONTINUOUS
 62
     7
100
AcDbLine
 10
-114.20329
 20
337.09425
 30
0.0
 11
-114.20329
 21
332.79425
 31
0.0
  0
LINE
  5
164
100
AcDbEntity
  8
0
  6
CENTER
 62
     7
100
AcDbLine
 10
-106.20329
 20
362.29425
 30
0.0
 11
-106.20329
 21
352.49425
 31
0.0
  0
LINE
  5
165
100
AcDbEntity
  8
0
  6
CENTER
 62
     7
100
AcDbLine
 10
-83.303286
 20
338.79425
 30
0.0
 11
-93.103285
 21
338.79425
 31
0.0
  0
LINE
  5
166
100
AcDbEntity
  8
0
  6
CONTINUOUS
 62
     7
100
AcDbLine
 10
-81.203285
 20
330.79425
 30
0.0
 11
-81.203285
 21
341.79425
 31
0.0
  0
LINE
  5
167
100
AcDbEntity
  8
0
  6
CONTINUOUS
 62
     7
100
AcDbLine
 10
-110.20329
 20
344.79425
 30
0.0
 11
-84.203285
 21
344.79425
 31
0.0
  0
LINE
  5
168
100
AcDbEntity
  8
0
  6
CONTINUOUS
 62
     7
100
AcDbLine
 10
-113.20329
 20
332.79425
 30
0.0
 11
-113.20329
 21
341.79425
 31
0.0
  0
LINE
  5
169
100
AcDbEntity
  8
0
  6
CENTER
 62
     7
100
AcDbLine
 10
-101.30329
 20
338.79425
 30
0.0
 11
-111.10329
 21
338.79425
 31
0.0
  0
LINE
  5
16A
100
AcDbEntity
  8
0
  6
CENTER
 62
     7
100
AcDbLine
 10
-88.203285
 20
333.89425
 30
0.0
 11
-88.203285
 21
343.69425
 31
0.0
  0
LINE
  5
16B
100
AcDbEntity
  8
0
  6
CENTER
 62
     7
100
AcDbLine
 10
-106.20329
 20
333.89425
 30
0.0
 11
-106.20329
 21
343.69425
 31
0.0
  0
LINE
  5
16C
100
AcDbEntity
  8
0
  6
CENTER
 62
     7
100
AcDbLine
 10
-143.20329
 20
333.09425
 30
0.0
 11
-132.20329
 21
333.09425
 31
0.0
  0
LINE
  5
16D
100
AcDbEntity
  8
0
  6
CENTER
 62
     7
100
AcDbLine
 10
-143.20329
 20
363.09425
 30
0.0
 11
-132.20329
 21
363.09425
 31
0.0
  0
ARC
  5
16E
100
AcDbEntity
  8
0
  6
CONTINUOUS
 62
     7
100
AcDbCircle
 10
-110.20329
 20
354.39425
 30
0.0
 40
3.0
100
AcDbArc
 50
179.99999
 51
270.0
  0
ARC
  5
16F
100
AcDbEntity
  8
0
  6
CONTINUOUS
 62
     7
100
AcDbCircle
 10
-84.203285
 20
354.39425
 30
0.0
 40
3.0
100
AcDbArc
 50
270.0
 51
0.0
  0
CIRCLE
  5
170
100
AcDbEntity
  8
0
  6
CONTINUOUS
 62
     7
100
AcDbCircle
 10
-106.20329
 20
357.39425
 30
0.0
 40
2.9
  0
CIRCLE
  5
171
100
AcDbEntity
  8
0
  6
CONTINUOUS
 62
     7
100
AcDbCircle
 10
-88.203285
 20
357.39425
 30
0.0
 40
2.9
  0
ARC
  5
172
100
AcDbEntity
  8
0
  6
CONTINUOUS
 62
     7
100
AcDbCircle
 10
-110.20329
 20
341.79425
 30
0.0
 40
3.0
100
AcDbArc
 50
90.000003
 51
180.00001
  0
ARC
  5
173
100
AcDbEntity
  8
0
  6
CONTINUOUS
 62
     7
100
AcDbCircle
 10
-84.203285
 20
341.79425
 30
0.0
 40
3.0
100
AcDbArc
 50
0.0
 51
90.000003
  0
CIRCLE
  5
174
100
AcDbEntity
  8
0
  6
CONTINUOUS
 62
     7
100
AcDbCircle
 10
-106.20329
 20
338.79425
 30
0.0
 40
2.9
  0
CIRCLE
  5
175
100
AcDbEntity
  8
0
  6
CONTINUOUS
 62
     7
100
AcDbCircle
 10
-88.203285
 20
338.79425
 30
0.0
 40
2.9
  0
POINT
  5
176
100
AcDbEntity
  8
0
  6
CONTINUOUS
 62
     7
100
AcDbPoint
 10
-106.20329
 20
261.09424
 30
0.0
  0
POINT
  5
177
100
AcDbEntity
  8
0
  6
CONTINUOUS
 62
     7
100
AcDbPoint
 10
-88.203285
 20
261.09424
 30
0.0
  0
LINE
  5
178
100
AcDbEntity
  8
0
  6
CENTER
 62
     7
100
AcDbLine
 10
-124.20329
 20
278.09424
 30
0.0
 11
-124.20329
 21
266.09424
 31
0.0
  0
LINE
  5
179
100
AcDbEntity
  8
0
  6
CENTER
 62
     7
100
AcDbLine
 10
-144.20329
 20
272.09424
 30
0.0
 11
-156.20329
 21
272.09424
 31
0.0
  0
LINE
  5
17A
100
AcDbEntity
  8
0
  6
CENTER
 62
     7
100
AcDbLine
 10
-118.20329
 20
272.09424
 30
0.0
 11
-130.20329
 21
272.09424
 31
0.0
  0
LINE
  5
17B
100
AcDbEntity
  8
0
  6
CONTINUOUS
 62
     7
100
AcDbLine
 10
-150.20329
 20
283.09424
 30
0.0
 11
-124.20329
 21
283.09424
 31
0.0
  0
LINE
  5
17C
100
AcDbEntity
  8
0
  6
CENTER
 62
     7
100
AcDbLine
 10
-150.20329
 20
278.09424
 30
0.0
 11
-150.20329
 21
266.09424
 31
0.0
  0
LINE
  5
17D
100
AcDbEntity
  8
0
  6
CONTINUOUS
 62
     7
100
AcDbLine
 10
-150.20329
 20
261.09424
 30
0.0
 11
-118.20329
 21
261.09424
 31
0.0
  0
LINE
  5
17E
100
AcDbEntity
  8
0
  6
CONTINUOUS
 62
     7
100
AcDbLine
 10
-126.70329
 20
275.21674
 30
0.0
 11
-126.70329
 21
268.97174
 31
0.0
  0
LINE
  5
17F
100
AcDbEntity
  8
0
  6
CONTINUOUS
 62
     7
100
AcDbLine
 10
-131.59534
 20
263.28473
 30
0.0
 11
-129.61623
 21
261.62405
 31
0.0
  0
LINE
  5
180
100
AcDbEntity
  8
0
  6
CENTER
 62
     7
100
AcDbLine
 10
-106.20329
 20
258.09424
 30
0.0
 11
-106.20329
 21
266.09424
 31
0.0
  0
LINE
  5
181
100
AcDbEntity
  8
0
  6
DASHED
 62
     7
100
AcDbLine
 10
-113.20329
 20
263.09424
 30
0.0
 11
-81.405327
 21
263.09424
 31
0.0
  0
LINE
  5
182
100
AcDbEntity
  8
0
  6
CONTINUOUS
 62
     7
100
AcDbLine
 10
-133.86403
 20
276.19424
 30
0.0
 11
-129.50234
 21
276.19424
 31
0.0
  0
LINE
  5
183
100
AcDbEntity
  8
0
  6
CENTER
 62
     7
100
AcDbLine
 10
-88.203285
 20
258.09424
 30
0.0
 11
-88.203285
 21
266.09424
 31
0.0
  0
LINE
  5
184
100
AcDbEntity
  8
0
  6
CONTINUOUS
 62
     7
100
AcDbLine
 10
-81.203285
 20
261.09424
 30
0.0
 11
-81.203285
 21
263.09424
 31
0.0
  0
LINE
  5
185
100
AcDbEntity
  8
0
  6
CONTINUOUS
 62
     7
100
AcDbLine
 10
-120.2705
 20
282.42701
 30
0.0
 11
-87.571442
 21
270.48766
 31
0.0
  0
LINE
  5
186
100
AcDbEntity
  8
0
  6
CONTINUOUS
 62
     7
100
AcDbLine
 10
-130.90254
 20
271.99423
 30
0.0
 11
-134.88645
 21
271.99423
 31
0.0
  0
LINE
  5
187
100
AcDbEntity
  8
0
  6
DASHED
 62
     7
100
AcDbLine
 10
-113.20329
 20
261.09424
 30
0.0
 11
-113.20329
 21
263.09424
 31
0.0
  0
ARC
  5
188
100
AcDbEntity
  8
0
  6
CONTINUOUS
 62
     7
100
AcDbCircle
 10
-150.20329
 20
272.09424
 30
0.0
 40
11.0
100
AcDbArc
 50
90.000003
 51
270.0
  0
ARC
  5
189
100
AcDbEntity
  8
0
  6
CONTINUOUS
 62
     7
100
AcDbCircle
 10
-124.20329
 20
272.09424
 30
0.0
 40
11.5
100
AcDbArc
 50
118.95503
 51
230.00001
  0
ARC
  5
18A
100
AcDbEntity
  8
0
  6
CONTINUOUS
 62
     7
100
AcDbCircle
 10
-129.80906
 20
261.39424
 30
0.0
 40
0.3
100
AcDbArc
 50
270.0
 51
50.0
  0
ARC
  5
18B
100
AcDbEntity
  8
0
  6
CONTINUOUS
 62
     7
100
AcDbCircle
 10
-130.01276
 20
282.59424
 30
0.0
 40
0.5
100
AcDbArc
 50
298.95503
 51
90.000003
  0
CIRCLE
  5
18C
100
AcDbEntity
  8
0
  6
CONTINUOUS
 62
     7
100
AcDbCircle
 10
-124.20329
 20
272.09424
 30
0.0
 40
4.0
  0
ARC
  5
18D
100
AcDbEntity
  8
0
  6
CONTINUOUS
 62
     7
100
AcDbCircle
 10
-124.20329
 20
272.09424
 30
0.0
 40
11.2
100
AcDbArc
 50
183.21457
 51
259.15594
  0
ARC
  5
18E
100
AcDbEntity
  8
0
  6
CONTINUOUS
 62
     7
100
AcDbCircle
 10
-124.20329
 20
272.09424
 30
0.0
 40
11.2
100
AcDbArc
 50
100.84406
 51
154.53838
  0
ARC
  5
18F
100
AcDbEntity
  8
0
  6
CONTINUOUS
 62
     7
100
AcDbCircle
 10
-134.88645
 20
271.49423
 30
0.0
 40
0.5
100
AcDbArc
 50
90.000003
 51
183.21457
  0
ARC
  5
190
100
AcDbEntity
  8
0
  6
CONTINUOUS
 62
     7
100
AcDbCircle
 10
-124.04328
 20
272.09424
 30
0.0
 40
11.0
100
AcDbArc
 50
69.856197
 51
90.833443
  0
ARC
  5
191
100
AcDbEntity
  8
0
  6
CONTINUOUS
 62
     7
100
AcDbCircle
 10
-124.20329
 20
272.09424
 30
0.0
 40
6.7
100
AcDbArc
 50
142.27008
 51
180.85524
  0
ARC
  5
192
100
AcDbEntity
  8
0
  6
CONTINUOUS
 62
     7
100
AcDbCircle
 10
-115.70329
 20
261.09424
 30
0.0
 40
2.5
100
AcDbArc
 50
0.0
 51
180.00001
  0
ARC
  5
193
100
AcDbEntity
  8
0
  6
CONTINUOUS
 62
     7
100
AcDbCircle
 10
-91.001245
 20
261.09424
 30
0.0
 40
10.0
100
AcDbArc
 50
11.536959
 51
69.941444
  0
ARC
  5
194
100
AcDbEntity
  8
0
  6
CONTINUOUS
 62
     7
100
AcDbCircle
 10
-133.86403
 20
276.69424
 30
0.0
 40
0.5
100
AcDbArc
 50
154.53838
 51
270.0
  0
POLYLINE
  5
195
100
AcDbEntity
  8
0
  6
CONTINUOUS
 62
     7
100
AcDb2dPolyline
 66
     1
 10
0.0
 20
0.0
 30
0.0
  0
VERTEX
  5
196
100
AcDbEntity
  8
0
  6
CONTINUOUS
 62
     7
100
AcDbVertex
100
AcDb2dVertex
 10
-113.20329
 20
261.09424
 30
0.0
  0
VERTEX
  5
197
100
AcDbEntity
  8
0
  6
CONTINUOUS
 62
     7
100
AcDbVertex
100
AcDb2dVertex
 10
-81.203285
 20
261.09424
 30
0.0
  0
SEQEND
  5
198
100
AcDbEntity
  8
0
 62
     7
  0
POINT
  5
199
100
AcDbEntity
  8
0
  6
CONTINUOUS
 62
     7
100
AcDbPoint
 10
-106.20329
 20
205.39424
 30
0.0
  0
POINT
  5
19A
100
AcDbEntity
  8
0
  6
CONTINUOUS
 62
     7
100
AcDbPoint
 10
-88.203285
 20
205.39424
 30
0.0
  0
LINE
  5
19B
100
AcDbEntity
  8
0
  6
CONTINUOUS
 62
     7
100
AcDbLine
 10
-129.50906
 20
180.79424
 30
0.0
 11
-113.20329
 21
180.79424
 31
0.0
  0
LINE
  5
19C
100
AcDbEntity
  8
0
  6
CENTER
 62
     7
100
AcDbLine
 10
-124.20329
 20
221.09424
 30
0.0
 11
-124.20329
 21
171.09424
 31
0.0
  0
LINE
  5
19D
100
AcDbEntity
  8
0
  6
CENTER
 62
     7
100
AcDbLine
 10
-150.20329
 20
221.09424
 30
0.0
 11
-150.20329
 21
171.09424
 31
0.0
  0
LINE
  5
19E
100
AcDbEntity
  8
0
  6
CONTINUOUS
 62
     7
100
AcDbLine
 10
-129.50906
 20
216.09424
 30
0.0
 11
-129.50906
 21
211.39424
 31
0.0
  0
LINE
  5
19F
100
AcDbEntity
  8
0
  6
CONTINUOUS
 62
     7
100
AcDbLine
 10
-155.50906
 20
176.09424
 30
0.0
 11
-129.50906
 21
176.09424
 31
0.0
  0
LINE
  5
1A0
100
AcDbEntity
  8
0
  6
CONTINUOUS
 62
     7
100
AcDbLine
 10
-150.70329
 20
211.59424
 30
0.0
 11
-150.70329
 21
180.59424
 31
0.0
  0
LINE
  5
1A1
100
AcDbEntity
  8
0
  6
CENTER
 62
     7
100
AcDbLine
 10
-166.70329
 20
196.09424
 30
0.0
 11
-88.203285
 21
196.09424
 31
0.0
  0
LINE
  5
1A2
100
AcDbEntity
  8
0
  6
CONTINUOUS
 62
     7
100
AcDbLine
 10
-129.50906
 20
180.79424
 30
0.0
 11
-129.50906
 21
176.09424
 31
0.0
  0
LINE
  5
1A3
100
AcDbEntity
  8
0
  6
CONTINUOUS
 62
     7
100
AcDbLine
 10
-155.50906
 20
180.59424
 30
0.0
 11
-150.70329
 21
180.59424
 31
0.0
  0
LINE
  5
1A4
100
AcDbEntity
  8
0
  6
CONTINUOUS
 62
     7
100
AcDbLine
 10
-155.50906
 20
216.09424
 30
0.0
 11
-129.50906
 21
216.09424
 31
0.0
  0
LINE
  5
1A5
100
AcDbEntity
  8
0
  6
CONTINUOUS
 62
     7
100
AcDbLine
 10
-155.50906
 20
211.59424
 30
0.0
 11
-150.70329
 21
211.59424
 31
0.0
  0
LINE
  5
1A6
100
AcDbEntity
  8
0
  6
CONTINUOUS
 62
     7
100
AcDbLine
 10
-129.50906
 20
213.39424
 30
0.0
 11
-81.203285
 21
213.39424
 31
0.0
  0
LINE
  5
1A7
100
AcDbEntity
  8
0
  6
CONTINUOUS
 62
     7
100
AcDbLine
 10
-114.20329
 20
211.39424
 30
0.0
 11
-114.20329
 21
207.09424
 31
0.0
  0
LINE
  5
1A8
100
AcDbEntity
  8
0
  6
CONTINUOUS
 62
     7
100
AcDbLine
 10
-117.20329
 20
207.09424
 30
0.0
 11
-117.20329
 21
185.09424
 31
0.0
  0
LINE
  5
1A9
100
AcDbEntity
  8
0
  6
CONTINUOUS
 62
     7
100
AcDbLine
 10
-123.33173
 20
207.09424
 30
0.0
 11
-114.20329
 21
207.09424
 31
0.0
  0
LINE
  5
1AA
100
AcDbEntity
  8
0
  6
CONTINUOUS
 62
     7
100
AcDbLine
 10
-123.33173
 20
185.09424
 30
0.0
 11
-114.20329
 21
185.09424
 31
0.0
  0
LINE
  5
1AB
100
AcDbEntity
  8
0
  6
CENTER
 62
     7
100
AcDbLine
 10
-83.303286
 20
205.39424
 30
0.0
 11
-93.103285
 21
205.39424
 31
0.0
  0
LINE
  5
1AC
100
AcDbEntity
  8
0
  6
CONTINUOUS
 62
     7
100
AcDbLine
 10
-81.203285
 20
213.39424
 30
0.0
 11
-81.203285
 21
202.39424
 31
0.0
  0
LINE
  5
1AD
100
AcDbEntity
  8
0
  6
CONTINUOUS
 62
     7
100
AcDbLine
 10
-129.50906
 20
211.39424
 30
0.0
 11
-113.20329
 21
211.39424
 31
0.0
  0
LINE
  5
1AE
100
AcDbEntity
  8
0
  6
CONTINUOUS
 62
     7
100
AcDbLine
 10
-110.20329
 20
199.39424
 30
0.0
 11
-84.203285
 21
199.39424
 31
0.0
  0
LINE
  5
1AF
100
AcDbEntity
  8
0
  6
CONTINUOUS
 62
     7
100
AcDbLine
 10
-113.20329
 20
213.39424
 30
0.0
 11
-113.20329
 21
202.39424
 31
0.0
  0
LINE
  5
1B0
100
AcDbEntity
  8
0
  6
CENTER
 62
     7
100
AcDbLine
 10
-101.30329
 20
205.39424
 30
0.0
 11
-111.10329
 21
205.39424
 31
0.0
  0
LINE
  5
1B1
100
AcDbEntity
  8
0
  6
CONTINUOUS
 62
     7
100
AcDbLine
 10
-129.50906
 20
178.79424
 30
0.0
 11
-81.203285
 21
178.79424
 31
0.0
  0
LINE
  5
1B2
100
AcDbEntity
  8
0
  6
CENTER
 62
     7
100
AcDbLine
 10
-88.203285
 20
210.29424
 30
0.0
 11
-88.203285
 21
200.49424
 31
0.0
  0
LINE
  5
1B3
100
AcDbEntity
  8
0
  6
CONTINUOUS
 62
     7
100
AcDbLine
 10
-114.20329
 20
185.09424
 30
0.0
 11
-114.20329
 21
180.79424
 31
0.0
  0
LINE
  5
1B4
100
AcDbEntity
  8
0
  6
CENTER
 62
     7
100
AcDbLine
 10
-106.20329
 20
210.29424
 30
0.0
 11
-106.20329
 21
200.49424
 31
0.0
  0
LINE
  5
1B5
100
AcDbEntity
  8
0
  6
CENTER
 62
     7
100
AcDbLine
 10
-83.303286
 20
186.79424
 30
0.0
 11
-93.103285
 21
186.79424
 31
0.0
  0
LINE
  5
1B6
100
AcDbEntity
  8
0
  6
CONTINUOUS
 62
     7
100
AcDbLine
 10
-81.203285
 20
178.79424
 30
0.0
 11
-81.203285
 21
189.79424
 31
0.0
  0
LINE
  5
1B7
100
AcDbEntity
  8
0
  6
CONTINUOUS
 62
     7
100
AcDbLine
 10
-110.20329
 20
192.79424
 30
0.0
 11
-84.203285
 21
192.79424
 31
0.0
  0
LINE
  5
1B8
100
AcDbEntity
  8
0
  6
CONTINUOUS
 62
     7
100
AcDbLine
 10
-113.20329
 20
178.79424
 30
0.0
 11
-113.20329
 21
189.79424
 31
0.0
  0
LINE
  5
1B9
100
AcDbEntity
  8
0
  6
CENTER
 62
     7
100
AcDbLine
 10
-101.30329
 20
186.79424
 30
0.0
 11
-111.10329
 21
186.79424
 31
0.0
  0
LINE
  5
1BA
100
AcDbEntity
  8
0
  6
CENTER
 62
     7
100
AcDbLine
 10
-88.203285
 20
181.89424
 30
0.0
 11
-88.203285
 21
191.69424
 31
0.0
  0
LINE
  5
1BB
100
AcDbEntity
  8
0
  6
CENTER
 62
     7
100
AcDbLine
 10
-106.20329
 20
181.89424
 30
0.0
 11
-106.20329
 21
191.69424
 31
0.0
  0
LINE
  5
1BC
100
AcDbEntity
  8
0
  6
CONTINUOUS
 62
     7
100
AcDbLine
 10
-123.33173
 20
207.09424
 30
0.0
 11
-123.33173
 21
185.09424
 31
0.0
  0
ARC
  5
1BD
100
AcDbEntity
  8
0
  6
CONTINUOUS
 62
     7
100
AcDbCircle
 10
-110.20329
 20
202.39424
 30
0.0
 40
3.0
100
AcDbArc
 50
179.99999
 51
270.0
  0
ARC
  5
1BE
100
AcDbEntity
  8
0
  6
CONTINUOUS
 62
     7
100
AcDbCircle
 10
-84.203285
 20
202.39424
 30
0.0
 40
3.0
100
AcDbArc
 50
270.0
 51
0.0
  0
CIRCLE
  5
1BF
100
AcDbEntity
  8
0
  6
CONTINUOUS
 62
     7
100
AcDbCircle
 10
-106.20329
 20
205.39424
 30
0.0
 40
2.9
  0
CIRCLE
  5
1C0
100
AcDbEntity
  8
0
  6
CONTINUOUS
 62
     7
100
AcDbCircle
 10
-88.203285
 20
205.39424
 30
0.0
 40
2.9
  0
ARC
  5
1C1
100
AcDbEntity
  8
0
  6
CONTINUOUS
 62
     7
100
AcDbCircle
 10
-110.20329
 20
189.79424
 30
0.0
 40
3.0
100
AcDbArc
 50
90.000003
 51
180.00001
  0
ARC
  5
1C2
100
AcDbEntity
  8
0
  6
CONTINUOUS
 62
     7
100
AcDbCircle
 10
-84.203285
 20
189.79424
 30
0.0
 40
3.0
100
AcDbArc
 50
0.0
 51
90.000003
  0
CIRCLE
  5
1C3
100
AcDbEntity
  8
0
  6
CONTINUOUS
 62
     7
100
AcDbCircle
 10
-106.20329
 20
186.79424
 30
0.0
 40
2.9
  0
CIRCLE
  5
1C4
100
AcDbEntity
  8
0
  6
CONTINUOUS
 62
     7
100
AcDbCircle
 10
-88.203285
 20
186.79424
 30
0.0
 40
2.9
  0
POINT
  5
1C5
100
AcDbEntity
  8
0
  6
CONTINUOUS
 62
     7
100
AcDbPoint
 10
-16.203287
 20
261.09424
 30
0.0
  0
POINT
  5
1C6
100
AcDbEntity
  8
0
  6
CONTINUOUS
 62
     7
100
AcDbPoint
 10
2.396713
 20
261.09424
 30
0.0
  0
LINE
  5
1C7
100
AcDbEntity
  8
0
  6
CENTER
 62
     7
100
AcDbLine
 10
-31.903287
 20
272.09424
 30
0.0
 11
18.096712
 21
272.09424
 31
0.0
  0
LINE
  5
1C8
100
AcDbEntity
  8
0
  6
CONTINUOUS
 62
     7
100
AcDbLine
 10
-26.903287
 20
283.09424
 30
0.0
 11
-26.903287
 21
261.09424
 31
0.0
  0
LINE
  5
1C9
100
AcDbEntity
  8
0
  6
CONTINUOUS
 62
     7
100
AcDbLine
 10
13.096712
 20
283.09424
 30
0.0
 11
13.096712
 21
261.09424
 31
0.0
  0
LINE
  5
1CA
100
AcDbEntity
  8
0
  6
CENTER
 62
     7
100
AcDbLine
 10
-6.903287
 20
288.09424
 30
0.0
 11
-6.903287
 21
256.09424
 31
0.0
  0
LINE
  5
1CB
100
AcDbEntity
  8
0
  6
CONTINUOUS
 62
     7
100
AcDbLine
 10
8.396713
 20
263.09424
 30
0.0
 11
8.396713
 21
283.09424
 31
0.0
  0
LINE
  5
1CC
100
AcDbEntity
  8
0
  6
CONTINUOUS
 62
     7
100
AcDbLine
 10
-22.203287
 20
263.09424
 30
0.0
 11
-22.203287
 21
283.09424
 31
0.0
  0
LINE
  5
1CD
100
AcDbEntity
  8
0
  6
CONTINUOUS
 62
     7
100
AcDbLine
 10
4.096712
 20
263.09424
 30
0.0
 11
4.096712
 21
283.09424
 31
0.0
  0
LINE
  5
1CE
100
AcDbEntity
  8
0
  6
CONTINUOUS
 62
     7
100
AcDbLine
 10
-17.903287
 20
263.09424
 30
0.0
 11
-17.903287
 21
283.09424
 31
0.0
  0
LINE
  5
1CF
100
AcDbEntity
  8
0
  6
CONTINUOUS
 62
     7
100
AcDbLine
 10
-26.903287
 20
283.09424
 30
0.0
 11
-17.903287
 21
283.09424
 31
0.0
  0
LINE
  5
1D0
100
AcDbEntity
  8
0
  6
CONTINUOUS
 62
     7
100
AcDbLine
 10
-26.903287
 20
261.09424
 30
0.0
 11
-10.203287
 21
261.09424
 31
0.0
  0
LINE
  5
1D1
100
AcDbEntity
  8
0
  6
CONTINUOUS
 62
     7
100
AcDbLine
 10
-17.903287
 20
266.09424
 30
0.0
 11
4.096712
 21
266.09424
 31
0.0
  0
LINE
  5
1D2
100
AcDbEntity
  8
0
  6
CONTINUOUS
 62
     7
100
AcDbLine
 10
-17.903287
 20
282.79424
 30
0.0
 11
4.096712
 21
282.79424
 31
0.0
  0
LINE
  5
1D3
100
AcDbEntity
  8
0
  6
CONTINUOUS
 62
     7
100
AcDbLine
 10
-22.203287
 20
263.09424
 30
0.0
 11
-10.203287
 21
263.09424
 31
0.0
  0
LINE
  5
1D4
100
AcDbEntity
  8
0
  6
CONTINUOUS
 62
     7
100
AcDbLine
 10
-10.203287
 20
261.59424
 30
0.0
 11
-3.603287
 21
261.59424
 31
0.0
  0
LINE
  5
1D5
100
AcDbEntity
  8
0
  6
CENTER
 62
     7
100
AcDbLine
 10
-16.203287
 20
256.09424
 30
0.0
 11
-16.203287
 21
268.09424
 31
0.0
  0
LINE
  5
1D6
100
AcDbEntity
  8
0
  6
CONTINUOUS
 62
     7
100
AcDbLine
 10
-3.603287
 20
261.09424
 30
0.0
 11
13.096712
 21
261.09424
 31
0.0
  0
LINE
  5
1D7
100
AcDbEntity
  8
0
  6
CONTINUOUS
 62
     7
100
AcDbLine
 10
-10.203287
 20
261.09424
 30
0.0
 11
-10.203287
 21
263.09424
 31
0.0
  0
LINE
  5
1D8
100
AcDbEntity
  8
0
  6
CONTINUOUS
 62
     7
100
AcDbLine
 10
-24.203287
 20
283.09424
 30
0.0
 11
-24.203287
 21
261.09424
 31
0.0
  0
LINE
  5
1D9
100
AcDbEntity
  8
0
  6
CENTER
 62
     7
100
AcDbLine
 10
2.396713
 20
256.09424
 30
0.0
 11
2.396713
 21
268.09424
 31
0.0
  0
LINE
  5
1DA
100
AcDbEntity
  8
0
  6
CONTINUOUS
 62
     7
100
AcDbLine
 10
-3.603287
 20
261.09424
 30
0.0
 11
-3.603287
 21
263.09424
 31
0.0
  0
LINE
  5
1DB
100
AcDbEntity
  8
0
  6
CONTINUOUS
 62
     7
100
AcDbLine
 10
-3.603287
 20
263.09424
 30
0.0
 11
8.396713
 21
263.09424
 31
0.0
  0
LINE
  5
1DC
100
AcDbEntity
  8
0
  6
CONTINUOUS
 62
     7
100
AcDbLine
 10
10.396713
 20
283.09424
 30
0.0
 11
10.396713
 21
261.09424
 31
0.0
  0
LINE
  5
1DD
100
AcDbEntity
  8
0
  6
CONTINUOUS
 62
     7
100
AcDbLine
 10
-17.903287
 20
279.09424
 30
0.0
 11
4.096712
 21
279.09424
 31
0.0
  0
LINE
  5
1DE
100
AcDbEntity
  8
0
  6
CONTINUOUS
 62
     7
100
AcDbLine
 10
4.096712
 20
283.09424
 30
0.0
 11
13.096712
 21
283.09424
 31
0.0
  0
POINT
  5
1DF
100
AcDbEntity
  8
0
  6
CONTINUOUS
 62
     7
100
AcDbPoint
 10
113.79671
 20
324.79425
 30
0.0
  0
POINT
  5
1E0
100
AcDbEntity
  8
0
  6
CONTINUOUS
 62
     7
100
AcDbPoint
 10
131.79671
 20
324.79425
 30
0.0
  0
LINE
  5
1E1
100
AcDbEntity
  8
0
  6
CONTINUOUS
 62
     7
100
AcDbLine
 10
65.887234
 20
363.59425
 30
0.0
 11
68.796715
 21
363.59425
 31
0.0
  0
LINE
  5
1E2
100
AcDbEntity
  8
0
  6
CONTINUOUS
 62
     7
100
AcDbLine
 10
65.887234
 20
332.59425
 30
0.0
 11
68.796715
 21
332.59425
 31
0.0
  0
LINE
  5
1E3
100
AcDbEntity
  8
0
  6
CENTER
 62
     7
100
AcDbLine
 10
53.296715
 20
348.09425
 30
0.0
 11
121.92685
 21
348.09425
 31
0.0
  0
LINE
  5
1E4
100
AcDbEntity
  8
0
  6
CENTER
 62
     7
100
AcDbLine
 10
113.79671
 20
329.69425
 30
0.0
 11
113.79671
 21
319.89425
 31
0.0
  0
LINE
  5
1E5
100
AcDbEntity
  8
0
  6
CONTINUOUS
 62
     7
100
AcDbLine
 10
65.887234
 20
368.09425
 30
0.0
 11
90.48724
 21
368.09425
 31
0.0
  0
LINE
  5
1E6
100
AcDbEntity
  8
0
  6
CONTINUOUS
 62
     7
100
AcDbLine
 10
65.887234
 20
328.09425
 30
0.0
 11
90.48724
 21
328.09425
 31
0.0
  0
LINE
  5
1E7
100
AcDbEntity
  8
0
  6
CONTINUOUS
 62
     7
100
AcDbLine
 10
68.796715
 20
337.09425
 30
0.0
 11
78.796715
 21
337.09425
 31
0.0
  0
LINE
  5
1E8
100
AcDbEntity
  8
0
  6
CONTINUOUS
 62
     7
100
AcDbLine
 10
68.796715
 20
359.09425
 30
0.0
 11
78.796715
 21
359.09425
 31
0.0
  0
LINE
  5
1E9
100
AcDbEntity
  8
0
  6
CONTINUOUS
 62
     7
100
AcDbLine
 10
90.48724
 20
365.39425
 30
0.0
 11
106.79671
 21
365.39425
 31
0.0
  0
LINE
  5
1EA
100
AcDbEntity
  8
0
  6
CONTINUOUS
 62
     7
100
AcDbLine
 10
105.79671
 20
363.39425
 30
0.0
 11
105.79671
 21
359.09425
 31
0.0
  0
LINE
  5
1EB
100
AcDbEntity
  8
0
  6
CONTINUOUS
 62
     7
100
AcDbLine
 10
102.79671
 20
359.09425
 30
0.0
 11
102.79671
 21
337.09425
 31
0.0
  0
LINE
  5
1EC
100
AcDbEntity
  8
0
  6
CONTINUOUS
 62
     7
100
AcDbLine
 10
78.796715
 20
366.49425
 30
0.0
 11
78.796715
 21
359.09425
 31
0.0
  0
LINE
  5
1ED
100
AcDbEntity
  8
0
  6
CENTER
 62
     7
100
AcDbLine
 10
69.796715
 20
373.09425
 30
0.0
 11
69.796715
 21
323.09425
 31
0.0
  0
LINE
  5
1EE
100
AcDbEntity
  8
0
  6
CENTER
 62
     7
100
AcDbLine
 10
95.796715
 20
373.09425
 30
0.0
 11
95.796715
 21
323.09425
 31
0.0
  0
LINE
  5
1EF
100
AcDbEntity
  8
0
  6
CONTINUOUS
 62
     7
100
AcDbLine
 10
78.796715
 20
329.69425
 30
0.0
 11
85.796715
 21
329.69425
 31
0.0
  0
LINE
  5
1F0
100
AcDbEntity
  8
0
  6
CONTINUOUS
 62
     7
100
AcDbLine
 10
68.796715
 20
363.59425
 30
0.0
 11
68.796715
 21
332.59425
 31
0.0
  0
LINE
  5
1F1
100
AcDbEntity
  8
0
  6
CONTINUOUS
 62
     7
100
AcDbLine
 10
90.48724
 20
368.09425
 30
0.0
 11
90.48724
 21
363.39425
 31
0.0
  0
LINE
  5
1F2
100
AcDbEntity
  8
0
  6
CONTINUOUS
 62
     7
100
AcDbLine
 10
78.796715
 20
366.49425
 30
0.0
 11
85.796715
 21
366.49425
 31
0.0
  0
LINE
  5
1F3
100
AcDbEntity
  8
0
  6
CONTINUOUS
 62
     7
100
AcDbLine
 10
94.396715
 20
359.09425
 30
0.0
 11
94.396715
 21
337.09425
 31
0.0
  0
LINE
  5
1F4
100
AcDbEntity
  8
0
  6
CONTINUOUS
 62
     7
100
AcDbLine
 10
85.796715
 20
366.49425
 30
0.0
 11
85.796715
 21
359.09425
 31
0.0
  0
LINE
  5
1F5
100
AcDbEntity
  8
0
  6
CONTINUOUS
 62
     7
100
AcDbLine
 10
90.48724
 20
328.09425
 30
0.0
 11
90.48724
 21
332.79425
 31
0.0
  0
LINE
  5
1F6
100
AcDbEntity
  8
0
  6
CONTINUOUS
 62
     7
100
AcDbLine
 10
78.796715
 20
337.09425
 30
0.0
 11
78.796715
 21
329.69425
 31
0.0
  0
LINE
  5
1F7
100
AcDbEntity
  8
0
  6
CONTINUOUS
 62
     7
100
AcDbLine
 10
85.796715
 20
337.09425
 30
0.0
 11
85.796715
 21
329.69425
 31
0.0
  0
LINE
  5
1F8
100
AcDbEntity
  8
0
  6
CONTINUOUS
 62
     7
100
AcDbLine
 10
85.796715
 20
359.09425
 30
0.0
 11
105.79671
 21
359.09425
 31
0.0
  0
LINE
  5
1F9
100
AcDbEntity
  8
0
  6
CONTINUOUS
 62
     7
100
AcDbLine
 10
85.796715
 20
337.09425
 30
0.0
 11
105.79671
 21
337.09425
 31
0.0
  0
LINE
  5
1FA
100
AcDbEntity
  8
0
  6
CONTINUOUS
 62
     7
100
AcDbLine
 10
78.796715
 20
329.89425
 30
0.0
 11
85.796715
 21
329.89425
 31
0.0
  0
LINE
  5
1FB
100
AcDbEntity
  8
0
  6
CONTINUOUS
 62
     7
100
AcDbLine
 10
78.796715
 20
366.29425
 30
0.0
 11
85.796715
 21
366.29425
 31
0.0
  0
LINE
  5
1FC
100
AcDbEntity
  8
0
  6
CENTER
 62
     7
100
AcDbLine
 10
136.69671
 20
371.39425
 30
0.0
 11
126.89672
 21
371.39425
 31
0.0
  0
LINE
  5
1FD
100
AcDbEntity
  8
0
  6
CONTINUOUS
 62
     7
100
AcDbLine
 10
138.79671
 20
363.39425
 30
0.0
 11
138.79671
 21
374.39425
 31
0.0
  0
LINE
  5
1FE
100
AcDbEntity
  8
0
  6
CONTINUOUS
 62
     7
100
AcDbLine
 10
90.48724
 20
363.39425
 30
0.0
 11
138.79671
 21
363.39425
 31
0.0
  0
LINE
  5
1FF
100
AcDbEntity
  8
0
  6
CONTINUOUS
 62
     7
100
AcDbLine
 10
109.79671
 20
377.39425
 30
0.0
 11
135.79671
 21
377.39425
 31
0.0
  0
LINE
  5
200
100
AcDbEntity
  8
0
  6
CONTINUOUS
 62
     7
100
AcDbLine
 10
106.79671
 20
363.39425
 30
0.0
 11
106.79671
 21
374.39425
 31
0.0
  0
LINE
  5
201
100
AcDbEntity
  8
0
  6
CENTER
 62
     7
100
AcDbLine
 10
118.69671
 20
371.39425
 30
0.0
 11
108.89671
 21
371.39425
 31
0.0
  0
LINE
  5
202
100
AcDbEntity
  8
0
  6
CENTER
 62
     7
100
AcDbLine
 10
131.79671
 20
366.49425
 30
0.0
 11
131.79671
 21
376.29425
 31
0.0
  0
LINE
  5
203
100
AcDbEntity
  8
0
  6
CONTINUOUS
 62
     7
100
AcDbLine
 10
105.79671
 20
337.09425
 30
0.0
 11
105.79671
 21
332.79425
 31
0.0
  0
LINE
  5
204
100
AcDbEntity
  8
0
  6
CENTER
 62
     7
100
AcDbLine
 10
113.79671
 20
366.49425
 30
0.0
 11
113.79671
 21
376.29425
 31
0.0
  0
LINE
  5
205
100
AcDbEntity
  8
0
  6
CENTER
 62
     7
100
AcDbLine
 10
131.79671
 20
329.69425
 30
0.0
 11
131.79671
 21
319.89425
 31
0.0
  0
LINE
  5
206
100
AcDbEntity
  8
0
  6
CENTER
 62
     7
100
AcDbLine
 10
118.69671
 20
324.79425
 30
0.0
 11
108.89671
 21
324.79425
 31
0.0
  0
LINE
  5
207
100
AcDbEntity
  8
0
  6
CONTINUOUS
 62
     7
100
AcDbLine
 10
106.79671
 20
332.79425
 30
0.0
 11
106.79671
 21
321.79425
 31
0.0
  0
LINE
  5
208
100
AcDbEntity
  8
0
  6
CONTINUOUS
 62
     7
100
AcDbLine
 10
109.79671
 20
318.79425
 30
0.0
 11
135.79671
 21
318.79425
 31
0.0
  0
LINE
  5
209
100
AcDbEntity
  8
0
  6
CONTINUOUS
 62
     7
100
AcDbLine
 10
90.48724
 20
332.79425
 30
0.0
 11
138.79671
 21
332.79425
 31
0.0
  0
LINE
  5
20A
100
AcDbEntity
  8
0
  6
CONTINUOUS
 62
     7
100
AcDbLine
 10
138.79671
 20
332.79425
 30
0.0
 11
138.79671
 21
321.79425
 31
0.0
  0
LINE
  5
20B
100
AcDbEntity
  8
0
  6
CENTER
 62
     7
100
AcDbLine
 10
136.69671
 20
324.79425
 30
0.0
 11
126.89672
 21
324.79425
 31
0.0
  0
LINE
  5
20C
100
AcDbEntity
  8
0
  6
CONTINUOUS
 62
     7
100
AcDbLine
 10
90.48724
 20
330.79425
 30
0.0
 11
106.79671
 21
330.79425
 31
0.0
  0
LINE
  5
20D
100
AcDbEntity
  8
0
  6
CENTER
 62
     7
100
AcDbLine
 10
76.796715
 20
333.09425
 30
0.0
 11
87.796715
 21
333.09425
 31
0.0
  0
LINE
  5
20E
100
AcDbEntity
  8
0
  6
CENTER
 62
     7
100
AcDbLine
 10
76.796715
 20
363.09425
 30
0.0
 11
87.796715
 21
363.09425
 31
0.0
  0
CIRCLE
  5
20F
100
AcDbEntity
  8
0
  6
CONTINUOUS
 62
     7
100
AcDbCircle
 10
131.79671
 20
324.79425
 30
0.0
 40
2.9
  0
ARC
  5
210
100
AcDbEntity
  8
0
  6
CONTINUOUS
 62
     7
100
AcDbCircle
 10
109.79671
 20
374.39425
 30
0.0
 40
3.0
100
AcDbArc
 50
90.000003
 51
180.00001
  0
ARC
  5
211
100
AcDbEntity
  8
0
  6
CONTINUOUS
 62
     7
100
AcDbCircle
 10
135.79671
 20
374.39425
 30
0.0
 40
3.0
100
AcDbArc
 50
0.0
 51
90.000003
  0
CIRCLE
  5
212
100
AcDbEntity
  8
0
  6
CONTINUOUS
 62
     7
100
AcDbCircle
 10
113.79671
 20
371.39425
 30
0.0
 40
2.9
  0
CIRCLE
  5
213
100
AcDbEntity
  8
0
  6
CONTINUOUS
 62
     7
100
AcDbCircle
 10
131.79671
 20
371.39425
 30
0.0
 40
2.9
  0
CIRCLE
  5
214
100
AcDbEntity
  8
0
  6
CONTINUOUS
 62
     7
100
AcDbCircle
 10
113.79671
 20
324.79425
 30
0.0
 40
2.9
  0
ARC
  5
215
100
AcDbEntity
  8
0
  6
CONTINUOUS
 62
     7
100
AcDbCircle
 10
135.79671
 20
321.79425
 30
0.0
 40
3.0
100
AcDbArc
 50
270.0
 51
0.0
  0
ARC
  5
216
100
AcDbEntity
  8
0
  6
CONTINUOUS
 62
     7
100
AcDbCircle
 10
109.79671
 20
321.79425
 30
0.0
 40
3.0
100
AcDbArc
 50
179.99999
 51
270.0
  0
POINT
  5
217
100
AcDbEntity
  8
0
  6
CONTINUOUS
 62
     7
100
AcDbPoint
 10
113.79671
 20
283.09424
 30
0.0
  0
POINT
  5
218
100
AcDbEntity
  8
0
  6
CONTINUOUS
 62
     7
100
AcDbPoint
 10
131.79671
 20
283.09424
 30
0.0
  0
LINE
  5
219
100
AcDbEntity
  8
0
  6
CENTER
 62
     7
100
AcDbLine
 10
95.796715
 20
278.09424
 30
0.0
 11
95.796715
 21
266.09424
 31
0.0
  0
LINE
  5
21A
100
AcDbEntity
  8
0
  6
CENTER
 62
     7
100
AcDbLine
 10
75.796715
 20
272.09424
 30
0.0
 11
63.796715
 21
272.09424
 31
0.0
  0
LINE
  5
21B
100
AcDbEntity
  8
0
  6
CENTER
 62
     7
100
AcDbLine
 10
101.79671
 20
272.09424
 30
0.0
 11
89.796715
 21
272.09424
 31
0.0
  0
LINE
  5
21C
100
AcDbEntity
  8
0
  6
CONTINUOUS
 62
     7
100
AcDbLine
 10
69.796715
 20
283.09424
 30
0.0
 11
101.79671
 21
283.09424
 31
0.0
  0
LINE
  5
21D
100
AcDbEntity
  8
0
  6
CENTER
 62
     7
100
AcDbLine
 10
69.796715
 20
278.09424
 30
0.0
 11
69.796715
 21
266.09424
 31
0.0
  0
LINE
  5
21E
100
AcDbEntity
  8
0
  6
CONTINUOUS
 62
     7
100
AcDbLine
 10
69.796715
 20
261.09424
 30
0.0
 11
95.956718
 21
261.09424
 31
0.0
  0
LINE
  5
21F
100
AcDbEntity
  8
0
  6
CONTINUOUS
 62
     7
100
AcDbLine
 10
93.296715
 20
275.21674
 30
0.0
 11
93.296715
 21
268.97174
 31
0.0
  0
LINE
  5
220
100
AcDbEntity
  8
0
  6
CONTINUOUS
 62
     7
100
AcDbLine
 10
88.404657
 20
263.28473
 30
0.0
 11
90.383772
 21
261.62405
 31
0.0
  0
LINE
  5
221
100
AcDbEntity
  8
0
  6
CENTER
 62
     7
100
AcDbLine
 10
113.79671
 20
286.09424
 30
0.0
 11
113.79671
 21
278.09424
 31
0.0
  0
LINE
  5
222
100
AcDbEntity
  8
0
  6
CONTINUOUS
 62
     7
100
AcDbLine
 10
106.79671
 20
281.09424
 30
0.0
 11
138.79671
 21
281.09424
 31
0.0
  0
LINE
  5
223
100
AcDbEntity
  8
0
  6
CONTINUOUS
 62
     7
100
AcDbLine
 10
86.135969
 20
276.19424
 30
0.0
 11
90.497658
 21
276.19424
 31
0.0
  0
LINE
  5
224
100
AcDbEntity
  8
0
  6
CENTER
 62
     7
100
AcDbLine
 10
131.79671
 20
286.09424
 30
0.0
 11
131.79671
 21
278.09424
 31
0.0
  0
LINE
  5
225
100
AcDbEntity
  8
0
  6
CONTINUOUS
 62
     7
100
AcDbLine
 10
138.79671
 20
283.09424
 30
0.0
 11
138.79671
 21
281.09424
 31
0.0
  0
LINE
  5
226
100
AcDbEntity
  8
0
  6
CONTINUOUS
 62
     7
100
AcDbLine
 10
99.729503
 20
261.76147
 30
0.0
 11
132.42856
 21
273.70081
 31
0.0
  0
LINE
  5
227
100
AcDbEntity
  8
0
  6
CONTINUOUS
 62
     7
100
AcDbLine
 10
89.097462
 20
271.99423
 30
0.0
 11
85.11355
 21
271.99423
 31
0.0
  0
LINE
  5
228
100
AcDbEntity
  8
0
  6
CONTINUOUS
 62
     7
100
AcDbLine
 10
106.79671
 20
283.09424
 30
0.0
 11
106.79671
 21
281.09424
 31
0.0
  0
ARC
  5
229
100
AcDbEntity
  8
0
  6
CONTINUOUS
 62
     7
100
AcDbCircle
 10
69.796715
 20
272.09424
 30
0.0
 40
11.0
100
AcDbArc
 50
90.000003
 51
270.0
  0
ARC
  5
22A
100
AcDbEntity
  8
0
  6
CONTINUOUS
 62
     7
100
AcDbCircle
 10
95.796715
 20
272.09424
 30
0.0
 40
11.5
100
AcDbArc
 50
118.95503
 51
230.00001
  0
ARC
  5
22B
100
AcDbEntity
  8
0
  6
CONTINUOUS
 62
     7
100
AcDbCircle
 10
90.190937
 20
261.39424
 30
0.0
 40
0.3
100
AcDbArc
 50
270.0
 51
50.0
  0
ARC
  5
22C
100
AcDbEntity
  8
0
  6
CONTINUOUS
 62
     7
100
AcDbCircle
 10
89.98724
 20
282.59424
 30
0.0
 40
0.5
100
AcDbArc
 50
298.95503
 51
90.000003
  0
CIRCLE
  5
22D
100
AcDbEntity
  8
0
  6
CONTINUOUS
 62
     7
100
AcDbCircle
 10
95.796715
 20
272.09424
 30
0.0
 40
4.0
  0
ARC
  5
22E
100
AcDbEntity
  8
0
  6
CONTINUOUS
 62
     7
100
AcDbCircle
 10
95.796715
 20
272.09424
 30
0.0
 40
11.2
100
AcDbArc
 50
183.21457
 51
259.15594
  0
ARC
  5
22F
100
AcDbEntity
  8
0
  6
CONTINUOUS
 62
     7
100
AcDbCircle
 10
95.796715
 20
272.09424
 30
0.0
 40
11.2
100
AcDbArc
 50
100.84406
 51
154.53838
  0
ARC
  5
230
100
AcDbEntity
  8
0
  6
CONTINUOUS
 62
     7
100
AcDbCircle
 10
85.11355
 20
271.49423
 30
0.0
 40
0.5
100
AcDbArc
 50
90.000003
 51
183.21457
  0
ARC
  5
231
100
AcDbEntity
  8
0
  6
CONTINUOUS
 62
     7
100
AcDbCircle
 10
95.956718
 20
272.09424
 30
0.0
 40
11.0
100
AcDbArc
 50
269.16656
 51
290.1438
  0
ARC
  5
232
100
AcDbEntity
  8
0
  6
CONTINUOUS
 62
     7
100
AcDbCircle
 10
95.796715
 20
272.09424
 30
0.0
 40
6.7
100
AcDbArc
 50
142.27008
 51
180.85524
  0
ARC
  5
233
100
AcDbEntity
  8
0
  6
CONTINUOUS
 62
     7
100
AcDbCircle
 10
104.29671
 20
283.09424
 30
0.0
 40
2.5
100
AcDbArc
 50
179.99999
 51
0.00001
  0
ARC
  5
234
100
AcDbEntity
  8
0
  6
CONTINUOUS
 62
     7
100
AcDbCircle
 10
128.99876
 20
283.09424
 30
0.0
 40
10.0
100
AcDbArc
 50
290.05856
 51
348.46304
  0
ARC
  5
235
100
AcDbEntity
  8
0
  6
CONTINUOUS
 62
     7
100
AcDbCircle
 10
86.135969
 20
276.69424
 30
0.0
 40
0.5
100
AcDbArc
 50
154.53838
 51
270.0
  0
POLYLINE
  5
236
100
AcDbEntity
  8
0
  6
CONTINUOUS
 62
     7
100
AcDb2dPolyline
 66
     1
 10
0.0
 20
0.0
 30
0.0
  0
VERTEX
  5
237
100
AcDbEntity
  8
0
  6
CONTINUOUS
 62
     7
100
AcDbVertex
100
AcDb2dVertex
 10
106.79671
 20
283.09424
 30
0.0
  0
VERTEX
  5
238
100
AcDbEntity
  8
0
  6
CONTINUOUS
 62
     7
100
AcDbVertex
100
AcDb2dVertex
 10
138.79671
 20
283.09424
 30
0.0
  0
SEQEND
  5
239
100
AcDbEntity
  8
0
 62
     7
  0
POINT
  5
23A
100
AcDbEntity
  8
0
  6
CONTINUOUS
 62
     7
100
AcDbPoint
 10
113.79671
 20
219.39424
 30
0.0
  0
POINT
  5
23B
100
AcDbEntity
  8
0
  6
CONTINUOUS
 62
     7
100
AcDbPoint
 10
131.79671
 20
219.39424
 30
0.0
  0
LINE
  5
23C
100
AcDbEntity
  8
0
  6
CENTER
 62
     7
100
AcDbLine
 10
136.69671
 20
172.79424
 30
0.0
 11
126.89672
 21
172.79424
 31
0.0
  0
LINE
  5
23D
100
AcDbEntity
  8
0
  6
CENTER
 62
     7
100
AcDbLine
 10
95.796715
 20
221.09424
 30
0.0
 11
95.796715
 21
171.09424
 31
0.0
  0
LINE
  5
23E
100
AcDbEntity
  8
0
  6
CENTER
 62
     7
100
AcDbLine
 10
69.796715
 20
221.09424
 30
0.0
 11
69.796715
 21
171.09424
 31
0.0
  0
LINE
  5
23F
100
AcDbEntity
  8
0
  6
CONTINUOUS
 62
     7
100
AcDbLine
 10
64.490936
 20
176.09424
 30
0.0
 11
90.490936
 21
176.09424
 31
0.0
  0
LINE
  5
240
100
AcDbEntity
  8
0
  6
CONTINUOUS
 62
     7
100
AcDbLine
 10
69.296715
 20
211.59424
 30
0.0
 11
69.296715
 21
180.59424
 31
0.0
  0
LINE
  5
241
100
AcDbEntity
  8
0
  6
CENTER
 62
     7
100
AcDbLine
 10
53.296715
 20
196.09424
 30
0.0
 11
131.79671
 21
196.09424
 31
0.0
  0
LINE
  5
242
100
AcDbEntity
  8
0
  6
CONTINUOUS
 62
     7
100
AcDbLine
 10
90.490936
 20
180.79424
 30
0.0
 11
90.490936
 21
176.09424
 31
0.0
  0
LINE
  5
243
100
AcDbEntity
  8
0
  6
CONTINUOUS
 62
     7
100
AcDbLine
 10
64.490936
 20
180.59424
 30
0.0
 11
69.296715
 21
180.59424
 31
0.0
  0
LINE
  5
244
100
AcDbEntity
  8
0
  6
CONTINUOUS
 62
     7
100
AcDbLine
 10
64.490936
 20
216.09424
 30
0.0
 11
90.490936
 21
216.09424
 31
0.0
  0
LINE
  5
245
100
AcDbEntity
  8
0
  6
CONTINUOUS
 62
     7
100
AcDbLine
 10
64.490936
 20
211.59424
 30
0.0
 11
69.296715
 21
211.59424
 31
0.0
  0
LINE
  5
246
100
AcDbEntity
  8
0
  6
CONTINUOUS
 62
     7
100
AcDbLine
 10
138.79671
 20
180.79424
 30
0.0
 11
138.79671
 21
169.79424
 31
0.0
  0
LINE
  5
247
100
AcDbEntity
  8
0
  6
CONTINUOUS
 62
     7
100
AcDbLine
 10
105.79671
 20
211.39424
 30
0.0
 11
105.79671
 21
207.09424
 31
0.0
  0
LINE
  5
248
100
AcDbEntity
  8
0
  6
CONTINUOUS
 62
     7
100
AcDbLine
 10
102.79671
 20
207.09424
 30
0.0
 11
102.79671
 21
185.09424
 31
0.0
  0
LINE
  5
249
100
AcDbEntity
  8
0
  6
CONTINUOUS
 62
     7
100
AcDbLine
 10
96.668272
 20
207.09424
 30
0.0
 11
105.79671
 21
207.09424
 31
0.0
  0
LINE
  5
24A
100
AcDbEntity
  8
0
  6
CONTINUOUS
 62
     7
100
AcDbLine
 10
96.668272
 20
185.09424
 30
0.0
 11
105.79671
 21
185.09424
 31
0.0
  0
LINE
  5
24B
100
AcDbEntity
  8
0
  6
CONTINUOUS
 62
     7
100
AcDbLine
 10
90.48724
 20
180.79424
 30
0.0
 11
138.79671
 21
180.79424
 31
0.0
  0
LINE
  5
24C
100
AcDbEntity
  8
0
  6
CONTINUOUS
 62
     7
100
AcDbLine
 10
109.79671
 20
166.79424
 30
0.0
 11
135.79671
 21
166.79424
 31
0.0
  0
LINE
  5
24D
100
AcDbEntity
  8
0
  6
CONTINUOUS
 62
     7
100
AcDbLine
 10
106.79671
 20
178.79424
 30
0.0
 11
106.79671
 21
169.79424
 31
0.0
  0
LINE
  5
24E
100
AcDbEntity
  8
0
  6
CENTER
 62
     7
100
AcDbLine
 10
118.69671
 20
172.79424
 30
0.0
 11
108.89671
 21
172.79424
 31
0.0
  0
LINE
  5
24F
100
AcDbEntity
  8
0
  6
CENTER
 62
     7
100
AcDbLine
 10
131.79671
 20
177.69424
 30
0.0
 11
131.79671
 21
167.89424
 31
0.0
  0
LINE
  5
250
100
AcDbEntity
  8
0
  6
CENTER
 62
     7
100
AcDbLine
 10
113.79671
 20
214.49424
 30
0.0
 11
113.79671
 21
224.29424
 31
0.0
  0
LINE
  5
251
100
AcDbEntity
  8
0
  6
CENTER
 62
     7
100
AcDbLine
 10
131.79671
 20
214.49424
 30
0.0
 11
131.79671
 21
224.29424
 31
0.0
  0
LINE
  5
252
100
AcDbEntity
  8
0
  6
CONTINUOUS
 62
     7
100
AcDbLine
 10
105.79671
 20
185.09424
 30
0.0
 11
105.79671
 21
180.79424
 31
0.0
  0
LINE
  5
253
100
AcDbEntity
  8
0
  6
CENTER
 62
     7
100
AcDbLine
 10
118.69671
 20
219.39424
 30
0.0
 11
108.89671
 21
219.39424
 31
0.0
  0
LINE
  5
254
100
AcDbEntity
  8
0
  6
CONTINUOUS
 62
     7
100
AcDbLine
 10
106.79671
 20
213.39424
 30
0.0
 11
106.79671
 21
222.39424
 31
0.0
  0
LINE
  5
255
100
AcDbEntity
  8
0
  6
CONTINUOUS
 62
     7
100
AcDbLine
 10
109.79671
 20
225.39424
 30
0.0
 11
135.79671
 21
225.39424
 31
0.0
  0
LINE
  5
256
100
AcDbEntity
  8
0
  6
CONTINUOUS
 62
     7
100
AcDbLine
 10
90.48724
 20
211.39424
 30
0.0
 11
138.79671
 21
211.39424
 31
0.0
  0
LINE
  5
257
100
AcDbEntity
  8
0
  6
CONTINUOUS
 62
     7
100
AcDbLine
 10
138.79671
 20
211.39424
 30
0.0
 11
138.79671
 21
222.39424
 31
0.0
  0
LINE
  5
258
100
AcDbEntity
  8
0
  6
CENTER
 62
     7
100
AcDbLine
 10
136.69671
 20
219.39424
 30
0.0
 11
126.89672
 21
219.39424
 31
0.0
  0
LINE
  5
259
100
AcDbEntity
  8
0
  6
CONTINUOUS
 62
     7
100
AcDbLine
 10
90.48724
 20
213.39424
 30
0.0
 11
138.79671
 21
213.39424
 31
0.0
  0
LINE
  5
25A
100
AcDbEntity
  8
0
  6
CENTER
 62
     7
100
AcDbLine
 10
113.79671
 20
177.69424
 30
0.0
 11
113.79671
 21
167.89424
 31
0.0
  0
LINE
  5
25B
100
AcDbEntity
  8
0
  6
CONTINUOUS
 62
     7
100
AcDbLine
 10
96.668272
 20
207.09424
 30
0.0
 11
96.668272
 21
185.09424
 31
0.0
  0
LINE
  5
25C
100
AcDbEntity
  8
0
  6
CONTINUOUS
 62
     7
100
AcDbLine
 10
90.48724
 20
178.79424
 30
0.0
 11
138.79671
 21
178.79424
 31
0.0
  0
LINE
  5
25D
100
AcDbEntity
  8
0
  6
CONTINUOUS
 62
     7
100
AcDbLine
 10
90.490936
 20
216.09424
 30
0.0
 11
90.490936
 21
211.39424
 31
0.0
  0
ARC
  5
25E
100
AcDbEntity
  8
0
  6
CONTINUOUS
 62
     7
100
AcDbCircle
 10
109.79671
 20
169.79424
 30
0.0
 40
3.0
100
AcDbArc
 50
179.99999
 51
270.0
  0
ARC
  5
25F
100
AcDbEntity
  8
0
  6
CONTINUOUS
 62
     7
100
AcDbCircle
 10
135.79671
 20
169.79424
 30
0.0
 40
3.0
100
AcDbArc
 50
270.0
 51
0.0
  0
CIRCLE
  5
260
100
AcDbEntity
  8
0
  6
CONTINUOUS
 62
     7
100
AcDbCircle
 10
113.79671
 20
172.79424
 30
0.0
 40
2.9
  0
CIRCLE
  5
261
100
AcDbEntity
  8
0
  6
CONTINUOUS
 62
     7
100
AcDbCircle
 10
131.79671
 20
219.39424
 30
0.0
 40
2.9
  0
CIRCLE
  5
262
100
AcDbEntity
  8
0
  6
CONTINUOUS
 62
     7
100
AcDbCircle
 10
113.79671
 20
219.39424
 30
0.0
 40
2.9
  0
ARC
  5
263
100
AcDbEntity
  8
0
  6
CONTINUOUS
 62
     7
100
AcDbCircle
 10
135.79671
 20
222.39424
 30
0.0
 40
3.0
100
AcDbArc
 50
0.0
 51
90.000003
  0
ARC
  5
264
100
AcDbEntity
  8
0
  6
CONTINUOUS
 62
     7
100
AcDbCircle
 10
109.79671
 20
222.39424
 30
0.0
 40
3.0
100
AcDbArc
 50
90.000003
 51
180.00001
  0
CIRCLE
  5
265
100
AcDbEntity
  8
0
  6
CONTINUOUS
 62
     7
100
AcDbCircle
 10
131.79671
 20
172.79424
 30
0.0
 40
2.9
  0
POINT
  5
266
100
AcDbEntity
  8
0
  6
CONTINUOUS
 62
     7
100
AcDbPoint
 10
178.79671
 20
283.09424
 30
0.0
  0
POINT
  5
267
100
AcDbEntity
  8
0
  6
CONTINUOUS
 62
     7
100
AcDbPoint
 10
225.39671
 20
283.09424
 30
0.0
  0
LINE
  5
268
100
AcDbEntity
  8
0
  6
CENTER
 62
     7
100
AcDbLine
 10
177.09671
 20
272.09424
 30
0.0
 11
227.09671
 21
272.09424
 31
0.0
  0
LINE
  5
269
100
AcDbEntity
  8
0
  6
CONTINUOUS
 62
     7
100
AcDbLine
 10
182.09671
 20
281.09424
 30
0.0
 11
182.09671
 21
261.09424
 31
0.0
  0
LINE
  5
26A
100
AcDbEntity
  8
0
  6
CONTINUOUS
 62
     7
100
AcDbLine
 10
222.09671
 20
281.09424
 30
0.0
 11
222.09671
 21
261.09424
 31
0.0
  0
LINE
  5
26B
100
AcDbEntity
  8
0
  6
CENTER
 62
     7
100
AcDbLine
 10
202.09671
 20
288.09424
 30
0.0
 11
202.09671
 21
256.09424
 31
0.0
  0
LINE
  5
26C
100
AcDbEntity
  8
0
  6
CONTINUOUS
 62
     7
100
AcDbLine
 10
219.39671
 20
281.09424
 30
0.0
 11
219.39671
 21
261.09424
 31
0.0
  0
LINE
  5
26D
100
AcDbEntity
  8
0
  6
CONTINUOUS
 62
     7
100
AcDbLine
 10
213.09671
 20
283.09424
 30
0.0
 11
213.09671
 21
261.59424
 31
0.0
  0
LINE
  5
26E
100
AcDbEntity
  8
0
  6
CONTINUOUS
 62
     7
100
AcDbLine
 10
191.09671
 20
283.09424
 30
0.0
 11
191.09671
 21
261.59424
 31
0.0
  0
LINE
  5
26F
100
AcDbEntity
  8
0
  6
CONTINUOUS
 62
     7
100
AcDbLine
 10
213.09671
 20
283.09424
 30
0.0
 11
231.39671
 21
283.09424
 31
0.0
  0
LINE
  5
270
100
AcDbEntity
  8
0
  6
CONTINUOUS
 62
     7
100
AcDbLine
 10
182.09671
 20
261.09424
 30
0.0
 11
186.79671
 21
261.09424
 31
0.0
  0
LINE
  5
271
100
AcDbEntity
  8
0
  6
CONTINUOUS
 62
     7
100
AcDbLine
 10
191.09671
 20
266.09424
 30
0.0
 11
213.09671
 21
266.09424
 31
0.0
  0
LINE
  5
272
100
AcDbEntity
  8
0
  6
CONTINUOUS
 62
     7
100
AcDbLine
 10
172.79671
 20
283.09424
 30
0.0
 11
191.09671
 21
283.09424
 31
0.0
  0
LINE
  5
273
100
AcDbEntity
  8
0
  6
CONTINUOUS
 62
     7
100
AcDbLine
 10
172.79671
 20
281.09424
 30
0.0
 11
184.79671
 21
281.09424
 31
0.0
  0
LINE
  5
274
100
AcDbEntity
  8
0
  6
CONTINUOUS
 62
     7
100
AcDbLine
 10
186.79671
 20
261.59424
 30
0.0
 11
217.39671
 21
261.59424
 31
0.0
  0
LINE
  5
275
100
AcDbEntity
  8
0
  6
CONTINUOUS
 62
     7
100
AcDbLine
 10
172.79671
 20
283.09424
 30
0.0
 11
172.79671
 21
281.09424
 31
0.0
  0
LINE
  5
276
100
AcDbEntity
  8
0
  6
CONTINUOUS
 62
     7
100
AcDbLine
 10
217.39671
 20
261.09424
 30
0.0
 11
222.09671
 21
261.09424
 31
0.0
  0
LINE
  5
277
100
AcDbEntity
  8
0
  6
CENTER
 62
     7
100
AcDbLine
 10
178.79671
 20
288.09424
 30
0.0
 11
178.79671
 21
276.09424
 31
0.0
  0
LINE
  5
278
100
AcDbEntity
  8
0
  6
CONTINUOUS
 62
     7
100
AcDbLine
 10
186.79671
 20
283.09424
 30
0.0
 11
186.79671
 21
261.09424
 31
0.0
  0
LINE
  5
279
100
AcDbEntity
  8
0
  6
CENTER
 62
     7
100
AcDbLine
 10
225.39671
 20
288.09424
 30
0.0
 11
225.39671
 21
276.09424
 31
0.0
  0
LINE
  5
27A
100
AcDbEntity
  8
0
  6
CONTINUOUS
 62
     7
100
AcDbLine
 10
231.39671
 20
283.09424
 30
0.0
 11
231.39671
 21
281.09424
 31
0.0
  0
LINE
  5
27B
100
AcDbEntity
  8
0
  6
CONTINUOUS
 62
     7
100
AcDbLine
 10
231.39671
 20
281.09424
 30
0.0
 11
219.39671
 21
281.09424
 31
0.0
  0
LINE
  5
27C
100
AcDbEntity
  8
0
  6
CONTINUOUS
 62
     7
100
AcDbLine
 10
217.39671
 20
283.09424
 30
0.0
 11
217.39671
 21
261.09424
 31
0.0
  0
LINE
  5
27D
100
AcDbEntity
  8
0
  6
CONTINUOUS
 62
     7
100
AcDbLine
 10
184.79671
 20
281.09424
 30
0.0
 11
184.79671
 21
261.09424
 31
0.0
  0
LINE
  5
27E
100
AcDbEntity
  8
0
  6
CONTINUOUS
 62
     7
100
AcDbLine
 10
191.09671
 20
282.79424
 30
0.0
 11
213.09671
 21
282.79424
 31
0.0
  0
LINE
  5
27F
100
AcDbEntity
  8
0
  6
CONTINUOUS
 62
     7
100
AcDbLine
 10
191.09671
 20
279.09424
 30
0.0
 11
213.09671
 21
279.09424
 31
0.0
  0
POINT
  5
280
100
AcDbEntity
  8
0
  6
CONTINUOUS
 62
     7
100
AcDbPoint
 10
333.79672
 20
324.79425
 30
0.0
  0
POINT
  5
281
100
AcDbEntity
  8
0
  6
CONTINUOUS
 62
     7
100
AcDbPoint
 10
351.79672
 20
324.79425
 30
0.0
  0
LINE
  5
282
100
AcDbEntity
  8
0
  6
CONTINUOUS
 62
     7
100
AcDbLine
 10
285.88724
 20
332.59425
 30
0.0
 11
288.79672
 21
332.59425
 31
0.0
  0
LINE
  5
283
100
AcDbEntity
  8
0
  6
CONTINUOUS
 62
     7
100
AcDbLine
 10
285.88724
 20
368.09425
 30
0.0
 11
310.48725
 21
368.09425
 31
0.0
  0
LINE
  5
284
100
AcDbEntity
  8
0
  6
CENTER
 62
     7
100
AcDbLine
 10
273.29672
 20
348.09425
 30
0.0
 11
351.79672
 21
348.09425
 31
0.0
  0
LINE
  5
285
100
AcDbEntity
  8
0
  6
CONTINUOUS
 62
     7
100
AcDbLine
 10
285.88724
 20
363.59425
 30
0.0
 11
288.79672
 21
363.59425
 31
0.0
  0
LINE
  5
286
100
AcDbEntity
  8
0
  6
CONTINUOUS
 62
     7
100
AcDbLine
 10
285.88724
 20
328.09425
 30
0.0
 11
310.48725
 21
328.09425
 31
0.0
  0
LINE
  5
287
100
AcDbEntity
  8
0
  6
CONTINUOUS
 62
     7
100
AcDbLine
 10
288.79672
 20
337.09425
 30
0.0
 11
298.79672
 21
337.09425
 31
0.0
  0
LINE
  5
288
100
AcDbEntity
  8
0
  6
CONTINUOUS
 62
     7
100
AcDbLine
 10
288.79672
 20
359.09425
 30
0.0
 11
298.79672
 21
359.09425
 31
0.0
  0
LINE
  5
289
100
AcDbEntity
  8
0
  6
CONTINUOUS
 62
     7
100
AcDbLine
 10
310.48725
 20
365.39425
 30
0.0
 11
358.79672
 21
365.39425
 31
0.0
  0
LINE
  5
28A
100
AcDbEntity
  8
0
  6
CONTINUOUS
 62
     7
100
AcDbLine
 10
325.79672
 20
363.39425
 30
0.0
 11
325.79672
 21
359.09425
 31
0.0
  0
LINE
  5
28B
100
AcDbEntity
  8
0
  6
CONTINUOUS
 62
     7
100
AcDbLine
 10
322.79672
 20
359.09425
 30
0.0
 11
322.79672
 21
337.09425
 31
0.0
  0
LINE
  5
28C
100
AcDbEntity
  8
0
  6
CONTINUOUS
 62
     7
100
AcDbLine
 10
298.79672
 20
366.49425
 30
0.0
 11
298.79672
 21
359.09425
 31
0.0
  0
LINE
  5
28D
100
AcDbEntity
  8
0
  6
CENTER
 62
     7
100
AcDbLine
 10
289.79672
 20
373.09425
 30
0.0
 11
289.79672
 21
323.09425
 31
0.0
  0
LINE
  5
28E
100
AcDbEntity
  8
0
  6
CENTER
 62
     7
100
AcDbLine
 10
315.79672
 20
373.09425
 30
0.0
 11
315.79672
 21
323.09425
 31
0.0
  0
LINE
  5
28F
100
AcDbEntity
  8
0
  6
CONTINUOUS
 62
     7
100
AcDbLine
 10
298.79672
 20
329.69425
 30
0.0
 11
305.79672
 21
329.69425
 31
0.0
  0
LINE
  5
290
100
AcDbEntity
  8
0
  6
CENTER
 62
     7
100
AcDbLine
 10
333.79672
 20
329.69425
 30
0.0
 11
333.79672
 21
319.89425
 31
0.0
  0
LINE
  5
291
100
AcDbEntity
  8
0
  6
CONTINUOUS
 62
     7
100
AcDbLine
 10
288.79672
 20
363.59425
 30
0.0
 11
288.79672
 21
332.59425
 31
0.0
  0
LINE
  5
292
100
AcDbEntity
  8
0
  6
CONTINUOUS
 62
     7
100
AcDbLine
 10
310.48725
 20
368.09425
 30
0.0
 11
310.48725
 21
363.39425
 31
0.0
  0
LINE
  5
293
100
AcDbEntity
  8
0
  6
CONTINUOUS
 62
     7
100
AcDbLine
 10
298.79672
 20
366.49425
 30
0.0
 11
305.79672
 21
366.49425
 31
0.0
  0
LINE
  5
294
100
AcDbEntity
  8
0
  6
CONTINUOUS
 62
     7
100
AcDbLine
 10
314.39672
 20
359.09425
 30
0.0
 11
314.39672
 21
337.09425
 31
0.0
  0
LINE
  5
295
100
AcDbEntity
  8
0
  6
CONTINUOUS
 62
     7
100
AcDbLine
 10
305.79672
 20
366.49425
 30
0.0
 11
305.79672
 21
359.09425
 31
0.0
  0
LINE
  5
296
100
AcDbEntity
  8
0
  6
CONTINUOUS
 62
     7
100
AcDbLine
 10
310.48725
 20
328.09425
 30
0.0
 11
310.48725
 21
332.79425
 31
0.0
  0
LINE
  5
297
100
AcDbEntity
  8
0
  6
CONTINUOUS
 62
     7
100
AcDbLine
 10
298.79672
 20
337.09425
 30
0.0
 11
298.79672
 21
329.69425
 31
0.0
  0
LINE
  5
298
100
AcDbEntity
  8
0
  6
CONTINUOUS
 62
     7
100
AcDbLine
 10
305.79672
 20
337.09425
 30
0.0
 11
305.79672
 21
329.69425
 31
0.0
  0
LINE
  5
299
100
AcDbEntity
  8
0
  6
CONTINUOUS
 62
     7
100
AcDbLine
 10
305.79672
 20
359.09425
 30
0.0
 11
325.79672
 21
359.09425
 31
0.0
  0
LINE
  5
29A
100
AcDbEntity
  8
0
  6
CONTINUOUS
 62
     7
100
AcDbLine
 10
305.79672
 20
337.09425
 30
0.0
 11
325.79672
 21
337.09425
 31
0.0
  0
LINE
  5
29B
100
AcDbEntity
  8
0
  6
CONTINUOUS
 62
     7
100
AcDbLine
 10
298.79672
 20
329.89425
 30
0.0
 11
305.79672
 21
329.89425
 31
0.0
  0
LINE
  5
29C
100
AcDbEntity
  8
0
  6
CONTINUOUS
 62
     7
100
AcDbLine
 10
298.79672
 20
366.29425
 30
0.0
 11
305.79672
 21
366.29425
 31
0.0
  0
LINE
  5
29D
100
AcDbEntity
  8
0
  6
CENTER
 62
     7
100
AcDbLine
 10
356.69672
 20
371.39425
 30
0.0
 11
346.89672
 21
371.39425
 31
0.0
  0
LINE
  5
29E
100
AcDbEntity
  8
0
  6
CONTINUOUS
 62
     7
100
AcDbLine
 10
358.79672
 20
363.39425
 30
0.0
 11
358.79672
 21
374.39425
 31
0.0
  0
LINE
  5
29F
100
AcDbEntity
  8
0
  6
CONTINUOUS
 62
     7
100
AcDbLine
 10
310.48725
 20
363.39425
 30
0.0
 11
358.79672
 21
363.39425
 31
0.0
  0
LINE
  5
2A0
100
AcDbEntity
  8
0
  6
CONTINUOUS
 62
     7
100
AcDbLine
 10
329.79672
 20
377.39425
 30
0.0
 11
355.79672
 21
377.39425
 31
0.0
  0
LINE
  5
2A1
100
AcDbEntity
  8
0
  6
CONTINUOUS
 62
     7
100
AcDbLine
 10
326.79672
 20
365.39425
 30
0.0
 11
326.79672
 21
374.39425
 31
0.0
  0
LINE
  5
2A2
100
AcDbEntity
  8
0
  6
CENTER
 62
     7
100
AcDbLine
 10
338.69672
 20
371.39425
 30
0.0
 11
328.89672
 21
371.39425
 31
0.0
  0
LINE
  5
2A3
100
AcDbEntity
  8
0
  6
CENTER
 62
     7
100
AcDbLine
 10
351.79672
 20
366.49425
 30
0.0
 11
351.79672
 21
376.29425
 31
0.0
  0
LINE
  5
2A4
100
AcDbEntity
  8
0
  6
CONTINUOUS
 62
     7
100
AcDbLine
 10
325.79672
 20
337.09425
 30
0.0
 11
325.79672
 21
332.79425
 31
0.0
  0
LINE
  5
2A5
100
AcDbEntity
  8
0
  6
CENTER
 62
     7
100
AcDbLine
 10
333.79672
 20
366.49425
 30
0.0
 11
333.79672
 21
376.29425
 31
0.0
  0
LINE
  5
2A6
100
AcDbEntity
  8
0
  6
CENTER
 62
     7
100
AcDbLine
 10
351.79672
 20
329.69425
 30
0.0
 11
351.79672
 21
319.89425
 31
0.0
  0
LINE
  5
2A7
100
AcDbEntity
  8
0
  6
CENTER
 62
     7
100
AcDbLine
 10
338.69672
 20
324.79425
 30
0.0
 11
328.89672
 21
324.79425
 31
0.0
  0
LINE
  5
2A8
100
AcDbEntity
  8
0
  6
CONTINUOUS
 62
     7
100
AcDbLine
 10
326.79672
 20
330.79425
 30
0.0
 11
326.79672
 21
321.79425
 31
0.0
  0
LINE
  5
2A9
100
AcDbEntity
  8
0
  6
CONTINUOUS
 62
     7
100
AcDbLine
 10
329.79672
 20
318.79425
 30
0.0
 11
355.79672
 21
318.79425
 31
0.0
  0
LINE
  5
2AA
100
AcDbEntity
  8
0
  6
CONTINUOUS
 62
     7
100
AcDbLine
 10
310.48725
 20
332.79425
 30
0.0
 11
358.79672
 21
332.79425
 31
0.0
  0
LINE
  5
2AB
100
AcDbEntity
  8
0
  6
CONTINUOUS
 62
     7
100
AcDbLine
 10
358.79672
 20
332.79425
 30
0.0
 11
358.79672
 21
321.79425
 31
0.0
  0
LINE
  5
2AC
100
AcDbEntity
  8
0
  6
CENTER
 62
     7
100
AcDbLine
 10
356.69672
 20
324.79425
 30
0.0
 11
346.89672
 21
324.79425
 31
0.0
  0
LINE
  5
2AD
100
AcDbEntity
  8
0
  6
CONTINUOUS
 62
     7
100
AcDbLine
 10
310.48725
 20
330.79425
 30
0.0
 11
358.79672
 21
330.79425
 31
0.0
  0
LINE
  5
2AE
100
AcDbEntity
  8
0
  6
CENTER
 62
     7
100
AcDbLine
 10
296.79672
 20
333.09425
 30
0.0
 11
307.79672
 21
333.09425
 31
0.0
  0
LINE
  5
2AF
100
AcDbEntity
  8
0
  6
CENTER
 62
     7
100
AcDbLine
 10
296.79672
 20
363.09425
 30
0.0
 11
307.79672
 21
363.09425
 31
0.0
  0
CIRCLE
  5
2B0
100
AcDbEntity
  8
0
  6
CONTINUOUS
 62
     7
100
AcDbCircle
 10
351.79672
 20
324.79425
 30
0.0
 40
2.9
  0
ARC
  5
2B1
100
AcDbEntity
  8
0
  6
CONTINUOUS
 62
     7
100
AcDbCircle
 10
329.79672
 20
374.39425
 30
0.0
 40
3.0
100
AcDbArc
 50
90.000003
 51
180.00001
  0
ARC
  5
2B2
100
AcDbEntity
  8
0
  6
CONTINUOUS
 62
     7
100
AcDbCircle
 10
355.79672
 20
374.39425
 30
0.0
 40
3.0
100
AcDbArc
 50
0.0
 51
90.000003
  0
CIRCLE
  5
2B3
100
AcDbEntity
  8
0
  6
CONTINUOUS
 62
     7
100
AcDbCircle
 10
333.79672
 20
371.39425
 30
0.0
 40
2.9
  0
CIRCLE
  5
2B4
100
AcDbEntity
  8
0
  6
CONTINUOUS
 62
     7
100
AcDbCircle
 10
351.79672
 20
371.39425
 30
0.0
 40
2.9
  0
CIRCLE
  5
2B5
100
AcDbEntity
  8
0
  6
CONTINUOUS
 62
     7
100
AcDbCircle
 10
333.79672
 20
324.79425
 30
0.0
 40
2.9
  0
ARC
  5
2B6
100
AcDbEntity
  8
0
  6
CONTINUOUS
 62
     7
100
AcDbCircle
 10
355.79672
 20
321.79425
 30
0.0
 40
3.0
100
AcDbArc
 50
270.0
 51
0.0
  0
ARC
  5
2B7
100
AcDbEntity
  8
0
  6
CONTINUOUS
 62
     7
100
AcDbCircle
 10
329.79672
 20
321.79425
 30
0.0
 40
3.0
100
AcDbArc
 50
179.99999
 51
270.0
  0
POINT
  5
2B8
100
AcDbEntity
  8
0
  6
CONTINUOUS
 62
     7
100
AcDbPoint
 10
333.79672
 20
261.09424
 30
0.0
  0
POINT
  5
2B9
100
AcDbEntity
  8
0
  6
CONTINUOUS
 62
     7
100
AcDbPoint
 10
351.79672
 20
261.09424
 30
0.0
  0
LINE
  5
2BA
100
AcDbEntity
  8
0
  6
CENTER
 62
     7
100
AcDbLine
 10
295.79672
 20
272.09424
 30
0.0
 11
283.79672
 21
272.09424
 31
0.0
  0
LINE
  5
2BB
100
AcDbEntity
  8
0
  6
CENTER
 62
     7
100
AcDbLine
 10
315.79672
 20
278.09424
 30
0.0
 11
315.79672
 21
266.09424
 31
0.0
  0
LINE
  5
2BC
100
AcDbEntity
  8
0
  6
CENTER
 62
     7
100
AcDbLine
 10
321.79672
 20
272.09424
 30
0.0
 11
309.79672
 21
272.09424
 31
0.0
  0
LINE
  5
2BD
100
AcDbEntity
  8
0
  6
CONTINUOUS
 62
     7
100
AcDbLine
 10
289.79672
 20
283.09424
 30
0.0
 11
315.79672
 21
283.09424
 31
0.0
  0
LINE
  5
2BE
100
AcDbEntity
  8
0
  6
CENTER
 62
     7
100
AcDbLine
 10
289.79672
 20
278.09424
 30
0.0
 11
289.79672
 21
266.09424
 31
0.0
  0
LINE
  5
2BF
100
AcDbEntity
  8
0
  6
CONTINUOUS
 62
     7
100
AcDbLine
 10
289.79672
 20
261.09424
 30
0.0
 11
321.79672
 21
261.09424
 31
0.0
  0
LINE
  5
2C0
100
AcDbEntity
  8
0
  6
CONTINUOUS
 62
     7
100
AcDbLine
 10
313.29672
 20
275.21674
 30
0.0
 11
313.29672
 21
268.97174
 31
0.0
  0
LINE
  5
2C1
100
AcDbEntity
  8
0
  6
CONTINUOUS
 62
     7
100
AcDbLine
 10
308.40466
 20
263.28473
 30
0.0
 11
310.38378
 21
261.62405
 31
0.0
  0
LINE
  5
2C2
100
AcDbEntity
  8
0
  6
CENTER
 62
     7
100
AcDbLine
 10
333.79672
 20
258.09424
 30
0.0
 11
333.79672
 21
266.09424
 31
0.0
  0
LINE
  5
2C3
100
AcDbEntity
  8
0
  6
CONTINUOUS
 62
     7
100
AcDbLine
 10
326.79672
 20
263.09424
 30
0.0
 11
358.79672
 21
263.09424
 31
0.0
  0
LINE
  5
2C4
100
AcDbEntity
  8
0
  6
CONTINUOUS
 62
     7
100
AcDbLine
 10
306.13598
 20
276.19424
 30
0.0
 11
310.49767
 21
276.19424
 31
0.0
  0
LINE
  5
2C5
100
AcDbEntity
  8
0
  6
CENTER
 62
     7
100
AcDbLine
 10
351.79672
 20
258.09424
 30
0.0
 11
351.79672
 21
266.09424
 31
0.0
  0
LINE
  5
2C6
100
AcDbEntity
  8
0
  6
CONTINUOUS
 62
     7
100
AcDbLine
 10
358.79672
 20
261.09424
 30
0.0
 11
358.79672
 21
263.09424
 31
0.0
  0
LINE
  5
2C7
100
AcDbEntity
  8
0
  6
CONTINUOUS
 62
     7
100
AcDbLine
 10
319.72951
 20
282.42701
 30
0.0
 11
352.42857
 21
270.48766
 31
0.0
  0
LINE
  5
2C8
100
AcDbEntity
  8
0
  6
CONTINUOUS
 62
     7
100
AcDbLine
 10
309.09747
 20
271.99423
 30
0.0
 11
305.11356
 21
271.99423
 31
0.0
  0
LINE
  5
2C9
100
AcDbEntity
  8
0
  6
CONTINUOUS
 62
     7
100
AcDbLine
 10
326.79672
 20
261.09424
 30
0.0
 11
326.79672
 21
263.09424
 31
0.0
  0
ARC
  5
2CA
100
AcDbEntity
  8
0
  6
CONTINUOUS
 62
     7
100
AcDbCircle
 10
289.79672
 20
272.09424
 30
0.0
 40
11.0
100
AcDbArc
 50
90.000003
 51
270.0
  0
ARC
  5
2CB
100
AcDbEntity
  8
0
  6
CONTINUOUS
 62
     7
100
AcDbCircle
 10
310.19094
 20
261.39424
 30
0.0
 40
0.3
100
AcDbArc
 50
270.0
 51
50.0
  0
ARC
  5
2CC
100
AcDbEntity
  8
0
  6
CONTINUOUS
 62
     7
100
AcDbCircle
 10
315.79672
 20
272.09424
 30
0.0
 40
11.5
100
AcDbArc
 50
118.95503
 51
230.00001
  0
ARC
  5
2CD
100
AcDbEntity
  8
0
  6
CONTINUOUS
 62
     7
100
AcDbCircle
 10
309.98725
 20
282.59424
 30
0.0
 40
0.5
100
AcDbArc
 50
298.95503
 51
90.000003
  0
CIRCLE
  5
2CE
100
AcDbEntity
  8
0
  6
CONTINUOUS
 62
     7
100
AcDbCircle
 10
315.79672
 20
272.09424
 30
0.0
 40
4.0
  0
ARC
  5
2CF
100
AcDbEntity
  8
0
  6
CONTINUOUS
 62
     7
100
AcDbCircle
 10
315.79672
 20
272.09424
 30
0.0
 40
11.2
100
AcDbArc
 50
183.21457
 51
259.15594
  0
ARC
  5
2D0
100
AcDbEntity
  8
0
  6
CONTINUOUS
 62
     7
100
AcDbCircle
 10
315.79672
 20
272.09424
 30
0.0
 40
11.2
100
AcDbArc
 50
100.84406
 51
154.53838
  0
ARC
  5
2D1
100
AcDbEntity
  8
0
  6
CONTINUOUS
 62
     7
100
AcDbCircle
 10
305.11356
 20
271.49423
 30
0.0
 40
0.5
100
AcDbArc
 50
90.000003
 51
183.21457
  0
ARC
  5
2D2
100
AcDbEntity
  8
0
  6
CONTINUOUS
 62
     7
100
AcDbCircle
 10
315.95673
 20
272.09424
 30
0.0
 40
11.0
100
AcDbArc
 50
69.856197
 51
90.833443
  0
ARC
  5
2D3
100
AcDbEntity
  8
0
  6
CONTINUOUS
 62
     7
100
AcDbCircle
 10
315.79672
 20
272.09424
 30
0.0
 40
6.7
100
AcDbArc
 50
142.27008
 51
180.85524
  0
ARC
  5
2D4
100
AcDbEntity
  8
0
  6
CONTINUOUS
 62
     7
100
AcDbCircle
 10
324.29672
 20
261.09424
 30
0.0
 40
2.5
100
AcDbArc
 50
0.0
 51
180.00001
  0
ARC
  5
2D5
100
AcDbEntity
  8
0
  6
CONTINUOUS
 62
     7
100
AcDbCircle
 10
348.99876
 20
261.09424
 30
0.0
 40
10.0
100
AcDbArc
 50
11.536959
 51
69.941444
  0
ARC
  5
2D6
100
AcDbEntity
  8
0
  6
CONTINUOUS
 62
     7
100
AcDbCircle
 10
306.13598
 20
276.69424
 30
0.0
 40
0.5
100
AcDbArc
 50
154.53838
 51
270.0
  0
POLYLINE
  5
2D7
100
AcDbEntity
  8
0
  6
CONTINUOUS
 62
     7
100
AcDb2dPolyline
 66
     1
 10
0.0
 20
0.0
 30
0.0
  0
VERTEX
  5
2D8
100
AcDbEntity
  8
0
  6
CONTINUOUS
 62
     7
100
AcDbVertex
100
AcDb2dVertex
 10
326.79672
 20
261.09424
 30
0.0
  0
VERTEX
  5
2D9
100
AcDbEntity
  8
0
  6
CONTINUOUS
 62
     7
100
AcDbVertex
100
AcDb2dVertex
 10
358.79672
 20
261.09424
 30
0.0
  0
SEQEND
  5
2DA
100
AcDbEntity
  8
0
 62
     7
  0
POINT
  5
2DB
100
AcDbEntity
  8
0
  6
CONTINUOUS
 62
     7
100
AcDbPoint
 10
333.79672
 20
219.39424
 30
0.0
  0
POINT
  5
2DC
100
AcDbEntity
  8
0
  6
CONTINUOUS
 62
     7
100
AcDbPoint
 10
351.79672
 20
219.39424
 30
0.0
  0
LINE
  5
2DD
100
AcDbEntity
  8
0
  6
CENTER
 62
     7
100
AcDbLine
 10
356.69672
 20
172.79424
 30
0.0
 11
346.89672
 21
172.79424
 31
0.0
  0
LINE
  5
2DE
100
AcDbEntity
  8
0
  6
CENTER
 62
     7
100
AcDbLine
 10
315.79672
 20
221.09424
 30
0.0
 11
315.79672
 21
171.09424
 31
0.0
  0
LINE
  5
2DF
100
AcDbEntity
  8
0
  6
CENTER
 62
     7
100
AcDbLine
 10
289.79672
 20
221.09424
 30
0.0
 11
289.79672
 21
171.09424
 31
0.0
  0
LINE
  5
2E0
100
AcDbEntity
  8
0
  6
CONTINUOUS
 62
     7
100
AcDbLine
 10
284.49094
 20
176.09424
 30
0.0
 11
310.49094
 21
176.09424
 31
0.0
  0
LINE
  5
2E1
100
AcDbEntity
  8
0
  6
CONTINUOUS
 62
     7
100
AcDbLine
 10
289.29672
 20
211.59424
 30
0.0
 11
289.29672
 21
180.59424
 31
0.0
  0
LINE
  5
2E2
100
AcDbEntity
  8
0
  6
CENTER
 62
     7
100
AcDbLine
 10
273.29672
 20
196.09424
 30
0.0
 11
341.62574
 21
196.09424
 31
0.0
  0
LINE
  5
2E3
100
AcDbEntity
  8
0
  6
CONTINUOUS
 62
     7
100
AcDbLine
 10
310.49094
 20
180.79424
 30
0.0
 11
310.49094
 21
176.09424
 31
0.0
  0
LINE
  5
2E4
100
AcDbEntity
  8
0
  6
CONTINUOUS
 62
     7
100
AcDbLine
 10
284.49094
 20
180.59424
 30
0.0
 11
289.29672
 21
180.59424
 31
0.0
  0
LINE
  5
2E5
100
AcDbEntity
  8
0
  6
CONTINUOUS
 62
     7
100
AcDbLine
 10
284.49094
 20
216.09424
 30
0.0
 11
310.49094
 21
216.09424
 31
0.0
  0
LINE
  5
2E6
100
AcDbEntity
  8
0
  6
CONTINUOUS
 62
     7
100
AcDbLine
 10
284.49094
 20
211.59424
 30
0.0
 11
289.29672
 21
211.59424
 31
0.0
  0
LINE
  5
2E7
100
AcDbEntity
  8
0
  6
CONTINUOUS
 62
     7
100
AcDbLine
 10
358.79672
 20
180.79424
 30
0.0
 11
358.79672
 21
169.79424
 31
0.0
  0
LINE
  5
2E8
100
AcDbEntity
  8
0
  6
CONTINUOUS
 62
     7
100
AcDbLine
 10
325.79672
 20
211.39424
 30
0.0
 11
325.79672
 21
207.09424
 31
0.0
  0
LINE
  5
2E9
100
AcDbEntity
  8
0
  6
CONTINUOUS
 62
     7
100
AcDbLine
 10
322.79672
 20
207.09424
 30
0.0
 11
322.79672
 21
185.09424
 31
0.0
  0
LINE
  5
2EA
100
AcDbEntity
  8
0
  6
CONTINUOUS
 62
     7
100
AcDbLine
 10
316.66828
 20
207.09424
 30
0.0
 11
325.79672
 21
207.09424
 31
0.0
  0
LINE
  5
2EB
100
AcDbEntity
  8
0
  6
CONTINUOUS
 62
     7
100
AcDbLine
 10
316.66828
 20
185.09424
 30
0.0
 11
325.79672
 21
185.09424
 31
0.0
  0
LINE
  5
2EC
100
AcDbEntity
  8
0
  6
CONTINUOUS
 62
     7
100
AcDbLine
 10
310.48725
 20
180.79424
 30
0.0
 11
358.79672
 21
180.79424
 31
0.0
  0
LINE
  5
2ED
100
AcDbEntity
  8
0
  6
CONTINUOUS
 62
     7
100
AcDbLine
 10
329.79672
 20
166.79424
 30
0.0
 11
355.79672
 21
166.79424
 31
0.0
  0
LINE
  5
2EE
100
AcDbEntity
  8
0
  6
CONTINUOUS
 62
     7
100
AcDbLine
 10
326.79672
 20
180.79424
 30
0.0
 11
326.79672
 21
169.79424
 31
0.0
  0
LINE
  5
2EF
100
AcDbEntity
  8
0
  6
CENTER
 62
     7
100
AcDbLine
 10
338.69672
 20
172.79424
 30
0.0
 11
328.89672
 21
172.79424
 31
0.0
  0
LINE
  5
2F0
100
AcDbEntity
  8
0
  6
CENTER
 62
     7
100
AcDbLine
 10
351.79672
 20
177.69424
 30
0.0
 11
351.79672
 21
167.89424
 31
0.0
  0
LINE
  5
2F1
100
AcDbEntity
  8
0
  6
CENTER
 62
     7
100
AcDbLine
 10
333.79672
 20
214.49424
 30
0.0
 11
333.79672
 21
224.29424
 31
0.0
  0
LINE
  5
2F2
100
AcDbEntity
  8
0
  6
CENTER
 62
     7
100
AcDbLine
 10
351.79672
 20
214.49424
 30
0.0
 11
351.79672
 21
224.29424
 31
0.0
  0
LINE
  5
2F3
100
AcDbEntity
  8
0
  6
CONTINUOUS
 62
     7
100
AcDbLine
 10
325.79672
 20
185.09424
 30
0.0
 11
325.79672
 21
180.79424
 31
0.0
  0
LINE
  5
2F4
100
AcDbEntity
  8
0
  6
CENTER
 62
     7
100
AcDbLine
 10
338.69672
 20
219.39424
 30
0.0
 11
328.89672
 21
219.39424
 31
0.0
  0
LINE
  5
2F5
100
AcDbEntity
  8
0
  6
CONTINUOUS
 62
     7
100
AcDbLine
 10
326.79672
 20
211.39424
 30
0.0
 11
326.79672
 21
222.39424
 31
0.0
  0
LINE
  5
2F6
100
AcDbEntity
  8
0
  6
CONTINUOUS
 62
     7
100
AcDbLine
 10
329.79672
 20
225.39424
 30
0.0
 11
355.79672
 21
225.39424
 31
0.0
  0
LINE
  5
2F7
100
AcDbEntity
  8
0
  6
CONTINUOUS
 62
     7
100
AcDbLine
 10
310.48725
 20
211.39424
 30
0.0
 11
358.79672
 21
211.39424
 31
0.0
  0
LINE
  5
2F8
100
AcDbEntity
  8
0
  6
CONTINUOUS
 62
     7
100
AcDbLine
 10
358.79672
 20
211.39424
 30
0.0
 11
358.79672
 21
222.39424
 31
0.0
  0
LINE
  5
2F9
100
AcDbEntity
  8
0
  6
CENTER
 62
     7
100
AcDbLine
 10
356.69672
 20
219.39424
 30
0.0
 11
346.89672
 21
219.39424
 31
0.0
  0
LINE
  5
2FA
100
AcDbEntity
  8
0
  6
CONTINUOUS
 62
     7
100
AcDbLine
 10
310.48725
 20
213.39424
 30
0.0
 11
326.79672
 21
213.39424
 31
0.0
  0
LINE
  5
2FB
100
AcDbEntity
  8
0
  6
CENTER
 62
     7
100
AcDbLine
 10
333.79672
 20
177.69424
 30
0.0
 11
333.79672
 21
167.89424
 31
0.0
  0
LINE
  5
2FC
100
AcDbEntity
  8
0
  6
CONTINUOUS
 62
     7
100
AcDbLine
 10
316.66828
 20
207.09424
 30
0.0
 11
316.66828
 21
185.09424
 31
0.0
  0
LINE
  5
2FD
100
AcDbEntity
  8
0
  6
CONTINUOUS
 62
     7
100
AcDbLine
 10
310.48725
 20
178.79424
 30
0.0
 11
326.79672
 21
178.79424
 31
0.0
  0
LINE
  5
2FE
100
AcDbEntity
  8
0
  6
CONTINUOUS
 62
     7
100
AcDbLine
 10
310.49094
 20
216.09424
 30
0.0
 11
310.49094
 21
211.39424
 31
0.0
  0
ARC
  5
2FF
100
AcDbEntity
  8
0
  6
CONTINUOUS
 62
     7
100
AcDbCircle
 10
329.79672
 20
169.79424
 30
0.0
 40
3.0
100
AcDbArc
 50
179.99999
 51
270.0
  0
ARC
  5
300
100
AcDbEntity
  8
0
  6
CONTINUOUS
 62
     7
100
AcDbCircle
 10
355.79672
 20
169.79424
 30
0.0
 40
3.0
100
AcDbArc
 50
270.0
 51
0.0
  0
CIRCLE
  5
301
100
AcDbEntity
  8
0
  6
CONTINUOUS
 62
     7
100
AcDbCircle
 10
333.79672
 20
172.79424
 30
0.0
 40
2.9
  0
CIRCLE
  5
302
100
AcDbEntity
  8
0
  6
CONTINUOUS
 62
     7
100
AcDbCircle
 10
351.79672
 20
219.39424
 30
0.0
 40
2.9
  0
CIRCLE
  5
303
100
AcDbEntity
  8
0
  6
CONTINUOUS
 62
     7
100
AcDbCircle
 10
333.79672
 20
219.39424
 30
0.0
 40
2.9
  0
ARC
  5
304
100
AcDbEntity
  8
0
  6
CONTINUOUS
 62
     7
100
AcDbCircle
 10
355.79672
 20
222.39424
 30
0.0
 40
3.0
100
AcDbArc
 50
0.0
 51
90.000003
  0
ARC
  5
305
100
AcDbEntity
  8
0
  6
CONTINUOUS
 62
     7
100
AcDbCircle
 10
329.79672
 20
222.39424
 30
0.0
 40
3.0
100
AcDbArc
 50
90.000003
 51
180.00001
  0
CIRCLE
  5
306
100
AcDbEntity
  8
0
  6
CONTINUOUS
 62
     7
100
AcDbCircle
 10
351.79672
 20
172.79424
 30
0.0
 40
2.9
  0
POINT
  5
307
100
AcDbEntity
  8
0
  6
CONTINUOUS
 62
     7
100
AcDbPoint
 10
403.79672
 20
261.09424
 30
0.0
  0
POINT
  5
308
100
AcDbEntity
  8
0
  6
CONTINUOUS
 62
     7
100
AcDbPoint
 10
450.39672
 20
261.09424
 30
0.0
  0
LINE
  5
309
100
AcDbEntity
  8
0
  6
CENTER
 62
     7
100
AcDbLine
 10
402.09672
 20
272.09424
 30
0.0
 11
452.09672
 21
272.09424
 31
0.0
  0
LINE
  5
30A
100
AcDbEntity
  8
0
  6
CONTINUOUS
 62
     7
100
AcDbLine
 10
407.09672
 20
263.09424
 30
0.0
 11
407.09672
 21
283.09424
 31
0.0
  0
LINE
  5
30B
100
AcDbEntity
  8
0
  6
CONTINUOUS
 62
     7
100
AcDbLine
 10
447.09672
 20
263.09424
 30
0.0
 11
447.09672
 21
283.09424
 31
0.0
  0
LINE
  5
30C
100
AcDbEntity
  8
0
  6
CENTER
 62
     7
100
AcDbLine
 10
427.09672
 20
288.09424
 30
0.0
 11
427.09672
 21
256.09424
 31
0.0
  0
LINE
  5
30D
100
AcDbEntity
  8
0
  6
CONTINUOUS
 62
     7
100
AcDbLine
 10
444.39672
 20
263.09424
 30
0.0
 11
444.39672
 21
283.09424
 31
0.0
  0
LINE
  5
30E
100
AcDbEntity
  8
0
  6
CONTINUOUS
 62
     7
100
AcDbLine
 10
438.09672
 20
283.09424
 30
0.0
 11
438.09672
 21
261.59424
 31
0.0
  0
LINE
  5
30F
100
AcDbEntity
  8
0
  6
CONTINUOUS
 62
     7
100
AcDbLine
 10
416.09672
 20
283.09424
 30
0.0
 11
416.09672
 21
261.59424
 31
0.0
  0
LINE
  5
310
100
AcDbEntity
  8
0
  6
CONTINUOUS
 62
     7
100
AcDbLine
 10
407.09672
 20
283.09424
 30
0.0
 11
416.09672
 21
283.09424
 31
0.0
  0
LINE
  5
311
100
AcDbEntity
  8
0
  6
CONTINUOUS
 62
     7
100
AcDbLine
 10
397.79672
 20
261.09424
 30
0.0
 11
411.79672
 21
261.09424
 31
0.0
  0
LINE
  5
312
100
AcDbEntity
  8
0
  6
CONTINUOUS
 62
     7
100
AcDbLine
 10
416.09672
 20
266.09424
 30
0.0
 11
438.09672
 21
266.09424
 31
0.0
  0
LINE
  5
313
100
AcDbEntity
  8
0
  6
CONTINUOUS
 62
     7
100
AcDbLine
 10
397.79672
 20
263.09424
 30
0.0
 11
409.79672
 21
263.09424
 31
0.0
  0
LINE
  5
314
100
AcDbEntity
  8
0
  6
CONTINUOUS
 62
     7
100
AcDbLine
 10
411.79672
 20
261.59424
 30
0.0
 11
442.39672
 21
261.59424
 31
0.0
  0
LINE
  5
315
100
AcDbEntity
  8
0
  6
CONTINUOUS
 62
     7
100
AcDbLine
 10
397.79672
 20
261.09424
 30
0.0
 11
397.79672
 21
263.09424
 31
0.0
  0
LINE
  5
316
100
AcDbEntity
  8
0
  6
CONTINUOUS
 62
     7
100
AcDbLine
 10
442.39672
 20
261.09424
 30
0.0
 11
456.39672
 21
261.09424
 31
0.0
  0
LINE
  5
317
100
AcDbEntity
  8
0
  6
CENTER
 62
     7
100
AcDbLine
 10
403.79672
 20
256.09424
 30
0.0
 11
403.79672
 21
268.09424
 31
0.0
  0
LINE
  5
318
100
AcDbEntity
  8
0
  6
CONTINUOUS
 62
     7
100
AcDbLine
 10
411.79672
 20
283.09424
 30
0.0
 11
411.79672
 21
261.09424
 31
0.0
  0
LINE
  5
319
100
AcDbEntity
  8
0
  6
CENTER
 62
     7
100
AcDbLine
 10
450.39672
 20
256.09424
 30
0.0
 11
450.39672
 21
268.09424
 31
0.0
  0
LINE
  5
31A
100
AcDbEntity
  8
0
  6
CONTINUOUS
 62
     7
100
AcDbLine
 10
456.39672
 20
261.09424
 30
0.0
 11
456.39672
 21
263.09424
 31
0.0
  0
LINE
  5
31B
100
AcDbEntity
  8
0
  6
CONTINUOUS
 62
     7
100
AcDbLine
 10
456.39672
 20
263.09424
 30
0.0
 11
444.39672
 21
263.09424
 31
0.0
  0
LINE
  5
31C
100
AcDbEntity
  8
0
  6
CONTINUOUS
 62
     7
100
AcDbLine
 10
442.39672
 20
283.09424
 30
0.0
 11
442.39672
 21
261.09424
 31
0.0
  0
LINE
  5
31D
100
AcDbEntity
  8
0
  6
CONTINUOUS
 62
     7
100
AcDbLine
 10
409.79672
 20
263.09424
 30
0.0
 11
409.79672
 21
283.09424
 31
0.0
  0
LINE
  5
31E
100
AcDbEntity
  8
0
  6
CONTINUOUS
 62
     7
100
AcDbLine
 10
438.09672
 20
283.09424
 30
0.0
 11
447.09672
 21
283.09424
 31
0.0
  0
LINE
  5
31F
100
AcDbEntity
  8
0
  6
CONTINUOUS
 62
     7
100
AcDbLine
 10
416.09672
 20
279.09424
 30
0.0
 11
438.09672
 21
279.09424
 31
0.0
  0
LINE
  5
320
100
AcDbEntity
  8
0
  6
CONTINUOUS
 62
     7
100
AcDbLine
 10
416.09672
 20
282.79424
 30
0.0
 11
438.09672
 21
282.79424
 31
0.0
  0
POINT
  5
321
100
AcDbEntity
  8
0
  6
CONTINUOUS
 62
     7
100
AcDbPoint
 10
-436.20328
 20
76.094246
 30
0.0
  0
POINT
  5
322
100
AcDbEntity
  8
0
  6
CONTINUOUS
 62
     7
100
AcDbPoint
 10
-419.70328
 20
76.094246
 30
0.0
  0
LINE
  5
323
100
AcDbEntity
  8
0
  6
CONTINUOUS
 62
     7
100
AcDbLine
 10
-456.8975
 20
60.594246
 30
0.0
 11
-461.70328
 21
60.594246
 31
0.0
  0
LINE
  5
324
100
AcDbEntity
  8
0
  6
CONTINUOUS
 62
     7
100
AcDbLine
 10
-456.8975
 20
91.594246
 30
0.0
 11
-461.70328
 21
91.594246
 31
0.0
  0
LINE
  5
325
100
AcDbEntity
  8
0
  6
CENTER
 62
     7
100
AcDbLine
 10
-436.20328
 20
51.094246
 30
0.0
 11
-436.20328
 21
101.09425
 31
0.0
  0
LINE
  5
326
100
AcDbEntity
  8
0
  6
CENTER
 62
     7
100
AcDbLine
 10
-462.20328
 20
51.094246
 30
0.0
 11
-462.20328
 21
101.09425
 31
0.0
  0
LINE
  5
327
100
AcDbEntity
  8
0
  6
CONTINUOUS
 62
     7
100
AcDbLine
 10
-456.8975
 20
56.094246
 30
0.0
 11
-456.8975
 21
60.594246
 31
0.0
  0
LINE
  5
328
100
AcDbEntity
  8
0
  6
CONTINUOUS
 62
     7
100
AcDbLine
 10
-430.8975
 20
96.094246
 30
0.0
 11
-456.8975
 21
96.094246
 31
0.0
  0
LINE
  5
329
100
AcDbEntity
  8
0
  6
CONTINUOUS
 62
     7
100
AcDbLine
 10
-435.70328
 20
60.594246
 30
0.0
 11
-435.70328
 21
91.594246
 31
0.0
  0
LINE
  5
32A
100
AcDbEntity
  8
0
  6
CENTER
 62
     7
100
AcDbLine
 10
-419.70328
 20
76.094246
 30
0.0
 11
-476.70328
 21
76.094246
 31
0.0
  0
LINE
  5
32B
100
AcDbEntity
  8
0
  6
CONTINUOUS
 62
     7
100
AcDbLine
 10
-456.8975
 20
91.594246
 30
0.0
 11
-456.8975
 21
96.094246
 31
0.0
  0
LINE
  5
32C
100
AcDbEntity
  8
0
  6
CONTINUOUS
 62
     7
100
AcDbLine
 10
-430.8975
 20
91.594246
 30
0.0
 11
-435.70328
 21
91.594246
 31
0.0
  0
LINE
  5
32D
100
AcDbEntity
  8
0
  6
CONTINUOUS
 62
     7
100
AcDbLine
 10
-430.8975
 20
56.094246
 30
0.0
 11
-456.8975
 21
56.094246
 31
0.0
  0
LINE
  5
32E
100
AcDbEntity
  8
0
  6
CONTINUOUS
 62
     7
100
AcDbLine
 10
-430.8975
 20
60.594246
 30
0.0
 11
-435.70328
 21
60.594246
 31
0.0
  0
POINT
  5
32F
100
AcDbEntity
  8
0
  6
CONTINUOUS
 62
     7
100
AcDbPoint
 10
-436.20328
 20
0.094247
 30
0.0
  0
POINT
  5
330
100
AcDbEntity
  8
0
  6
CONTINUOUS
 62
     7
100
AcDbPoint
 10
-430.20328
 20
0.094247
 30
0.0
  0
LINE
  5
331
100
AcDbEntity
  8
0
  6
CENTER
 62
     7
100
AcDbLine
 10
-462.20328
 20
-5.905753
 30
0.0
 11
-462.20328
 21
6.094247
 31
0.0
  0
LINE
  5
332
100
AcDbEntity
  8
0
  6
CENTER
 62
     7
100
AcDbLine
 10
-442.20328
 20
0.094247
 30
0.0
 11
-430.20328
 21
0.094247
 31
0.0
  0
LINE
  5
333
100
AcDbEntity
  8
0
  6
CONTINUOUS
 62
     7
100
AcDbLine
 10
-436.20328
 20
-10.905753
 30
0.0
 11
-462.20328
 21
-10.905753
 31
0.0
  0
LINE
  5
334
100
AcDbEntity
  8
0
  6
CENTER
 62
     7
100
AcDbLine
 10
-468.20328
 20
0.094247
 30
0.0
 11
-456.20328
 21
0.094247
 31
0.0
  0
LINE
  5
335
100
AcDbEntity
  8
0
  6
CONTINUOUS
 62
     7
100
AcDbLine
 10
-436.20328
 20
11.094247
 30
0.0
 11
-456.5975
 21
11.094247
 31
0.0
  0
LINE
  5
336
100
AcDbEntity
  8
0
  6
CENTER
 62
     7
100
AcDbLine
 10
-436.20328
 20
-5.905753
 30
0.0
 11
-436.20328
 21
6.094247
 31
0.0
  0
LINE
  5
337
100
AcDbEntity
  8
0
  6
CONTINUOUS
 62
     7
100
AcDbLine
 10
-459.70328
 20
-3.028252
 30
0.0
 11
-459.70328
 21
3.216746
 31
0.0
  0
LINE
  5
338
100
AcDbEntity
  8
0
  6
CONTINUOUS
 62
     7
100
AcDbLine
 10
-454.81122
 20
8.903759
 30
0.0
 11
-456.79033
 21
10.564434
 31
0.0
  0
ARC
  5
339
100
AcDbEntity
  8
0
  6
CONTINUOUS
 62
     7
100
AcDbCircle
 10
-436.20328
 20
0.094247
 30
0.0
 40
11.0
100
AcDbArc
 50
270.0
 51
90.000003
  0
CIRCLE
  5
33A
100
AcDbEntity
  8
0
  6
CONTINUOUS
 62
     7
100
AcDbCircle
 10
-462.20328
 20
0.094247
 30
0.0
 40
4.0
  0
ARC
  5
33B
100
AcDbEntity
  8
0
  6
CONTINUOUS
 62
     7
100
AcDbCircle
 10
-462.20328
 20
0.094247
 30
0.0
 40
11.5
100
AcDbArc
 50
298.95503
 51
50.0
  0
ARC
  5
33C
100
AcDbEntity
  8
0
  6
CONTINUOUS
 62
     7
100
AcDbCircle
 10
-456.3938
 20
-10.405753
 30
0.0
 40
0.5
100
AcDbArc
 50
118.95503
 51
270.0
  0
ARC
  5
33D
100
AcDbEntity
  8
0
  6
CONTINUOUS
 62
     7
100
AcDbCircle
 10
-456.5975
 20
10.794246
 30
0.0
 40
0.3
100
AcDbArc
 50
90.000003
 51
230.00001
  0
CIRCLE
  5
33E
100
AcDbEntity
  8
0
  6
CONTINUOUS
 62
     7
100
AcDbCircle
 10
-436.20328
 20
0.094247
 30
0.0
 40
4.0
  0
POINT
  5
33F
100
AcDbEntity
  8
0
  6
CONTINUOUS
 62
     7
100
AcDbPoint
 10
-436.20328
 20
-75.905754
 30
0.0
  0
POINT
  5
340
100
AcDbEntity
  8
0
  6
CONTINUOUS
 62
     7
100
AcDbPoint
 10
-419.70328
 20
-75.905754
 30
0.0
  0
LINE
  5
341
100
AcDbEntity
  8
0
  6
CONTINUOUS
 62
     7
100
AcDbLine
 10
-435.20328
 20
-86.905754
 30
0.0
 11
-445.20328
 21
-86.905754
 31
0.0
  0
LINE
  5
342
100
AcDbEntity
  8
0
  6
CONTINUOUS
 62
     7
100
AcDbLine
 10
-432.2938
 20
-95.905754
 30
0.0
 11
-456.8938
 21
-95.905754
 31
0.0
  0
LINE
  5
343
100
AcDbEntity
  8
0
  6
CONTINUOUS
 62
     7
100
AcDbLine
 10
-432.2938
 20
-55.905754
 30
0.0
 11
-456.8938
 21
-55.905754
 31
0.0
  0
LINE
  5
344
100
AcDbEntity
  8
0
  6
CENTER
 62
     7
100
AcDbLine
 10
-419.70328
 20
-75.905754
 30
0.0
 11
-476.70328
 21
-75.905754
 31
0.0
  0
LINE
  5
345
100
AcDbEntity
  8
0
  6
CONTINUOUS
 62
     7
100
AcDbLine
 10
-432.2938
 20
-91.405754
 30
0.0
 11
-435.20328
 21
-91.405754
 31
0.0
  0
LINE
  5
346
100
AcDbEntity
  8
0
  6
CONTINUOUS
 62
     7
100
AcDbLine
 10
-435.20328
 20
-64.905754
 30
0.0
 11
-445.20328
 21
-64.905754
 31
0.0
  0
LINE
  5
347
100
AcDbEntity
  8
0
  6
CONTINUOUS
 62
     7
100
AcDbLine
 10
-432.2938
 20
-60.405754
 30
0.0
 11
-435.20328
 21
-60.405754
 31
0.0
  0
LINE
  5
348
100
AcDbEntity
  8
0
  6
CONTINUOUS
 62
     7
100
AcDbLine
 10
-456.8938
 20
-95.905754
 30
0.0
 11
-456.8938
 21
-91.405754
 31
0.0
  0
LINE
  5
349
100
AcDbEntity
  8
0
  6
CONTINUOUS
 62
     7
100
AcDbLine
 10
-435.20328
 20
-91.405754
 30
0.0
 11
-435.20328
 21
-60.405754
 31
0.0
  0
LINE
  5
34A
100
AcDbEntity
  8
0
  6
CONTINUOUS
 62
     7
100
AcDbLine
 10
-445.20328
 20
-57.505754
 30
0.0
 11
-452.20328
 21
-57.505754
 31
0.0
  0
LINE
  5
34B
100
AcDbEntity
  8
0
  6
CENTER
 62
     7
100
AcDbLine
 10
-462.20328
 20
-100.90575
 30
0.0
 11
-462.20328
 21
-50.905754
 31
0.0
  0
LINE
  5
34C
100
AcDbEntity
  8
0
  6
CENTER
 62
     7
100
AcDbLine
 10
-436.20328
 20
-100.90575
 30
0.0
 11
-436.20328
 21
-50.905754
 31
0.0
  0
LINE
  5
34D
100
AcDbEntity
  8
0
  6
CONTINUOUS
 62
     7
100
AcDbLine
 10
-445.20328
 20
-94.305754
 30
0.0
 11
-445.20328
 21
-86.905754
 31
0.0
  0
LINE
  5
34E
100
AcDbEntity
  8
0
  6
CONTINUOUS
 62
     7
100
AcDbLine
 10
-445.20328
 20
-94.305754
 30
0.0
 11
-452.20328
 21
-94.305754
 31
0.0
  0
LINE
  5
34F
100
AcDbEntity
  8
0
  6
CONTINUOUS
 62
     7
100
AcDbLine
 10
-460.80328
 20
-86.905754
 30
0.0
 11
-460.80328
 21
-64.905754
 31
0.0
  0
LINE
  5
350
100
AcDbEntity
  8
0
  6
CONTINUOUS
 62
     7
100
AcDbLine
 10
-452.20328
 20
-94.305754
 30
0.0
 11
-452.20328
 21
-86.905754
 31
0.0
  0
LINE
  5
351
100
AcDbEntity
  8
0
  6
CONTINUOUS
 62
     7
100
AcDbLine
 10
-456.8938
 20
-55.905754
 30
0.0
 11
-456.8938
 21
-60.405754
 31
0.0
  0
LINE
  5
352
100
AcDbEntity
  8
0
  6
CONTINUOUS
 62
     7
100
AcDbLine
 10
-445.20328
 20
-64.905754
 30
0.0
 11
-445.20328
 21
-57.505754
 31
0.0
  0
LINE
  5
353
100
AcDbEntity
  8
0
  6
CONTINUOUS
 62
     7
100
AcDbLine
 10
-452.20328
 20
-64.905754
 30
0.0
 11
-452.20328
 21
-57.505754
 31
0.0
  0
LINE
  5
354
100
AcDbEntity
  8
0
  6
CONTINUOUS
 62
     7
100
AcDbLine
 10
-452.20328
 20
-86.905754
 30
0.0
 11
-460.80328
 21
-86.905754
 31
0.0
  0
LINE
  5
355
100
AcDbEntity
  8
0
  6
CONTINUOUS
 62
     7
100
AcDbLine
 10
-452.20328
 20
-64.905754
 30
0.0
 11
-460.80328
 21
-64.905754
 31
0.0
  0
LINE
  5
356
100
AcDbEntity
  8
0
  6
CONTINUOUS
 62
     7
100
AcDbLine
 10
-445.20328
 20
-57.705753
 30
0.0
 11
-452.20328
 21
-57.705753
 31
0.0
  0
LINE
  5
357
100
AcDbEntity
  8
0
  6
CONTINUOUS
 62
     7
100
AcDbLine
 10
-445.20328
 20
-94.105755
 30
0.0
 11
-452.20328
 21
-94.105755
 31
0.0
  0
LINE
  5
358
100
AcDbEntity
  8
0
  6
CONTINUOUS
 62
     7
100
AcDbLine
 10
-456.8938
 20
-91.405754
 30
0.0
 11
-460.80328
 21
-91.405754
 31
0.0
  0
LINE
  5
359
100
AcDbEntity
  8
0
  6
CONTINUOUS
 62
     7
100
AcDbLine
 10
-456.8938
 20
-60.405754
 30
0.0
 11
-460.80328
 21
-60.405754
 31
0.0
  0
LINE
  5
35A
100
AcDbEntity
  8
0
  6
CENTER
 62
     7
100
AcDbLine
 10
-454.20328
 20
-90.905754
 30
0.0
 11
-443.20328
 21
-90.905754
 31
0.0
  0
LINE
  5
35B
100
AcDbEntity
  8
0
  6
CENTER
 62
     7
100
AcDbLine
 10
-454.20328
 20
-60.905754
 30
0.0
 11
-443.20328
 21
-60.905754
 31
0.0
  0
POINT
  5
35C
100
AcDbEntity
  8
0
  6
CONTINUOUS
 62
     7
100
AcDbPoint
 10
-321.20328
 20
68.594246
 30
0.0
  0
POINT
  5
35D
100
AcDbEntity
  8
0
  6
CONTINUOUS
 62
     7
100
AcDbPoint
 10
-303.20328
 20
68.594246
 30
0.0
  0
LINE
  5
35E
100
AcDbEntity
  8
0
  6
CONTINUOUS
 62
     7
100
AcDbLine
 10
-359.8975
 20
60.594246
 30
0.0
 11
-364.70328
 21
60.594246
 31
0.0
  0
LINE
  5
35F
100
AcDbEntity
  8
0
  6
CONTINUOUS
 62
     7
100
AcDbLine
 10
-328.20328
 20
71.594246
 30
0.0
 11
-328.20328
 21
62.594246
 31
0.0
  0
LINE
  5
360
100
AcDbEntity
  8
0
  6
CONTINUOUS
 62
     7
100
AcDbLine
 10
-359.8975
 20
91.594246
 30
0.0
 11
-364.70328
 21
91.594246
 31
0.0
  0
LINE
  5
361
100
AcDbEntity
  8
0
  6
CENTER
 62
     7
100
AcDbLine
 10
-339.20328
 20
51.094246
 30
0.0
 11
-339.20328
 21
101.09425
 31
0.0
  0
LINE
  5
362
100
AcDbEntity
  8
0
  6
CENTER
 62
     7
100
AcDbLine
 10
-365.20328
 20
51.094246
 30
0.0
 11
-365.20328
 21
101.09425
 31
0.0
  0
LINE
  5
363
100
AcDbEntity
  8
0
  6
CONTINUOUS
 62
     7
100
AcDbLine
 10
-359.8975
 20
56.094246
 30
0.0
 11
-359.8975
 21
60.594246
 31
0.0
  0
LINE
  5
364
100
AcDbEntity
  8
0
  6
CONTINUOUS
 62
     7
100
AcDbLine
 10
-328.20328
 20
96.094246
 30
0.0
 11
-359.8975
 21
96.094246
 31
0.0
  0
LINE
  5
365
100
AcDbEntity
  8
0
  6
CONTINUOUS
 62
     7
100
AcDbLine
 10
-338.70328
 20
60.594246
 30
0.0
 11
-338.70328
 21
91.594246
 31
0.0
  0
LINE
  5
366
100
AcDbEntity
  8
0
  6
CENTER
 62
     7
100
AcDbLine
 10
-303.20328
 20
76.094246
 30
0.0
 11
-379.70328
 21
76.094246
 31
0.0
  0
LINE
  5
367
100
AcDbEntity
  8
0
  6
CONTINUOUS
 62
     7
100
AcDbLine
 10
-359.8975
 20
91.594246
 30
0.0
 11
-359.8975
 21
96.094246
 31
0.0
  0
LINE
  5
368
100
AcDbEntity
  8
0
  6
CONTINUOUS
 62
     7
100
AcDbLine
 10
-296.20328
 20
91.594246
 30
0.0
 11
-338.70328
 21
91.594246
 31
0.0
  0
LINE
  5
369
100
AcDbEntity
  8
0
  6
CONTINUOUS
 62
     7
100
AcDbLine
 10
-328.20328
 20
56.094246
 30
0.0
 11
-359.8975
 21
56.094246
 31
0.0
  0
LINE
  5
36A
100
AcDbEntity
  8
0
  6
CONTINUOUS
 62
     7
100
AcDbLine
 10
-296.20328
 20
60.594246
 30
0.0
 11
-338.70328
 21
60.594246
 31
0.0
  0
LINE
  5
36B
100
AcDbEntity
  8
0
  6
CENTER
 62
     7
100
AcDbLine
 10
-298.30328
 20
68.594246
 30
0.0
 11
-308.10328
 21
68.594246
 31
0.0
  0
LINE
  5
36C
100
AcDbEntity
  8
0
  6
CONTINUOUS
 62
     7
100
AcDbLine
 10
-296.20328
 20
62.594246
 30
0.0
 11
-338.70328
 21
62.594246
 31
0.0
  0
LINE
  5
36D
100
AcDbEntity
  8
0
  6
CENTER
 62
     7
100
AcDbLine
 10
-303.20328
 20
63.694246
 30
0.0
 11
-303.20328
 21
73.494246
 31
0.0
  0
LINE
  5
36E
100
AcDbEntity
  8
0
  6
CONTINUOUS
 62
     7
100
AcDbLine
 10
-299.20328
 20
74.594246
 30
0.0
 11
-325.20328
 21
74.594246
 31
0.0
  0
LINE
  5
36F
100
AcDbEntity
  8
0
  6
CONTINUOUS
 62
     7
100
AcDbLine
 10
-296.20328
 20
71.594246
 30
0.0
 11
-296.20328
 21
60.594246
 31
0.0
  0
LINE
  5
370
100
AcDbEntity
  8
0
  6
CENTER
 62
     7
100
AcDbLine
 10
-321.20328
 20
88.494246
 30
0.0
 11
-321.20328
 21
78.694246
 31
0.0
  0
LINE
  5
371
100
AcDbEntity
  8
0
  6
CENTER
 62
     7
100
AcDbLine
 10
-321.20328
 20
63.694246
 30
0.0
 11
-321.20328
 21
73.494246
 31
0.0
  0
LINE
  5
372
100
AcDbEntity
  8
0
  6
CENTER
 62
     7
100
AcDbLine
 10
-316.30328
 20
68.594246
 30
0.0
 11
-326.10328
 21
68.594246
 31
0.0
  0
LINE
  5
373
100
AcDbEntity
  8
0
  6
CONTINUOUS
 62
     7
100
AcDbLine
 10
-296.20328
 20
80.594246
 30
0.0
 11
-296.20328
 21
91.594246
 31
0.0
  0
LINE
  5
374
100
AcDbEntity
  8
0
  6
CONTINUOUS
 62
     7
100
AcDbLine
 10
-299.20328
 20
77.594246
 30
0.0
 11
-325.20328
 21
77.594246
 31
0.0
  0
LINE
  5
375
100
AcDbEntity
  8
0
  6
CENTER
 62
     7
100
AcDbLine
 10
-303.20328
 20
88.494246
 30
0.0
 11
-303.20328
 21
78.694246
 31
0.0
  0
LINE
  5
376
100
AcDbEntity
  8
0
  6
CONTINUOUS
 62
     7
100
AcDbLine
 10
-296.20328
 20
89.594246
 30
0.0
 11
-338.70328
 21
89.594246
 31
0.0
  0
LINE
  5
377
100
AcDbEntity
  8
0
  6
CENTER
 62
     7
100
AcDbLine
 10
-298.30328
 20
83.594246
 30
0.0
 11
-308.10328
 21
83.594246
 31
0.0
  0
LINE
  5
378
100
AcDbEntity
  8
0
  6
CONTINUOUS
 62
     7
100
AcDbLine
 10
-328.20328
 20
80.594246
 30
0.0
 11
-328.20328
 21
89.594246
 31
0.0
  0
LINE
  5
379
100
AcDbEntity
  8
0
  6
CENTER
 62
     7
100
AcDbLine
 10
-316.30328
 20
83.594246
 30
0.0
 11
-326.10328
 21
83.594246
 31
0.0
  0
LINE
  5
37A
100
AcDbEntity
  8
0
  6
CONTINUOUS
 62
     7
100
AcDbLine
 10
-328.20328
 20
91.594246
 30
0.0
 11
-328.20328
 21
96.094246
 31
0.0
  0
LINE
  5
37B
100
AcDbEntity
  8
0
  6
CONTINUOUS
 62
     7
100
AcDbLine
 10
-328.20328
 20
60.594246
 30
0.0
 11
-328.20328
 21
56.094246
 31
0.0
  0
CIRCLE
  5
37C
100
AcDbEntity
  8
0
  6
CONTINUOUS
 62
     7
100
AcDbCircle
 10
-303.20328
 20
83.594246
 30
0.0
 40
2.9
  0
ARC
  5
37D
100
AcDbEntity
  8
0
  6
CONTINUOUS
 62
     7
100
AcDbCircle
 10
-325.20328
 20
71.594246
 30
0.0
 40
3.0
100
AcDbArc
 50
90.000003
 51
180.00001
  0
CIRCLE
  5
37E
100
AcDbEntity
  8
0
  6
CONTINUOUS
 62
     7
100
AcDbCircle
 10
-321.20328
 20
68.594246
 30
0.0
 40
2.9
  0
ARC
  5
37F
100
AcDbEntity
  8
0
  6
CONTINUOUS
 62
     7
100
AcDbCircle
 10
-299.20328
 20
80.594246
 30
0.0
 40
3.0
100
AcDbArc
 50
270.0
 51
0.0
  0
CIRCLE
  5
380
100
AcDbEntity
  8
0
  6
CONTINUOUS
 62
     7
100
AcDbCircle
 10
-321.20328
 20
83.594246
 30
0.0
 40
2.9
  0
CIRCLE
  5
381
100
AcDbEntity
  8
0
  6
CONTINUOUS
 62
     7
100
AcDbCircle
 10
-303.20328
 20
68.594246
 30
0.0
 40
2.9
  0
ARC
  5
382
100
AcDbEntity
  8
0
  6
CONTINUOUS
 62
     7
100
AcDbCircle
 10
-325.20328
 20
80.594246
 30
0.0
 40
3.0
100
AcDbArc
 50
179.99999
 51
270.0
  0
ARC
  5
383
100
AcDbEntity
  8
0
  6
CONTINUOUS
 62
     7
100
AcDbCircle
 10
-299.20328
 20
71.594246
 30
0.0
 40
3.0
100
AcDbArc
 50
0.0
 51
90.000003
  0
POINT
  5
384
100
AcDbEntity
  8
0
  6
CONTINUOUS
 62
     7
100
AcDbPoint
 10
-321.20328
 20
-10.905753
 30
0.0
  0
POINT
  5
385
100
AcDbEntity
  8
0
  6
CONTINUOUS
 62
     7
100
AcDbPoint
 10
-303.20328
 20
-10.905753
 30
0.0
  0
LINE
  5
386
100
AcDbEntity
  8
0
  6
CENTER
 62
     7
100
AcDbLine
 10
-365.20328
 20
-5.905753
 30
0.0
 11
-365.20328
 21
6.094247
 31
0.0
  0
LINE
  5
387
100
AcDbEntity
  8
0
  6
CENTER
 62
     7
100
AcDbLine
 10
-345.20328
 20
0.094247
 30
0.0
 11
-333.20328
 21
0.094247
 31
0.0
  0
LINE
  5
388
100
AcDbEntity
  8
0
  6
CONTINUOUS
 62
     7
100
AcDbLine
 10
-333.20328
 20
-10.905753
 30
0.0
 11
-365.20328
 21
-10.905753
 31
0.0
  0
LINE
  5
389
100
AcDbEntity
  8
0
  6
CENTER
 62
     7
100
AcDbLine
 10
-371.20328
 20
0.094247
 30
0.0
 11
-359.20328
 21
0.094247
 31
0.0
  0
LINE
  5
38A
100
AcDbEntity
  8
0
  6
CONTINUOUS
 62
     7
100
AcDbLine
 10
-339.20328
 20
11.094247
 30
0.0
 11
-359.5975
 21
11.094247
 31
0.0
  0
LINE
  5
38B
100
AcDbEntity
  8
0
  6
CENTER
 62
     7
100
AcDbLine
 10
-339.20328
 20
-5.905753
 30
0.0
 11
-339.20328
 21
6.094247
 31
0.0
  0
LINE
  5
38C
100
AcDbEntity
  8
0
  6
CONTINUOUS
 62
     7
100
AcDbLine
 10
-362.70328
 20
-3.028252
 30
0.0
 11
-362.70328
 21
3.216746
 31
0.0
  0
LINE
  5
38D
100
AcDbEntity
  8
0
  6
CONTINUOUS
 62
     7
100
AcDbLine
 10
-357.81122
 20
8.903758
 30
0.0
 11
-359.79034
 21
10.564435
 31
0.0
  0
LINE
  5
38E
100
AcDbEntity
  8
0
  6
CONTINUOUS
 62
     7
100
AcDbLine
 10
-335.44672
 20
10.432925
 30
0.0
 11
-302.58618
 21
-1.506955
 31
0.0
  0
LINE
  5
38F
100
AcDbEntity
  8
0
  6
DASHED
 62
     7
100
AcDbLine
 10
-328.20328
 20
-8.905753
 30
0.0
 11
-296.20328
 21
-8.905753
 31
0.0
  0
LINE
  5
390
100
AcDbEntity
  8
0
  6
CONTINUOUS
 62
     7
100
AcDbLine
 10
-296.20328
 20
-10.905753
 30
0.0
 11
-296.20328
 21
-8.905753
 31
0.0
  0
LINE
  5
391
100
AcDbEntity
  8
0
  6
DASHED
 62
     7
100
AcDbLine
 10
-328.20328
 20
-10.905753
 30
0.0
 11
-328.20328
 21
-8.905753
 31
0.0
  0
LINE
  5
392
100
AcDbEntity
  8
0
  6
CENTER
 62
     7
100
AcDbLine
 10
-321.20328
 20
-13.905753
 30
0.0
 11
-321.20328
 21
-5.905753
 31
0.0
  0
LINE
  5
393
100
AcDbEntity
  8
0
  6
CENTER
 62
     7
100
AcDbLine
 10
-303.20328
 20
-13.905753
 30
0.0
 11
-303.20328
 21
-5.905753
 31
0.0
  0
ARC
  5
394
100
AcDbEntity
  8
0
  6
CONTINUOUS
 62
     7
100
AcDbCircle
 10
-339.20328
 20
0.094247
 30
0.0
 40
11.0
100
AcDbArc
 50
270.0
 51
90.000003
  0
CIRCLE
  5
395
100
AcDbEntity
  8
0
  6
CONTINUOUS
 62
     7
100
AcDbCircle
 10
-365.20328
 20
0.094247
 30
0.0
 40
4.0
  0
ARC
  5
396
100
AcDbEntity
  8
0
  6
CONTINUOUS
 62
     7
100
AcDbCircle
 10
-365.20328
 20
0.094247
 30
0.0
 40
11.5
100
AcDbArc
 50
298.95503
 51
50.0
  0
ARC
  5
397
100
AcDbEntity
  8
0
  6
CONTINUOUS
 62
     7
100
AcDbCircle
 10
-359.3938
 20
-10.405753
 30
0.0
 40
0.5
100
AcDbArc
 50
118.95503
 51
270.0
  0
ARC
  5
398
100
AcDbEntity
  8
0
  6
CONTINUOUS
 62
     7
100
AcDbCircle
 10
-359.5975
 20
10.794248
 30
0.0
 40
0.3
100
AcDbArc
 50
90.000003
 51
230.00001
  0
ARC
  5
399
100
AcDbEntity
  8
0
  6
CONTINUOUS
 62
     7
100
AcDbCircle
 10
-330.70328
 20
-10.905753
 30
0.0
 40
2.5
100
AcDbArc
 50
0.0
 51
180.00001
  0
ARC
  5
39A
100
AcDbEntity
  8
0
  6
CONTINUOUS
 62
     7
100
AcDbCircle
 10
-306.00124
 20
-10.905753
 30
0.0
 40
10.0
100
AcDbArc
 50
11.536959
 51
70.031378
  0
CIRCLE
  5
39B
100
AcDbEntity
  8
0
  6
CONTINUOUS
 62
     7
100
AcDbCircle
 10
-339.20328
 20
0.094247
 30
0.0
 40
4.0
  0
POLYLINE
  5
39C
100
AcDbEntity
  8
0
  6
CONTINUOUS
 62
     7
100
AcDb2dPolyline
 66
     1
 10
0.0
 20
0.0
 30
0.0
  0
VERTEX
  5
39D
100
AcDbEntity
  8
0
  6
CONTINUOUS
 62
     7
100
AcDbVertex
100
AcDb2dVertex
 10
-328.19807
 20
-10.905753
 30
0.0
  0
VERTEX
  5
39E
100
AcDbEntity
  8
0
  6
CONTINUOUS
 62
     7
100
AcDbVertex
100
AcDb2dVertex
 10
-296.20328
 20
-10.905753
 30
0.0
  0
SEQEND
  5
39F
100
AcDbEntity
  8
0
 62
     7
  0
POINT
  5
3A0
100
AcDbEntity
  8
0
  6
CONTINUOUS
 62
     7
100
AcDbPoint
 10
-321.20328
 20
-68.405754
 30
0.0
  0
POINT
  5
3A1
100
AcDbEntity
  8
0
  6
CONTINUOUS
 62
     7
100
AcDbPoint
 10
-303.20328
 20
-68.405754
 30
0.0
  0
LINE
  5
3A2
100
AcDbEntity
  8
0
  6
CONTINUOUS
 62
     7
100
AcDbLine
 10
-338.20328
 20
-86.905754
 30
0.0
 11
-348.20328
 21
-86.905754
 31
0.0
  0
LINE
  5
3A3
100
AcDbEntity
  8
0
  6
CONTINUOUS
 62
     7
100
AcDbLine
 10
-328.20328
 20
-95.905754
 30
0.0
 11
-359.8938
 21
-95.905754
 31
0.0
  0
LINE
  5
3A4
100
AcDbEntity
  8
0
  6
CONTINUOUS
 62
     7
100
AcDbLine
 10
-328.20328
 20
-55.905754
 30
0.0
 11
-359.8938
 21
-55.905754
 31
0.0
  0
LINE
  5
3A5
100
AcDbEntity
  8
0
  6
CENTER
 62
     7
100
AcDbLine
 10
-303.20328
 20
-75.905754
 30
0.0
 11
-379.70328
 21
-75.905754
 31
0.0
  0
LINE
  5
3A6
100
AcDbEntity
  8
0
  6
CONTINUOUS
 62
     7
100
AcDbLine
 10
-296.20328
 20
-91.405754
 30
0.0
 11
-338.20328
 21
-91.405754
 31
0.0
  0
LINE
  5
3A7
100
AcDbEntity
  8
0
  6
CONTINUOUS
 62
     7
100
AcDbLine
 10
-338.20328
 20
-64.905754
 30
0.0
 11
-348.20328
 21
-64.905754
 31
0.0
  0
LINE
  5
3A8
100
AcDbEntity
  8
0
  6
CONTINUOUS
 62
     7
100
AcDbLine
 10
-296.20328
 20
-60.405754
 30
0.0
 11
-338.20328
 21
-60.405754
 31
0.0
  0
LINE
  5
3A9
100
AcDbEntity
  8
0
  6
CONTINUOUS
 62
     7
100
AcDbLine
 10
-359.8938
 20
-95.905754
 30
0.0
 11
-359.8938
 21
-91.405754
 31
0.0
  0
LINE
  5
3AA
100
AcDbEntity
  8
0
  6
CONTINUOUS
 62
     7
100
AcDbLine
 10
-338.20328
 20
-91.405754
 30
0.0
 11
-338.20328
 21
-60.405754
 31
0.0
  0
LINE
  5
3AB
100
AcDbEntity
  8
0
  6
CONTINUOUS
 62
     7
100
AcDbLine
 10
-348.20328
 20
-57.505754
 30
0.0
 11
-355.20328
 21
-57.505754
 31
0.0
  0
LINE
  5
3AC
100
AcDbEntity
  8
0
  6
CENTER
 62
     7
100
AcDbLine
 10
-365.20328
 20
-100.90575
 30
0.0
 11
-365.20328
 21
-50.905754
 31
0.0
  0
LINE
  5
3AD
100
AcDbEntity
  8
0
  6
CENTER
 62
     7
100
AcDbLine
 10
-339.20328
 20
-100.90575
 30
0.0
 11
-339.20328
 21
-50.905754
 31
0.0
  0
LINE
  5
3AE
100
AcDbEntity
  8
0
  6
CONTINUOUS
 62
     7
100
AcDbLine
 10
-348.20328
 20
-94.305754
 30
0.0
 11
-348.20328
 21
-86.905754
 31
0.0
  0
LINE
  5
3AF
100
AcDbEntity
  8
0
  6
CONTINUOUS
 62
     7
100
AcDbLine
 10
-348.20328
 20
-94.305754
 30
0.0
 11
-355.20328
 21
-94.305754
 31
0.0
  0
LINE
  5
3B0
100
AcDbEntity
  8
0
  6
CONTINUOUS
 62
     7
100
AcDbLine
 10
-363.80328
 20
-86.905754
 30
0.0
 11
-363.80328
 21
-64.905754
 31
0.0
  0
LINE
  5
3B1
100
AcDbEntity
  8
0
  6
CONTINUOUS
 62
     7
100
AcDbLine
 10
-355.20328
 20
-94.305754
 30
0.0
 11
-355.20328
 21
-86.905754
 31
0.0
  0
LINE
  5
3B2
100
AcDbEntity
  8
0
  6
CONTINUOUS
 62
     7
100
AcDbLine
 10
-359.8938
 20
-55.905754
 30
0.0
 11
-359.8938
 21
-60.405754
 31
0.0
  0
LINE
  5
3B3
100
AcDbEntity
  8
0
  6
CONTINUOUS
 62
     7
100
AcDbLine
 10
-348.20328
 20
-64.905754
 30
0.0
 11
-348.20328
 21
-57.505754
 31
0.0
  0
LINE
  5
3B4
100
AcDbEntity
  8
0
  6
CONTINUOUS
 62
     7
100
AcDbLine
 10
-355.20328
 20
-64.905754
 30
0.0
 11
-355.20328
 21
-57.505754
 31
0.0
  0
LINE
  5
3B5
100
AcDbEntity
  8
0
  6
CONTINUOUS
 62
     7
100
AcDbLine
 10
-355.20328
 20
-86.905754
 30
0.0
 11
-363.80328
 21
-86.905754
 31
0.0
  0
LINE
  5
3B6
100
AcDbEntity
  8
0
  6
CONTINUOUS
 62
     7
100
AcDbLine
 10
-355.20328
 20
-64.905754
 30
0.0
 11
-363.80328
 21
-64.905754
 31
0.0
  0
LINE
  5
3B7
100
AcDbEntity
  8
0
  6
CONTINUOUS
 62
     7
100
AcDbLine
 10
-348.20328
 20
-57.705754
 30
0.0
 11
-355.20328
 21
-57.705754
 31
0.0
  0
LINE
  5
3B8
100
AcDbEntity
  8
0
  6
CONTINUOUS
 62
     7
100
AcDbLine
 10
-348.20328
 20
-94.105755
 30
0.0
 11
-355.20328
 21
-94.105755
 31
0.0
  0
LINE
  5
3B9
100
AcDbEntity
  8
0
  6
CONTINUOUS
 62
     7
100
AcDbLine
 10
-359.8938
 20
-91.405754
 30
0.0
 11
-363.80328
 21
-91.405754
 31
0.0
  0
LINE
  5
3BA
100
AcDbEntity
  8
0
  6
CONTINUOUS
 62
     7
100
AcDbLine
 10
-359.8938
 20
-60.405754
 30
0.0
 11
-363.80328
 21
-60.405754
 31
0.0
  0
LINE
  5
3BB
100
AcDbEntity
  8
0
  6
CENTER
 62
     7
100
AcDbLine
 10
-298.30328
 20
-83.405754
 30
0.0
 11
-308.10328
 21
-83.405754
 31
0.0
  0
LINE
  5
3BC
100
AcDbEntity
  8
0
  6
CONTINUOUS
 62
     7
100
AcDbLine
 10
-328.20328
 20
-89.405754
 30
0.0
 11
-338.20328
 21
-89.405754
 31
0.0
  0
LINE
  5
3BD
100
AcDbEntity
  8
0
  6
CONTINUOUS
 62
     7
100
AcDbLine
 10
-328.20328
 20
-80.405754
 30
0.0
 11
-328.20328
 21
-95.905754
 31
0.0
  0
LINE
  5
3BE
100
AcDbEntity
  8
0
  6
CENTER
 62
     7
100
AcDbLine
 10
-303.20328
 20
-88.305754
 30
0.0
 11
-303.20328
 21
-78.505754
 31
0.0
  0
LINE
  5
3BF
100
AcDbEntity
  8
0
  6
CONTINUOUS
 62
     7
100
AcDbLine
 10
-299.20328
 20
-77.405754
 30
0.0
 11
-325.20328
 21
-77.405754
 31
0.0
  0
LINE
  5
3C0
100
AcDbEntity
  8
0
  6
CONTINUOUS
 62
     7
100
AcDbLine
 10
-296.20328
 20
-80.405754
 30
0.0
 11
-296.20328
 21
-91.405754
 31
0.0
  0
LINE
  5
3C1
100
AcDbEntity
  8
0
  6
CENTER
 62
     7
100
AcDbLine
 10
-321.20328
 20
-63.505754
 30
0.0
 11
-321.20328
 21
-73.305754
 31
0.0
  0
LINE
  5
3C2
100
AcDbEntity
  8
0
  6
CENTER
 62
     7
100
AcDbLine
 10
-321.20328
 20
-88.305754
 30
0.0
 11
-321.20328
 21
-78.505754
 31
0.0
  0
LINE
  5
3C3
100
AcDbEntity
  8
0
  6
CENTER
 62
     7
100
AcDbLine
 10
-316.30328
 20
-83.405754
 30
0.0
 11
-326.10328
 21
-83.405754
 31
0.0
  0
LINE
  5
3C4
100
AcDbEntity
  8
0
  6
CONTINUOUS
 62
     7
100
AcDbLine
 10
-296.20328
 20
-71.405754
 30
0.0
 11
-296.20328
 21
-60.405754
 31
0.0
  0
LINE
  5
3C5
100
AcDbEntity
  8
0
  6
CONTINUOUS
 62
     7
100
AcDbLine
 10
-299.20328
 20
-74.405754
 30
0.0
 11
-325.20328
 21
-74.405754
 31
0.0
  0
LINE
  5
3C6
100
AcDbEntity
  8
0
  6
CENTER
 62
     7
100
AcDbLine
 10
-303.20328
 20
-63.505754
 30
0.0
 11
-303.20328
 21
-73.305754
 31
0.0
  0
LINE
  5
3C7
100
AcDbEntity
  8
0
  6
CONTINUOUS
 62
     7
100
AcDbLine
 10
-328.20328
 20
-62.405754
 30
0.0
 11
-338.20328
 21
-62.405754
 31
0.0
  0
LINE
  5
3C8
100
AcDbEntity
  8
0
  6
CENTER
 62
     7
100
AcDbLine
 10
-298.30328
 20
-68.405754
 30
0.0
 11
-308.10328
 21
-68.405754
 31
0.0
  0
LINE
  5
3C9
100
AcDbEntity
  8
0
  6
CONTINUOUS
 62
     7
100
AcDbLine
 10
-328.20328
 20
-71.405754
 30
0.0
 11
-328.20328
 21
-55.905754
 31
0.0
  0
LINE
  5
3CA
100
AcDbEntity
  8
0
  6
CENTER
 62
     7
100
AcDbLine
 10
-316.30328
 20
-68.405754
 30
0.0
 11
-326.10328
 21
-68.405754
 31
0.0
  0
LINE
  5
3CB
100
AcDbEntity
  8
0
  6
CENTER
 62
     7
100
AcDbLine
 10
-357.20328
 20
-90.905754
 30
0.0
 11
-346.20328
 21
-90.905754
 31
0.0
  0
LINE
  5
3CC
100
AcDbEntity
  8
0
  6
CENTER
 62
     7
100
AcDbLine
 10
-357.20328
 20
-60.905754
 30
0.0
 11
-346.20328
 21
-60.905754
 31
0.0
  0
CIRCLE
  5
3CD
100
AcDbEntity
  8
0
  6
CONTINUOUS
 62
     7
100
AcDbCircle
 10
-303.20328
 20
-68.405754
 30
0.0
 40
2.9
  0
ARC
  5
3CE
100
AcDbEntity
  8
0
  6
CONTINUOUS
 62
     7
100
AcDbCircle
 10
-325.20328
 20
-80.405754
 30
0.0
 40
3.0
100
AcDbArc
 50
90.000003
 51
180.00001
  0
CIRCLE
  5
3CF
100
AcDbEntity
  8
0
  6
CONTINUOUS
 62
     7
100
AcDbCircle
 10
-321.20328
 20
-83.405754
 30
0.0
 40
2.9
  0
ARC
  5
3D0
100
AcDbEntity
  8
0
  6
CONTINUOUS
 62
     7
100
AcDbCircle
 10
-299.20328
 20
-71.405754
 30
0.0
 40
3.0
100
AcDbArc
 50
270.0
 51
0.0
  0
CIRCLE
  5
3D1
100
AcDbEntity
  8
0
  6
CONTINUOUS
 62
     7
100
AcDbCircle
 10
-321.20328
 20
-68.405754
 30
0.0
 40
2.9
  0
CIRCLE
  5
3D2
100
AcDbEntity
  8
0
  6
CONTINUOUS
 62
     7
100
AcDbCircle
 10
-303.20328
 20
-83.405754
 30
0.0
 40
2.9
  0
ARC
  5
3D3
100
AcDbEntity
  8
0
  6
CONTINUOUS
 62
     7
100
AcDbCircle
 10
-325.20328
 20
-71.405754
 30
0.0
 40
3.0
100
AcDbArc
 50
179.99999
 51
270.0
  0
ARC
  5
3D4
100
AcDbEntity
  8
0
  6
CONTINUOUS
 62
     7
100
AcDbCircle
 10
-299.20328
 20
-80.405754
 30
0.0
 40
3.0
100
AcDbArc
 50
0.0
 51
90.000003
  0
POINT
  5
3D5
100
AcDbEntity
  8
0
  6
CONTINUOUS
 62
     7
100
AcDbPoint
 10
-236.20329
 20
-10.905753
 30
0.0
  0
POINT
  5
3D6
100
AcDbEntity
  8
0
  6
CONTINUOUS
 62
     7
100
AcDbPoint
 10
-221.20329
 20
-10.905753
 30
0.0
  0
LINE
  5
3D7
100
AcDbEntity
  8
0
  6
CONTINUOUS
 62
     7
100
AcDbLine
 10
-213.20329
 20
-10.905753
 30
0.0
 11
-213.20329
 21
11.094247
 31
0.0
  0
LINE
  5
3D8
100
AcDbEntity
  8
0
  6
CONTINUOUS
 62
     7
100
AcDbLine
 10
-227.20329
 20
-8.905753
 30
0.0
 11
-215.20329
 21
-8.905753
 31
0.0
  0
LINE
  5
3D9
100
AcDbEntity
  8
0
  6
CONTINUOUS
 62
     7
100
AcDbLine
 10
-227.20329
 20
-10.905753
 30
0.0
 11
-227.20329
 21
-8.905753
 31
0.0
  0
LINE
  5
3DA
100
AcDbEntity
  8
0
  6
CENTER
 62
     7
100
AcDbLine
 10
-221.20329
 20
-15.905753
 30
0.0
 11
-221.20329
 21
-3.905753
 31
0.0
  0
LINE
  5
3DB
100
AcDbEntity
  8
0
  6
CONTINUOUS
 62
     7
100
AcDbLine
 10
-244.20329
 20
-10.905753
 30
0.0
 11
-244.20329
 21
11.094247
 31
0.0
  0
LINE
  5
3DC
100
AcDbEntity
  8
0
  6
CONTINUOUS
 62
     7
100
AcDbLine
 10
-230.20329
 20
-10.905753
 30
0.0
 11
-230.20329
 21
-8.905753
 31
0.0
  0
LINE
  5
3DD
100
AcDbEntity
  8
0
  6
CENTER
 62
     7
100
AcDbLine
 10
-236.20329
 20
-15.905753
 30
0.0
 11
-236.20329
 21
-3.905753
 31
0.0
  0
LINE
  5
3DE
100
AcDbEntity
  8
0
  6
CONTINUOUS
 62
     7
100
AcDbLine
 10
-242.20329
 20
-8.905753
 30
0.0
 11
-230.20329
 21
-8.905753
 31
0.0
  0
LINE
  5
3DF
100
AcDbEntity
  8
0
  6
CONTINUOUS
 62
     7
100
AcDbLine
 10
-230.20329
 20
-9.105753
 30
0.0
 11
-227.20329
 21
-9.105753
 31
0.0
  0
LINE
  5
3E0
100
AcDbEntity
  8
0
  6
CONTINUOUS
 62
     7
100
AcDbLine
 10
-239.70329
 20
6.094247
 30
0.0
 11
-217.70329
 21
6.094247
 31
0.0
  0
LINE
  5
3E1
100
AcDbEntity
  8
0
  6
CONTINUOUS
 62
     7
100
AcDbLine
 10
-248.70329
 20
11.094247
 30
0.0
 11
-208.70329
 21
11.094247
 31
0.0
  0
LINE
  5
3E2
100
AcDbEntity
  8
0
  6
CONTINUOUS
 62
     7
100
AcDbLine
 10
-248.70329
 20
-10.905753
 30
0.0
 11
-230.20329
 21
-10.905753
 31
0.0
  0
LINE
  5
3E3
100
AcDbEntity
  8
0
  6
CONTINUOUS
 62
     7
100
AcDbLine
 10
-239.70329
 20
-8.905753
 30
0.0
 11
-239.70329
 21
11.094247
 31
0.0
  0
LINE
  5
3E4
100
AcDbEntity
  8
0
  6
CONTINUOUS
 62
     7
100
AcDbLine
 10
-217.70329
 20
-8.905753
 30
0.0
 11
-217.70329
 21
11.094247
 31
0.0
  0
LINE
  5
3E5
100
AcDbEntity
  8
0
  6
CONTINUOUS
 62
     7
100
AcDbLine
 10
-242.20329
 20
-8.905753
 30
0.0
 11
-242.20329
 21
11.094247
 31
0.0
  0
LINE
  5
3E6
100
AcDbEntity
  8
0
  6
CONTINUOUS
 62
     7
100
AcDbLine
 10
-215.20329
 20
-8.905753
 30
0.0
 11
-215.20329
 21
11.094247
 31
0.0
  0
LINE
  5
3E7
100
AcDbEntity
  8
0
  6
CENTER
 62
     7
100
AcDbLine
 10
-228.70329
 20
-15.905753
 30
0.0
 11
-228.70329
 21
16.094247
 31
0.0
  0
LINE
  5
3E8
100
AcDbEntity
  8
0
  6
CONTINUOUS
 62
     7
100
AcDbLine
 10
-208.70329
 20
-10.905753
 30
0.0
 11
-208.70329
 21
11.094247
 31
0.0
  0
LINE
  5
3E9
100
AcDbEntity
  8
0
  6
CONTINUOUS
 62
     7
100
AcDbLine
 10
-248.70329
 20
-10.905753
 30
0.0
 11
-248.70329
 21
11.094247
 31
0.0
  0
LINE
  5
3EA
100
AcDbEntity
  8
0
  6
CENTER
 62
     7
100
AcDbLine
 10
-253.70329
 20
0.094247
 30
0.0
 11
-203.70329
 21
0.094247
 31
0.0
  0
LINE
  5
3EB
100
AcDbEntity
  8
0
  6
CONTINUOUS
 62
     7
100
AcDbLine
 10
-230.20329
 20
-10.605753
 30
0.0
 11
-227.20329
 21
-10.605753
 31
0.0
  0
LINE
  5
3EC
100
AcDbEntity
  8
0
  6
CONTINUOUS
 62
     7
100
AcDbLine
 10
-239.70329
 20
-6.905753
 30
0.0
 11
-217.70329
 21
-6.905753
 31
0.0
  0
LINE
  5
3ED
100
AcDbEntity
  8
0
  6
CONTINUOUS
 62
     7
100
AcDbLine
 10
-227.20329
 20
-10.905753
 30
0.0
 11
-208.70329
 21
-10.905753
 31
0.0
  0
POINT
  5
3EE
100
AcDbEntity
  8
0
  6
CONTINUOUS
 62
     7
100
AcDbPoint
 10
-106.20329
 20
68.594246
 30
0.0
  0
POINT
  5
3EF
100
AcDbEntity
  8
0
  6
CONTINUOUS
 62
     7
100
AcDbPoint
 10
-88.203285
 20
68.594246
 30
0.0
  0
LINE
  5
3F0
100
AcDbEntity
  8
0
  6
CONTINUOUS
 62
     7
100
AcDbLine
 10
-144.89751
 20
91.594246
 30
0.0
 11
-149.70329
 21
91.594246
 31
0.0
  0
LINE
  5
3F1
100
AcDbEntity
  8
0
  6
CONTINUOUS
 62
     7
100
AcDbLine
 10
-113.20329
 20
71.594246
 30
0.0
 11
-113.20329
 21
56.094246
 31
0.0
  0
LINE
  5
3F2
100
AcDbEntity
  8
0
  6
CONTINUOUS
 62
     7
100
AcDbLine
 10
-144.89751
 20
60.594246
 30
0.0
 11
-149.70329
 21
60.594246
 31
0.0
  0
LINE
  5
3F3
100
AcDbEntity
  8
0
  6
CENTER
 62
     7
100
AcDbLine
 10
-124.20329
 20
51.094246
 30
0.0
 11
-124.20329
 21
101.09425
 31
0.0
  0
LINE
  5
3F4
100
AcDbEntity
  8
0
  6
CENTER
 62
     7
100
AcDbLine
 10
-150.20329
 20
51.094246
 30
0.0
 11
-150.20329
 21
101.09425
 31
0.0
  0
LINE
  5
3F5
100
AcDbEntity
  8
0
  6
CONTINUOUS
 62
     7
100
AcDbLine
 10
-144.89751
 20
56.094246
 30
0.0
 11
-144.89751
 21
60.594246
 31
0.0
  0
LINE
  5
3F6
100
AcDbEntity
  8
0
  6
CONTINUOUS
 62
     7
100
AcDbLine
 10
-113.20329
 20
96.094246
 30
0.0
 11
-144.89751
 21
96.094246
 31
0.0
  0
LINE
  5
3F7
100
AcDbEntity
  8
0
  6
CONTINUOUS
 62
     7
100
AcDbLine
 10
-123.70329
 20
60.594246
 30
0.0
 11
-123.70329
 21
91.594246
 31
0.0
  0
LINE
  5
3F8
100
AcDbEntity
  8
0
  6
CENTER
 62
     7
100
AcDbLine
 10
-88.203285
 20
76.094246
 30
0.0
 11
-164.70329
 21
76.094246
 31
0.0
  0
LINE
  5
3F9
100
AcDbEntity
  8
0
  6
CONTINUOUS
 62
     7
100
AcDbLine
 10
-144.89751
 20
91.594246
 30
0.0
 11
-144.89751
 21
96.094246
 31
0.0
  0
LINE
  5
3FA
100
AcDbEntity
  8
0
  6
CONTINUOUS
 62
     7
100
AcDbLine
 10
-81.203285
 20
91.594246
 30
0.0
 11
-123.70329
 21
91.594246
 31
0.0
  0
LINE
  5
3FB
100
AcDbEntity
  8
0
  6
CONTINUOUS
 62
     7
100
AcDbLine
 10
-113.20329
 20
56.094246
 30
0.0
 11
-144.89751
 21
56.094246
 31
0.0
  0
LINE
  5
3FC
100
AcDbEntity
  8
0
  6
CONTINUOUS
 62
     7
100
AcDbLine
 10
-81.203285
 20
60.594246
 30
0.0
 11
-123.70329
 21
60.594246
 31
0.0
  0
LINE
  5
3FD
100
AcDbEntity
  8
0
  6
CENTER
 62
     7
100
AcDbLine
 10
-83.303286
 20
68.594246
 30
0.0
 11
-93.103285
 21
68.594246
 31
0.0
  0
LINE
  5
3FE
100
AcDbEntity
  8
0
  6
CONTINUOUS
 62
     7
100
AcDbLine
 10
-113.20329
 20
62.594246
 30
0.0
 11
-123.70329
 21
62.594246
 31
0.0
  0
LINE
  5
3FF
100
AcDbEntity
  8
0
  6
CENTER
 62
     7
100
AcDbLine
 10
-88.203285
 20
63.694246
 30
0.0
 11
-88.203285
 21
73.494246
 31
0.0
  0
LINE
  5
400
100
AcDbEntity
  8
0
  6
CONTINUOUS
 62
     7
100
AcDbLine
 10
-84.203285
 20
74.594246
 30
0.0
 11
-110.20329
 21
74.594246
 31
0.0
  0
LINE
  5
401
100
AcDbEntity
  8
0
  6
CONTINUOUS
 62
     7
100
AcDbLine
 10
-81.203285
 20
71.594246
 30
0.0
 11
-81.203285
 21
60.594246
 31
0.0
  0
LINE
  5
402
100
AcDbEntity
  8
0
  6
CENTER
 62
     7
100
AcDbLine
 10
-106.20329
 20
88.494246
 30
0.0
 11
-106.20329
 21
78.694246
 31
0.0
  0
LINE
  5
403
100
AcDbEntity
  8
0
  6
CENTER
 62
     7
100
AcDbLine
 10
-106.20329
 20
63.694246
 30
0.0
 11
-106.20329
 21
73.494246
 31
0.0
  0
LINE
  5
404
100
AcDbEntity
  8
0
  6
CENTER
 62
     7
100
AcDbLine
 10
-101.30329
 20
68.594246
 30
0.0
 11
-111.10329
 21
68.594246
 31
0.0
  0
LINE
  5
405
100
AcDbEntity
  8
0
  6
CONTINUOUS
 62
     7
100
AcDbLine
 10
-81.203285
 20
80.594246
 30
0.0
 11
-81.203285
 21
91.594246
 31
0.0
  0
LINE
  5
406
100
AcDbEntity
  8
0
  6
CONTINUOUS
 62
     7
100
AcDbLine
 10
-84.203285
 20
77.594246
 30
0.0
 11
-110.20329
 21
77.594246
 31
0.0
  0
LINE
  5
407
100
AcDbEntity
  8
0
  6
CENTER
 62
     7
100
AcDbLine
 10
-88.203285
 20
88.494246
 30
0.0
 11
-88.203285
 21
78.694246
 31
0.0
  0
LINE
  5
408
100
AcDbEntity
  8
0
  6
CONTINUOUS
 62
     7
100
AcDbLine
 10
-113.20329
 20
89.594246
 30
0.0
 11
-123.70329
 21
89.594246
 31
0.0
  0
LINE
  5
409
100
AcDbEntity
  8
0
  6
CENTER
 62
     7
100
AcDbLine
 10
-83.303286
 20
83.594246
 30
0.0
 11
-93.103285
 21
83.594246
 31
0.0
  0
LINE
  5
40A
100
AcDbEntity
  8
0
  6
CONTINUOUS
 62
     7
100
AcDbLine
 10
-113.20329
 20
80.594246
 30
0.0
 11
-113.20329
 21
96.094246
 31
0.0
  0
LINE
  5
40B
100
AcDbEntity
  8
0
  6
CENTER
 62
     7
100
AcDbLine
 10
-101.30329
 20
83.594246
 30
0.0
 11
-111.10329
 21
83.594246
 31
0.0
  0
CIRCLE
  5
40C
100
AcDbEntity
  8
0
  6
CONTINUOUS
 62
     7
100
AcDbCircle
 10
-88.203285
 20
83.594246
 30
0.0
 40
2.9
  0
ARC
  5
40D
100
AcDbEntity
  8
0
  6
CONTINUOUS
 62
     7
100
AcDbCircle
 10
-110.20329
 20
71.594246
 30
0.0
 40
3.0
100
AcDbArc
 50
90.000003
 51
180.00001
  0
CIRCLE
  5
40E
100
AcDbEntity
  8
0
  6
CONTINUOUS
 62
     7
100
AcDbCircle
 10
-106.20329
 20
68.594246
 30
0.0
 40
2.9
  0
ARC
  5
40F
100
AcDbEntity
  8
0
  6
CONTINUOUS
 62
     7
100
AcDbCircle
 10
-84.203285
 20
80.594246
 30
0.0
 40
3.0
100
AcDbArc
 50
270.0
 51
0.0
  0
CIRCLE
  5
410
100
AcDbEntity
  8
0
  6
CONTINUOUS
 62
     7
100
AcDbCircle
 10
-106.20329
 20
83.594246
 30
0.0
 40
2.9
  0
CIRCLE
  5
411
100
AcDbEntity
  8
0
  6
CONTINUOUS
 62
     7
100
AcDbCircle
 10
-88.203285
 20
68.594246
 30
0.0
 40
2.9
  0
ARC
  5
412
100
AcDbEntity
  8
0
  6
CONTINUOUS
 62
     7
100
AcDbCircle
 10
-110.20329
 20
80.594246
 30
0.0
 40
3.0
100
AcDbArc
 50
179.99999
 51
270.0
  0
ARC
  5
413
100
AcDbEntity
  8
0
  6
CONTINUOUS
 62
     7
100
AcDbCircle
 10
-84.203285
 20
71.594246
 30
0.0
 40
3.0
100
AcDbArc
 50
0.0
 51
90.000003
  0
POINT
  5
414
100
AcDbEntity
  8
0
  6
CONTINUOUS
 62
     7
100
AcDbPoint
 10
-106.20329
 20
11.094247
 30
0.0
  0
POINT
  5
415
100
AcDbEntity
  8
0
  6
CONTINUOUS
 62
     7
100
AcDbPoint
 10
-88.203285
 20
11.094247
 30
0.0
  0
LINE
  5
416
100
AcDbEntity
  8
0
  6
CENTER
 62
     7
100
AcDbLine
 10
-124.20329
 20
-5.905753
 30
0.0
 11
-124.20329
 21
6.094247
 31
0.0
  0
LINE
  5
417
100
AcDbEntity
  8
0
  6
CONTINUOUS
 62
     7
100
AcDbLine
 10
-118.20329
 20
11.094247
 30
0.0
 11
-144.59751
 21
11.094247
 31
0.0
  0
LINE
  5
418
100
AcDbEntity
  8
0
  6
CENTER
 62
     7
100
AcDbLine
 10
-156.20329
 20
0.094247
 30
0.0
 11
-144.20329
 21
0.094247
 31
0.0
  0
LINE
  5
419
100
AcDbEntity
  8
0
  6
CONTINUOUS
 62
     7
100
AcDbLine
 10
-124.20329
 20
-10.905753
 30
0.0
 11
-150.20329
 21
-10.905753
 31
0.0
  0
LINE
  5
41A
100
AcDbEntity
  8
0
  6
CENTER
 62
     7
100
AcDbLine
 10
-130.20329
 20
0.094247
 30
0.0
 11
-118.20329
 21
0.094247
 31
0.0
  0
LINE
  5
41B
100
AcDbEntity
  8
0
  6
CENTER
 62
     7
100
AcDbLine
 10
-150.20329
 20
-5.905753
 30
0.0
 11
-150.20329
 21
6.094247
 31
0.0
  0
LINE
  5
41C
100
AcDbEntity
  8
0
  6
CONTINUOUS
 62
     7
100
AcDbLine
 10
-147.70329
 20
-3.028253
 30
0.0
 11
-147.70329
 21
3.216746
 31
0.0
  0
LINE
  5
41D
100
AcDbEntity
  8
0
  6
CONTINUOUS
 62
     7
100
AcDbLine
 10
-142.81123
 20
8.903758
 30
0.0
 11
-144.79034
 21
10.564433
 31
0.0
  0
LINE
  5
41E
100
AcDbEntity
  8
0
  6
CONTINUOUS
 62
     7
100
AcDbLine
 10
-120.44673
 20
-10.244431
 30
0.0
 11
-87.586189
 21
1.695449
 31
0.0
  0
LINE
  5
41F
100
AcDbEntity
  8
0
  6
DASHED
 62
     7
100
AcDbLine
 10
-113.20329
 20
9.094247
 30
0.0
 11
-81.203285
 21
9.094247
 31
0.0
  0
LINE
  5
420
100
AcDbEntity
  8
0
  6
CONTINUOUS
 62
     7
100
AcDbLine
 10
-81.203285
 20
11.094247
 30
0.0
 11
-81.203285
 21
9.094247
 31
0.0
  0
LINE
  5
421
100
AcDbEntity
  8
0
  6
DASHED
 62
     7
100
AcDbLine
 10
-113.20329
 20
11.094247
 30
0.0
 11
-113.20329
 21
9.094247
 31
0.0
  0
LINE
  5
422
100
AcDbEntity
  8
0
  6
CENTER
 62
     7
100
AcDbLine
 10
-106.20329
 20
14.094247
 30
0.0
 11
-106.20329
 21
6.094247
 31
0.0
  0
LINE
  5
423
100
AcDbEntity
  8
0
  6
CENTER
 62
     7
100
AcDbLine
 10
-88.203285
 20
14.094247
 30
0.0
 11
-88.203285
 21
6.094247
 31
0.0
  0
ARC
  5
424
100
AcDbEntity
  8
0
  6
CONTINUOUS
 62
     7
100
AcDbCircle
 10
-150.20329
 20
0.094247
 30
0.0
 40
11.5
100
AcDbArc
 50
298.95503
 51
50.0
  0
CIRCLE
  5
425
100
AcDbEntity
  8
0
  6
CONTINUOUS
 62
     7
100
AcDbCircle
 10
-150.20329
 20
0.094247
 30
0.0
 40
4.0
  0
ARC
  5
426
100
AcDbEntity
  8
0
  6
CONTINUOUS
 62
     7
100
AcDbCircle
 10
-124.20329
 20
0.094247
 30
0.0
 40
11.0
100
AcDbArc
 50
270.0
 51
90.000003
  0
ARC
  5
427
100
AcDbEntity
  8
0
  6
CONTINUOUS
 62
     7
100
AcDbCircle
 10
-144.59751
 20
10.794247
 30
0.0
 40
0.3
100
AcDbArc
 50
90.000003
 51
230.00001
  0
ARC
  5
428
100
AcDbEntity
  8
0
  6
CONTINUOUS
 62
     7
100
AcDbCircle
 10
-144.39381
 20
-10.405753
 30
0.0
 40
0.5
100
AcDbArc
 50
118.95503
 51
270.0
  0
ARC
  5
429
100
AcDbEntity
  8
0
  6
CONTINUOUS
 62
     7
100
AcDbCircle
 10
-115.70329
 20
11.094247
 30
0.0
 40
2.5
100
AcDbArc
 50
185.19442
 51
0.0
  0
ARC
  5
42A
100
AcDbEntity
  8
0
  6
CONTINUOUS
 62
     7
100
AcDbCircle
 10
-91.001245
 20
11.094247
 30
0.0
 40
10.0
100
AcDbArc
 50
289.96862
 51
348.46304
  0
CIRCLE
  5
42B
100
AcDbEntity
  8
0
  6
CONTINUOUS
 62
     7
100
AcDbCircle
 10
-124.20329
 20
0.094247
 30
0.0
 40
4.0
  0
POLYLINE
  5
42C
100
AcDbEntity
  8
0
  6
CONTINUOUS
 62
     7
100
AcDb2dPolyline
 66
     1
 10
0.0
 20
0.0
 30
0.0
  0
VERTEX
  5
42D
100
AcDbEntity
  8
0
  6
CONTINUOUS
 62
     7
100
AcDbVertex
100
AcDb2dVertex
 10
-113.19807
 20
11.094247
 30
0.0
  0
VERTEX
  5
42E
100
AcDbEntity
  8
0
  6
CONTINUOUS
 62
     7
100
AcDbVertex
100
AcDb2dVertex
 10
-81.203285
 20
11.094247
 30
0.0
  0
SEQEND
  5
42F
100
AcDbEntity
  8
0
 62
     7
  0
POINT
  5
430
100
AcDbEntity
  8
0
  6
CONTINUOUS
 62
     7
100
AcDbPoint
 10
-106.20329
 20
-68.405754
 30
0.0
  0
POINT
  5
431
100
AcDbEntity
  8
0
  6
CONTINUOUS
 62
     7
100
AcDbPoint
 10
-88.203285
 20
-68.405754
 30
0.0
  0
LINE
  5
432
100
AcDbEntity
  8
0
  6
CONTINUOUS
 62
     7
100
AcDbLine
 10
-81.203285
 20
-60.405754
 30
0.0
 11
-123.20329
 21
-60.405754
 31
0.0
  0
LINE
  5
433
100
AcDbEntity
  8
0
  6
CONTINUOUS
 62
     7
100
AcDbLine
 10
-123.20329
 20
-64.905754
 30
0.0
 11
-133.20329
 21
-64.905754
 31
0.0
  0
LINE
  5
434
100
AcDbEntity
  8
0
  6
CONTINUOUS
 62
     7
100
AcDbLine
 10
-81.203285
 20
-91.405754
 30
0.0
 11
-123.20329
 21
-91.405754
 31
0.0
  0
LINE
  5
435
100
AcDbEntity
  8
0
  6
CENTER
 62
     7
100
AcDbLine
 10
-88.203285
 20
-75.905754
 30
0.0
 11
-164.70329
 21
-75.905754
 31
0.0
  0
LINE
  5
436
100
AcDbEntity
  8
0
  6
CONTINUOUS
 62
     7
100
AcDbLine
 10
-113.20329
 20
-55.905754
 30
0.0
 11
-144.89381
 21
-55.905754
 31
0.0
  0
LINE
  5
437
100
AcDbEntity
  8
0
  6
CONTINUOUS
 62
     7
100
AcDbLine
 10
-113.20329
 20
-95.905754
 30
0.0
 11
-144.89381
 21
-95.905754
 31
0.0
  0
LINE
  5
438
100
AcDbEntity
  8
0
  6
CONTINUOUS
 62
     7
100
AcDbLine
 10
-123.20329
 20
-86.905754
 30
0.0
 11
-133.20329
 21
-86.905754
 31
0.0
  0
LINE
  5
439
100
AcDbEntity
  8
0
  6
CONTINUOUS
 62
     7
100
AcDbLine
 10
-113.20329
 20
-91.405754
 30
0.0
 11
-113.20329
 21
-95.905754
 31
0.0
  0
LINE
  5
43A
100
AcDbEntity
  8
0
  6
CONTINUOUS
 62
     7
100
AcDbLine
 10
-144.89381
 20
-95.905754
 30
0.0
 11
-144.89381
 21
-91.405754
 31
0.0
  0
LINE
  5
43B
100
AcDbEntity
  8
0
  6
CONTINUOUS
 62
     7
100
AcDbLine
 10
-123.20329
 20
-91.405754
 30
0.0
 11
-123.20329
 21
-60.405754
 31
0.0
  0
LINE
  5
43C
100
AcDbEntity
  8
0
  6
CONTINUOUS
 62
     7
100
AcDbLine
 10
-133.20329
 20
-57.505754
 30
0.0
 11
-140.20329
 21
-57.505754
 31
0.0
  0
LINE
  5
43D
100
AcDbEntity
  8
0
  6
CONTINUOUS
 62
     7
100
AcDbLine
 10
-113.20329
 20
-60.405754
 30
0.0
 11
-113.20329
 21
-55.905754
 31
0.0
  0
LINE
  5
43E
100
AcDbEntity
  8
0
  6
CENTER
 62
     7
100
AcDbLine
 10
-150.20329
 20
-100.90575
 30
0.0
 11
-150.20329
 21
-50.905754
 31
0.0
  0
LINE
  5
43F
100
AcDbEntity
  8
0
  6
CENTER
 62
     7
100
AcDbLine
 10
-124.20329
 20
-100.90575
 30
0.0
 11
-124.20329
 21
-50.905754
 31
0.0
  0
LINE
  5
440
100
AcDbEntity
  8
0
  6
CONTINUOUS
 62
     7
100
AcDbLine
 10
-133.20329
 20
-94.305754
 30
0.0
 11
-133.20329
 21
-86.905754
 31
0.0
  0
LINE
  5
441
100
AcDbEntity
  8
0
  6
CONTINUOUS
 62
     7
100
AcDbLine
 10
-133.20329
 20
-94.305754
 30
0.0
 11
-140.20329
 21
-94.305754
 31
0.0
  0
LINE
  5
442
100
AcDbEntity
  8
0
  6
CONTINUOUS
 62
     7
100
AcDbLine
 10
-148.80328
 20
-86.905754
 30
0.0
 11
-148.80328
 21
-64.905754
 31
0.0
  0
LINE
  5
443
100
AcDbEntity
  8
0
  6
CONTINUOUS
 62
     7
100
AcDbLine
 10
-140.20329
 20
-94.305754
 30
0.0
 11
-140.20329
 21
-86.905754
 31
0.0
  0
LINE
  5
444
100
AcDbEntity
  8
0
  6
CONTINUOUS
 62
     7
100
AcDbLine
 10
-144.89381
 20
-55.905754
 30
0.0
 11
-144.89381
 21
-60.405754
 31
0.0
  0
LINE
  5
445
100
AcDbEntity
  8
0
  6
CONTINUOUS
 62
     7
100
AcDbLine
 10
-133.20329
 20
-64.905754
 30
0.0
 11
-133.20329
 21
-57.505754
 31
0.0
  0
LINE
  5
446
100
AcDbEntity
  8
0
  6
CONTINUOUS
 62
     7
100
AcDbLine
 10
-140.20329
 20
-64.905754
 30
0.0
 11
-140.20329
 21
-57.505754
 31
0.0
  0
LINE
  5
447
100
AcDbEntity
  8
0
  6
CONTINUOUS
 62
     7
100
AcDbLine
 10
-140.20329
 20
-86.905754
 30
0.0
 11
-148.80328
 21
-86.905754
 31
0.0
  0
LINE
  5
448
100
AcDbEntity
  8
0
  6
CONTINUOUS
 62
     7
100
AcDbLine
 10
-140.20329
 20
-64.905754
 30
0.0
 11
-148.80328
 21
-64.905754
 31
0.0
  0
LINE
  5
449
100
AcDbEntity
  8
0
  6
CONTINUOUS
 62
     7
100
AcDbLine
 10
-133.20329
 20
-57.705754
 30
0.0
 11
-140.20329
 21
-57.705754
 31
0.0
  0
LINE
  5
44A
100
AcDbEntity
  8
0
  6
CONTINUOUS
 62
     7
100
AcDbLine
 10
-133.20329
 20
-94.105755
 30
0.0
 11
-140.20329
 21
-94.105755
 31
0.0
  0
LINE
  5
44B
100
AcDbEntity
  8
0
  6
CONTINUOUS
 62
     7
100
AcDbLine
 10
-144.89381
 20
-91.405754
 30
0.0
 11
-148.80328
 21
-91.405754
 31
0.0
  0
LINE
  5
44C
100
AcDbEntity
  8
0
  6
CONTINUOUS
 62
     7
100
AcDbLine
 10
-144.89381
 20
-60.405754
 30
0.0
 11
-148.80328
 21
-60.405754
 31
0.0
  0
LINE
  5
44D
100
AcDbEntity
  8
0
  6
CENTER
 62
     7
100
AcDbLine
 10
-83.303286
 20
-83.405754
 30
0.0
 11
-93.103285
 21
-83.405754
 31
0.0
  0
LINE
  5
44E
100
AcDbEntity
  8
0
  6
CONTINUOUS
 62
     7
100
AcDbLine
 10
-81.203285
 20
-89.405754
 30
0.0
 11
-123.20329
 21
-89.405754
 31
0.0
  0
LINE
  5
44F
100
AcDbEntity
  8
0
  6
CONTINUOUS
 62
     7
100
AcDbLine
 10
-113.20329
 20
-80.405754
 30
0.0
 11
-113.20329
 21
-89.405754
 31
0.0
  0
LINE
  5
450
100
AcDbEntity
  8
0
  6
CENTER
 62
     7
100
AcDbLine
 10
-88.203285
 20
-88.305754
 30
0.0
 11
-88.203285
 21
-78.505754
 31
0.0
  0
LINE
  5
451
100
AcDbEntity
  8
0
  6
CONTINUOUS
 62
     7
100
AcDbLine
 10
-84.203285
 20
-77.405754
 30
0.0
 11
-110.20329
 21
-77.405754
 31
0.0
  0
LINE
  5
452
100
AcDbEntity
  8
0
  6
CONTINUOUS
 62
     7
100
AcDbLine
 10
-81.203285
 20
-80.405754
 30
0.0
 11
-81.203285
 21
-91.405754
 31
0.0
  0
LINE
  5
453
100
AcDbEntity
  8
0
  6
CENTER
 62
     7
100
AcDbLine
 10
-106.20329
 20
-63.505754
 30
0.0
 11
-106.20329
 21
-73.305754
 31
0.0
  0
LINE
  5
454
100
AcDbEntity
  8
0
  6
CENTER
 62
     7
100
AcDbLine
 10
-106.20329
 20
-88.305754
 30
0.0
 11
-106.20329
 21
-78.505754
 31
0.0
  0
LINE
  5
455
100
AcDbEntity
  8
0
  6
CENTER
 62
     7
100
AcDbLine
 10
-101.30329
 20
-83.405754
 30
0.0
 11
-111.10329
 21
-83.405754
 31
0.0
  0
LINE
  5
456
100
AcDbEntity
  8
0
  6
CONTINUOUS
 62
     7
100
AcDbLine
 10
-81.203285
 20
-71.405754
 30
0.0
 11
-81.203285
 21
-60.405754
 31
0.0
  0
LINE
  5
457
100
AcDbEntity
  8
0
  6
CONTINUOUS
 62
     7
100
AcDbLine
 10
-84.203285
 20
-74.405754
 30
0.0
 11
-110.20329
 21
-74.405754
 31
0.0
  0
LINE
  5
458
100
AcDbEntity
  8
0
  6
CENTER
 62
     7
100
AcDbLine
 10
-88.203285
 20
-63.505754
 30
0.0
 11
-88.203285
 21
-73.305754
 31
0.0
  0
LINE
  5
459
100
AcDbEntity
  8
0
  6
CONTINUOUS
 62
     7
100
AcDbLine
 10
-81.203285
 20
-62.405754
 30
0.0
 11
-123.20329
 21
-62.405754
 31
0.0
  0
LINE
  5
45A
100
AcDbEntity
  8
0
  6
CENTER
 62
     7
100
AcDbLine
 10
-83.303286
 20
-68.405754
 30
0.0
 11
-93.103285
 21
-68.405754
 31
0.0
  0
LINE
  5
45B
100
AcDbEntity
  8
0
  6
CONTINUOUS
 62
     7
100
AcDbLine
 10
-113.20329
 20
-71.405754
 30
0.0
 11
-113.20329
 21
-62.405754
 31
0.0
  0
LINE
  5
45C
100
AcDbEntity
  8
0
  6
CENTER
 62
     7
100
AcDbLine
 10
-101.30329
 20
-68.405754
 30
0.0
 11
-111.10329
 21
-68.405754
 31
0.0
  0
LINE
  5
45D
100
AcDbEntity
  8
0
  6
CENTER
 62
     7
100
AcDbLine
 10
-142.20329
 20
-90.905754
 30
0.0
 11
-131.20329
 21
-90.905754
 31
0.0
  0
LINE
  5
45E
100
AcDbEntity
  8
0
  6
CENTER
 62
     7
100
AcDbLine
 10
-142.20329
 20
-60.905754
 30
0.0
 11
-131.20329
 21
-60.905754
 31
0.0
  0
CIRCLE
  5
45F
100
AcDbEntity
  8
0
  6
CONTINUOUS
 62
     7
100
AcDbCircle
 10
-88.203285
 20
-68.405754
 30
0.0
 40
2.9
  0
ARC
  5
460
100
AcDbEntity
  8
0
  6
CONTINUOUS
 62
     7
100
AcDbCircle
 10
-110.20329
 20
-80.405754
 30
0.0
 40
3.0
100
AcDbArc
 50
90.000003
 51
180.00001
  0
CIRCLE
  5
461
100
AcDbEntity
  8
0
  6
CONTINUOUS
 62
     7
100
AcDbCircle
 10
-106.20329
 20
-83.405754
 30
0.0
 40
2.9
  0
ARC
  5
462
100
AcDbEntity
  8
0
  6
CONTINUOUS
 62
     7
100
AcDbCircle
 10
-84.203285
 20
-71.405754
 30
0.0
 40
3.0
100
AcDbArc
 50
270.0
 51
0.0
  0
CIRCLE
  5
463
100
AcDbEntity
  8
0
  6
CONTINUOUS
 62
     7
100
AcDbCircle
 10
-106.20329
 20
-68.405754
 30
0.0
 40
2.9
  0
CIRCLE
  5
464
100
AcDbEntity
  8
0
  6
CONTINUOUS
 62
     7
100
AcDbCircle
 10
-88.203285
 20
-83.405754
 30
0.0
 40
2.9
  0
ARC
  5
465
100
AcDbEntity
  8
0
  6
CONTINUOUS
 62
     7
100
AcDbCircle
 10
-110.20329
 20
-71.405754
 30
0.0
 40
3.0
100
AcDbArc
 50
179.99999
 51
270.0
  0
ARC
  5
466
100
AcDbEntity
  8
0
  6
CONTINUOUS
 62
     7
100
AcDbCircle
 10
-84.203285
 20
-80.405754
 30
0.0
 40
3.0
100
AcDbArc
 50
0.0
 51
90.000003
  0
POINT
  5
467
100
AcDbEntity
  8
0
  6
CONTINUOUS
 62
     7
100
AcDbPoint
 10
-16.203287
 20
11.094247
 30
0.0
  0
POINT
  5
468
100
AcDbEntity
  8
0
  6
CONTINUOUS
 62
     7
100
AcDbPoint
 10
-1.203287
 20
11.094247
 30
0.0
  0
LINE
  5
469
100
AcDbEntity
  8
0
  6
CONTINUOUS
 62
     7
100
AcDbLine
 10
-28.703287
 20
-10.905753
 30
0.0
 11
-28.703287
 21
11.094247
 31
0.0
  0
LINE
  5
46A
100
AcDbEntity
  8
0
  6
CONTINUOUS
 62
     7
100
AcDbLine
 10
11.296713
 20
-10.905753
 30
0.0
 11
11.296713
 21
11.094247
 31
0.0
  0
LINE
  5
46B
100
AcDbEntity
  8
0
  6
CENTER
 62
     7
100
AcDbLine
 10
-8.703287
 20
-15.905753
 30
0.0
 11
-8.703287
 21
16.094247
 31
0.0
  0
LINE
  5
46C
100
AcDbEntity
  8
0
  6
CONTINUOUS
 62
     7
100
AcDbLine
 10
4.796713
 20
9.094247
 30
0.0
 11
4.796713
 21
-10.905753
 31
0.0
  0
LINE
  5
46D
100
AcDbEntity
  8
0
  6
CONTINUOUS
 62
     7
100
AcDbLine
 10
-22.203287
 20
9.094247
 30
0.0
 11
-22.203287
 21
-10.905753
 31
0.0
  0
LINE
  5
46E
100
AcDbEntity
  8
0
  6
CONTINUOUS
 62
     7
100
AcDbLine
 10
2.296713
 20
9.094247
 30
0.0
 11
2.296713
 21
-10.905753
 31
0.0
  0
LINE
  5
46F
100
AcDbEntity
  8
0
  6
CONTINUOUS
 62
     7
100
AcDbLine
 10
-19.703287
 20
9.094247
 30
0.0
 11
-19.703287
 21
-10.905753
 31
0.0
  0
LINE
  5
470
100
AcDbEntity
  8
0
  6
CONTINUOUS
 62
     7
100
AcDbLine
 10
-28.703287
 20
-10.905753
 30
0.0
 11
-19.703287
 21
-10.905753
 31
0.0
  0
LINE
  5
471
100
AcDbEntity
  8
0
  6
CONTINUOUS
 62
     7
100
AcDbLine
 10
-28.703287
 20
11.094247
 30
0.0
 11
11.296713
 21
11.094247
 31
0.0
  0
LINE
  5
472
100
AcDbEntity
  8
0
  6
CONTINUOUS
 62
     7
100
AcDbLine
 10
-19.703287
 20
6.094247
 30
0.0
 11
2.296713
 21
6.094247
 31
0.0
  0
LINE
  5
473
100
AcDbEntity
  8
0
  6
CONTINUOUS
 62
     7
100
AcDbLine
 10
-19.703287
 20
-9.105754
 30
0.0
 11
2.296713
 21
-9.105754
 31
0.0
  0
LINE
  5
474
100
AcDbEntity
  8
0
  6
CONTINUOUS
 62
     7
100
AcDbLine
 10
-22.203287
 20
9.094247
 30
0.0
 11
-10.203287
 21
9.094247
 31
0.0
  0
LINE
  5
475
100
AcDbEntity
  8
0
  6
CONTINUOUS
 62
     7
100
AcDbLine
 10
-19.703287
 20
-6.905753
 30
0.0
 11
2.296713
 21
-6.905753
 31
0.0
  0
LINE
  5
476
100
AcDbEntity
  8
0
  6
CENTER
 62
     7
100
AcDbLine
 10
-16.203287
 20
16.094247
 30
0.0
 11
-16.203287
 21
4.094247
 31
0.0
  0
LINE
  5
477
100
AcDbEntity
  8
0
  6
CONTINUOUS
 62
     7
100
AcDbLine
 10
-19.703287
 20
-10.605754
 30
0.0
 11
2.296713
 21
-10.605754
 31
0.0
  0
LINE
  5
478
100
AcDbEntity
  8
0
  6
CONTINUOUS
 62
     7
100
AcDbLine
 10
-10.203287
 20
11.094247
 30
0.0
 11
-10.203287
 21
9.094247
 31
0.0
  0
LINE
  5
479
100
AcDbEntity
  8
0
  6
CONTINUOUS
 62
     7
100
AcDbLine
 10
-24.203287
 20
-10.905753
 30
0.0
 11
-24.203287
 21
11.094247
 31
0.0
  0
LINE
  5
47A
100
AcDbEntity
  8
0
  6
CENTER
 62
     7
100
AcDbLine
 10
-1.203287
 20
16.094247
 30
0.0
 11
-1.203287
 21
4.094247
 31
0.0
  0
LINE
  5
47B
100
AcDbEntity
  8
0
  6
CONTINUOUS
 62
     7
100
AcDbLine
 10
-7.203287
 20
11.094247
 30
0.0
 11
-7.203287
 21
9.094247
 31
0.0
  0
LINE
  5
47C
100
AcDbEntity
  8
0
  6
CONTINUOUS
 62
     7
100
AcDbLine
 10
-7.203287
 20
9.094247
 30
0.0
 11
4.796713
 21
9.094247
 31
0.0
  0
LINE
  5
47D
100
AcDbEntity
  8
0
  6
CONTINUOUS
 62
     7
100
AcDbLine
 10
6.796713
 20
-10.905753
 30
0.0
 11
6.796713
 21
11.094247
 31
0.0
  0
LINE
  5
47E
100
AcDbEntity
  8
0
  6
CONTINUOUS
 62
     7
100
AcDbLine
 10
2.296713
 20
-10.905753
 30
0.0
 11
11.296713
 21
-10.905753
 31
0.0
  0
LINE
  5
47F
100
AcDbEntity
  8
0
  6
CENTER
 62
     7
100
AcDbLine
 10
-33.703287
 20
0.094247
 30
0.0
 11
16.296713
 21
0.094247
 31
0.0
  0
POINT
  5
480
100
AcDbEntity
  8
0
  6
CONTINUOUS
 62
     7
100
AcDbPoint
 10
113.79671
 20
54.594246
 30
0.0
  0
POINT
  5
481
100
AcDbEntity
  8
0
  6
CONTINUOUS
 62
     7
100
AcDbPoint
 10
131.79671
 20
54.594246
 30
0.0
  0
LINE
  5
482
100
AcDbEntity
  8
0
  6
CONTINUOUS
 62
     7
100
AcDbLine
 10
75.102493
 20
91.594246
 30
0.0
 11
70.296715
 21
91.594246
 31
0.0
  0
LINE
  5
483
100
AcDbEntity
  8
0
  6
CONTINUOUS
 62
     7
100
AcDbLine
 10
106.79671
 20
51.594246
 30
0.0
 11
106.79671
 21
60.594246
 31
0.0
  0
LINE
  5
484
100
AcDbEntity
  8
0
  6
CONTINUOUS
 62
     7
100
AcDbLine
 10
75.102493
 20
60.594246
 30
0.0
 11
70.296715
 21
60.594246
 31
0.0
  0
LINE
  5
485
100
AcDbEntity
  8
0
  6
CENTER
 62
     7
100
AcDbLine
 10
95.796715
 20
51.094246
 30
0.0
 11
95.796715
 21
101.09425
 31
0.0
  0
LINE
  5
486
100
AcDbEntity
  8
0
  6
CENTER
 62
     7
100
AcDbLine
 10
69.796715
 20
51.094246
 30
0.0
 11
69.796715
 21
101.09425
 31
0.0
  0
LINE
  5
487
100
AcDbEntity
  8
0
  6
CONTINUOUS
 62
     7
100
AcDbLine
 10
75.102493
 20
60.594246
 30
0.0
 11
75.102493
 21
56.094246
 31
0.0
  0
LINE
  5
488
100
AcDbEntity
  8
0
  6
CONTINUOUS
 62
     7
100
AcDbLine
 10
106.79671
 20
96.094246
 30
0.0
 11
75.102493
 21
96.094246
 31
0.0
  0
LINE
  5
489
100
AcDbEntity
  8
0
  6
CONTINUOUS
 62
     7
100
AcDbLine
 10
96.296715
 20
60.594246
 30
0.0
 11
96.296715
 21
91.594246
 31
0.0
  0
LINE
  5
48A
100
AcDbEntity
  8
0
  6
CENTER
 62
     7
100
AcDbLine
 10
131.79671
 20
76.094246
 30
0.0
 11
55.296715
 21
76.094246
 31
0.0
  0
LINE
  5
48B
100
AcDbEntity
  8
0
  6
CONTINUOUS
 62
     7
100
AcDbLine
 10
138.79671
 20
91.594246
 30
0.0
 11
96.296715
 21
91.594246
 31
0.0
  0
LINE
  5
48C
100
AcDbEntity
  8
0
  6
CONTINUOUS
 62
     7
100
AcDbLine
 10
106.79671
 20
56.094246
 30
0.0
 11
75.102493
 21
56.094246
 31
0.0
  0
LINE
  5
48D
100
AcDbEntity
  8
0
  6
CONTINUOUS
 62
     7
100
AcDbLine
 10
138.79671
 20
60.594246
 30
0.0
 11
96.296715
 21
60.594246
 31
0.0
  0
LINE
  5
48E
100
AcDbEntity
  8
0
  6
CENTER
 62
     7
100
AcDbLine
 10
136.69671
 20
54.594246
 30
0.0
 11
126.89672
 21
54.594246
 31
0.0
  0
LINE
  5
48F
100
AcDbEntity
  8
0
  6
CONTINUOUS
 62
     7
100
AcDbLine
 10
138.79671
 20
62.594246
 30
0.0
 11
96.296715
 21
62.594246
 31
0.0
  0
LINE
  5
490
100
AcDbEntity
  8
0
  6
CENTER
 62
     7
100
AcDbLine
 10
131.79671
 20
59.494246
 30
0.0
 11
131.79671
 21
49.694246
 31
0.0
  0
LINE
  5
491
100
AcDbEntity
  8
0
  6
CONTINUOUS
 62
     7
100
AcDbLine
 10
135.79671
 20
48.594246
 30
0.0
 11
109.79671
 21
48.594246
 31
0.0
  0
LINE
  5
492
100
AcDbEntity
  8
0
  6
CONTINUOUS
 62
     7
100
AcDbLine
 10
138.79671
 20
51.594246
 30
0.0
 11
138.79671
 21
62.594246
 31
0.0
  0
LINE
  5
493
100
AcDbEntity
  8
0
  6
CENTER
 62
     7
100
AcDbLine
 10
113.79671
 20
92.694244
 30
0.0
 11
113.79671
 21
102.49425
 31
0.0
  0
LINE
  5
494
100
AcDbEntity
  8
0
  6
CENTER
 62
     7
100
AcDbLine
 10
113.79671
 20
59.494246
 30
0.0
 11
113.79671
 21
49.694246
 31
0.0
  0
LINE
  5
495
100
AcDbEntity
  8
0
  6
CENTER
 62
     7
100
AcDbLine
 10
118.69671
 20
54.594246
 30
0.0
 11
108.89671
 21
54.594246
 31
0.0
  0
LINE
  5
496
100
AcDbEntity
  8
0
  6
CONTINUOUS
 62
     7
100
AcDbLine
 10
138.79671
 20
100.59425
 30
0.0
 11
138.79671
 21
89.594246
 31
0.0
  0
LINE
  5
497
100
AcDbEntity
  8
0
  6
CONTINUOUS
 62
     7
100
AcDbLine
 10
135.79671
 20
103.59425
 30
0.0
 11
109.79671
 21
103.59425
 31
0.0
  0
LINE
  5
498
100
AcDbEntity
  8
0
  6
CENTER
 62
     7
100
AcDbLine
 10
131.79671
 20
92.694244
 30
0.0
 11
131.79671
 21
102.49425
 31
0.0
  0
LINE
  5
499
100
AcDbEntity
  8
0
  6
CONTINUOUS
 62
     7
100
AcDbLine
 10
138.79671
 20
89.594246
 30
0.0
 11
96.296715
 21
89.594246
 31
0.0
  0
LINE
  5
49A
100
AcDbEntity
  8
0
  6
CENTER
 62
     7
100
AcDbLine
 10
136.69671
 20
97.594246
 30
0.0
 11
126.89672
 21
97.594246
 31
0.0
  0
LINE
  5
49B
100
AcDbEntity
  8
0
  6
CONTINUOUS
 62
     7
100
AcDbLine
 10
106.79671
 20
100.59425
 30
0.0
 11
106.79671
 21
91.594246
 31
0.0
  0
LINE
  5
49C
100
AcDbEntity
  8
0
  6
CENTER
 62
     7
100
AcDbLine
 10
118.69671
 20
97.594246
 30
0.0
 11
108.89671
 21
97.594246
 31
0.0
  0
LINE
  5
49D
100
AcDbEntity
  8
0
  6
CONTINUOUS
 62
     7
100
AcDbLine
 10
75.102493
 20
96.094246
 30
0.0
 11
75.102493
 21
91.594246
 31
0.0
  0
CIRCLE
  5
49E
100
AcDbEntity
  8
0
  6
CONTINUOUS
 62
     7
100
AcDbCircle
 10
131.79671
 20
97.594246
 30
0.0
 40
2.9
  0
ARC
  5
49F
100
AcDbEntity
  8
0
  6
CONTINUOUS
 62
     7
100
AcDbCircle
 10
109.79671
 20
51.594246
 30
0.0
 40
3.0
100
AcDbArc
 50
179.99999
 51
270.0
  0
CIRCLE
  5
4A0
100
AcDbEntity
  8
0
  6
CONTINUOUS
 62
     7
100
AcDbCircle
 10
113.79671
 20
54.594246
 30
0.0
 40
2.9
  0
ARC
  5
4A1
100
AcDbEntity
  8
0
  6
CONTINUOUS
 62
     7
100
AcDbCircle
 10
135.79671
 20
100.59425
 30
0.0
 40
3.0
100
AcDbArc
 50
0.0
 51
90.000003
  0
CIRCLE
  5
4A2
100
AcDbEntity
  8
0
  6
CONTINUOUS
 62
     7
100
AcDbCircle
 10
113.79671
 20
97.594246
 30
0.0
 40
2.9
  0
CIRCLE
  5
4A3
100
AcDbEntity
  8
0
  6
CONTINUOUS
 62
     7
100
AcDbCircle
 10
131.79671
 20
54.594246
 30
0.0
 40
2.9
  0
ARC
  5
4A4
100
AcDbEntity
  8
0
  6
CONTINUOUS
 62
     7
100
AcDbCircle
 10
109.79671
 20
100.59425
 30
0.0
 40
3.0
100
AcDbArc
 50
90.000003
 51
180.00001
  0
ARC
  5
4A5
100
AcDbEntity
  8
0
  6
CONTINUOUS
 62
     7
100
AcDbCircle
 10
135.79671
 20
51.594246
 30
0.0
 40
3.0
100
AcDbArc
 50
270.0
 51
0.0
  0
POINT
  5
4A6
100
AcDbEntity
  8
0
  6
CONTINUOUS
 62
     7
100
AcDbPoint
 10
113.79671
 20
-10.905753
 30
0.0
  0
POINT
  5
4A7
100
AcDbEntity
  8
0
  6
CONTINUOUS
 62
     7
100
AcDbPoint
 10
131.79671
 20
-10.905753
 30
0.0
  0
LINE
  5
4A8
100
AcDbEntity
  8
0
  6
CENTER
 62
     7
100
AcDbLine
 10
69.796715
 20
-5.905753
 30
0.0
 11
69.796715
 21
6.094247
 31
0.0
  0
LINE
  5
4A9
100
AcDbEntity
  8
0
  6
CENTER
 62
     7
100
AcDbLine
 10
89.796715
 20
0.094247
 30
0.0
 11
101.79671
 21
0.094247
 31
0.0
  0
LINE
  5
4AA
100
AcDbEntity
  8
0
  6
CONTINUOUS
 62
     7
100
AcDbLine
 10
101.79671
 20
-10.905753
 30
0.0
 11
69.796715
 21
-10.905753
 31
0.0
  0
LINE
  5
4AB
100
AcDbEntity
  8
0
  6
CENTER
 62
     7
100
AcDbLine
 10
63.796715
 20
0.094247
 30
0.0
 11
75.796715
 21
0.094247
 31
0.0
  0
LINE
  5
4AC
100
AcDbEntity
  8
0
  6
CONTINUOUS
 62
     7
100
AcDbLine
 10
95.796715
 20
11.094247
 30
0.0
 11
75.402493
 21
11.094247
 31
0.0
  0
LINE
  5
4AD
100
AcDbEntity
  8
0
  6
CENTER
 62
     7
100
AcDbLine
 10
95.796715
 20
-5.905753
 30
0.0
 11
95.796715
 21
6.094247
 31
0.0
  0
LINE
  5
4AE
100
AcDbEntity
  8
0
  6
CONTINUOUS
 62
     7
100
AcDbLine
 10
72.296715
 20
-3.028252
 30
0.0
 11
72.296715
 21
3.216746
 31
0.0
  0
LINE
  5
4AF
100
AcDbEntity
  8
0
  6
CONTINUOUS
 62
     7
100
AcDbLine
 10
77.188774
 20
8.903758
 30
0.0
 11
75.209656
 21
10.564435
 31
0.0
  0
LINE
  5
4B0
100
AcDbEntity
  8
0
  6
CONTINUOUS
 62
     7
100
AcDbLine
 10
99.553274
 20
10.432925
 30
0.0
 11
132.41381
 21
-1.506955
 31
0.0
  0
LINE
  5
4B1
100
AcDbEntity
  8
0
  6
CONTINUOUS
 62
     7
100
AcDbLine
 10
106.79671
 20
-8.905753
 30
0.0
 11
138.79671
 21
-8.905753
 31
0.0
  0
LINE
  5
4B2
100
AcDbEntity
  8
0
  6
CONTINUOUS
 62
     7
100
AcDbLine
 10
138.79671
 20
-10.905753
 30
0.0
 11
138.79671
 21
-8.905753
 31
0.0
  0
LINE
  5
4B3
100
AcDbEntity
  8
0
  6
CONTINUOUS
 62
     7
100
AcDbLine
 10
106.79671
 20
-10.905753
 30
0.0
 11
106.79671
 21
-8.905753
 31
0.0
  0
LINE
  5
4B4
100
AcDbEntity
  8
0
  6
CENTER
 62
     7
100
AcDbLine
 10
113.79671
 20
-13.905753
 30
0.0
 11
113.79671
 21
-5.905753
 31
0.0
  0
LINE
  5
4B5
100
AcDbEntity
  8
0
  6
CENTER
 62
     7
100
AcDbLine
 10
131.79671
 20
-13.905753
 30
0.0
 11
131.79671
 21
-5.905753
 31
0.0
  0
ARC
  5
4B6
100
AcDbEntity
  8
0
  6
CONTINUOUS
 62
     7
100
AcDbCircle
 10
95.796715
 20
0.094247
 30
0.0
 40
11.0
100
AcDbArc
 50
270.0
 51
90.000003
  0
CIRCLE
  5
4B7
100
AcDbEntity
  8
0
  6
CONTINUOUS
 62
     7
100
AcDbCircle
 10
69.796715
 20
0.094247
 30
0.0
 40
4.0
  0
ARC
  5
4B8
100
AcDbEntity
  8
0
  6
CONTINUOUS
 62
     7
100
AcDbCircle
 10
69.796715
 20
0.094247
 30
0.0
 40
11.5
100
AcDbArc
 50
298.95503
 51
50.0
  0
ARC
  5
4B9
100
AcDbEntity
  8
0
  6
CONTINUOUS
 62
     7
100
AcDbCircle
 10
75.60619
 20
-10.405753
 30
0.0
 40
0.5
100
AcDbArc
 50
118.95503
 51
270.0
  0
ARC
  5
4BA
100
AcDbEntity
  8
0
  6
CONTINUOUS
 62
     7
100
AcDbCircle
 10
75.402493
 20
10.794248
 30
0.0
 40
0.3
100
AcDbArc
 50
90.000003
 51
230.00001
  0
ARC
  5
4BB
100
AcDbEntity
  8
0
  6
CONTINUOUS
 62
     7
100
AcDbCircle
 10
104.29671
 20
-10.905753
 30
0.0
 40
2.5
100
AcDbArc
 50
0.0
 51
174.80558
  0
ARC
  5
4BC
100
AcDbEntity
  8
0
  6
CONTINUOUS
 62
     7
100
AcDbCircle
 10
128.99876
 20
-10.905753
 30
0.0
 40
10.0
100
AcDbArc
 50
11.536959
 51
70.031378
  0
CIRCLE
  5
4BD
100
AcDbEntity
  8
0
  6
CONTINUOUS
 62
     7
100
AcDbCircle
 10
95.796715
 20
0.094247
 30
0.0
 40
4.0
  0
POLYLINE
  5
4BE
100
AcDbEntity
  8
0
  6
CONTINUOUS
 62
     7
100
AcDb2dPolyline
 66
     1
 10
0.0
 20
0.0
 30
0.0
  0
VERTEX
  5
4BF
100
AcDbEntity
  8
0
  6
CONTINUOUS
 62
     7
100
AcDbVertex
100
AcDb2dVertex
 10
106.80193
 20
-10.905753
 30
0.0
  0
VERTEX
  5
4C0
100
AcDbEntity
  8
0
  6
CONTINUOUS
 62
     7
100
AcDbVertex
100
AcDb2dVertex
 10
138.79671
 20
-10.905753
 30
0.0
  0
SEQEND
  5
4C1
100
AcDbEntity
  8
0
 62
     7
  0
POINT
  5
4C2
100
AcDbEntity
  8
0
  6
CONTINUOUS
 62
     7
100
AcDbPoint
 10
113.79671
 20
-54.405754
 30
0.0
  0
POINT
  5
4C3
100
AcDbEntity
  8
0
  6
CONTINUOUS
 62
     7
100
AcDbPoint
 10
131.79671
 20
-54.405754
 30
0.0
  0
LINE
  5
4C4
100
AcDbEntity
  8
0
  6
CONTINUOUS
 62
     7
100
AcDbLine
 10
96.796715
 20
-64.905754
 30
0.0
 11
86.796715
 21
-64.905754
 31
0.0
  0
LINE
  5
4C5
100
AcDbEntity
  8
0
  6
CENTER
 62
     7
100
AcDbLine
 10
121.62573
 20
-75.905754
 30
0.0
 11
55.296715
 21
-75.905754
 31
0.0
  0
LINE
  5
4C6
100
AcDbEntity
  8
0
  6
CONTINUOUS
 62
     7
100
AcDbLine
 10
106.79671
 20
-55.905754
 30
0.0
 11
75.10619
 21
-55.905754
 31
0.0
  0
LINE
  5
4C7
100
AcDbEntity
  8
0
  6
CONTINUOUS
 62
     7
100
AcDbLine
 10
106.79671
 20
-95.905754
 30
0.0
 11
75.10619
 21
-95.905754
 31
0.0
  0
LINE
  5
4C8
100
AcDbEntity
  8
0
  6
CONTINUOUS
 62
     7
100
AcDbLine
 10
96.796715
 20
-86.905754
 30
0.0
 11
86.796715
 21
-86.905754
 31
0.0
  0
LINE
  5
4C9
100
AcDbEntity
  8
0
  6
CENTER
 62
     7
100
AcDbLine
 10
118.69671
 20
-54.405754
 30
0.0
 11
108.89671
 21
-54.405754
 31
0.0
  0
LINE
  5
4CA
100
AcDbEntity
  8
0
  6
CONTINUOUS
 62
     7
100
AcDbLine
 10
75.10619
 20
-95.905754
 30
0.0
 11
75.10619
 21
-91.405754
 31
0.0
  0
LINE
  5
4CB
100
AcDbEntity
  8
0
  6
CONTINUOUS
 62
     7
100
AcDbLine
 10
96.796715
 20
-91.405754
 30
0.0
 11
96.796715
 21
-60.405754
 31
0.0
  0
LINE
  5
4CC
100
AcDbEntity
  8
0
  6
CONTINUOUS
 62
     7
100
AcDbLine
 10
86.796715
 20
-57.505754
 30
0.0
 11
79.796715
 21
-57.505754
 31
0.0
  0
LINE
  5
4CD
100
AcDbEntity
  8
0
  6
CENTER
 62
     7
100
AcDbLine
 10
69.796715
 20
-100.90575
 30
0.0
 11
69.796715
 21
-50.905754
 31
0.0
  0
LINE
  5
4CE
100
AcDbEntity
  8
0
  6
CENTER
 62
     7
100
AcDbLine
 10
95.796715
 20
-100.90575
 30
0.0
 11
95.796715
 21
-50.905754
 31
0.0
  0
LINE
  5
4CF
100
AcDbEntity
  8
0
  6
CONTINUOUS
 62
     7
100
AcDbLine
 10
86.796715
 20
-94.305756
 30
0.0
 11
86.796715
 21
-86.905754
 31
0.0
  0
LINE
  5
4D0
100
AcDbEntity
  8
0
  6
CONTINUOUS
 62
     7
100
AcDbLine
 10
86.796715
 20
-94.305756
 30
0.0
 11
79.796715
 21
-94.305756
 31
0.0
  0
LINE
  5
4D1
100
AcDbEntity
  8
0
  6
CONTINUOUS
 62
     7
100
AcDbLine
 10
71.196716
 20
-86.905754
 30
0.0
 11
71.196716
 21
-64.905754
 31
0.0
  0
LINE
  5
4D2
100
AcDbEntity
  8
0
  6
CONTINUOUS
 62
     7
100
AcDbLine
 10
79.796715
 20
-94.305756
 30
0.0
 11
79.796715
 21
-86.905754
 31
0.0
  0
LINE
  5
4D3
100
AcDbEntity
  8
0
  6
CONTINUOUS
 62
     7
100
AcDbLine
 10
75.10619
 20
-55.905754
 30
0.0
 11
75.10619
 21
-60.405754
 31
0.0
  0
LINE
  5
4D4
100
AcDbEntity
  8
0
  6
CONTINUOUS
 62
     7
100
AcDbLine
 10
86.796715
 20
-64.905754
 30
0.0
 11
86.796715
 21
-57.505754
 31
0.0
  0
LINE
  5
4D5
100
AcDbEntity
  8
0
  6
CONTINUOUS
 62
     7
100
AcDbLine
 10
79.796715
 20
-64.905754
 30
0.0
 11
79.796715
 21
-57.505754
 31
0.0
  0
LINE
  5
4D6
100
AcDbEntity
  8
0
  6
CONTINUOUS
 62
     7
100
AcDbLine
 10
79.796715
 20
-86.905754
 30
0.0
 11
71.196716
 21
-86.905754
 31
0.0
  0
LINE
  5
4D7
100
AcDbEntity
  8
0
  6
CONTINUOUS
 62
     7
100
AcDbLine
 10
79.796715
 20
-64.905754
 30
0.0
 11
71.196716
 21
-64.905754
 31
0.0
  0
LINE
  5
4D8
100
AcDbEntity
  8
0
  6
CONTINUOUS
 62
     7
100
AcDbLine
 10
86.796715
 20
-57.705754
 30
0.0
 11
79.796715
 21
-57.705754
 31
0.0
  0
LINE
  5
4D9
100
AcDbEntity
  8
0
  6
CONTINUOUS
 62
     7
100
AcDbLine
 10
86.796715
 20
-94.105755
 30
0.0
 11
79.796715
 21
-94.105755
 31
0.0
  0
LINE
  5
4DA
100
AcDbEntity
  8
0
  6
CONTINUOUS
 62
     7
100
AcDbLine
 10
75.10619
 20
-91.405754
 30
0.0
 11
71.196716
 21
-91.405754
 31
0.0
  0
LINE
  5
4DB
100
AcDbEntity
  8
0
  6
CONTINUOUS
 62
     7
100
AcDbLine
 10
75.10619
 20
-60.405754
 30
0.0
 11
71.196716
 21
-60.405754
 31
0.0
  0
LINE
  5
4DC
100
AcDbEntity
  8
0
  6
CONTINUOUS
 62
     7
100
AcDbLine
 10
106.79671
 20
-51.405754
 30
0.0
 11
106.79671
 21
-62.405754
 31
0.0
  0
LINE
  5
4DD
100
AcDbEntity
  8
0
  6
CONTINUOUS
 62
     7
100
AcDbLine
 10
106.79671
 20
-100.40575
 30
0.0
 11
106.79671
 21
-89.405754
 31
0.0
  0
LINE
  5
4DE
100
AcDbEntity
  8
0
  6
CENTER
 62
     7
100
AcDbLine
 10
136.69671
 20
-54.405754
 30
0.0
 11
126.89672
 21
-54.405754
 31
0.0
  0
LINE
  5
4DF
100
AcDbEntity
  8
0
  6
CONTINUOUS
 62
     7
100
AcDbLine
 10
138.79671
 20
-62.405754
 30
0.0
 11
96.796715
 21
-62.405754
 31
0.0
  0
LINE
  5
4E0
100
AcDbEntity
  8
0
  6
CENTER
 62
     7
100
AcDbLine
 10
131.79671
 20
-59.305754
 30
0.0
 11
131.79671
 21
-49.505754
 31
0.0
  0
LINE
  5
4E1
100
AcDbEntity
  8
0
  6
CONTINUOUS
 62
     7
100
AcDbLine
 10
135.79671
 20
-48.405754
 30
0.0
 11
109.79671
 21
-48.405754
 31
0.0
  0
LINE
  5
4E2
100
AcDbEntity
  8
0
  6
CONTINUOUS
 62
     7
100
AcDbLine
 10
138.79671
 20
-51.405754
 30
0.0
 11
138.79671
 21
-62.405754
 31
0.0
  0
LINE
  5
4E3
100
AcDbEntity
  8
0
  6
CENTER
 62
     7
100
AcDbLine
 10
118.69671
 20
-97.405754
 30
0.0
 11
108.89671
 21
-97.405754
 31
0.0
  0
LINE
  5
4E4
100
AcDbEntity
  8
0
  6
CENTER
 62
     7
100
AcDbLine
 10
113.79671
 20
-92.505753
 30
0.0
 11
113.79671
 21
-102.30576
 31
0.0
  0
LINE
  5
4E5
100
AcDbEntity
  8
0
  6
CENTER
 62
     7
100
AcDbLine
 10
113.79671
 20
-59.305754
 30
0.0
 11
113.79671
 21
-49.505754
 31
0.0
  0
LINE
  5
4E6
100
AcDbEntity
  8
0
  6
CONTINUOUS
 62
     7
100
AcDbLine
 10
138.79671
 20
-100.40575
 30
0.0
 11
138.79671
 21
-89.405754
 31
0.0
  0
LINE
  5
4E7
100
AcDbEntity
  8
0
  6
CONTINUOUS
 62
     7
100
AcDbLine
 10
135.79671
 20
-103.40575
 30
0.0
 11
109.79671
 21
-103.40575
 31
0.0
  0
LINE
  5
4E8
100
AcDbEntity
  8
0
  6
CENTER
 62
     7
100
AcDbLine
 10
131.79671
 20
-92.505753
 30
0.0
 11
131.79671
 21
-102.30576
 31
0.0
  0
LINE
  5
4E9
100
AcDbEntity
  8
0
  6
CONTINUOUS
 62
     7
100
AcDbLine
 10
138.79671
 20
-89.405754
 30
0.0
 11
96.796715
 21
-89.405754
 31
0.0
  0
LINE
  5
4EA
100
AcDbEntity
  8
0
  6
CENTER
 62
     7
100
AcDbLine
 10
136.69671
 20
-97.405754
 30
0.0
 11
126.89672
 21
-97.405754
 31
0.0
  0
LINE
  5
4EB
100
AcDbEntity
  8
0
  6
CONTINUOUS
 62
     7
100
AcDbLine
 10
106.79671
 20
-91.405754
 30
0.0
 11
96.796715
 21
-91.405754
 31
0.0
  0
LINE
  5
4EC
100
AcDbEntity
  8
0
  6
CONTINUOUS
 62
     7
100
AcDbLine
 10
106.79671
 20
-60.405754
 30
0.0
 11
96.796715
 21
-60.405754
 31
0.0
  0
LINE
  5
4ED
100
AcDbEntity
  8
0
  6
CENTER
 62
     7
100
AcDbLine
 10
77.796715
 20
-90.905754
 30
0.0
 11
88.796715
 21
-90.905754
 31
0.0
  0
LINE
  5
4EE
100
AcDbEntity
  8
0
  6
CENTER
 62
     7
100
AcDbLine
 10
77.796715
 20
-60.905754
 30
0.0
 11
88.796715
 21
-60.905754
 31
0.0
  0
ARC
  5
4EF
100
AcDbEntity
  8
0
  6
CONTINUOUS
 62
     7
100
AcDbCircle
 10
135.79671
 20
-100.40575
 30
0.0
 40
3.0
100
AcDbArc
 50
270.0
 51
0.0
  0
ARC
  5
4F0
100
AcDbEntity
  8
0
  6
CONTINUOUS
 62
     7
100
AcDbCircle
 10
109.79671
 20
-51.405754
 30
0.0
 40
3.0
100
AcDbArc
 50
90.000003
 51
180.00001
  0
CIRCLE
  5
4F1
100
AcDbEntity
  8
0
  6
CONTINUOUS
 62
     7
100
AcDbCircle
 10
131.79671
 20
-97.405754
 30
0.0
 40
2.9
  0
CIRCLE
  5
4F2
100
AcDbEntity
  8
0
  6
CONTINUOUS
 62
     7
100
AcDbCircle
 10
113.79671
 20
-54.405754
 30
0.0
 40
2.9
  0
ARC
  5
4F3
100
AcDbEntity
  8
0
  6
CONTINUOUS
 62
     7
100
AcDbCircle
 10
135.79671
 20
-51.405754
 30
0.0
 40
3.0
100
AcDbArc
 50
0.0
 51
90.000003
  0
CIRCLE
  5
4F4
100
AcDbEntity
  8
0
  6
CONTINUOUS
 62
     7
100
AcDbCircle
 10
113.79671
 20
-97.405754
 30
0.0
 40
2.9
  0
ARC
  5
4F5
100
AcDbEntity
  8
0
  6
CONTINUOUS
 62
     7
100
AcDbCircle
 10
109.79671
 20
-100.40575
 30
0.0
 40
3.0
100
AcDbArc
 50
179.99999
 51
270.0
  0
CIRCLE
  5
4F6
100
AcDbEntity
  8
0
  6
CONTINUOUS
 62
     7
100
AcDbCircle
 10
131.79671
 20
-54.405754
 30
0.0
 40
2.9
  0
POINT
  5
4F7
100
AcDbEntity
  8
0
  6
CONTINUOUS
 62
     7
100
AcDbPoint
 10
183.79671
 20
-10.905753
 30
0.0
  0
POINT
  5
4F8
100
AcDbEntity
  8
0
  6
CONTINUOUS
 62
     7
100
AcDbPoint
 10
226.79671
 20
-10.905753
 30
0.0
  0
LINE
  5
4F9
100
AcDbEntity
  8
0
  6
CONTINUOUS
 62
     7
100
AcDbLine
 10
216.29671
 20
-10.905753
 30
0.0
 11
232.79671
 21
-10.905753
 31
0.0
  0
LINE
  5
4FA
100
AcDbEntity
  8
0
  6
CONTINUOUS
 62
     7
100
AcDbLine
 10
194.29671
 20
-9.105753
 30
0.0
 11
216.29671
 21
-9.105753
 31
0.0
  0
LINE
  5
4FB
100
AcDbEntity
  8
0
  6
CENTER
 62
     7
100
AcDbLine
 10
180.29671
 20
0.094247
 30
0.0
 11
230.29671
 21
0.094247
 31
0.0
  0
LINE
  5
4FC
100
AcDbEntity
  8
0
  6
CONTINUOUS
 62
     7
100
AcDbLine
 10
185.29671
 20
-8.905753
 30
0.0
 11
185.29671
 21
11.094247
 31
0.0
  0
LINE
  5
4FD
100
AcDbEntity
  8
0
  6
CONTINUOUS
 62
     7
100
AcDbLine
 10
225.29671
 20
-8.905753
 30
0.0
 11
225.29671
 21
11.094247
 31
0.0
  0
LINE
  5
4FE
100
AcDbEntity
  8
0
  6
CENTER
 62
     7
100
AcDbLine
 10
205.29671
 20
-15.905753
 30
0.0
 11
205.29671
 21
16.094247
 31
0.0
  0
LINE
  5
4FF
100
AcDbEntity
  8
0
  6
CONTINUOUS
 62
     7
100
AcDbLine
 10
218.79671
 20
-10.905753
 30
0.0
 11
218.79671
 21
11.094247
 31
0.0
  0
LINE
  5
500
100
AcDbEntity
  8
0
  6
CONTINUOUS
 62
     7
100
AcDbLine
 10
191.79671
 20
-10.905753
 30
0.0
 11
191.79671
 21
11.094247
 31
0.0
  0
LINE
  5
501
100
AcDbEntity
  8
0
  6
CONTINUOUS
 62
     7
100
AcDbLine
 10
216.29671
 20
-10.905753
 30
0.0
 11
216.29671
 21
11.094247
 31
0.0
  0
LINE
  5
502
100
AcDbEntity
  8
0
  6
CONTINUOUS
 62
     7
100
AcDbLine
 10
194.29671
 20
-10.905753
 30
0.0
 11
194.29671
 21
11.094247
 31
0.0
  0
LINE
  5
503
100
AcDbEntity
  8
0
  6
CONTINUOUS
 62
     7
100
AcDbLine
 10
177.79671
 20
-10.905753
 30
0.0
 11
194.29671
 21
-10.905753
 31
0.0
  0
LINE
  5
504
100
AcDbEntity
  8
0
  6
CONTINUOUS
 62
     7
100
AcDbLine
 10
185.29671
 20
11.094247
 30
0.0
 11
225.29671
 21
11.094247
 31
0.0
  0
LINE
  5
505
100
AcDbEntity
  8
0
  6
CONTINUOUS
 62
     7
100
AcDbLine
 10
194.29671
 20
6.094247
 30
0.0
 11
216.29671
 21
6.094247
 31
0.0
  0
LINE
  5
506
100
AcDbEntity
  8
0
  6
CONTINUOUS
 62
     7
100
AcDbLine
 10
189.79671
 20
-8.905753
 30
0.0
 11
177.79671
 21
-8.905753
 31
0.0
  0
LINE
  5
507
100
AcDbEntity
  8
0
  6
CENTER
 62
     7
100
AcDbLine
 10
183.79671
 20
-15.905753
 30
0.0
 11
183.79671
 21
-3.905753
 31
0.0
  0
LINE
  5
508
100
AcDbEntity
  8
0
  6
CONTINUOUS
 62
     7
100
AcDbLine
 10
177.79671
 20
-10.905753
 30
0.0
 11
177.79671
 21
-8.905753
 31
0.0
  0
LINE
  5
509
100
AcDbEntity
  8
0
  6
CONTINUOUS
 62
     7
100
AcDbLine
 10
189.79671
 20
-8.905753
 30
0.0
 11
189.79671
 21
11.094247
 31
0.0
  0
LINE
  5
50A
100
AcDbEntity
  8
0
  6
CENTER
 62
     7
100
AcDbLine
 10
226.79671
 20
-15.905753
 30
0.0
 11
226.79671
 21
-3.905753
 31
0.0
  0
LINE
  5
50B
100
AcDbEntity
  8
0
  6
CONTINUOUS
 62
     7
100
AcDbLine
 10
232.79671
 20
-10.905753
 30
0.0
 11
232.79671
 21
-8.905753
 31
0.0
  0
LINE
  5
50C
100
AcDbEntity
  8
0
  6
CONTINUOUS
 62
     7
100
AcDbLine
 10
232.79671
 20
-8.905753
 30
0.0
 11
220.79671
 21
-8.905753
 31
0.0
  0
LINE
  5
50D
100
AcDbEntity
  8
0
  6
CONTINUOUS
 62
     7
100
AcDbLine
 10
220.79671
 20
-8.905753
 30
0.0
 11
220.79671
 21
11.094247
 31
0.0
  0
LINE
  5
50E
100
AcDbEntity
  8
0
  6
CONTINUOUS
 62
     7
100
AcDbLine
 10
194.29671
 20
-10.605753
 30
0.0
 11
216.29671
 21
-10.605753
 31
0.0
  0
LINE
  5
50F
100
AcDbEntity
  8
0
  6
CONTINUOUS
 62
     7
100
AcDbLine
 10
194.29671
 20
-6.905753
 30
0.0
 11
216.29671
 21
-6.905753
 31
0.0
  0
POINT
  5
510
100
AcDbEntity
  8
0
  6
CONTINUOUS
 62
     7
100
AcDbPoint
 10
333.79672
 20
54.594246
 30
0.0
  0
POINT
  5
511
100
AcDbEntity
  8
0
  6
CONTINUOUS
 62
     7
100
AcDbPoint
 10
351.79672
 20
54.594246
 30
0.0
  0
LINE
  5
512
100
AcDbEntity
  8
0
  6
CONTINUOUS
 62
     7
100
AcDbLine
 10
295.1025
 20
91.594246
 30
0.0
 11
290.29672
 21
91.594246
 31
0.0
  0
LINE
  5
513
100
AcDbEntity
  8
0
  6
CONTINUOUS
 62
     7
100
AcDbLine
 10
326.79672
 20
51.594246
 30
0.0
 11
326.79672
 21
62.594246
 31
0.0
  0
LINE
  5
514
100
AcDbEntity
  8
0
  6
CONTINUOUS
 62
     7
100
AcDbLine
 10
295.1025
 20
60.594246
 30
0.0
 11
290.29672
 21
60.594246
 31
0.0
  0
LINE
  5
515
100
AcDbEntity
  8
0
  6
CENTER
 62
     7
100
AcDbLine
 10
315.79672
 20
51.094246
 30
0.0
 11
315.79672
 21
101.09425
 31
0.0
  0
LINE
  5
516
100
AcDbEntity
  8
0
  6
CENTER
 62
     7
100
AcDbLine
 10
289.79672
 20
51.094246
 30
0.0
 11
289.79672
 21
101.09425
 31
0.0
  0
LINE
  5
517
100
AcDbEntity
  8
0
  6
CONTINUOUS
 62
     7
100
AcDbLine
 10
326.79672
 20
96.094246
 30
0.0
 11
295.1025
 21
96.094246
 31
0.0
  0
LINE
  5
518
100
AcDbEntity
  8
0
  6
CONTINUOUS
 62
     7
100
AcDbLine
 10
316.29672
 20
60.594246
 30
0.0
 11
316.29672
 21
91.594246
 31
0.0
  0
LINE
  5
519
100
AcDbEntity
  8
0
  6
CENTER
 62
     7
100
AcDbLine
 10
341.32462
 20
76.094246
 30
0.0
 11
275.29672
 21
76.094246
 31
0.0
  0
LINE
  5
51A
100
AcDbEntity
  8
0
  6
CONTINUOUS
 62
     7
100
AcDbLine
 10
295.1025
 20
60.594246
 30
0.0
 11
295.1025
 21
56.094246
 31
0.0
  0
LINE
  5
51B
100
AcDbEntity
  8
0
  6
CONTINUOUS
 62
     7
100
AcDbLine
 10
326.79672
 20
91.594246
 30
0.0
 11
316.29672
 21
91.594246
 31
0.0
  0
LINE
  5
51C
100
AcDbEntity
  8
0
  6
CONTINUOUS
 62
     7
100
AcDbLine
 10
326.79672
 20
56.094246
 30
0.0
 11
295.1025
 21
56.094246
 31
0.0
  0
LINE
  5
51D
100
AcDbEntity
  8
0
  6
CONTINUOUS
 62
     7
100
AcDbLine
 10
326.79672
 20
60.594246
 30
0.0
 11
316.29672
 21
60.594246
 31
0.0
  0
LINE
  5
51E
100
AcDbEntity
  8
0
  6
CENTER
 62
     7
100
AcDbLine
 10
356.69672
 20
54.594246
 30
0.0
 11
346.89672
 21
54.594246
 31
0.0
  0
LINE
  5
51F
100
AcDbEntity
  8
0
  6
CONTINUOUS
 62
     7
100
AcDbLine
 10
358.79672
 20
62.594246
 30
0.0
 11
316.29672
 21
62.594246
 31
0.0
  0
LINE
  5
520
100
AcDbEntity
  8
0
  6
CENTER
 62
     7
100
AcDbLine
 10
351.79672
 20
59.494246
 30
0.0
 11
351.79672
 21
49.694246
 31
0.0
  0
LINE
  5
521
100
AcDbEntity
  8
0
  6
CONTINUOUS
 62
     7
100
AcDbLine
 10
355.79672
 20
48.594246
 30
0.0
 11
329.79672
 21
48.594246
 31
0.0
  0
LINE
  5
522
100
AcDbEntity
  8
0
  6
CONTINUOUS
 62
     7
100
AcDbLine
 10
358.79672
 20
51.594246
 30
0.0
 11
358.79672
 21
62.594246
 31
0.0
  0
LINE
  5
523
100
AcDbEntity
  8
0
  6
CENTER
 62
     7
100
AcDbLine
 10
333.79672
 20
92.694244
 30
0.0
 11
333.79672
 21
102.49425
 31
0.0
  0
LINE
  5
524
100
AcDbEntity
  8
0
  6
CENTER
 62
     7
100
AcDbLine
 10
333.79672
 20
59.494246
 30
0.0
 11
333.79672
 21
49.694246
 31
0.0
  0
LINE
  5
525
100
AcDbEntity
  8
0
  6
CENTER
 62
     7
100
AcDbLine
 10
338.69672
 20
54.594246
 30
0.0
 11
328.89672
 21
54.594246
 31
0.0
  0
LINE
  5
526
100
AcDbEntity
  8
0
  6
CONTINUOUS
 62
     7
100
AcDbLine
 10
358.79672
 20
100.59425
 30
0.0
 11
358.79672
 21
89.594246
 31
0.0
  0
LINE
  5
527
100
AcDbEntity
  8
0
  6
CONTINUOUS
 62
     7
100
AcDbLine
 10
355.79672
 20
103.59425
 30
0.0
 11
329.79672
 21
103.59425
 31
0.0
  0
LINE
  5
528
100
AcDbEntity
  8
0
  6
CENTER
 62
     7
100
AcDbLine
 10
351.79672
 20
92.694244
 30
0.0
 11
351.79672
 21
102.49425
 31
0.0
  0
LINE
  5
529
100
AcDbEntity
  8
0
  6
CONTINUOUS
 62
     7
100
AcDbLine
 10
358.79672
 20
89.594246
 30
0.0
 11
316.29672
 21
89.594246
 31
0.0
  0
LINE
  5
52A
100
AcDbEntity
  8
0
  6
CENTER
 62
     7
100
AcDbLine
 10
356.69672
 20
97.594246
 30
0.0
 11
346.89672
 21
97.594246
 31
0.0
  0
LINE
  5
52B
100
AcDbEntity
  8
0
  6
CONTINUOUS
 62
     7
100
AcDbLine
 10
326.79672
 20
100.59425
 30
0.0
 11
326.79672
 21
89.594246
 31
0.0
  0
LINE
  5
52C
100
AcDbEntity
  8
0
  6
CENTER
 62
     7
100
AcDbLine
 10
338.69672
 20
97.594246
 30
0.0
 11
328.89672
 21
97.594246
 31
0.0
  0
LINE
  5
52D
100
AcDbEntity
  8
0
  6
CONTINUOUS
 62
     7
100
AcDbLine
 10
295.1025
 20
96.094246
 30
0.0
 11
295.1025
 21
91.594246
 31
0.0
  0
CIRCLE
  5
52E
100
AcDbEntity
  8
0
  6
CONTINUOUS
 62
     7
100
AcDbCircle
 10
351.79672
 20
97.594246
 30
0.0
 40
2.9
  0
ARC
  5
52F
100
AcDbEntity
  8
0
  6
CONTINUOUS
 62
     7
100
AcDbCircle
 10
329.79672
 20
51.594246
 30
0.0
 40
3.0
100
AcDbArc
 50
179.99999
 51
270.0
  0
CIRCLE
  5
530
100
AcDbEntity
  8
0
  6
CONTINUOUS
 62
     7
100
AcDbCircle
 10
333.79672
 20
54.594246
 30
0.0
 40
2.9
  0
ARC
  5
531
100
AcDbEntity
  8
0
  6
CONTINUOUS
 62
     7
100
AcDbCircle
 10
355.79672
 20
100.59425
 30
0.0
 40
3.0
100
AcDbArc
 50
0.0
 51
90.000003
  0
CIRCLE
  5
532
100
AcDbEntity
  8
0
  6
CONTINUOUS
 62
     7
100
AcDbCircle
 10
333.79672
 20
97.594246
 30
0.0
 40
2.9
  0
CIRCLE
  5
533
100
AcDbEntity
  8
0
  6
CONTINUOUS
 62
     7
100
AcDbCircle
 10
351.79672
 20
54.594246
 30
0.0
 40
2.9
  0
ARC
  5
534
100
AcDbEntity
  8
0
  6
CONTINUOUS
 62
     7
100
AcDbCircle
 10
329.79672
 20
100.59425
 30
0.0
 40
3.0
100
AcDbArc
 50
90.000003
 51
180.00001
  0
ARC
  5
535
100
AcDbEntity
  8
0
  6
CONTINUOUS
 62
     7
100
AcDbCircle
 10
355.79672
 20
51.594246
 30
0.0
 40
3.0
100
AcDbArc
 50
270.0
 51
0.0
  0
POINT
  5
536
100
AcDbEntity
  8
0
  6
CONTINUOUS
 62
     7
100
AcDbPoint
 10
333.79672
 20
11.094247
 30
0.0
  0
POINT
  5
537
100
AcDbEntity
  8
0
  6
CONTINUOUS
 62
     7
100
AcDbPoint
 10
351.79672
 20
11.094247
 30
0.0
  0
LINE
  5
538
100
AcDbEntity
  8
0
  6
CENTER
 62
     7
100
AcDbLine
 10
289.79672
 20
-5.905753
 30
0.0
 11
289.79672
 21
6.094247
 31
0.0
  0
LINE
  5
539
100
AcDbEntity
  8
0
  6
CONTINUOUS
 62
     7
100
AcDbLine
 10
315.79672
 20
-10.905753
 30
0.0
 11
289.79672
 21
-10.905753
 31
0.0
  0
LINE
  5
53A
100
AcDbEntity
  8
0
  6
CENTER
 62
     7
100
AcDbLine
 10
309.79672
 20
0.094247
 30
0.0
 11
321.79672
 21
0.094247
 31
0.0
  0
LINE
  5
53B
100
AcDbEntity
  8
0
  6
CENTER
 62
     7
100
AcDbLine
 10
283.79672
 20
0.094247
 30
0.0
 11
295.79672
 21
0.094247
 31
0.0
  0
LINE
  5
53C
100
AcDbEntity
  8
0
  6
CONTINUOUS
 62
     7
100
AcDbLine
 10
321.79672
 20
11.094247
 30
0.0
 11
295.4025
 21
11.094247
 31
0.0
  0
LINE
  5
53D
100
AcDbEntity
  8
0
  6
CENTER
 62
     7
100
AcDbLine
 10
315.79672
 20
-5.905753
 30
0.0
 11
315.79672
 21
6.094247
 31
0.0
  0
LINE
  5
53E
100
AcDbEntity
  8
0
  6
CONTINUOUS
 62
     7
100
AcDbLine
 10
292.29672
 20
-3.028253
 30
0.0
 11
292.29672
 21
3.216746
 31
0.0
  0
LINE
  5
53F
100
AcDbEntity
  8
0
  6
CONTINUOUS
 62
     7
100
AcDbLine
 10
297.18878
 20
8.903758
 30
0.0
 11
295.20966
 21
10.564433
 31
0.0
  0
LINE
  5
540
100
AcDbEntity
  8
0
  6
CONTINUOUS
 62
     7
100
AcDbLine
 10
319.55328
 20
-10.244431
 30
0.0
 11
352.41382
 21
1.695449
 31
0.0
  0
LINE
  5
541
100
AcDbEntity
  8
0
  6
CONTINUOUS
 62
     7
100
AcDbLine
 10
326.79672
 20
9.094247
 30
0.0
 11
358.79672
 21
9.094247
 31
0.0
  0
LINE
  5
542
100
AcDbEntity
  8
0
  6
CONTINUOUS
 62
     7
100
AcDbLine
 10
358.79672
 20
11.094247
 30
0.0
 11
358.79672
 21
9.094247
 31
0.0
  0
LINE
  5
543
100
AcDbEntity
  8
0
  6
CONTINUOUS
 62
     7
100
AcDbLine
 10
326.79672
 20
11.094247
 30
0.0
 11
326.79672
 21
9.094247
 31
0.0
  0
LINE
  5
544
100
AcDbEntity
  8
0
  6
CENTER
 62
     7
100
AcDbLine
 10
333.79672
 20
14.094247
 30
0.0
 11
333.79672
 21
6.094247
 31
0.0
  0
LINE
  5
545
100
AcDbEntity
  8
0
  6
CENTER
 62
     7
100
AcDbLine
 10
351.79672
 20
14.094247
 30
0.0
 11
351.79672
 21
6.094247
 31
0.0
  0
ARC
  5
546
100
AcDbEntity
  8
0
  6
CONTINUOUS
 62
     7
100
AcDbCircle
 10
315.79672
 20
0.094247
 30
0.0
 40
11.0
100
AcDbArc
 50
270.0
 51
90.000003
  0
CIRCLE
  5
547
100
AcDbEntity
  8
0
  6
CONTINUOUS
 62
     7
100
AcDbCircle
 10
289.79672
 20
0.094247
 30
0.0
 40
4.0
  0
ARC
  5
548
100
AcDbEntity
  8
0
  6
CONTINUOUS
 62
     7
100
AcDbCircle
 10
289.79672
 20
0.094247
 30
0.0
 40
11.5
100
AcDbArc
 50
298.95503
 51
50.0
  0
ARC
  5
549
100
AcDbEntity
  8
0
  6
CONTINUOUS
 62
     7
100
AcDbCircle
 10
295.6062
 20
-10.405753
 30
0.0
 40
0.5
100
AcDbArc
 50
118.95503
 51
270.0
  0
ARC
  5
54A
100
AcDbEntity
  8
0
  6
CONTINUOUS
 62
     7
100
AcDbCircle
 10
295.4025
 20
10.794247
 30
0.0
 40
0.3
100
AcDbArc
 50
90.000003
 51
230.00001
  0
ARC
  5
54B
100
AcDbEntity
  8
0
  6
CONTINUOUS
 62
     7
100
AcDbCircle
 10
324.29672
 20
11.094247
 30
0.0
 40
2.5
100
AcDbArc
 50
185.19442
 51
0.0
  0
ARC
  5
54C
100
AcDbEntity
  8
0
  6
CONTINUOUS
 62
     7
100
AcDbCircle
 10
348.99876
 20
11.094247
 30
0.0
 40
10.0
100
AcDbArc
 50
289.96862
 51
348.46304
  0
CIRCLE
  5
54D
100
AcDbEntity
  8
0
  6
CONTINUOUS
 62
     7
100
AcDbCircle
 10
315.79672
 20
0.094247
 30
0.0
 40
4.0
  0
POLYLINE
  5
54E
100
AcDbEntity
  8
0
  6
CONTINUOUS
 62
     7
100
AcDb2dPolyline
 66
     1
 10
0.0
 20
0.0
 30
0.0
  0
VERTEX
  5
54F
100
AcDbEntity
  8
0
  6
CONTINUOUS
 62
     7
100
AcDbVertex
100
AcDb2dVertex
 10
326.80193
 20
11.094247
 30
0.0
  0
VERTEX
  5
550
100
AcDbEntity
  8
0
  6
CONTINUOUS
 62
     7
100
AcDbVertex
100
AcDb2dVertex
 10
358.79672
 20
11.094247
 30
0.0
  0
SEQEND
  5
551
100
AcDbEntity
  8
0
 62
     7
  0
POINT
  5
552
100
AcDbEntity
  8
0
  6
CONTINUOUS
 62
     7
100
AcDbPoint
 10
333.79672
 20
-54.405754
 30
0.0
  0
POINT
  5
553
100
AcDbEntity
  8
0
  6
CONTINUOUS
 62
     7
100
AcDbPoint
 10
351.79672
 20
-54.405754
 30
0.0
  0
LINE
  5
554
100
AcDbEntity
  8
0
  6
CONTINUOUS
 62
     7
100
AcDbLine
 10
326.79672
 20
-95.905754
 30
0.0
 11
295.1062
 21
-95.905754
 31
0.0
  0
LINE
  5
555
100
AcDbEntity
  8
0
  6
CENTER
 62
     7
100
AcDbLine
 10
351.79672
 20
-75.905754
 30
0.0
 11
275.29672
 21
-75.905754
 31
0.0
  0
LINE
  5
556
100
AcDbEntity
  8
0
  6
CONTINUOUS
 62
     7
100
AcDbLine
 10
326.79672
 20
-55.905754
 30
0.0
 11
295.1062
 21
-55.905754
 31
0.0
  0
LINE
  5
557
100
AcDbEntity
  8
0
  6
CONTINUOUS
 62
     7
100
AcDbLine
 10
316.79672
 20
-64.905754
 30
0.0
 11
306.79672
 21
-64.905754
 31
0.0
  0
LINE
  5
558
100
AcDbEntity
  8
0
  6
CONTINUOUS
 62
     7
100
AcDbLine
 10
316.79672
 20
-86.905754
 30
0.0
 11
306.79672
 21
-86.905754
 31
0.0
  0
LINE
  5
559
100
AcDbEntity
  8
0
  6
CENTER
 62
     7
100
AcDbLine
 10
338.69672
 20
-54.405754
 30
0.0
 11
328.89672
 21
-54.405754
 31
0.0
  0
LINE
  5
55A
100
AcDbEntity
  8
0
  6
CONTINUOUS
 62
     7
100
AcDbLine
 10
295.1062
 20
-95.905754
 30
0.0
 11
295.1062
 21
-91.405754
 31
0.0
  0
LINE
  5
55B
100
AcDbEntity
  8
0
  6
CONTINUOUS
 62
     7
100
AcDbLine
 10
316.79672
 20
-91.405754
 30
0.0
 11
316.79672
 21
-60.405754
 31
0.0
  0
LINE
  5
55C
100
AcDbEntity
  8
0
  6
CONTINUOUS
 62
     7
100
AcDbLine
 10
306.79672
 20
-57.505754
 30
0.0
 11
299.79672
 21
-57.505754
 31
0.0
  0
LINE
  5
55D
100
AcDbEntity
  8
0
  6
CENTER
 62
     7
100
AcDbLine
 10
289.79672
 20
-100.90575
 30
0.0
 11
289.79672
 21
-50.905754
 31
0.0
  0
LINE
  5
55E
100
AcDbEntity
  8
0
  6
CENTER
 62
     7
100
AcDbLine
 10
315.79672
 20
-100.90575
 30
0.0
 11
315.79672
 21
-50.905754
 31
0.0
  0
LINE
  5
55F
100
AcDbEntity
  8
0
  6
CONTINUOUS
 62
     7
100
AcDbLine
 10
306.79672
 20
-94.305756
 30
0.0
 11
306.79672
 21
-86.905754
 31
0.0
  0
LINE
  5
560
100
AcDbEntity
  8
0
  6
CONTINUOUS
 62
     7
100
AcDbLine
 10
306.79672
 20
-94.305756
 30
0.0
 11
299.79672
 21
-94.305756
 31
0.0
  0
LINE
  5
561
100
AcDbEntity
  8
0
  6
CONTINUOUS
 62
     7
100
AcDbLine
 10
291.19672
 20
-86.905754
 30
0.0
 11
291.19672
 21
-64.905754
 31
0.0
  0
LINE
  5
562
100
AcDbEntity
  8
0
  6
CONTINUOUS
 62
     7
100
AcDbLine
 10
299.79672
 20
-94.305756
 30
0.0
 11
299.79672
 21
-86.905754
 31
0.0
  0
LINE
  5
563
100
AcDbEntity
  8
0
  6
CONTINUOUS
 62
     7
100
AcDbLine
 10
295.1062
 20
-55.905754
 30
0.0
 11
295.1062
 21
-60.405754
 31
0.0
  0
LINE
  5
564
100
AcDbEntity
  8
0
  6
CONTINUOUS
 62
     7
100
AcDbLine
 10
306.79672
 20
-64.905754
 30
0.0
 11
306.79672
 21
-57.505754
 31
0.0
  0
LINE
  5
565
100
AcDbEntity
  8
0
  6
CONTINUOUS
 62
     7
100
AcDbLine
 10
299.79672
 20
-64.905754
 30
0.0
 11
299.79672
 21
-57.505754
 31
0.0
  0
LINE
  5
566
100
AcDbEntity
  8
0
  6
CONTINUOUS
 62
     7
100
AcDbLine
 10
299.79672
 20
-86.905754
 30
0.0
 11
291.19672
 21
-86.905754
 31
0.0
  0
LINE
  5
567
100
AcDbEntity
  8
0
  6
CONTINUOUS
 62
     7
100
AcDbLine
 10
299.79672
 20
-64.905754
 30
0.0
 11
291.19672
 21
-64.905754
 31
0.0
  0
LINE
  5
568
100
AcDbEntity
  8
0
  6
CONTINUOUS
 62
     7
100
AcDbLine
 10
306.79672
 20
-57.705754
 30
0.0
 11
299.79672
 21
-57.705754
 31
0.0
  0
LINE
  5
569
100
AcDbEntity
  8
0
  6
CONTINUOUS
 62
     7
100
AcDbLine
 10
306.79672
 20
-94.105755
 30
0.0
 11
299.79672
 21
-94.105755
 31
0.0
  0
LINE
  5
56A
100
AcDbEntity
  8
0
  6
CONTINUOUS
 62
     7
100
AcDbLine
 10
295.1062
 20
-91.405754
 30
0.0
 11
291.19672
 21
-91.405754
 31
0.0
  0
LINE
  5
56B
100
AcDbEntity
  8
0
  6
CONTINUOUS
 62
     7
100
AcDbLine
 10
295.1062
 20
-60.405754
 30
0.0
 11
291.19672
 21
-60.405754
 31
0.0
  0
LINE
  5
56C
100
AcDbEntity
  8
0
  6
CONTINUOUS
 62
     7
100
AcDbLine
 10
326.79672
 20
-51.405754
 30
0.0
 11
326.79672
 21
-60.405754
 31
0.0
  0
LINE
  5
56D
100
AcDbEntity
  8
0
  6
CONTINUOUS
 62
     7
100
AcDbLine
 10
326.79672
 20
-100.40575
 30
0.0
 11
326.79672
 21
-91.405754
 31
0.0
  0
LINE
  5
56E
100
AcDbEntity
  8
0
  6
CENTER
 62
     7
100
AcDbLine
 10
356.69672
 20
-54.405754
 30
0.0
 11
346.89672
 21
-54.405754
 31
0.0
  0
LINE
  5
56F
100
AcDbEntity
  8
0
  6
CONTINUOUS
 62
     7
100
AcDbLine
 10
358.79672
 20
-62.405754
 30
0.0
 11
316.79672
 21
-62.405754
 31
0.0
  0
LINE
  5
570
100
AcDbEntity
  8
0
  6
CENTER
 62
     7
100
AcDbLine
 10
351.79672
 20
-59.305754
 30
0.0
 11
351.79672
 21
-49.505754
 31
0.0
  0
LINE
  5
571
100
AcDbEntity
  8
0
  6
CONTINUOUS
 62
     7
100
AcDbLine
 10
355.79672
 20
-48.405754
 30
0.0
 11
329.79672
 21
-48.405754
 31
0.0
  0
LINE
  5
572
100
AcDbEntity
  8
0
  6
CONTINUOUS
 62
     7
100
AcDbLine
 10
358.79672
 20
-51.405754
 30
0.0
 11
358.79672
 21
-62.405754
 31
0.0
  0
LINE
  5
573
100
AcDbEntity
  8
0
  6
CENTER
 62
     7
100
AcDbLine
 10
338.69672
 20
-97.405754
 30
0.0
 11
328.89672
 21
-97.405754
 31
0.0
  0
LINE
  5
574
100
AcDbEntity
  8
0
  6
CENTER
 62
     7
100
AcDbLine
 10
333.79672
 20
-92.505753
 30
0.0
 11
333.79672
 21
-102.30576
 31
0.0
  0
LINE
  5
575
100
AcDbEntity
  8
0
  6
CENTER
 62
     7
100
AcDbLine
 10
333.79672
 20
-59.305754
 30
0.0
 11
333.79672
 21
-49.505754
 31
0.0
  0
LINE
  5
576
100
AcDbEntity
  8
0
  6
CONTINUOUS
 62
     7
100
AcDbLine
 10
358.79672
 20
-100.40575
 30
0.0
 11
358.79672
 21
-89.405754
 31
0.0
  0
LINE
  5
577
100
AcDbEntity
  8
0
  6
CONTINUOUS
 62
     7
100
AcDbLine
 10
355.79672
 20
-103.40575
 30
0.0
 11
329.79672
 21
-103.40575
 31
0.0
  0
LINE
  5
578
100
AcDbEntity
  8
0
  6
CENTER
 62
     7
100
AcDbLine
 10
351.79672
 20
-92.505753
 30
0.0
 11
351.79672
 21
-102.30576
 31
0.0
  0
LINE
  5
579
100
AcDbEntity
  8
0
  6
CONTINUOUS
 62
     7
100
AcDbLine
 10
358.79672
 20
-89.405754
 30
0.0
 11
316.79672
 21
-89.405754
 31
0.0
  0
LINE
  5
57A
100
AcDbEntity
  8
0
  6
CENTER
 62
     7
100
AcDbLine
 10
356.69672
 20
-97.405754
 30
0.0
 11
346.89672
 21
-97.405754
 31
0.0
  0
LINE
  5
57B
100
AcDbEntity
  8
0
  6
CONTINUOUS
 62
     7
100
AcDbLine
 10
358.79672
 20
-91.405754
 30
0.0
 11
316.79672
 21
-91.405754
 31
0.0
  0
LINE
  5
57C
100
AcDbEntity
  8
0
  6
CONTINUOUS
 62
     7
100
AcDbLine
 10
358.79672
 20
-60.405754
 30
0.0
 11
316.79672
 21
-60.405754
 31
0.0
  0
LINE
  5
57D
100
AcDbEntity
  8
0
  6
CENTER
 62
     7
100
AcDbLine
 10
297.79672
 20
-90.905754
 30
0.0
 11
308.79672
 21
-90.905754
 31
0.0
  0
LINE
  5
57E
100
AcDbEntity
  8
0
  6
CENTER
 62
     7
100
AcDbLine
 10
297.79672
 20
-60.905754
 30
0.0
 11
308.79672
 21
-60.905754
 31
0.0
  0
ARC
  5
57F
100
AcDbEntity
  8
0
  6
CONTINUOUS
 62
     7
100
AcDbCircle
 10
355.79672
 20
-100.40575
 30
0.0
 40
3.0
100
AcDbArc
 50
270.0
 51
0.0
  0
ARC
  5
580
100
AcDbEntity
  8
0
  6
CONTINUOUS
 62
     7
100
AcDbCircle
 10
329.79672
 20
-51.405754
 30
0.0
 40
3.0
100
AcDbArc
 50
90.000003
 51
180.00001
  0
CIRCLE
  5
581
100
AcDbEntity
  8
0
  6
CONTINUOUS
 62
     7
100
AcDbCircle
 10
351.79672
 20
-97.405754
 30
0.0
 40
2.9
  0
CIRCLE
  5
582
100
AcDbEntity
  8
0
  6
CONTINUOUS
 62
     7
100
AcDbCircle
 10
333.79672
 20
-54.405754
 30
0.0
 40
2.9
  0
ARC
  5
583
100
AcDbEntity
  8
0
  6
CONTINUOUS
 62
     7
100
AcDbCircle
 10
355.79672
 20
-51.405754
 30
0.0
 40
3.0
100
AcDbArc
 50
0.0
 51
90.000003
  0
CIRCLE
  5
584
100
AcDbEntity
  8
0
  6
CONTINUOUS
 62
     7
100
AcDbCircle
 10
333.79672
 20
-97.405754
 30
0.0
 40
2.9
  0
ARC
  5
585
100
AcDbEntity
  8
0
  6
CONTINUOUS
 62
     7
100
AcDbCircle
 10
329.79672
 20
-100.40575
 30
0.0
 40
3.0
100
AcDbArc
 50
179.99999
 51
270.0
  0
CIRCLE
  5
586
100
AcDbEntity
  8
0
  6
CONTINUOUS
 62
     7
100
AcDbCircle
 10
351.79672
 20
-54.405754
 30
0.0
 40
2.9
  0
POINT
  5
587
100
AcDbEntity
  8
0
  6
CONTINUOUS
 62
     7
100
AcDbPoint
 10
403.79672
 20
11.094247
 30
0.0
  0
POINT
  5
588
100
AcDbEntity
  8
0
  6
CONTINUOUS
 62
     7
100
AcDbPoint
 10
446.79672
 20
11.094247
 30
0.0
  0
LINE
  5
589
100
AcDbEntity
  8
0
  6
CONTINUOUS
 62
     7
100
AcDbLine
 10
436.29672
 20
-10.905753
 30
0.0
 11
445.29672
 21
-10.905753
 31
0.0
  0
LINE
  5
58A
100
AcDbEntity
  8
0
  6
CONTINUOUS
 62
     7
100
AcDbLine
 10
414.29672
 20
-6.905753
 30
0.0
 11
436.29672
 21
-6.905753
 31
0.0
  0
LINE
  5
58B
100
AcDbEntity
  8
0
  6
CONTINUOUS
 62
     7
100
AcDbLine
 10
414.29672
 20
-9.105754
 30
0.0
 11
436.29672
 21
-9.105754
 31
0.0
  0
LINE
  5
58C
100
AcDbEntity
  8
0
  6
CONTINUOUS
 62
     7
100
AcDbLine
 10
414.29672
 20
-10.605754
 30
0.0
 11
436.29672
 21
-10.605754
 31
0.0
  0
LINE
  5
58D
100
AcDbEntity
  8
0
  6
CENTER
 62
     7
100
AcDbLine
 10
400.29672
 20
0.094247
 30
0.0
 11
450.29672
 21
0.094247
 31
0.0
  0
LINE
  5
58E
100
AcDbEntity
  8
0
  6
CONTINUOUS
 62
     7
100
AcDbLine
 10
405.29672
 20
9.094247
 30
0.0
 11
405.29672
 21
-10.905753
 31
0.0
  0
LINE
  5
58F
100
AcDbEntity
  8
0
  6
CONTINUOUS
 62
     7
100
AcDbLine
 10
445.29672
 20
9.094247
 30
0.0
 11
445.29672
 21
-10.905753
 31
0.0
  0
LINE
  5
590
100
AcDbEntity
  8
0
  6
CENTER
 62
     7
100
AcDbLine
 10
425.29672
 20
-15.905753
 30
0.0
 11
425.29672
 21
16.094247
 31
0.0
  0
LINE
  5
591
100
AcDbEntity
  8
0
  6
CONTINUOUS
 62
     7
100
AcDbLine
 10
438.79672
 20
-10.905753
 30
0.0
 11
438.79672
 21
11.094247
 31
0.0
  0
LINE
  5
592
100
AcDbEntity
  8
0
  6
CONTINUOUS
 62
     7
100
AcDbLine
 10
411.79672
 20
-10.905753
 30
0.0
 11
411.79672
 21
11.094247
 31
0.0
  0
LINE
  5
593
100
AcDbEntity
  8
0
  6
CONTINUOUS
 62
     7
100
AcDbLine
 10
436.29672
 20
-10.905753
 30
0.0
 11
436.29672
 21
11.094247
 31
0.0
  0
LINE
  5
594
100
AcDbEntity
  8
0
  6
CONTINUOUS
 62
     7
100
AcDbLine
 10
414.29672
 20
-10.905753
 30
0.0
 11
414.29672
 21
11.094247
 31
0.0
  0
LINE
  5
595
100
AcDbEntity
  8
0
  6
CONTINUOUS
 62
     7
100
AcDbLine
 10
405.29672
 20
-10.905753
 30
0.0
 11
414.29672
 21
-10.905753
 31
0.0
  0
LINE
  5
596
100
AcDbEntity
  8
0
  6
CONTINUOUS
 62
     7
100
AcDbLine
 10
397.79672
 20
11.094247
 30
0.0
 11
452.79672
 21
11.094247
 31
0.0
  0
LINE
  5
597
100
AcDbEntity
  8
0
  6
CONTINUOUS
 62
     7
100
AcDbLine
 10
414.29672
 20
6.094247
 30
0.0
 11
436.29672
 21
6.094247
 31
0.0
  0
LINE
  5
598
100
AcDbEntity
  8
0
  6
CONTINUOUS
 62
     7
100
AcDbLine
 10
409.79672
 20
9.094247
 30
0.0
 11
397.79672
 21
9.094247
 31
0.0
  0
LINE
  5
599
100
AcDbEntity
  8
0
  6
CENTER
 62
     7
100
AcDbLine
 10
403.79672
 20
16.094247
 30
0.0
 11
403.79672
 21
4.094247
 31
0.0
  0
LINE
  5
59A
100
AcDbEntity
  8
0
  6
CONTINUOUS
 62
     7
100
AcDbLine
 10
397.79672
 20
11.094247
 30
0.0
 11
397.79672
 21
9.094247
 31
0.0
  0
LINE
  5
59B
100
AcDbEntity
  8
0
  6
CONTINUOUS
 62
     7
100
AcDbLine
 10
409.79672
 20
9.094247
 30
0.0
 11
409.79672
 21
-10.905753
 31
0.0
  0
LINE
  5
59C
100
AcDbEntity
  8
0
  6
CENTER
 62
     7
100
AcDbLine
 10
446.79672
 20
16.094247
 30
0.0
 11
446.79672
 21
4.094247
 31
0.0
  0
LINE
  5
59D
100
AcDbEntity
  8
0
  6
CONTINUOUS
 62
     7
100
AcDbLine
 10
452.79672
 20
11.094247
 30
0.0
 11
452.79672
 21
9.094247
 31
0.0
  0
LINE
  5
59E
100
AcDbEntity
  8
0
  6
CONTINUOUS
 62
     7
100
AcDbLine
 10
452.79672
 20
9.094247
 30
0.0
 11
440.79672
 21
9.094247
 31
0.0
  0
LINE
  5
59F
100
AcDbEntity
  8
0
  6
CONTINUOUS
 62
     7
100
AcDbLine
 10
440.79672
 20
9.094247
 30
0.0
 11
440.79672
 21
-10.905753
 31
0.0
  0
POINT
  5
5A0
100
AcDbEntity
  8
0
  6
CONTINUOUS
 62
     7
100
AcDbPoint
 10
-431.20328
 20
-298.90576
 30
0.0
  0
POINT
  5
5A1
100
AcDbEntity
  8
0
  6
CONTINUOUS
 62
     7
100
AcDbPoint
 10
-406.20328
 20
-298.90576
 30
0.0
  0
LINE
  5
5A2
100
AcDbEntity
  8
0
  6
CENTER
 62
     7
100
AcDbLine
 10
-431.20328
 20
-239.90576
 30
0.0
 11
-431.20328
 21
-357.90576
 31
0.0
  0
LINE
  5
5A3
100
AcDbEntity
  8
0
  6
CONTINUOUS
 62
     7
100
AcDbLine
 10
-442.20328
 20
-341.36067
 30
0.0
 11
-449.60328
 21
-341.36067
 31
0.0
  0
LINE
  5
5A4
100
AcDbEntity
  8
0
  6
CONTINUOUS
 62
     7
100
AcDbLine
 10
-442.20328
 20
-337.86236
 30
0.0
 11
-449.60328
 21
-337.86236
 31
0.0
  0
LINE
  5
5A5
100
AcDbEntity
  8
0
  6
CONTINUOUS
 62
     7
100
AcDbLine
 10
-420.20328
 20
-312.06551
 30
0.0
 11
-412.80328
 21
-312.06551
 31
0.0
  0
LINE
  5
5A6
100
AcDbEntity
  8
0
  6
CENTER
 62
     7
100
AcDbLine
 10
-456.20328
 20
-336.33084
 30
0.0
 11
-406.20328
 21
-336.33084
 31
0.0
  0
LINE
  5
5A7
100
AcDbEntity
  8
0
  6
CONTINUOUS
 62
     7
100
AcDbLine
 10
-411.20328
 20
-347.90576
 30
0.0
 11
-411.20328
 21
-249.90576
 31
0.0
  0
LINE
  5
5A8
100
AcDbEntity
  8
0
  6
CONTINUOUS
 62
     7
100
AcDbLine
 10
-415.70328
 20
-335.51823
 30
0.0
 11
-415.70328
 21
-328.0242
 31
0.0
  0
LINE
  5
5A9
100
AcDbEntity
  8
0
  6
CONTINUOUS
 62
     7
100
AcDbLine
 10
-446.70328
 20
-347.35911
 30
0.0
 11
-451.20328
 21
-347.35911
 31
0.0
  0
LINE
  5
5AA
100
AcDbEntity
  8
0
  6
CONTINUOUS
 62
     7
100
AcDbLine
 10
-420.20328
 20
-337.86236
 30
0.0
 11
-420.20328
 21
-318.64315
 31
0.0
  0
LINE
  5
5AB
100
AcDbEntity
  8
0
  6
CONTINUOUS
 62
     7
100
AcDbLine
 10
-446.70328
 20
-335.51823
 30
0.0
 11
-446.70328
 21
-328.0242
 31
0.0
  0
LINE
  5
5AC
100
AcDbEntity
  8
0
  6
CONTINUOUS
 62
     7
100
AcDbLine
 10
-449.60328
 20
-318.64315
 30
0.0
 11
-449.60328
 21
-312.06551
 31
0.0
  0
LINE
  5
5AD
100
AcDbEntity
  8
0
  6
CONTINUOUS
 62
     7
100
AcDbLine
 10
-412.80328
 20
-318.64315
 30
0.0
 11
-412.80328
 21
-312.06551
 31
0.0
  0
LINE
  5
5AE
100
AcDbEntity
  8
0
  6
CONTINUOUS
 62
     7
100
AcDbLine
 10
-415.70328
 20
-347.90576
 30
0.0
 11
-415.70328
 21
-347.70405
 31
0.0
  0
LINE
  5
5AF
100
AcDbEntity
  8
0
  6
CENTER
 62
     7
100
AcDbLine
 10
-456.20328
 20
-298.90576
 30
0.0
 11
-406.20328
 21
-298.90576
 31
0.0
  0
LINE
  5
5B0
100
AcDbEntity
  8
0
  6
CONTINUOUS
 62
     7
100
AcDbLine
 10
-420.20328
 20
-347.90576
 30
0.0
 11
-420.20328
 21
-347.54927
 31
0.0
  0
LINE
  5
5B1
100
AcDbEntity
  8
0
  6
CONTINUOUS
 62
     7
100
AcDbLine
 10
-451.20328
 20
-347.90576
 30
0.0
 11
-451.20328
 21
-249.90576
 31
0.0
  0
LINE
  5
5B2
100
AcDbEntity
  8
0
  6
CONTINUOUS
 62
     7
100
AcDbLine
 10
-446.70328
 20
-296.09784
 30
0.0
 11
-415.70328
 21
-296.09784
 31
0.0
  0
LINE
  5
5B3
100
AcDbEntity
  8
0
  6
CONTINUOUS
 62
     7
100
AcDbLine
 10
-412.80328
 20
-250.12957
 30
0.0
 11
-412.80328
 21
-250.28436
 31
0.0
  0
LINE
  5
5B4
100
AcDbEntity
  8
0
  6
CONTINUOUS
 62
     7
100
AcDbLine
 10
-420.20328
 20
-318.64315
 30
0.0
 11
-412.80328
 21
-318.64315
 31
0.0
  0
LINE
  5
5B5
100
AcDbEntity
  8
0
  6
CONTINUOUS
 62
     7
100
AcDbLine
 10
-449.60328
 20
-250.12957
 30
0.0
 11
-449.60328
 21
-250.28436
 31
0.0
  0
LINE
  5
5B6
100
AcDbEntity
  8
0
  6
CONTINUOUS
 62
     7
100
AcDbLine
 10
-420.20328
 20
-312.06551
 30
0.0
 11
-420.20328
 21
-286.68565
 31
0.0
  0
LINE
  5
5B7
100
AcDbEntity
  8
0
  6
CONTINUOUS
 62
     7
100
AcDbLine
 10
-413.00328
 20
-318.64315
 30
0.0
 11
-413.00328
 21
-312.06551
 31
0.0
  0
LINE
  5
5B8
100
AcDbEntity
  8
0
  6
CONTINUOUS
 62
     7
100
AcDbLine
 10
-449.40328
 20
-318.64315
 30
0.0
 11
-449.40328
 21
-312.06551
 31
0.0
  0
LINE
  5
5B9
100
AcDbEntity
  8
0
  6
CONTINUOUS
 62
     7
100
AcDbLine
 10
-442.20328
 20
-312.06551
 30
0.0
 11
-442.20328
 21
-286.68565
 31
0.0
  0
LINE
  5
5BA
100
AcDbEntity
  8
0
  6
CONTINUOUS
 62
     7
100
AcDbLine
 10
-415.70328
 20
-307.658
 30
0.0
 11
-415.70328
 21
-296.09784
 31
0.0
  0
LINE
  5
5BB
100
AcDbEntity
  8
0
  6
CONTINUOUS
 62
     7
100
AcDbLine
 10
-442.20328
 20
-303.98441
 30
0.0
 11
-420.20328
 21
-303.98441
 31
0.0
  0
LINE
  5
5BC
100
AcDbEntity
  8
0
  6
CONTINUOUS
 62
     7
100
AcDbLine
 10
-451.20328
 20
-307.658
 30
0.0
 11
-446.70328
 21
-307.658
 31
0.0
  0
LINE
  5
5BD
100
AcDbEntity
  8
0
  6
CONTINUOUS
 62
     7
100
AcDbLine
 10
-449.60328
 20
-312.06551
 30
0.0
 11
-442.20328
 21
-312.06551
 31
0.0
  0
LINE
  5
5BE
100
AcDbEntity
  8
0
  6
CONTINUOUS
 62
     7
100
AcDbLine
 10
-449.60328
 20
-318.64315
 30
0.0
 11
-442.20328
 21
-318.64315
 31
0.0
  0
LINE
  5
5BF
100
AcDbEntity
  8
0
  6
CONTINUOUS
 62
     7
100
AcDbLine
 10
-446.70328
 20
-328.0242
 30
0.0
 11
-415.70328
 21
-328.0242
 31
0.0
  0
LINE
  5
5C0
100
AcDbEntity
  8
0
  6
CONTINUOUS
 62
     7
100
AcDbLine
 10
-442.20328
 20
-333.56444
 30
0.0
 11
-420.20328
 21
-333.56444
 31
0.0
  0
LINE
  5
5C1
100
AcDbEntity
  8
0
  6
CONTINUOUS
 62
     7
100
AcDbLine
 10
-415.70328
 20
-335.51823
 30
0.0
 11
-411.20328
 21
-335.51823
 31
0.0
  0
LINE
  5
5C2
100
AcDbEntity
  8
0
  6
CONTINUOUS
 62
     7
100
AcDbLine
 10
-420.20328
 20
-337.86236
 30
0.0
 11
-412.80328
 21
-337.86236
 31
0.0
  0
LINE
  5
5C3
100
AcDbEntity
  8
0
  6
CONTINUOUS
 62
     7
100
AcDbLine
 10
-420.20328
 20
-341.36067
 30
0.0
 11
-412.80328
 21
-341.36067
 31
0.0
  0
LINE
  5
5C4
100
AcDbEntity
  8
0
  6
CONTINUOUS
 62
     7
100
AcDbLine
 10
-442.20328
 20
-346.3188
 30
0.0
 11
-420.20328
 21
-346.3188
 31
0.0
  0
LINE
  5
5C5
100
AcDbEntity
  8
0
  6
CONTINUOUS
 62
     7
100
AcDbLine
 10
-415.70328
 20
-347.35911
 30
0.0
 11
-411.20328
 21
-347.35911
 31
0.0
  0
LINE
  5
5C6
100
AcDbEntity
  8
0
  6
CONTINUOUS
 62
     7
100
AcDbLine
 10
-420.20328
 20
-347.44556
 30
0.0
 11
-412.80328
 21
-347.44556
 31
0.0
  0
LINE
  5
5C7
100
AcDbEntity
  8
0
  6
CONTINUOUS
 62
     7
100
AcDbLine
 10
-420.20328
 20
-347.54927
 30
0.0
 11
-412.80328
 21
-347.54927
 31
0.0
  0
LINE
  5
5C8
100
AcDbEntity
  8
0
  6
CONTINUOUS
 62
     7
100
AcDbLine
 10
-446.70328
 20
-347.70405
 30
0.0
 11
-415.70328
 21
-347.70405
 31
0.0
  0
LINE
  5
5C9
100
AcDbEntity
  8
0
  6
CONTINUOUS
 62
     7
100
AcDbLine
 10
-442.20328
 20
-347.87963
 30
0.0
 11
-420.20328
 21
-347.87963
 31
0.0
  0
LINE
  5
5CA
100
AcDbEntity
  8
0
  6
CONTINUOUS
 62
     7
100
AcDbLine
 10
-451.20328
 20
-347.90576
 30
0.0
 11
-411.20328
 21
-347.90576
 31
0.0
  0
LINE
  5
5CB
100
AcDbEntity
  8
0
  6
CONTINUOUS
 62
     7
100
AcDbLine
 10
-446.70328
 20
-344.49496
 30
0.0
 11
-415.70328
 21
-344.49496
 31
0.0
  0
LINE
  5
5CC
100
AcDbEntity
  8
0
  6
CONTINUOUS
 62
     7
100
AcDbLine
 10
-415.70328
 20
-307.658
 30
0.0
 11
-411.20328
 21
-307.658
 31
0.0
  0
LINE
  5
5CD
100
AcDbEntity
  8
0
  6
CONTINUOUS
 62
     7
100
AcDbLine
 10
-442.20328
 20
-347.44556
 30
0.0
 11
-449.60328
 21
-347.44556
 31
0.0
  0
LINE
  5
5CE
100
AcDbEntity
  8
0
  6
CONTINUOUS
 62
     7
100
AcDbLine
 10
-442.20328
 20
-347.54927
 30
0.0
 11
-449.60328
 21
-347.54927
 31
0.0
  0
LINE
  5
5CF
100
AcDbEntity
  8
0
  6
CONTINUOUS
 62
     7
100
AcDbLine
 10
-415.70328
 20
-347.35911
 30
0.0
 11
-415.70328
 21
-344.49496
 31
0.0
  0
LINE
  5
5D0
100
AcDbEntity
  8
0
  6
CONTINUOUS
 62
     7
100
AcDbLine
 10
-413.00328
 20
-250.12957
 30
0.0
 11
-413.00328
 21
-250.28436
 31
0.0
  0
LINE
  5
5D1
100
AcDbEntity
  8
0
  6
CONTINUOUS
 62
     7
100
AcDbLine
 10
-413.00328
 20
-347.44556
 30
0.0
 11
-413.00328
 21
-347.54927
 31
0.0
  0
LINE
  5
5D2
100
AcDbEntity
  8
0
  6
CONTINUOUS
 62
     7
100
AcDbLine
 10
-412.80328
 20
-347.44556
 30
0.0
 11
-412.80328
 21
-347.54927
 31
0.0
  0
LINE
  5
5D3
100
AcDbEntity
  8
0
  6
CONTINUOUS
 62
     7
100
AcDbLine
 10
-420.20328
 20
-347.44556
 30
0.0
 11
-420.20328
 21
-341.36067
 31
0.0
  0
LINE
  5
5D4
100
AcDbEntity
  8
0
  6
CONTINUOUS
 62
     7
100
AcDbLine
 10
-413.00328
 20
-337.86236
 30
0.0
 11
-413.00328
 21
-341.36067
 31
0.0
  0
LINE
  5
5D5
100
AcDbEntity
  8
0
  6
CONTINUOUS
 62
     7
100
AcDbLine
 10
-412.80328
 20
-337.86236
 30
0.0
 11
-412.80328
 21
-341.36067
 31
0.0
  0
LINE
  5
5D6
100
AcDbEntity
  8
0
  6
CONTINUOUS
 62
     7
100
AcDbLine
 10
-446.70328
 20
-335.51823
 30
0.0
 11
-451.20328
 21
-335.51823
 31
0.0
  0
LINE
  5
5D7
100
AcDbEntity
  8
0
  6
CONTINUOUS
 62
     7
100
AcDbLine
 10
-442.20328
 20
-347.90576
 30
0.0
 11
-442.20328
 21
-347.54927
 31
0.0
  0
LINE
  5
5D8
100
AcDbEntity
  8
0
  6
CONTINUOUS
 62
     7
100
AcDbLine
 10
-446.70328
 20
-347.90576
 30
0.0
 11
-446.70328
 21
-347.70405
 31
0.0
  0
LINE
  5
5D9
100
AcDbEntity
  8
0
  6
CONTINUOUS
 62
     7
100
AcDbLine
 10
-442.20328
 20
-337.86236
 30
0.0
 11
-442.20328
 21
-318.64315
 31
0.0
  0
LINE
  5
5DA
100
AcDbEntity
  8
0
  6
CONTINUOUS
 62
     7
100
AcDbLine
 10
-446.70328
 20
-347.35911
 30
0.0
 11
-446.70328
 21
-344.49496
 31
0.0
  0
LINE
  5
5DB
100
AcDbEntity
  8
0
  6
CONTINUOUS
 62
     7
100
AcDbLine
 10
-449.40328
 20
-347.44556
 30
0.0
 11
-449.40328
 21
-347.54927
 31
0.0
  0
LINE
  5
5DC
100
AcDbEntity
  8
0
  6
CONTINUOUS
 62
     7
100
AcDbLine
 10
-449.60328
 20
-347.44556
 30
0.0
 11
-449.60328
 21
-347.54927
 31
0.0
  0
LINE
  5
5DD
100
AcDbEntity
  8
0
  6
CONTINUOUS
 62
     7
100
AcDbLine
 10
-442.20328
 20
-347.44556
 30
0.0
 11
-442.20328
 21
-341.36067
 31
0.0
  0
LINE
  5
5DE
100
AcDbEntity
  8
0
  6
CONTINUOUS
 62
     7
100
AcDbLine
 10
-449.40328
 20
-337.86236
 30
0.0
 11
-449.40328
 21
-341.36067
 31
0.0
  0
LINE
  5
5DF
100
AcDbEntity
  8
0
  6
CONTINUOUS
 62
     7
100
AcDbLine
 10
-449.60328
 20
-337.86236
 30
0.0
 11
-449.60328
 21
-341.36067
 31
0.0
  0
LINE
  5
5E0
100
AcDbEntity
  8
0
  6
CONTINUOUS
 62
     7
100
AcDbLine
 10
-420.20328
 20
-286.68565
 30
0.0
 11
-412.80328
 21
-286.68565
 31
0.0
  0
LINE
  5
5E1
100
AcDbEntity
  8
0
  6
CONTINUOUS
 62
     7
100
AcDbLine
 10
-420.20328
 20
-280.10802
 30
0.0
 11
-412.80328
 21
-280.10802
 31
0.0
  0
LINE
  5
5E2
100
AcDbEntity
  8
0
  6
CONTINUOUS
 62
     7
100
AcDbLine
 10
-415.70328
 20
-275.70051
 30
0.0
 11
-411.20328
 21
-275.70051
 31
0.0
  0
LINE
  5
5E3
100
AcDbEntity
  8
0
  6
CONTINUOUS
 62
     7
100
AcDbLine
 10
-442.20328
 20
-272.02693
 30
0.0
 11
-420.20328
 21
-272.02693
 31
0.0
  0
LINE
  5
5E4
100
AcDbEntity
  8
0
  6
CONTINUOUS
 62
     7
100
AcDbLine
 10
-446.70328
 20
-265.48599
 30
0.0
 11
-415.70328
 21
-265.48599
 31
0.0
  0
LINE
  5
5E5
100
AcDbEntity
  8
0
  6
CONTINUOUS
 62
     7
100
AcDbLine
 10
-420.20328
 20
-260.44889
 30
0.0
 11
-412.80328
 21
-260.44889
 31
0.0
  0
LINE
  5
5E6
100
AcDbEntity
  8
0
  6
CONTINUOUS
 62
     7
100
AcDbLine
 10
-420.20328
 20
-256.95054
 30
0.0
 11
-412.80328
 21
-256.95054
 31
0.0
  0
LINE
  5
5E7
100
AcDbEntity
  8
0
  6
CONTINUOUS
 62
     7
100
AcDbLine
 10
-415.70328
 20
-254.60639
 30
0.0
 11
-411.20328
 21
-254.60639
 31
0.0
  0
LINE
  5
5E8
100
AcDbEntity
  8
0
  6
CONTINUOUS
 62
     7
100
AcDbLine
 10
-442.20328
 20
-252.65257
 30
0.0
 11
-420.20328
 21
-252.65257
 31
0.0
  0
LINE
  5
5E9
100
AcDbEntity
  8
0
  6
CONTINUOUS
 62
     7
100
AcDbLine
 10
-446.70328
 20
-250.55102
 30
0.0
 11
-415.70328
 21
-250.55102
 31
0.0
  0
LINE
  5
5EA
100
AcDbEntity
  8
0
  6
CONTINUOUS
 62
     7
100
AcDbLine
 10
-420.20328
 20
-250.28436
 30
0.0
 11
-412.80328
 21
-250.28436
 31
0.0
  0
LINE
  5
5EB
100
AcDbEntity
  8
0
  6
CONTINUOUS
 62
     7
100
AcDbLine
 10
-420.20328
 20
-250.12957
 30
0.0
 11
-412.80328
 21
-250.12957
 31
0.0
  0
LINE
  5
5EC
100
AcDbEntity
  8
0
  6
CONTINUOUS
 62
     7
100
AcDbLine
 10
-415.70328
 20
-250.02586
 30
0.0
 11
-411.20328
 21
-250.02586
 31
0.0
  0
LINE
  5
5ED
100
AcDbEntity
  8
0
  6
CONTINUOUS
 62
     7
100
AcDbLine
 10
-442.20328
 20
-249.93941
 30
0.0
 11
-420.20328
 21
-249.93941
 31
0.0
  0
LINE
  5
5EE
100
AcDbEntity
  8
0
  6
CONTINUOUS
 62
     7
100
AcDbLine
 10
-451.20328
 20
-249.90576
 30
0.0
 11
-420.20328
 21
-249.90576
 31
0.0
  0
LINE
  5
5EF
100
AcDbEntity
  8
0
  6
CONTINUOUS
 62
     7
100
AcDbLine
 10
-446.70328
 20
-250.02586
 30
0.0
 11
-446.70328
 21
-249.90576
 31
0.0
  0
LINE
  5
5F0
100
AcDbEntity
  8
0
  6
CONTINUOUS
 62
     7
100
AcDbLine
 10
-442.20328
 20
-250.12957
 30
0.0
 11
-442.20328
 21
-249.90576
 31
0.0
  0
LINE
  5
5F1
100
AcDbEntity
  8
0
  6
CONTINUOUS
 62
     7
100
AcDbLine
 10
-449.60328
 20
-256.95054
 30
0.0
 11
-449.60328
 21
-260.44889
 31
0.0
  0
LINE
  5
5F2
100
AcDbEntity
  8
0
  6
CONTINUOUS
 62
     7
100
AcDbLine
 10
-413.00328
 20
-256.95054
 30
0.0
 11
-413.00328
 21
-260.44889
 31
0.0
  0
LINE
  5
5F3
100
AcDbEntity
  8
0
  6
CONTINUOUS
 62
     7
100
AcDbLine
 10
-412.80328
 20
-256.95054
 30
0.0
 11
-412.80328
 21
-260.44889
 31
0.0
  0
LINE
  5
5F4
100
AcDbEntity
  8
0
  6
CONTINUOUS
 62
     7
100
AcDbLine
 10
-420.20328
 20
-250.12957
 30
0.0
 11
-420.20328
 21
-249.90576
 31
0.0
  0
LINE
  5
5F5
100
AcDbEntity
  8
0
  6
CONTINUOUS
 62
     7
100
AcDbLine
 10
-415.70328
 20
-250.02586
 30
0.0
 11
-415.70328
 21
-249.90576
 31
0.0
  0
LINE
  5
5F6
100
AcDbEntity
  8
0
  6
CONTINUOUS
 62
     7
100
AcDbLine
 10
-449.40328
 20
-256.95054
 30
0.0
 11
-449.40328
 21
-260.44889
 31
0.0
  0
LINE
  5
5F7
100
AcDbEntity
  8
0
  6
CONTINUOUS
 62
     7
100
AcDbLine
 10
-446.70328
 20
-250.02586
 30
0.0
 11
-451.20328
 21
-250.02586
 31
0.0
  0
LINE
  5
5F8
100
AcDbEntity
  8
0
  6
CONTINUOUS
 62
     7
100
AcDbLine
 10
-442.20328
 20
-250.12957
 30
0.0
 11
-449.60328
 21
-250.12957
 31
0.0
  0
LINE
  5
5F9
100
AcDbEntity
  8
0
  6
CONTINUOUS
 62
     7
100
AcDbLine
 10
-442.20328
 20
-250.28436
 30
0.0
 11
-449.60328
 21
-250.28436
 31
0.0
  0
LINE
  5
5FA
100
AcDbEntity
  8
0
  6
CONTINUOUS
 62
     7
100
AcDbLine
 10
-412.80328
 20
-280.10802
 30
0.0
 11
-412.80328
 21
-286.68565
 31
0.0
  0
LINE
  5
5FB
100
AcDbEntity
  8
0
  6
CONTINUOUS
 62
     7
100
AcDbLine
 10
-413.00328
 20
-280.10802
 30
0.0
 11
-413.00328
 21
-286.68565
 31
0.0
  0
LINE
  5
5FC
100
AcDbEntity
  8
0
  6
CONTINUOUS
 62
     7
100
AcDbLine
 10
-420.20328
 20
-256.95054
 30
0.0
 11
-420.20328
 21
-250.28436
 31
0.0
  0
LINE
  5
5FD
100
AcDbEntity
  8
0
  6
CONTINUOUS
 62
     7
100
AcDbLine
 10
-415.70328
 20
-254.60639
 30
0.0
 11
-415.70328
 21
-250.55102
 31
0.0
  0
LINE
  5
5FE
100
AcDbEntity
  8
0
  6
CONTINUOUS
 62
     7
100
AcDbLine
 10
-420.20328
 20
-280.10802
 30
0.0
 11
-420.20328
 21
-260.44889
 31
0.0
  0
LINE
  5
5FF
100
AcDbEntity
  8
0
  6
CONTINUOUS
 62
     7
100
AcDbLine
 10
-415.70328
 20
-275.70051
 30
0.0
 11
-415.70328
 21
-265.48599
 31
0.0
  0
LINE
  5
600
100
AcDbEntity
  8
0
  6
CONTINUOUS
 62
     7
100
AcDbLine
 10
-446.70328
 20
-254.60639
 30
0.0
 11
-451.20328
 21
-254.60639
 31
0.0
  0
LINE
  5
601
100
AcDbEntity
  8
0
  6
CONTINUOUS
 62
     7
100
AcDbLine
 10
-442.20328
 20
-256.95054
 30
0.0
 11
-449.60328
 21
-256.95054
 31
0.0
  0
LINE
  5
602
100
AcDbEntity
  8
0
  6
CONTINUOUS
 62
     7
100
AcDbLine
 10
-442.20328
 20
-260.44889
 30
0.0
 11
-449.60328
 21
-260.44889
 31
0.0
  0
LINE
  5
603
100
AcDbEntity
  8
0
  6
CONTINUOUS
 62
     7
100
AcDbLine
 10
-446.70328
 20
-275.70051
 30
0.0
 11
-451.20328
 21
-275.70051
 31
0.0
  0
LINE
  5
604
100
AcDbEntity
  8
0
  6
CONTINUOUS
 62
     7
100
AcDbLine
 10
-442.20328
 20
-280.10802
 30
0.0
 11
-449.60328
 21
-280.10802
 31
0.0
  0
LINE
  5
605
100
AcDbEntity
  8
0
  6
CONTINUOUS
 62
     7
100
AcDbLine
 10
-442.20328
 20
-286.68565
 30
0.0
 11
-449.60328
 21
-286.68565
 31
0.0
  0
LINE
  5
606
100
AcDbEntity
  8
0
  6
CONTINUOUS
 62
     7
100
AcDbLine
 10
-449.40328
 20
-250.12957
 30
0.0
 11
-449.40328
 21
-250.28436
 31
0.0
  0
LINE
  5
607
100
AcDbEntity
  8
0
  6
CONTINUOUS
 62
     7
100
AcDbLine
 10
-446.70328
 20
-307.658
 30
0.0
 11
-446.70328
 21
-296.09784
 31
0.0
  0
LINE
  5
608
100
AcDbEntity
  8
0
  6
CONTINUOUS
 62
     7
100
AcDbLine
 10
-449.60328
 20
-280.10802
 30
0.0
 11
-449.60328
 21
-286.68565
 31
0.0
  0
LINE
  5
609
100
AcDbEntity
  8
0
  6
CONTINUOUS
 62
     7
100
AcDbLine
 10
-449.40328
 20
-280.10802
 30
0.0
 11
-449.40328
 21
-286.68565
 31
0.0
  0
LINE
  5
60A
100
AcDbEntity
  8
0
  6
CONTINUOUS
 62
     7
100
AcDbLine
 10
-442.20328
 20
-256.95054
 30
0.0
 11
-442.20328
 21
-250.28436
 31
0.0
  0
LINE
  5
60B
100
AcDbEntity
  8
0
  6
CONTINUOUS
 62
     7
100
AcDbLine
 10
-446.70328
 20
-254.60639
 30
0.0
 11
-446.70328
 21
-250.55102
 31
0.0
  0
LINE
  5
60C
100
AcDbEntity
  8
0
  6
CONTINUOUS
 62
     7
100
AcDbLine
 10
-442.20328
 20
-280.10802
 30
0.0
 11
-442.20328
 21
-260.44889
 31
0.0
  0
LINE
  5
60D
100
AcDbEntity
  8
0
  6
CONTINUOUS
 62
     7
100
AcDbLine
 10
-446.70328
 20
-275.70051
 30
0.0
 11
-446.70328
 21
-265.48599
 31
0.0
  0
LINE
  5
60E
100
AcDbEntity
  8
0
  6
CENTER
 62
     7
100
AcDbLine
 10
-456.20328
 20
-336.90576
 30
0.0
 11
-406.20328
 21
-336.90576
 31
0.0
  0
LINE
  5
60F
100
AcDbEntity
  8
0
  6
CENTER
 62
     7
100
AcDbLine
 10
-456.20328
 20
-323.33696
 30
0.0
 11
-406.20328
 21
-323.33696
 31
0.0
  0
LINE
  5
610
100
AcDbEntity
  8
0
  6
CENTER
 62
     7
100
AcDbLine
 10
-456.20328
 20
-274.47456
 30
0.0
 11
-406.20328
 21
-274.47456
 31
0.0
  0
LINE
  5
611
100
AcDbEntity
  8
0
  6
CENTER
 62
     7
100
AcDbLine
 10
-456.20328
 20
-261.48068
 30
0.0
 11
-406.20328
 21
-261.48068
 31
0.0
  0
LINE
  5
612
100
AcDbEntity
  8
0
  6
CENTER
 62
     7
100
AcDbLine
 10
-456.20328
 20
-260.90576
 30
0.0
 11
-406.20328
 21
-260.90576
 31
0.0
  0
POINT
  5
613
100
AcDbEntity
  8
0
  6
CONTINUOUS
 62
     7
100
AcDbPoint
 10
-261.20328
 20
-188.90575
 30
0.0
  0
POINT
  5
614
100
AcDbEntity
  8
0
  6
CONTINUOUS
 62
     7
100
AcDbPoint
 10
-240.20328
 20
-188.90575
 30
0.0
  0
LINE
  5
615
100
AcDbEntity
  8
0
  6
CONTINUOUS
 62
     7
100
AcDbLine
 10
-266.51275
 20
-208.90575
 30
0.0
 11
-266.51275
 21
-204.40575
 31
0.0
  0
LINE
  5
616
100
AcDbEntity
  8
0
  6
CONTINUOUS
 62
     7
100
AcDbLine
 10
-266.51275
 20
-168.90575
 30
0.0
 11
-266.51275
 21
-173.40575
 31
0.0
  0
LINE
  5
617
100
AcDbEntity
  8
0
  6
CONTINUOUS
 62
     7
100
AcDbLine
 10
-278.20328
 20
-199.90575
 30
0.0
 11
-278.20328
 21
-207.30575
 31
0.0
  0
LINE
  5
618
100
AcDbEntity
  8
0
  6
CENTER
 62
     7
100
AcDbLine
 10
-313.19692
 20
-163.90575
 30
0.0
 11
-313.19692
 21
-213.90575
 31
0.0
  0
LINE
  5
619
100
AcDbEntity
  8
0
  6
CONTINUOUS
 62
     7
100
AcDbLine
 10
-278.20328
 20
-170.50575
 30
0.0
 11
-278.20328
 21
-177.90575
 31
0.0
  0
LINE
  5
61A
100
AcDbEntity
  8
0
  6
CENTER
 62
     7
100
AcDbLine
 10
-287.20328
 20
-163.90575
 30
0.0
 11
-287.20328
 21
-213.90575
 31
0.0
  0
LINE
  5
61B
100
AcDbEntity
  8
0
  6
CONTINUOUS
 62
     7
100
AcDbLine
 10
-262.60328
 20
-177.90575
 30
0.0
 11
-262.60328
 21
-199.90575
 31
0.0
  0
LINE
  5
61C
100
AcDbEntity
  8
0
  6
CONTINUOUS
 62
     7
100
AcDbLine
 10
-271.20328
 20
-170.50575
 30
0.0
 11
-271.20328
 21
-177.90575
 31
0.0
  0
LINE
  5
61D
100
AcDbEntity
  8
0
  6
CONTINUOUS
 62
     7
100
AcDbLine
 10
-355.61185
 20
-168.90575
 30
0.0
 11
-266.51275
 21
-168.90575
 31
0.0
  0
LINE
  5
61E
100
AcDbEntity
  8
0
  6
CONTINUOUS
 62
     7
100
AcDbLine
 10
-278.20328
 20
-170.50575
 30
0.0
 11
-271.20328
 21
-170.50575
 31
0.0
  0
LINE
  5
61F
100
AcDbEntity
  8
0
  6
CONTINUOUS
 62
     7
100
AcDbLine
 10
-278.20328
 20
-207.30575
 30
0.0
 11
-271.20328
 21
-207.30575
 31
0.0
  0
LINE
  5
620
100
AcDbEntity
  8
0
  6
CONTINUOUS
 62
     7
100
AcDbLine
 10
-355.61185
 20
-208.90575
 30
0.0
 11
-266.51275
 21
-208.90575
 31
0.0
  0
LINE
  5
621
100
AcDbEntity
  8
0
  6
CENTER
 62
     7
100
AcDbLine
 10
-261.20328
 20
-163.90575
 30
0.0
 11
-261.20328
 21
-213.90575
 31
0.0
  0
LINE
  5
622
100
AcDbEntity
  8
0
  6
CONTINUOUS
 62
     7
100
AcDbLine
 10
-355.61185
 20
-204.40575
 30
0.0
 11
-355.24744
 21
-204.40575
 31
0.0
  0
LINE
  5
623
100
AcDbEntity
  8
0
  6
CONTINUOUS
 62
     7
100
AcDbLine
 10
-355.61185
 20
-173.40575
 30
0.0
 11
-355.24744
 21
-173.40575
 31
0.0
  0
LINE
  5
624
100
AcDbEntity
  8
0
  6
CONTINUOUS
 62
     7
100
AcDbLine
 10
-292.75469
 20
-168.90575
 30
0.0
 11
-292.75469
 21
-173.40575
 31
0.0
  0
LINE
  5
625
100
AcDbEntity
  8
0
  6
CONTINUOUS
 62
     7
100
AcDbLine
 10
-355.61185
 20
-177.90575
 30
0.0
 11
-351.86918
 21
-177.90575
 31
0.0
  0
LINE
  5
626
100
AcDbEntity
  8
0
  6
CONTINUOUS
 62
     7
100
AcDbLine
 10
-288.20328
 20
-173.40575
 30
0.0
 11
-288.20328
 21
-204.40575
 31
0.0
  0
LINE
  5
627
100
AcDbEntity
  8
0
  6
CONTINUOUS
 62
     7
100
AcDbLine
 10
-288.84617
 20
-177.90575
 30
0.0
 11
-288.84617
 21
-199.90575
 31
0.0
  0
LINE
  5
628
100
AcDbEntity
  8
0
  6
CENTER
 62
     7
100
AcDbLine
 10
-365.61185
 20
-188.90575
 30
0.0
 11
-240.20328
 21
-188.90575
 31
0.0
  0
LINE
  5
629
100
AcDbEntity
  8
0
  6
CONTINUOUS
 62
     7
100
AcDbLine
 10
-271.20328
 20
-199.90575
 30
0.0
 11
-271.20328
 21
-207.30575
 31
0.0
  0
LINE
  5
62A
100
AcDbEntity
  8
0
  6
CONTINUOUS
 62
     7
100
AcDbLine
 10
-271.20328
 20
-177.90575
 30
0.0
 11
-262.60328
 21
-177.90575
 31
0.0
  0
LINE
  5
62B
100
AcDbEntity
  8
0
  6
CONTINUOUS
 62
     7
100
AcDbLine
 10
-271.20328
 20
-199.90575
 30
0.0
 11
-262.60328
 21
-199.90575
 31
0.0
  0
LINE
  5
62C
100
AcDbEntity
  8
0
  6
CONTINUOUS
 62
     7
100
AcDbLine
 10
-278.20328
 20
-207.10575
 30
0.0
 11
-271.20328
 21
-207.10575
 31
0.0
  0
LINE
  5
62D
100
AcDbEntity
  8
0
  6
CONTINUOUS
 62
     7
100
AcDbLine
 10
-278.20328
 20
-170.70575
 30
0.0
 11
-271.20328
 21
-170.70575
 31
0.0
  0
LINE
  5
62E
100
AcDbEntity
  8
0
  6
CONTINUOUS
 62
     7
100
AcDbLine
 10
-266.51275
 20
-173.40575
 30
0.0
 11
-262.60328
 21
-173.40575
 31
0.0
  0
LINE
  5
62F
100
AcDbEntity
  8
0
  6
CONTINUOUS
 62
     7
100
AcDbLine
 10
-266.51275
 20
-204.40575
 30
0.0
 11
-262.60328
 21
-204.40575
 31
0.0
  0
LINE
  5
630
100
AcDbEntity
  8
0
  6
CONTINUOUS
 62
     7
100
AcDbLine
 10
-297.44407
 20
-207.30575
 30
0.0
 11
-297.44407
 21
-199.90575
 31
0.0
  0
LINE
  5
631
100
AcDbEntity
  8
0
  6
CONTINUOUS
 62
     7
100
AcDbLine
 10
-297.44407
 20
-170.50575
 30
0.0
 11
-297.44407
 21
-177.90575
 31
0.0
  0
LINE
  5
632
100
AcDbEntity
  8
0
  6
CONTINUOUS
 62
     7
100
AcDbLine
 10
-304.44236
 20
-170.50575
 30
0.0
 11
-304.44236
 21
-177.90575
 31
0.0
  0
LINE
  5
633
100
AcDbEntity
  8
0
  6
CONTINUOUS
 62
     7
100
AcDbLine
 10
-314.4389
 20
-173.40575
 30
0.0
 11
-314.4389
 21
-204.40575
 31
0.0
  0
LINE
  5
634
100
AcDbEntity
  8
0
  6
CONTINUOUS
 62
     7
100
AcDbLine
 10
-319.90695
 20
-177.90575
 30
0.0
 11
-319.90695
 21
-199.90575
 31
0.0
  0
LINE
  5
635
100
AcDbEntity
  8
0
  6
CONTINUOUS
 62
     7
100
AcDbLine
 10
-323.29319
 20
-168.90575
 30
0.0
 11
-323.29319
 21
-173.40575
 31
0.0
  0
LINE
  5
636
100
AcDbEntity
  8
0
  6
CONTINUOUS
 62
     7
100
AcDbLine
 10
-327.35594
 20
-170.50575
 30
0.0
 11
-327.35594
 21
-177.90575
 31
0.0
  0
LINE
  5
637
100
AcDbEntity
  8
0
  6
CONTINUOUS
 62
     7
100
AcDbLine
 10
-333.41908
 20
-170.50575
 30
0.0
 11
-333.41908
 21
-177.90575
 31
0.0
  0
LINE
  5
638
100
AcDbEntity
  8
0
  6
CONTINUOUS
 62
     7
100
AcDbLine
 10
-342.05792
 20
-173.40575
 30
0.0
 11
-342.05792
 21
-204.40575
 31
0.0
  0
LINE
  5
639
100
AcDbEntity
  8
0
  6
CONTINUOUS
 62
     7
100
AcDbLine
 10
-346.53234
 20
-177.90575
 30
0.0
 11
-346.53234
 21
-199.90575
 31
0.0
  0
LINE
  5
63A
100
AcDbEntity
  8
0
  6
CONTINUOUS
 62
     7
100
AcDbLine
 10
-347.86979
 20
-168.90575
 30
0.0
 11
-347.86979
 21
-173.40575
 31
0.0
  0
LINE
  5
63B
100
AcDbEntity
  8
0
  6
CONTINUOUS
 62
     7
100
AcDbLine
 10
-349.47444
 20
-170.50575
 30
0.0
 11
-349.47444
 21
-177.90575
 31
0.0
  0
LINE
  5
63C
100
AcDbEntity
  8
0
  6
CONTINUOUS
 62
     7
100
AcDbLine
 10
-351.86918
 20
-170.50575
 30
0.0
 11
-351.86918
 21
-177.90575
 31
0.0
  0
LINE
  5
63D
100
AcDbEntity
  8
0
  6
CONTINUOUS
 62
     7
100
AcDbLine
 10
-355.24744
 20
-173.40575
 30
0.0
 11
-355.24744
 21
-204.40575
 31
0.0
  0
LINE
  5
63E
100
AcDbEntity
  8
0
  6
CONTINUOUS
 62
     7
100
AcDbLine
 10
-355.61185
 20
-168.90575
 30
0.0
 11
-355.61185
 21
-177.90575
 31
0.0
  0
LINE
  5
63F
100
AcDbEntity
  8
0
  6
CONTINUOUS
 62
     7
100
AcDbLine
 10
-333.41908
 20
-170.50575
 30
0.0
 11
-327.35594
 21
-170.50575
 31
0.0
  0
LINE
  5
640
100
AcDbEntity
  8
0
  6
CONTINUOUS
 62
     7
100
AcDbLine
 10
-333.41908
 20
-170.70575
 30
0.0
 11
-327.35594
 21
-170.70575
 31
0.0
  0
LINE
  5
641
100
AcDbEntity
  8
0
  6
CONTINUOUS
 62
     7
100
AcDbLine
 10
-304.44236
 20
-170.50575
 30
0.0
 11
-297.44407
 21
-170.50575
 31
0.0
  0
LINE
  5
642
100
AcDbEntity
  8
0
  6
CONTINUOUS
 62
     7
100
AcDbLine
 10
-304.44236
 20
-170.70575
 30
0.0
 11
-297.44407
 21
-170.70575
 31
0.0
  0
LINE
  5
643
100
AcDbEntity
  8
0
  6
CONTINUOUS
 62
     7
100
AcDbLine
 10
-351.86918
 20
-170.50575
 30
0.0
 11
-349.47444
 21
-170.50575
 31
0.0
  0
LINE
  5
644
100
AcDbEntity
  8
0
  6
CONTINUOUS
 62
     7
100
AcDbLine
 10
-351.86918
 20
-170.70575
 30
0.0
 11
-349.47444
 21
-170.70575
 31
0.0
  0
LINE
  5
645
100
AcDbEntity
  8
0
  6
CONTINUOUS
 62
     7
100
AcDbLine
 10
-297.44407
 20
-177.90575
 30
0.0
 11
-278.20328
 21
-177.90575
 31
0.0
  0
LINE
  5
646
100
AcDbEntity
  8
0
  6
CONTINUOUS
 62
     7
100
AcDbLine
 10
-292.75469
 20
-173.40575
 30
0.0
 11
-288.20328
 21
-173.40575
 31
0.0
  0
LINE
  5
647
100
AcDbEntity
  8
0
  6
CONTINUOUS
 62
     7
100
AcDbLine
 10
-323.29319
 20
-173.40575
 30
0.0
 11
-314.4389
 21
-173.40575
 31
0.0
  0
LINE
  5
648
100
AcDbEntity
  8
0
  6
CONTINUOUS
 62
     7
100
AcDbLine
 10
-327.35594
 20
-177.90575
 30
0.0
 11
-304.44236
 21
-177.90575
 31
0.0
  0
LINE
  5
649
100
AcDbEntity
  8
0
  6
CONTINUOUS
 62
     7
100
AcDbLine
 10
-349.47444
 20
-177.90575
 30
0.0
 11
-333.41908
 21
-177.90575
 31
0.0
  0
LINE
  5
64A
100
AcDbEntity
  8
0
  6
CONTINUOUS
 62
     7
100
AcDbLine
 10
-347.86979
 20
-173.40575
 30
0.0
 11
-342.05792
 21
-173.40575
 31
0.0
  0
LINE
  5
64B
100
AcDbEntity
  8
0
  6
CONTINUOUS
 62
     7
100
AcDbLine
 10
-355.61185
 20
-199.90575
 30
0.0
 11
-351.86918
 21
-199.90575
 31
0.0
  0
LINE
  5
64C
100
AcDbEntity
  8
0
  6
CONTINUOUS
 62
     7
100
AcDbLine
 10
-304.44236
 20
-207.30575
 30
0.0
 11
-304.44236
 21
-199.90575
 31
0.0
  0
LINE
  5
64D
100
AcDbEntity
  8
0
  6
CONTINUOUS
 62
     7
100
AcDbLine
 10
-323.29319
 20
-208.90575
 30
0.0
 11
-323.29319
 21
-204.40575
 31
0.0
  0
LINE
  5
64E
100
AcDbEntity
  8
0
  6
CONTINUOUS
 62
     7
100
AcDbLine
 10
-327.35594
 20
-207.30575
 30
0.0
 11
-327.35594
 21
-199.90575
 31
0.0
  0
LINE
  5
64F
100
AcDbEntity
  8
0
  6
CONTINUOUS
 62
     7
100
AcDbLine
 10
-333.41908
 20
-207.30575
 30
0.0
 11
-333.41908
 21
-199.90575
 31
0.0
  0
LINE
  5
650
100
AcDbEntity
  8
0
  6
CONTINUOUS
 62
     7
100
AcDbLine
 10
-347.86979
 20
-208.90575
 30
0.0
 11
-347.86979
 21
-204.40575
 31
0.0
  0
LINE
  5
651
100
AcDbEntity
  8
0
  6
CONTINUOUS
 62
     7
100
AcDbLine
 10
-349.47444
 20
-207.30575
 30
0.0
 11
-349.47444
 21
-199.90575
 31
0.0
  0
LINE
  5
652
100
AcDbEntity
  8
0
  6
CONTINUOUS
 62
     7
100
AcDbLine
 10
-351.86918
 20
-207.30575
 30
0.0
 11
-351.86918
 21
-199.90575
 31
0.0
  0
LINE
  5
653
100
AcDbEntity
  8
0
  6
CONTINUOUS
 62
     7
100
AcDbLine
 10
-355.61185
 20
-208.90575
 30
0.0
 11
-355.61185
 21
-199.90575
 31
0.0
  0
LINE
  5
654
100
AcDbEntity
  8
0
  6
CONTINUOUS
 62
     7
100
AcDbLine
 10
-333.41908
 20
-207.30575
 30
0.0
 11
-327.35594
 21
-207.30575
 31
0.0
  0
LINE
  5
655
100
AcDbEntity
  8
0
  6
CONTINUOUS
 62
     7
100
AcDbLine
 10
-333.41908
 20
-207.10575
 30
0.0
 11
-327.35594
 21
-207.10575
 31
0.0
  0
LINE
  5
656
100
AcDbEntity
  8
0
  6
CONTINUOUS
 62
     7
100
AcDbLine
 10
-304.44236
 20
-207.30575
 30
0.0
 11
-297.44407
 21
-207.30575
 31
0.0
  0
LINE
  5
657
100
AcDbEntity
  8
0
  6
CONTINUOUS
 62
     7
100
AcDbLine
 10
-304.44236
 20
-207.10575
 30
0.0
 11
-297.44407
 21
-207.10575
 31
0.0
  0
LINE
  5
658
100
AcDbEntity
  8
0
  6
CONTINUOUS
 62
     7
100
AcDbLine
 10
-351.86918
 20
-207.30575
 30
0.0
 11
-349.47444
 21
-207.30575
 31
0.0
  0
LINE
  5
659
100
AcDbEntity
  8
0
  6
CONTINUOUS
 62
     7
100
AcDbLine
 10
-351.86918
 20
-207.10575
 30
0.0
 11
-349.47444
 21
-207.10575
 31
0.0
  0
LINE
  5
65A
100
AcDbEntity
  8
0
  6
CONTINUOUS
 62
     7
100
AcDbLine
 10
-297.44407
 20
-199.90575
 30
0.0
 11
-278.20328
 21
-199.90575
 31
0.0
  0
LINE
  5
65B
100
AcDbEntity
  8
0
  6
CONTINUOUS
 62
     7
100
AcDbLine
 10
-292.75469
 20
-204.40575
 30
0.0
 11
-288.20328
 21
-204.40575
 31
0.0
  0
LINE
  5
65C
100
AcDbEntity
  8
0
  6
CONTINUOUS
 62
     7
100
AcDbLine
 10
-323.29319
 20
-204.40575
 30
0.0
 11
-314.4389
 21
-204.40575
 31
0.0
  0
LINE
  5
65D
100
AcDbEntity
  8
0
  6
CONTINUOUS
 62
     7
100
AcDbLine
 10
-327.35594
 20
-199.90575
 30
0.0
 11
-304.44236
 21
-199.90575
 31
0.0
  0
LINE
  5
65E
100
AcDbEntity
  8
0
  6
CONTINUOUS
 62
     7
100
AcDbLine
 10
-349.47444
 20
-199.90575
 30
0.0
 11
-333.41908
 21
-199.90575
 31
0.0
  0
LINE
  5
65F
100
AcDbEntity
  8
0
  6
CONTINUOUS
 62
     7
100
AcDbLine
 10
-347.86979
 20
-204.40575
 30
0.0
 11
-342.05792
 21
-204.40575
 31
0.0
  0
LINE
  5
660
100
AcDbEntity
  8
0
  6
CENTER
 62
     7
100
AcDbLine
 10
-335.71711
 20
-163.90575
 30
0.0
 11
-335.71711
 21
-213.90575
 31
0.0
  0
LINE
  5
661
100
AcDbEntity
  8
0
  6
CENTER
 62
     7
100
AcDbLine
 10
-344.61185
 20
-163.90575
 30
0.0
 11
-344.61185
 21
-213.90575
 31
0.0
  0
LINE
  5
662
100
AcDbEntity
  8
0
  6
CONTINUOUS
 62
     7
100
AcDbLine
 10
-292.75469
 20
-208.90575
 30
0.0
 11
-292.75469
 21
-204.40575
 31
0.0
  0
LINE
  5
663
100
AcDbEntity
  8
0
  6
CENTER
 62
     7
100
AcDbLine
 10
-280.20328
 20
-173.90575
 30
0.0
 11
-269.20328
 21
-173.90575
 31
0.0
  0
LINE
  5
664
100
AcDbEntity
  8
0
  6
CENTER
 62
     7
100
AcDbLine
 10
-280.20328
 20
-203.90575
 30
0.0
 11
-269.20328
 21
-203.90575
 31
0.0
  0
POINT
  5
665
100
AcDbEntity
  8
0
  6
CONTINUOUS
 62
     7
100
AcDbPoint
 10
-261.20328
 20
-260.90576
 30
0.0
  0
POINT
  5
666
100
AcDbEntity
  8
0
  6
CONTINUOUS
 62
     7
100
AcDbPoint
 10
-240.20328
 20
-260.90576
 30
0.0
  0
LINE
  5
667
100
AcDbEntity
  8
0
  6
CENTER
 62
     7
100
AcDbLine
 10
-365.61185
 20
-298.90576
 30
0.0
 11
-240.20328
 21
-298.90576
 31
0.0
  0
LINE
  5
668
100
AcDbEntity
  8
0
  6
CENTER
 62
     7
100
AcDbLine
 10
-306.61185
 20
-260.90576
 30
0.0
 11
-240.20328
 21
-260.90576
 31
0.0
  0
LINE
  5
669
100
AcDbEntity
  8
0
  6
CENTER
 62
     7
100
AcDbLine
 10
-306.61185
 20
-239.90576
 30
0.0
 11
-306.61185
 21
-357.90576
 31
0.0
  0
LINE
  5
66A
100
AcDbEntity
  8
0
  6
CENTER
 62
     7
100
AcDbLine
 10
-306.61185
 20
-336.90576
 30
0.0
 11
-240.20328
 21
-336.90576
 31
0.0
  0
LINE
  5
66B
100
AcDbEntity
  8
0
  6
CENTER
 62
     7
100
AcDbLine
 10
-335.71711
 20
-268.47456
 30
0.0
 11
-335.71711
 21
-280.47456
 31
0.0
  0
LINE
  5
66C
100
AcDbEntity
  8
0
  6
CENTER
 62
     7
100
AcDbLine
 10
-307.19692
 20
-336.33084
 30
0.0
 11
-319.19692
 21
-336.33084
 31
0.0
  0
LINE
  5
66D
100
AcDbEntity
  8
0
  6
CENTER
 62
     7
100
AcDbLine
 10
-261.20328
 20
-254.90576
 30
0.0
 11
-261.20328
 21
-266.90576
 31
0.0
  0
LINE
  5
66E
100
AcDbEntity
  8
0
  6
CONTINUOUS
 62
     7
100
AcDbLine
 10
-287.20328
 20
-249.90576
 30
0.0
 11
-261.20328
 21
-249.90576
 31
0.0
  0
LINE
  5
66F
100
AcDbEntity
  8
0
  6
CONTINUOUS
 62
     7
100
AcDbLine
 10
-287.20328
 20
-271.90576
 30
0.0
 11
-266.80906
 21
-271.90576
 31
0.0
  0
LINE
  5
670
100
AcDbEntity
  8
0
  6
CONTINUOUS
 62
     7
100
AcDbLine
 10
-263.70328
 20
-257.78326
 30
0.0
 11
-263.70328
 21
-264.02826
 31
0.0
  0
LINE
  5
671
100
AcDbEntity
  8
0
  6
CONTINUOUS
 62
     7
100
AcDbLine
 10
-268.59534
 20
-269.71527
 30
0.0
 11
-266.61622
 21
-271.37595
 31
0.0
  0
LINE
  5
672
100
AcDbEntity
  8
0
  6
CONTINUOUS
 62
     7
100
AcDbLine
 10
-313.44016
 20
-250.48337
 30
0.0
 11
-287.44651
 21
-249.90845
 31
0.0
  0
LINE
  5
673
100
AcDbEntity
  8
0
  6
CONTINUOUS
 62
     7
100
AcDbLine
 10
-312.95369
 20
-272.47799
 30
0.0
 11
-292.56445
 21
-272.02703
 31
0.0
  0
LINE
  5
674
100
AcDbEntity
  8
0
  6
CONTINUOUS
 62
     7
100
AcDbLine
 10
-289.77171
 20
-257.83931
 30
0.0
 11
-289.63362
 21
-264.08278
 31
0.0
  0
LINE
  5
675
100
AcDbEntity
  8
0
  6
CONTINUOUS
 62
     7
100
AcDbLine
 10
-294.39873
 20
-269.87657
 30
0.0
 11
-292.38338
 21
-271.49308
 31
0.0
  0
LINE
  5
676
100
AcDbEntity
  8
0
  6
CONTINUOUS
 62
     7
100
AcDbLine
 10
-341.21452
 20
-264.94677
 30
0.0
 11
-318.69433
 21
-251.9529
 31
0.0
  0
LINE
  5
677
100
AcDbEntity
  8
0
  6
CONTINUOUS
 62
     7
100
AcDbLine
 10
-330.21971
 20
-284.00232
 30
0.0
 11
-312.55502
 21
-273.81002
 31
0.0
  0
LINE
  5
678
100
AcDbEntity
  8
0
  6
CONTINUOUS
 62
     7
100
AcDbLine
 10
-316.92284
 20
-260.0255
 30
0.0
 11
-313.80181
 21
-265.43468
 31
0.0
  0
LINE
  5
679
100
AcDbEntity
  8
0
  6
CONTINUOUS
 62
     7
100
AcDbLine
 10
-315.19696
 20
-272.80542
 30
0.0
 11
-312.65278
 21
-273.25475
 31
0.0
  0
LINE
  5
67A
100
AcDbEntity
  8
0
  6
CONTINUOUS
 62
     7
100
AcDbLine
 10
-354.94814
 20
-295.1426
 30
0.0
 11
-346.05339
 21
-270.7114
 31
0.0
  0
LINE
  5
67B
100
AcDbEntity
  8
0
  6
CONTINUOUS
 62
     7
100
AcDbLine
 10
-334.27557
 20
-302.66892
 30
0.0
 11
-327.2986
 21
-283.50525
 31
0.0
  0
LINE
  5
67C
100
AcDbEntity
  8
0
  6
CONTINUOUS
 62
     7
100
AcDbLine
 10
-339.50647
 20
-275.75549
 30
0.0
 11
-333.63828
 21
-277.89194
 31
0.0
  0
LINE
  5
67D
100
AcDbEntity
  8
0
  6
CONTINUOUS
 62
     7
100
AcDbLine
 10
-329.96802
 20
-284.43437
 30
0.0
 11
-327.73048
 21
-283.1428
 31
0.0
  0
LINE
  5
67E
100
AcDbEntity
  8
0
  6
CENTER
 62
     7
100
AcDbLine
 10
-287.20328
 20
-342.90576
 30
0.0
 11
-287.20328
 21
-330.90576
 31
0.0
  0
LINE
  5
67F
100
AcDbEntity
  8
0
  6
CONTINUOUS
 62
     7
100
AcDbLine
 10
-346.05348
 20
-327.10012
 30
0.0
 11
-354.94814
 21
-302.66888
 31
0.0
  0
LINE
  5
680
100
AcDbEntity
  8
0
  6
CONTINUOUS
 62
     7
100
AcDbLine
 10
-325.3809
 20
-319.57387
 30
0.0
 11
-332.35781
 21
-300.41018
 31
0.0
  0
LINE
  5
681
100
AcDbEntity
  8
0
  6
CENTER
 62
     7
100
AcDbLine
 10
-313.19692
 20
-330.33084
 30
0.0
 11
-313.19692
 21
-342.33084
 31
0.0
  0
LINE
  5
682
100
AcDbEntity
  8
0
  6
CONTINUOUS
 62
     7
100
AcDbLine
 10
-346.6907
 20
-302.32313
 30
0.0
 11
-340.82249
 21
-300.1867
 31
0.0
  0
LINE
  5
683
100
AcDbEntity
  8
0
  6
CONTINUOUS
 62
     7
100
AcDbLine
 10
-333.80504
 20
-302.83805
 30
0.0
 11
-332.92162
 21
-300.41023
 31
0.0
  0
LINE
  5
684
100
AcDbEntity
  8
0
  6
CENTER
 62
     7
100
AcDbLine
 10
-344.61185
 20
-292.90576
 30
0.0
 11
-344.61185
 21
-304.90576
 31
0.0
  0
LINE
  5
685
100
AcDbEntity
  8
0
  6
CONTINUOUS
 62
     7
100
AcDbLine
 10
-318.69416
 20
-345.85849
 30
0.0
 11
-341.21445
 21
-332.86478
 31
0.0
  0
LINE
  5
686
100
AcDbEntity
  8
0
  6
CONTINUOUS
 62
     7
100
AcDbLine
 10
-307.69949
 20
-326.80286
 30
0.0
 11
-325.36425
 21
-316.61068
 31
0.0
  0
LINE
  5
687
100
AcDbEntity
  8
0
  6
CENTER
 62
     7
100
AcDbLine
 10
-335.71711
 20
-317.33696
 30
0.0
 11
-335.71711
 21
-329.33697
 31
0.0
  0
LINE
  5
688
100
AcDbEntity
  8
0
  6
CONTINUOUS
 62
     7
100
AcDbLine
 10
-335.1122
 20
-327.29096
 30
0.0
 11
-331.9912
 21
-321.88176
 31
0.0
  0
LINE
  5
689
100
AcDbEntity
  8
0
  6
CONTINUOUS
 62
     7
100
AcDbLine
 10
-324.91175
 20
-319.40072
 30
0.0
 11
-325.79605
 21
-316.97322
 31
0.0
  0
LINE
  5
68A
100
AcDbEntity
  8
0
  6
CENTER
 62
     7
100
AcDbLine
 10
-329.71711
 20
-323.33696
 30
0.0
 11
-341.71711
 21
-323.33696
 31
0.0
  0
LINE
  5
68B
100
AcDbEntity
  8
0
  6
CENTER
 62
     7
100
AcDbLine
 10
-287.20328
 20
-254.90576
 30
0.0
 11
-287.20328
 21
-266.90576
 31
0.0
  0
LINE
  5
68C
100
AcDbEntity
  8
0
  6
CONTINUOUS
 62
     7
100
AcDbLine
 10
-287.4465
 20
-347.90305
 30
0.0
 11
-313.44015
 21
-347.32816
 31
0.0
  0
LINE
  5
68D
100
AcDbEntity
  8
0
  6
CONTINUOUS
 62
     7
100
AcDbLine
 10
-286.96005
 20
-325.90843
 30
0.0
 11
-307.34929
 21
-325.45748
 31
0.0
  0
LINE
  5
68E
100
AcDbEntity
  8
0
  6
CENTER
 62
     7
100
AcDbLine
 10
-313.19692
 20
-255.48068
 30
0.0
 11
-313.19692
 21
-267.48068
 31
0.0
  0
LINE
  5
68F
100
AcDbEntity
  8
0
  6
CONTINUOUS
 62
     7
100
AcDbLine
 10
-310.76657
 20
-339.50786
 30
0.0
 11
-310.62849
 21
-333.26439
 31
0.0
  0
LINE
  5
690
100
AcDbEntity
  8
0
  6
CONTINUOUS
 62
     7
100
AcDbLine
 10
-305.61188
 20
-327.68694
 30
0.0
 11
-307.55379
 21
-325.9829
 31
0.0
  0
LINE
  5
691
100
AcDbEntity
  8
0
  6
CENTER
 62
     7
100
AcDbLine
 10
-329.71711
 20
-274.47456
 30
0.0
 11
-341.71711
 21
-274.47456
 31
0.0
  0
LINE
  5
692
100
AcDbEntity
  8
0
  6
CONTINUOUS
 62
     7
100
AcDbLine
 10
-261.20328
 20
-347.90576
 30
0.0
 11
-287.20328
 21
-347.90576
 31
0.0
  0
LINE
  5
693
100
AcDbEntity
  8
0
  6
CENTER
 62
     7
100
AcDbLine
 10
-307.19692
 20
-261.48068
 30
0.0
 11
-319.19692
 21
-261.48068
 31
0.0
  0
LINE
  5
694
100
AcDbEntity
  8
0
  6
CONTINUOUS
 62
     7
100
AcDbLine
 10
-261.20328
 20
-325.90576
 30
0.0
 11
-281.5975
 21
-325.90576
 31
0.0
  0
LINE
  5
695
100
AcDbEntity
  8
0
  6
CENTER
 62
     7
100
AcDbLine
 10
-261.20328
 20
-342.90576
 30
0.0
 11
-261.20328
 21
-330.90576
 31
0.0
  0
LINE
  5
696
100
AcDbEntity
  8
0
  6
CONTINUOUS
 62
     7
100
AcDbLine
 10
-284.70328
 20
-340.02826
 30
0.0
 11
-284.70328
 21
-333.78326
 31
0.0
  0
LINE
  5
697
100
AcDbEntity
  8
0
  6
CONTINUOUS
 62
     7
100
AcDbLine
 10
-279.81122
 20
-328.09625
 30
0.0
 11
-281.79034
 21
-326.43558
 31
0.0
  0
ARC
  5
698
100
AcDbEntity
  8
0
  6
CENTER
 62
     7
100
AcDbCircle
 10
-306.61185
 20
-298.90576
 30
0.0
 40
38.0
100
AcDbArc
 50
90.000003
 51
270.0
  0
ARC
  5
699
100
AcDbEntity
  8
0
  6
CONTINUOUS
 62
     7
100
AcDbCircle
 10
-287.20328
 20
-260.90576
 30
0.0
 40
11.0
100
AcDbArc
 50
90.000003
 51
270.0
  0
CIRCLE
  5
69A
100
AcDbEntity
  8
0
  6
CONTINUOUS
 62
     7
100
AcDbCircle
 10
-261.20328
 20
-260.90576
 30
0.0
 40
4.0
  0
ARC
  5
69B
100
AcDbEntity
  8
0
  6
CONTINUOUS
 62
     7
100
AcDbCircle
 10
-261.20328
 20
-260.90576
 30
0.0
 40
11.5
100
AcDbArc
 50
118.95503
 51
230.00001
  0
ARC
  5
69C
100
AcDbEntity
  8
0
  6
CONTINUOUS
 62
     7
100
AcDbCircle
 10
-267.01275
 20
-250.40576
 30
0.0
 40
0.5
100
AcDbArc
 50
298.95503
 51
90.000003
  0
ARC
  5
69D
100
AcDbEntity
  8
0
  6
CONTINUOUS
 62
     7
100
AcDbCircle
 10
-266.80906
 20
-271.60576
 30
0.0
 40
0.3
100
AcDbArc
 50
270.0
 51
50.0
  0
ARC
  5
69E
100
AcDbEntity
  8
0
  6
CONTINUOUS
 62
     7
100
AcDbCircle
 10
-313.19692
 20
-261.48068
 30
0.0
 40
11.0
100
AcDbArc
 50
91.267037
 51
271.26703
  0
CIRCLE
  5
69F
100
AcDbEntity
  8
0
  6
CONTINUOUS
 62
     7
100
AcDbCircle
 10
-287.20328
 20
-260.90576
 30
0.0
 40
4.0
  0
ARC
  5
6A0
100
AcDbEntity
  8
0
  6
CONTINUOUS
 62
     7
100
AcDbCircle
 10
-287.20328
 20
-260.90576
 30
0.0
 40
11.5
100
AcDbArc
 50
120.22207
 51
231.26704
  0
ARC
  5
6A1
100
AcDbEntity
  8
0
  6
CONTINUOUS
 62
     7
100
AcDbCircle
 10
-293.24351
 20
-250.53679
 30
0.0
 40
0.5
100
AcDbArc
 50
300.22206
 51
91.267037
  0
ARC
  5
6A2
100
AcDbEntity
  8
0
  6
CONTINUOUS
 62
     7
100
AcDbCircle
 10
-292.57108
 20
-271.7271
 30
0.0
 40
0.3
100
AcDbArc
 50
271.26704
 51
51.267041
  0
ARC
  5
6A3
100
AcDbEntity
  8
0
  6
CONTINUOUS
 62
     7
100
AcDbCircle
 10
-335.71712
 20
-274.47455
 30
0.0
 40
11.0
100
AcDbArc
 50
119.9844
 51
299.98439
  0
CIRCLE
  5
6A4
100
AcDbEntity
  8
0
  6
CONTINUOUS
 62
     7
100
AcDbCircle
 10
-313.19692
 20
-261.48068
 30
0.0
 40
4.0
  0
ARC
  5
6A5
100
AcDbEntity
  8
0
  6
CONTINUOUS
 62
     7
100
AcDbCircle
 10
-313.19692
 20
-261.48068
 30
0.0
 40
11.5
100
AcDbArc
 50
148.93942
 51
259.9844
  0
ARC
  5
6A6
100
AcDbEntity
  8
0
  6
CONTINUOUS
 62
     7
100
AcDbCircle
 10
-323.47639
 20
-255.28935
 30
0.0
 40
0.5
100
AcDbArc
 50
328.93942
 51
119.9844
  0
ARC
  5
6A7
100
AcDbEntity
  8
0
  6
CONTINUOUS
 62
     7
100
AcDbCircle
 10
-312.70495
 20
-273.55017
 30
0.0
 40
0.3
100
AcDbArc
 50
299.9844
 51
79.984398
  0
ARC
  5
6A8
100
AcDbEntity
  8
0
  6
CONTINUOUS
 62
     7
100
AcDbCircle
 10
-344.61185
 20
-298.90576
 30
0.0
 40
11.0
100
AcDbArc
 50
159.9948
 51
339.9948
  0
CIRCLE
  5
6A9
100
AcDbEntity
  8
0
  6
CONTINUOUS
 62
     7
100
AcDbCircle
 10
-335.71711
 20
-274.47456
 30
0.0
 40
4.0
  0
ARC
  5
6AA
100
AcDbEntity
  8
0
  6
CONTINUOUS
 62
     7
100
AcDbCircle
 10
-335.71711
 20
-274.47456
 30
0.0
 40
11.5
100
AcDbArc
 50
188.94982
 51
299.9948
  0
ARC
  5
6AB
100
AcDbEntity
  8
0
  6
CONTINUOUS
 62
     7
100
AcDbCircle
 10
-347.57101
 20
-276.34139
 30
0.0
 40
0.5
100
AcDbArc
 50
8.949824
 51
159.9948
  0
ARC
  5
6AC
100
AcDbEntity
  8
0
  6
CONTINUOUS
 62
     7
100
AcDbCircle
 10
-327.5805
 20
-283.40262
 30
0.0
 40
0.3
100
AcDbArc
 50
339.9948
 51
119.9948
  0
ARC
  5
6AD
100
AcDbEntity
  8
0
  6
CONTINUOUS
 62
     7
100
AcDbCircle
 10
-335.71719
 20
-323.33699
 30
0.0
 40
11.0
100
AcDbArc
 50
200.005
 51
20.005001
  0
CIRCLE
  5
6AE
100
AcDbEntity
  8
0
  6
CONTINUOUS
 62
     7
100
AcDbCircle
 10
-344.61185
 20
-298.90576
 30
0.0
 40
4.0
  0
ARC
  5
6AF
100
AcDbEntity
  8
0
  6
CONTINUOUS
 62
     7
100
AcDbCircle
 10
-344.61185
 20
-298.90576
 30
0.0
 40
11.5
100
AcDbArc
 50
228.96002
 51
340.005
  0
ARC
  5
6B0
100
AcDbEntity
  8
0
  6
CONTINUOUS
 62
     7
100
AcDbCircle
 10
-352.49088
 20
-307.95678
 30
0.0
 40
0.5
100
AcDbArc
 50
48.960025
 51
200.005
  0
ARC
  5
6B1
100
AcDbEntity
  8
0
  6
CONTINUOUS
 62
     7
100
AcDbCircle
 10
-332.63971
 20
-300.51281
 30
0.0
 40
0.3
100
AcDbArc
 50
20.005001
 51
160.005
  0
ARC
  5
6B2
100
AcDbEntity
  8
0
  6
CONTINUOUS
 62
     7
100
AcDbCircle
 10
-313.19682
 20
-336.33067
 30
0.0
 40
11.0
100
AcDbArc
 50
240.01601
 51
60.015998
  0
CIRCLE
  5
6B3
100
AcDbEntity
  8
0
  6
CONTINUOUS
 62
     7
100
AcDbCircle
 10
-335.71711
 20
-323.33696
 30
0.0
 40
4.0
  0
ARC
  5
6B4
100
AcDbEntity
  8
0
  6
CONTINUOUS
 62
     7
100
AcDbCircle
 10
-335.71711
 20
-323.33696
 30
0.0
 40
11.5
100
AcDbArc
 50
268.97102
 51
20.016001
  0
ARC
  5
6B5
100
AcDbEntity
  8
0
  6
CONTINUOUS
 62
     7
100
AcDbCircle
 10
-335.93261
 20
-335.33503
 30
0.0
 40
0.5
100
AcDbArc
 50
88.971028
 51
240.01599
  0
ARC
  5
6B6
100
AcDbEntity
  8
0
  6
CONTINUOUS
 62
     7
100
AcDbCircle
 10
-325.51418
 20
-316.87053
 30
0.0
 40
0.3
100
AcDbArc
 50
60.015998
 51
200.016
  0
ARC
  5
6B7
100
AcDbEntity
  8
0
  6
CONTINUOUS
 62
     7
100
AcDbCircle
 10
-287.20328
 20
-336.90575
 30
0.0
 40
11.0
100
AcDbArc
 50
268.733
 51
88.733002
  0
CIRCLE
  5
6B8
100
AcDbEntity
  8
0
  6
CONTINUOUS
 62
     7
100
AcDbCircle
 10
-313.19692
 20
-336.33084
 30
0.0
 40
4.0
  0
ARC
  5
6B9
100
AcDbEntity
  8
0
  6
CONTINUOUS
 62
     7
100
AcDbCircle
 10
-313.19692
 20
-336.33084
 30
0.0
 40
11.5
100
AcDbArc
 50
297.68803
 51
48.733
  0
ARC
  5
6BA
100
AcDbEntity
  8
0
  6
CONTINUOUS
 62
     7
100
AcDbCircle
 10
-307.62104
 20
-346.95673
 30
0.0
 40
0.5
100
AcDbArc
 50
117.68803
 51
268.733
  0
ARC
  5
6BB
100
AcDbEntity
  8
0
  6
CONTINUOUS
 62
     7
100
AcDbCircle
 10
-307.35592
 20
-325.75742
 30
0.0
 40
0.3
100
AcDbArc
 50
88.733002
 51
228.73299
  0
ARC
  5
6BC
100
AcDbEntity
  8
0
  6
CONTINUOUS
 62
     7
100
AcDbCircle
 10
-261.20328
 20
-336.90576
 30
0.0
 40
11.0
100
AcDbArc
 50
270.0
 51
90.000003
  0
CIRCLE
  5
6BD
100
AcDbEntity
  8
0
  6
CONTINUOUS
 62
     7
100
AcDbCircle
 10
-287.20328
 20
-336.90576
 30
0.0
 40
4.0
  0
ARC
  5
6BE
100
AcDbEntity
  8
0
  6
CONTINUOUS
 62
     7
100
AcDbCircle
 10
-287.20328
 20
-336.90576
 30
0.0
 40
11.5
100
AcDbArc
 50
298.95503
 51
50.0
  0
ARC
  5
6BF
100
AcDbEntity
  8
0
  6
CONTINUOUS
 62
     7
100
AcDbCircle
 10
-281.3938
 20
-347.40576
 30
0.0
 40
0.5
100
AcDbArc
 50
118.95503
 51
270.0
  0
ARC
  5
6C0
100
AcDbEntity
  8
0
  6
CONTINUOUS
 62
     7
100
AcDbCircle
 10
-281.5975
 20
-326.20576
 30
0.0
 40
0.3
100
AcDbArc
 50
90.000003
 51
230.00001
  0
POINT
  5
6C1
100
AcDbEntity
  8
0
  6
CONTINUOUS
 62
     7
100
AcDbPoint
 10
-261.20328
 20
-403.90576
 30
0.0
  0
POINT
  5
6C2
100
AcDbEntity
  8
0
  6
CONTINUOUS
 62
     7
100
AcDbPoint
 10
-240.20328
 20
-403.90576
 30
0.0
  0
LINE
  5
6C3
100
AcDbEntity
  8
0
  6
CONTINUOUS
 62
     7
100
AcDbLine
 10
-353.13176
 20
-388.40576
 30
0.0
 11
-355.61185
 21
-388.40576
 31
0.0
  0
LINE
  5
6C4
100
AcDbEntity
  8
0
  6
CENTER
 62
     7
100
AcDbLine
 10
-365.61185
 20
-403.90576
 30
0.0
 11
-240.20328
 21
-403.90576
 31
0.0
  0
LINE
  5
6C5
100
AcDbEntity
  8
0
  6
CONTINUOUS
 62
     7
100
AcDbLine
 10
-281.8938
 20
-383.90576
 30
0.0
 11
-281.8938
 21
-388.40576
 31
0.0
  0
LINE
  5
6C6
100
AcDbEntity
  8
0
  6
CONTINUOUS
 62
     7
100
AcDbLine
 10
-281.8938
 20
-423.90576
 30
0.0
 11
-281.8938
 21
-419.40576
 31
0.0
  0
LINE
  5
6C7
100
AcDbEntity
  8
0
  6
CONTINUOUS
 62
     7
100
AcDbLine
 10
-270.20328
 20
-392.90576
 30
0.0
 11
-270.20328
 21
-385.50576
 31
0.0
  0
LINE
  5
6C8
100
AcDbEntity
  8
0
  6
CENTER
 62
     7
100
AcDbLine
 10
-313.19692
 20
-428.90576
 30
0.0
 11
-313.19692
 21
-378.90576
 31
0.0
  0
LINE
  5
6C9
100
AcDbEntity
  8
0
  6
CONTINUOUS
 62
     7
100
AcDbLine
 10
-257.2938
 20
-383.90576
 30
0.0
 11
-355.61185
 21
-383.90576
 31
0.0
  0
LINE
  5
6CA
100
AcDbEntity
  8
0
  6
CONTINUOUS
 62
     7
100
AcDbLine
 10
-270.20328
 20
-422.30576
 30
0.0
 11
-270.20328
 21
-414.90576
 31
0.0
  0
LINE
  5
6CB
100
AcDbEntity
  8
0
  6
CENTER
 62
     7
100
AcDbLine
 10
-261.20328
 20
-428.90576
 30
0.0
 11
-261.20328
 21
-378.90576
 31
0.0
  0
LINE
  5
6CC
100
AcDbEntity
  8
0
  6
CONTINUOUS
 62
     7
100
AcDbLine
 10
-285.80328
 20
-414.90576
 30
0.0
 11
-285.80328
 21
-392.90576
 31
0.0
  0
LINE
  5
6CD
100
AcDbEntity
  8
0
  6
CONTINUOUS
 62
     7
100
AcDbLine
 10
-277.20328
 20
-422.30576
 30
0.0
 11
-277.20328
 21
-414.90576
 31
0.0
  0
LINE
  5
6CE
100
AcDbEntity
  8
0
  6
CONTINUOUS
 62
     7
100
AcDbLine
 10
-257.2938
 20
-423.90576
 30
0.0
 11
-355.61185
 21
-423.90576
 31
0.0
  0
LINE
  5
6CF
100
AcDbEntity
  8
0
  6
CONTINUOUS
 62
     7
100
AcDbLine
 10
-270.20328
 20
-422.30576
 30
0.0
 11
-277.20328
 21
-422.30576
 31
0.0
  0
LINE
  5
6D0
100
AcDbEntity
  8
0
  6
CONTINUOUS
 62
     7
100
AcDbLine
 10
-270.20328
 20
-385.50576
 30
0.0
 11
-277.20328
 21
-385.50576
 31
0.0
  0
LINE
  5
6D1
100
AcDbEntity
  8
0
  6
CONTINUOUS
 62
     7
100
AcDbLine
 10
-332.5528
 20
-392.90576
 30
0.0
 11
-349.1324
 21
-392.90576
 31
0.0
  0
LINE
  5
6D2
100
AcDbEntity
  8
0
  6
CONTINUOUS
 62
     7
100
AcDbLine
 10
-257.2938
 20
-388.40576
 30
0.0
 11
-260.20328
 21
-388.40576
 31
0.0
  0
LINE
  5
6D3
100
AcDbEntity
  8
0
  6
CENTER
 62
     7
100
AcDbLine
 10
-287.20328
 20
-428.90576
 30
0.0
 11
-287.20328
 21
-378.90576
 31
0.0
  0
LINE
  5
6D4
100
AcDbEntity
  8
0
  6
CONTINUOUS
 62
     7
100
AcDbLine
 10
-260.20328
 20
-392.90576
 30
0.0
 11
-270.20328
 21
-392.90576
 31
0.0
  0
LINE
  5
6D5
100
AcDbEntity
  8
0
  6
CONTINUOUS
 62
     7
100
AcDbLine
 10
-257.2938
 20
-419.40576
 30
0.0
 11
-260.20328
 21
-419.40576
 31
0.0
  0
LINE
  5
6D6
100
AcDbEntity
  8
0
  6
CONTINUOUS
 62
     7
100
AcDbLine
 10
-260.20328
 20
-414.90576
 30
0.0
 11
-270.20328
 21
-414.90576
 31
0.0
  0
LINE
  5
6D7
100
AcDbEntity
  8
0
  6
CONTINUOUS
 62
     7
100
AcDbLine
 10
-260.20328
 20
-419.40576
 30
0.0
 11
-260.20328
 21
-388.40576
 31
0.0
  0
LINE
  5
6D8
100
AcDbEntity
  8
0
  6
CONTINUOUS
 62
     7
100
AcDbLine
 10
-277.20328
 20
-392.90576
 30
0.0
 11
-277.20328
 21
-385.50576
 31
0.0
  0
LINE
  5
6D9
100
AcDbEntity
  8
0
  6
CONTINUOUS
 62
     7
100
AcDbLine
 10
-277.20328
 20
-392.90576
 30
0.0
 11
-296.4443
 21
-392.90576
 31
0.0
  0
LINE
  5
6DA
100
AcDbEntity
  8
0
  6
CONTINUOUS
 62
     7
100
AcDbLine
 10
-270.20328
 20
-385.70576
 30
0.0
 11
-277.20328
 21
-385.70576
 31
0.0
  0
LINE
  5
6DB
100
AcDbEntity
  8
0
  6
CONTINUOUS
 62
     7
100
AcDbLine
 10
-270.20328
 20
-422.10576
 30
0.0
 11
-277.20328
 21
-422.10576
 31
0.0
  0
LINE
  5
6DC
100
AcDbEntity
  8
0
  6
CONTINUOUS
 62
     7
100
AcDbLine
 10
-353.13176
 20
-419.40576
 30
0.0
 11
-355.61185
 21
-419.40576
 31
0.0
  0
LINE
  5
6DD
100
AcDbEntity
  8
0
  6
CONTINUOUS
 62
     7
100
AcDbLine
 10
-281.8938
 20
-388.40576
 30
0.0
 11
-286.44574
 21
-388.40576
 31
0.0
  0
LINE
  5
6DE
100
AcDbEntity
  8
0
  6
CONTINUOUS
 62
     7
100
AcDbLine
 10
-336.61557
 20
-388.40576
 30
0.0
 11
-345.66858
 21
-388.40576
 31
0.0
  0
LINE
  5
6DF
100
AcDbEntity
  8
0
  6
CONTINUOUS
 62
     7
100
AcDbLine
 10
-303.44259
 20
-392.90576
 30
0.0
 11
-326.48965
 21
-392.90576
 31
0.0
  0
LINE
  5
6E0
100
AcDbEntity
  8
0
  6
CONTINUOUS
 62
     7
100
AcDbLine
 10
-308.13197
 20
-388.40576
 30
0.0
 11
-317.80523
 21
-388.40576
 31
0.0
  0
LINE
  5
6E1
100
AcDbEntity
  8
0
  6
CONTINUOUS
 62
     7
100
AcDbLine
 10
-332.5528
 20
-385.70576
 30
0.0
 11
-326.48965
 21
-385.70576
 31
0.0
  0
LINE
  5
6E2
100
AcDbEntity
  8
0
  6
CONTINUOUS
 62
     7
100
AcDbLine
 10
-332.5528
 20
-385.50576
 30
0.0
 11
-326.48965
 21
-385.50576
 31
0.0
  0
LINE
  5
6E3
100
AcDbEntity
  8
0
  6
CONTINUOUS
 62
     7
100
AcDbLine
 10
-303.44259
 20
-385.70576
 30
0.0
 11
-296.4443
 21
-385.70576
 31
0.0
  0
LINE
  5
6E4
100
AcDbEntity
  8
0
  6
CONTINUOUS
 62
     7
100
AcDbLine
 10
-303.44259
 20
-385.50576
 30
0.0
 11
-296.4443
 21
-385.50576
 31
0.0
  0
LINE
  5
6E5
100
AcDbEntity
  8
0
  6
CONTINUOUS
 62
     7
100
AcDbLine
 10
-351.52712
 20
-385.70576
 30
0.0
 11
-349.1324
 21
-385.70576
 31
0.0
  0
LINE
  5
6E6
100
AcDbEntity
  8
0
  6
CONTINUOUS
 62
     7
100
AcDbLine
 10
-351.52712
 20
-385.50576
 30
0.0
 11
-349.1324
 21
-385.50576
 31
0.0
  0
LINE
  5
6E7
100
AcDbEntity
  8
0
  6
CONTINUOUS
 62
     7
100
AcDbLine
 10
-286.44574
 20
-388.40576
 30
0.0
 11
-286.44574
 21
-419.40576
 31
0.0
  0
LINE
  5
6E8
100
AcDbEntity
  8
0
  6
CONTINUOUS
 62
     7
100
AcDbLine
 10
-296.4443
 20
-385.50576
 30
0.0
 11
-296.4443
 21
-392.90576
 31
0.0
  0
LINE
  5
6E9
100
AcDbEntity
  8
0
  6
CONTINUOUS
 62
     7
100
AcDbLine
 10
-303.44259
 20
-385.50576
 30
0.0
 11
-303.44259
 21
-392.90576
 31
0.0
  0
LINE
  5
6EA
100
AcDbEntity
  8
0
  6
CONTINUOUS
 62
     7
100
AcDbLine
 10
-308.13197
 20
-383.90576
 30
0.0
 11
-308.13197
 21
-388.40576
 31
0.0
  0
LINE
  5
6EB
100
AcDbEntity
  8
0
  6
CONTINUOUS
 62
     7
100
AcDbLine
 10
-312.04049
 20
-392.90576
 30
0.0
 11
-312.04049
 21
-414.90576
 31
0.0
  0
LINE
  5
6EC
100
AcDbEntity
  8
0
  6
CONTINUOUS
 62
     7
100
AcDbLine
 10
-317.80523
 20
-388.40576
 30
0.0
 11
-317.80523
 21
-419.40576
 31
0.0
  0
LINE
  5
6ED
100
AcDbEntity
  8
0
  6
CONTINUOUS
 62
     7
100
AcDbLine
 10
-326.48965
 20
-385.50576
 30
0.0
 11
-326.48965
 21
-392.90576
 31
0.0
  0
LINE
  5
6EE
100
AcDbEntity
  8
0
  6
CONTINUOUS
 62
     7
100
AcDbLine
 10
-332.5528
 20
-385.50576
 30
0.0
 11
-332.5528
 21
-392.90576
 31
0.0
  0
LINE
  5
6EF
100
AcDbEntity
  8
0
  6
CONTINUOUS
 62
     7
100
AcDbLine
 10
-336.61557
 20
-383.90576
 30
0.0
 11
-336.61557
 21
-388.40576
 31
0.0
  0
LINE
  5
6F0
100
AcDbEntity
  8
0
  6
CONTINUOUS
 62
     7
100
AcDbLine
 10
-340.00182
 20
-392.90576
 30
0.0
 11
-340.00182
 21
-414.90576
 31
0.0
  0
LINE
  5
6F1
100
AcDbEntity
  8
0
  6
CONTINUOUS
 62
     7
100
AcDbLine
 10
-345.66858
 20
-388.40576
 30
0.0
 11
-345.66858
 21
-419.40576
 31
0.0
  0
LINE
  5
6F2
100
AcDbEntity
  8
0
  6
CONTINUOUS
 62
     7
100
AcDbLine
 10
-349.1324
 20
-385.50576
 30
0.0
 11
-349.1324
 21
-392.90576
 31
0.0
  0
LINE
  5
6F3
100
AcDbEntity
  8
0
  6
CONTINUOUS
 62
     7
100
AcDbLine
 10
-351.52712
 20
-385.50576
 30
0.0
 11
-351.52712
 21
-392.90576
 31
0.0
  0
LINE
  5
6F4
100
AcDbEntity
  8
0
  6
CONTINUOUS
 62
     7
100
AcDbLine
 10
-353.13176
 20
-383.90576
 30
0.0
 11
-353.13176
 21
-388.40576
 31
0.0
  0
LINE
  5
6F5
100
AcDbEntity
  8
0
  6
CONTINUOUS
 62
     7
100
AcDbLine
 10
-354.4692
 20
-392.90576
 30
0.0
 11
-354.4692
 21
-414.90576
 31
0.0
  0
LINE
  5
6F6
100
AcDbEntity
  8
0
  6
CONTINUOUS
 62
     7
100
AcDbLine
 10
-355.61185
 20
-383.90576
 30
0.0
 11
-355.61185
 21
-392.90576
 31
0.0
  0
LINE
  5
6F7
100
AcDbEntity
  8
0
  6
CONTINUOUS
 62
     7
100
AcDbLine
 10
-351.52712
 20
-392.90576
 30
0.0
 11
-355.61185
 21
-392.90576
 31
0.0
  0
LINE
  5
6F8
100
AcDbEntity
  8
0
  6
CONTINUOUS
 62
     7
100
AcDbLine
 10
-351.52712
 20
-422.30576
 30
0.0
 11
-349.1324
 21
-422.30576
 31
0.0
  0
LINE
  5
6F9
100
AcDbEntity
  8
0
  6
CONTINUOUS
 62
     7
100
AcDbLine
 10
-351.52712
 20
-422.10576
 30
0.0
 11
-349.1324
 21
-422.10576
 31
0.0
  0
LINE
  5
6FA
100
AcDbEntity
  8
0
  6
CONTINUOUS
 62
     7
100
AcDbLine
 10
-303.44259
 20
-422.30576
 30
0.0
 11
-296.4443
 21
-422.30576
 31
0.0
  0
LINE
  5
6FB
100
AcDbEntity
  8
0
  6
CONTINUOUS
 62
     7
100
AcDbLine
 10
-303.44259
 20
-422.10576
 30
0.0
 11
-296.4443
 21
-422.10576
 31
0.0
  0
LINE
  5
6FC
100
AcDbEntity
  8
0
  6
CONTINUOUS
 62
     7
100
AcDbLine
 10
-332.5528
 20
-422.30576
 30
0.0
 11
-326.48965
 21
-422.30576
 31
0.0
  0
LINE
  5
6FD
100
AcDbEntity
  8
0
  6
CONTINUOUS
 62
     7
100
AcDbLine
 10
-332.5528
 20
-422.10576
 30
0.0
 11
-326.48965
 21
-422.10576
 31
0.0
  0
LINE
  5
6FE
100
AcDbEntity
  8
0
  6
CONTINUOUS
 62
     7
100
AcDbLine
 10
-308.13197
 20
-419.40576
 30
0.0
 11
-317.80523
 21
-419.40576
 31
0.0
  0
LINE
  5
6FF
100
AcDbEntity
  8
0
  6
CONTINUOUS
 62
     7
100
AcDbLine
 10
-303.44259
 20
-414.90576
 30
0.0
 11
-326.48965
 21
-414.90576
 31
0.0
  0
LINE
  5
700
100
AcDbEntity
  8
0
  6
CONTINUOUS
 62
     7
100
AcDbLine
 10
-336.61557
 20
-419.40576
 30
0.0
 11
-345.66858
 21
-419.40576
 31
0.0
  0
LINE
  5
701
100
AcDbEntity
  8
0
  6
CONTINUOUS
 62
     7
100
AcDbLine
 10
-281.8938
 20
-419.40576
 30
0.0
 11
-286.44574
 21
-419.40576
 31
0.0
  0
LINE
  5
702
100
AcDbEntity
  8
0
  6
CONTINUOUS
 62
     7
100
AcDbLine
 10
-277.20328
 20
-414.90576
 30
0.0
 11
-296.4443
 21
-414.90576
 31
0.0
  0
LINE
  5
703
100
AcDbEntity
  8
0
  6
CONTINUOUS
 62
     7
100
AcDbLine
 10
-332.5528
 20
-414.90576
 30
0.0
 11
-349.1324
 21
-414.90576
 31
0.0
  0
LINE
  5
704
100
AcDbEntity
  8
0
  6
CONTINUOUS
 62
     7
100
AcDbLine
 10
-296.4443
 20
-422.30576
 30
0.0
 11
-296.4443
 21
-414.90576
 31
0.0
  0
LINE
  5
705
100
AcDbEntity
  8
0
  6
CONTINUOUS
 62
     7
100
AcDbLine
 10
-303.44259
 20
-422.30576
 30
0.0
 11
-303.44259
 21
-414.90576
 31
0.0
  0
LINE
  5
706
100
AcDbEntity
  8
0
  6
CONTINUOUS
 62
     7
100
AcDbLine
 10
-308.13197
 20
-423.90576
 30
0.0
 11
-308.13197
 21
-419.40576
 31
0.0
  0
LINE
  5
707
100
AcDbEntity
  8
0
  6
CONTINUOUS
 62
     7
100
AcDbLine
 10
-326.48965
 20
-422.30576
 30
0.0
 11
-326.48965
 21
-414.90576
 31
0.0
  0
LINE
  5
708
100
AcDbEntity
  8
0
  6
CONTINUOUS
 62
     7
100
AcDbLine
 10
-332.5528
 20
-422.30576
 30
0.0
 11
-332.5528
 21
-414.90576
 31
0.0
  0
LINE
  5
709
100
AcDbEntity
  8
0
  6
CONTINUOUS
 62
     7
100
AcDbLine
 10
-336.61557
 20
-423.90576
 30
0.0
 11
-336.61557
 21
-419.40576
 31
0.0
  0
LINE
  5
70A
100
AcDbEntity
  8
0
  6
CONTINUOUS
 62
     7
100
AcDbLine
 10
-349.1324
 20
-422.30576
 30
0.0
 11
-349.1324
 21
-414.90576
 31
0.0
  0
LINE
  5
70B
100
AcDbEntity
  8
0
  6
CONTINUOUS
 62
     7
100
AcDbLine
 10
-351.52712
 20
-422.30576
 30
0.0
 11
-351.52712
 21
-414.90576
 31
0.0
  0
LINE
  5
70C
100
AcDbEntity
  8
0
  6
CONTINUOUS
 62
     7
100
AcDbLine
 10
-353.13176
 20
-423.90576
 30
0.0
 11
-353.13176
 21
-419.40576
 31
0.0
  0
LINE
  5
70D
100
AcDbEntity
  8
0
  6
CONTINUOUS
 62
     7
100
AcDbLine
 10
-355.61185
 20
-423.90576
 30
0.0
 11
-355.61185
 21
-414.90576
 31
0.0
  0
LINE
  5
70E
100
AcDbEntity
  8
0
  6
CONTINUOUS
 62
     7
100
AcDbLine
 10
-351.52712
 20
-414.90576
 30
0.0
 11
-355.61185
 21
-414.90576
 31
0.0
  0
LINE
  5
70F
100
AcDbEntity
  8
0
  6
CENTER
 62
     7
100
AcDbLine
 10
-335.71711
 20
-428.90576
 30
0.0
 11
-335.71711
 21
-378.90576
 31
0.0
  0
LINE
  5
710
100
AcDbEntity
  8
0
  6
CENTER
 62
     7
100
AcDbLine
 10
-344.61185
 20
-428.90576
 30
0.0
 11
-344.61185
 21
-378.90576
 31
0.0
  0
LINE
  5
711
100
AcDbEntity
  8
0
  6
CENTER
 62
     7
100
AcDbLine
 10
-279.20328
 20
-418.90576
 30
0.0
 11
-268.20328
 21
-418.90576
 31
0.0
  0
LINE
  5
712
100
AcDbEntity
  8
0
  6
CENTER
 62
     7
100
AcDbLine
 10
-279.20328
 20
-388.90576
 30
0.0
 11
-268.20328
 21
-388.90576
 31
0.0
  0
POINT
  5
713
100
AcDbEntity
  8
0
  6
CONTINUOUS
 62
     7
100
AcDbPoint
 10
-136.20329
 20
-298.90576
 30
0.0
  0
POINT
  5
714
100
AcDbEntity
  8
0
  6
CONTINUOUS
 62
     7
100
AcDbPoint
 10
-111.20329
 20
-298.90576
 30
0.0
  0
LINE
  5
715
100
AcDbEntity
  8
0
  6
CENTER
 62
     7
100
AcDbLine
 10
-136.20329
 20
-227.90576
 30
0.0
 11
-136.20329
 21
-369.90576
 31
0.0
  0
LINE
  5
716
100
AcDbEntity
  8
0
  6
CENTER
 62
     7
100
AcDbLine
 10
-161.20329
 20
-342.3288
 30
0.0
 11
-111.20329
 21
-342.3288
 31
0.0
  0
LINE
  5
717
100
AcDbEntity
  8
0
  6
CONTINUOUS
 62
     7
100
AcDbLine
 10
-151.70329
 20
-306.89263
 30
0.0
 11
-156.20329
 21
-306.89263
 31
0.0
  0
LINE
  5
718
100
AcDbEntity
  8
0
  6
CONTINUOUS
 62
     7
100
AcDbLine
 10
-117.80329
 20
-318.1811
 30
0.0
 11
-117.80329
 21
-311.42184
 31
0.0
  0
LINE
  5
719
100
AcDbEntity
  8
0
  6
CONTINUOUS
 62
     7
100
AcDbLine
 10
-147.20329
 20
-359.90576
 30
0.0
 11
-147.20329
 21
-357.27142
 31
0.0
  0
LINE
  5
71A
100
AcDbEntity
  8
0
  6
CENTER
 62
     7
100
AcDbLine
 10
-161.20329
 20
-298.90576
 30
0.0
 11
-111.20329
 21
-298.90576
 31
0.0
  0
LINE
  5
71B
100
AcDbEntity
  8
0
  6
CONTINUOUS
 62
     7
100
AcDbLine
 10
-147.20329
 20
-343.79489
 30
0.0
 11
-154.60329
 21
-343.79489
 31
0.0
  0
LINE
  5
71C
100
AcDbEntity
  8
0
  6
CONTINUOUS
 62
     7
100
AcDbLine
 10
-147.20329
 20
-311.42184
 30
0.0
 11
-154.60329
 21
-311.42184
 31
0.0
  0
LINE
  5
71D
100
AcDbEntity
  8
0
  6
CONTINUOUS
 62
     7
100
AcDbLine
 10
-154.40329
 20
-338.86332
 30
0.0
 11
-154.40329
 21
-343.79489
 31
0.0
  0
LINE
  5
71E
100
AcDbEntity
  8
0
  6
CONTINUOUS
 62
     7
100
AcDbLine
 10
-125.20329
 20
-359.90576
 30
0.0
 11
-125.20329
 21
-357.27142
 31
0.0
  0
LINE
  5
71F
100
AcDbEntity
  8
0
  6
CONTINUOUS
 62
     7
100
AcDbLine
 10
-154.40329
 20
-318.1811
 30
0.0
 11
-154.40329
 21
-311.42184
 31
0.0
  0
LINE
  5
720
100
AcDbEntity
  8
0
  6
CONTINUOUS
 62
     7
100
AcDbLine
 10
-151.70329
 20
-354.31413
 30
0.0
 11
-156.20329
 21
-354.31413
 31
0.0
  0
LINE
  5
721
100
AcDbEntity
  8
0
  6
CONTINUOUS
 62
     7
100
AcDbLine
 10
-116.20329
 20
-359.90576
 30
0.0
 11
-156.20329
 21
-359.90576
 31
0.0
  0
LINE
  5
722
100
AcDbEntity
  8
0
  6
CONTINUOUS
 62
     7
100
AcDbLine
 10
-151.70329
 20
-359.90576
 30
0.0
 11
-151.70329
 21
-359.757
 31
0.0
  0
LINE
  5
723
100
AcDbEntity
  8
0
  6
CONTINUOUS
 62
     7
100
AcDbLine
 10
-120.70329
 20
-359.90576
 30
0.0
 11
-120.70329
 21
-359.757
 31
0.0
  0
LINE
  5
724
100
AcDbEntity
  8
0
  6
CONTINUOUS
 62
     7
100
AcDbLine
 10
-116.20329
 20
-359.90576
 30
0.0
 11
-116.20329
 21
-237.90576
 31
0.0
  0
LINE
  5
725
100
AcDbEntity
  8
0
  6
CONTINUOUS
 62
     7
100
AcDbLine
 10
-151.70329
 20
-297.0232
 30
0.0
 11
-120.70329
 21
-297.0232
 31
0.0
  0
LINE
  5
726
100
AcDbEntity
  8
0
  6
CONTINUOUS
 62
     7
100
AcDbLine
 10
-147.20329
 20
-357.27142
 30
0.0
 11
-154.60329
 21
-357.27142
 31
0.0
  0
LINE
  5
727
100
AcDbEntity
  8
0
  6
CONTINUOUS
 62
     7
100
AcDbLine
 10
-147.20329
 20
-355.50067
 30
0.0
 11
-154.60329
 21
-355.50067
 31
0.0
  0
LINE
  5
728
100
AcDbEntity
  8
0
  6
CONTINUOUS
 62
     7
100
AcDbLine
 10
-125.20329
 20
-311.42184
 30
0.0
 11
-125.20329
 21
-287.35527
 31
0.0
  0
LINE
  5
729
100
AcDbEntity
  8
0
  6
CONTINUOUS
 62
     7
100
AcDbLine
 10
-118.00329
 20
-318.1811
 30
0.0
 11
-118.00329
 21
-311.42184
 31
0.0
  0
LINE
  5
72A
100
AcDbEntity
  8
0
  6
CONTINUOUS
 62
     7
100
AcDbLine
 10
-147.20329
 20
-318.1811
 30
0.0
 11
-154.60329
 21
-318.1811
 31
0.0
  0
LINE
  5
72B
100
AcDbEntity
  8
0
  6
CONTINUOUS
 62
     7
100
AcDbLine
 10
-156.20329
 20
-359.90576
 30
0.0
 11
-156.20329
 21
-237.90576
 31
0.0
  0
LINE
  5
72C
100
AcDbEntity
  8
0
  6
CONTINUOUS
 62
     7
100
AcDbLine
 10
-120.70329
 20
-306.89263
 30
0.0
 11
-120.70329
 21
-297.0232
 31
0.0
  0
LINE
  5
72D
100
AcDbEntity
  8
0
  6
CONTINUOUS
 62
     7
100
AcDbLine
 10
-147.20329
 20
-303.1176
 30
0.0
 11
-125.20329
 21
-303.1176
 31
0.0
  0
LINE
  5
72E
100
AcDbEntity
  8
0
  6
CONTINUOUS
 62
     7
100
AcDbLine
 10
-120.70329
 20
-306.89263
 30
0.0
 11
-116.20329
 21
-306.89263
 31
0.0
  0
LINE
  5
72F
100
AcDbEntity
  8
0
  6
CONTINUOUS
 62
     7
100
AcDbLine
 10
-125.20329
 20
-311.42184
 30
0.0
 11
-117.80329
 21
-311.42184
 31
0.0
  0
LINE
  5
730
100
AcDbEntity
  8
0
  6
CONTINUOUS
 62
     7
100
AcDbLine
 10
-125.20329
 20
-318.1811
 30
0.0
 11
-117.80329
 21
-318.1811
 31
0.0
  0
LINE
  5
731
100
AcDbEntity
  8
0
  6
CONTINUOUS
 62
     7
100
AcDbLine
 10
-151.70329
 20
-327.82535
 30
0.0
 11
-120.70329
 21
-327.82535
 31
0.0
  0
LINE
  5
732
100
AcDbEntity
  8
0
  6
CONTINUOUS
 62
     7
100
AcDbLine
 10
-147.20329
 20
-332.80453
 30
0.0
 11
-125.20329
 21
-332.80453
 31
0.0
  0
LINE
  5
733
100
AcDbEntity
  8
0
  6
CONTINUOUS
 62
     7
100
AcDbLine
 10
-120.70329
 20
-335.5588
 30
0.0
 11
-116.20329
 21
-335.5588
 31
0.0
  0
LINE
  5
734
100
AcDbEntity
  8
0
  6
CONTINUOUS
 62
     7
100
AcDbLine
 10
-125.20329
 20
-338.86332
 30
0.0
 11
-117.80329
 21
-338.86332
 31
0.0
  0
LINE
  5
735
100
AcDbEntity
  8
0
  6
CONTINUOUS
 62
     7
100
AcDbLine
 10
-125.20329
 20
-343.79489
 30
0.0
 11
-117.80329
 21
-343.79489
 31
0.0
  0
LINE
  5
736
100
AcDbEntity
  8
0
  6
CONTINUOUS
 62
     7
100
AcDbLine
 10
-151.70329
 20
-350.80767
 30
0.0
 11
-120.70329
 21
-350.80767
 31
0.0
  0
LINE
  5
737
100
AcDbEntity
  8
0
  6
CONTINUOUS
 62
     7
100
AcDbLine
 10
-147.20329
 20
-353.32518
 30
0.0
 11
-125.20329
 21
-353.32518
 31
0.0
  0
LINE
  5
738
100
AcDbEntity
  8
0
  6
CONTINUOUS
 62
     7
100
AcDbLine
 10
-120.70329
 20
-354.31413
 30
0.0
 11
-116.20329
 21
-354.31413
 31
0.0
  0
LINE
  5
739
100
AcDbEntity
  8
0
  6
CONTINUOUS
 62
     7
100
AcDbLine
 10
-125.20329
 20
-355.50067
 30
0.0
 11
-117.80329
 21
-355.50067
 31
0.0
  0
LINE
  5
73A
100
AcDbEntity
  8
0
  6
CONTINUOUS
 62
     7
100
AcDbLine
 10
-125.20329
 20
-357.27142
 30
0.0
 11
-117.80329
 21
-357.27142
 31
0.0
  0
LINE
  5
73B
100
AcDbEntity
  8
0
  6
CONTINUOUS
 62
     7
100
AcDbLine
 10
-151.70329
 20
-359.757
 30
0.0
 11
-120.70329
 21
-359.757
 31
0.0
  0
LINE
  5
73C
100
AcDbEntity
  8
0
  6
CONTINUOUS
 62
     7
100
AcDbLine
 10
-118.00329
 20
-338.86332
 30
0.0
 11
-118.00329
 21
-343.79489
 31
0.0
  0
LINE
  5
73D
100
AcDbEntity
  8
0
  6
CONTINUOUS
 62
     7
100
AcDbLine
 10
-117.80329
 20
-338.86332
 30
0.0
 11
-117.80329
 21
-343.79489
 31
0.0
  0
LINE
  5
73E
100
AcDbEntity
  8
0
  6
CONTINUOUS
 62
     7
100
AcDbLine
 10
-154.60329
 20
-318.1811
 30
0.0
 11
-154.60329
 21
-311.42184
 31
0.0
  0
LINE
  5
73F
100
AcDbEntity
  8
0
  6
CONTINUOUS
 62
     7
100
AcDbLine
 10
-154.60329
 20
-338.86332
 30
0.0
 11
-154.60329
 21
-343.79489
 31
0.0
  0
LINE
  5
740
100
AcDbEntity
  8
0
  6
CONTINUOUS
 62
     7
100
AcDbLine
 10
-118.00329
 20
-355.50067
 30
0.0
 11
-118.00329
 21
-357.27142
 31
0.0
  0
LINE
  5
741
100
AcDbEntity
  8
0
  6
CONTINUOUS
 62
     7
100
AcDbLine
 10
-117.80329
 20
-355.50067
 30
0.0
 11
-117.80329
 21
-357.27142
 31
0.0
  0
LINE
  5
742
100
AcDbEntity
  8
0
  6
CONTINUOUS
 62
     7
100
AcDbLine
 10
-120.70329
 20
-354.31413
 30
0.0
 11
-120.70329
 21
-350.80767
 31
0.0
  0
LINE
  5
743
100
AcDbEntity
  8
0
  6
CONTINUOUS
 62
     7
100
AcDbLine
 10
-125.20329
 20
-355.50067
 30
0.0
 11
-125.20329
 21
-343.79489
 31
0.0
  0
LINE
  5
744
100
AcDbEntity
  8
0
  6
CONTINUOUS
 62
     7
100
AcDbLine
 10
-120.70329
 20
-335.5588
 30
0.0
 11
-120.70329
 21
-327.82535
 31
0.0
  0
LINE
  5
745
100
AcDbEntity
  8
0
  6
CONTINUOUS
 62
     7
100
AcDbLine
 10
-125.20329
 20
-338.86332
 30
0.0
 11
-125.20329
 21
-318.1811
 31
0.0
  0
LINE
  5
746
100
AcDbEntity
  8
0
  6
CONTINUOUS
 62
     7
100
AcDbLine
 10
-147.20329
 20
-338.86332
 30
0.0
 11
-154.60329
 21
-338.86332
 31
0.0
  0
LINE
  5
747
100
AcDbEntity
  8
0
  6
CONTINUOUS
 62
     7
100
AcDbLine
 10
-151.70329
 20
-335.5588
 30
0.0
 11
-156.20329
 21
-335.5588
 31
0.0
  0
LINE
  5
748
100
AcDbEntity
  8
0
  6
CONTINUOUS
 62
     7
100
AcDbLine
 10
-147.20329
 20
-311.42184
 30
0.0
 11
-147.20329
 21
-287.35527
 31
0.0
  0
LINE
  5
749
100
AcDbEntity
  8
0
  6
CONTINUOUS
 62
     7
100
AcDbLine
 10
-154.40329
 20
-355.50067
 30
0.0
 11
-154.40329
 21
-357.27142
 31
0.0
  0
LINE
  5
74A
100
AcDbEntity
  8
0
  6
CONTINUOUS
 62
     7
100
AcDbLine
 10
-154.60329
 20
-355.50067
 30
0.0
 11
-154.60329
 21
-357.27142
 31
0.0
  0
LINE
  5
74B
100
AcDbEntity
  8
0
  6
CONTINUOUS
 62
     7
100
AcDbLine
 10
-151.70329
 20
-354.31413
 30
0.0
 11
-151.70329
 21
-350.80767
 31
0.0
  0
LINE
  5
74C
100
AcDbEntity
  8
0
  6
CONTINUOUS
 62
     7
100
AcDbLine
 10
-147.20329
 20
-355.50067
 30
0.0
 11
-147.20329
 21
-343.79489
 31
0.0
  0
LINE
  5
74D
100
AcDbEntity
  8
0
  6
CONTINUOUS
 62
     7
100
AcDbLine
 10
-151.70329
 20
-335.5588
 30
0.0
 11
-151.70329
 21
-327.82535
 31
0.0
  0
LINE
  5
74E
100
AcDbEntity
  8
0
  6
CONTINUOUS
 62
     7
100
AcDbLine
 10
-147.20329
 20
-338.86332
 30
0.0
 11
-147.20329
 21
-318.1811
 31
0.0
  0
LINE
  5
74F
100
AcDbEntity
  8
0
  6
CONTINUOUS
 62
     7
100
AcDbLine
 10
-125.20329
 20
-287.35527
 30
0.0
 11
-117.80329
 21
-287.35527
 31
0.0
  0
LINE
  5
750
100
AcDbEntity
  8
0
  6
CONTINUOUS
 62
     7
100
AcDbLine
 10
-125.20329
 20
-280.59602
 30
0.0
 11
-117.80329
 21
-280.59602
 31
0.0
  0
LINE
  5
751
100
AcDbEntity
  8
0
  6
CONTINUOUS
 62
     7
100
AcDbLine
 10
-120.70329
 20
-276.0668
 30
0.0
 11
-116.20329
 21
-276.0668
 31
0.0
  0
LINE
  5
752
100
AcDbEntity
  8
0
  6
CONTINUOUS
 62
     7
100
AcDbLine
 10
-147.20329
 20
-272.29178
 30
0.0
 11
-125.20329
 21
-272.29178
 31
0.0
  0
LINE
  5
753
100
AcDbEntity
  8
0
  6
CONTINUOUS
 62
     7
100
AcDbLine
 10
-151.70329
 20
-266.73011
 30
0.0
 11
-120.70329
 21
-266.73011
 31
0.0
  0
LINE
  5
754
100
AcDbEntity
  8
0
  6
CONTINUOUS
 62
     7
100
AcDbLine
 10
-125.20329
 20
-259.65271
 30
0.0
 11
-117.80329
 21
-259.65271
 31
0.0
  0
LINE
  5
755
100
AcDbEntity
  8
0
  6
CONTINUOUS
 62
     7
100
AcDbLine
 10
-125.20329
 20
-254.72115
 30
0.0
 11
-117.80329
 21
-254.72115
 31
0.0
  0
LINE
  5
756
100
AcDbEntity
  8
0
  6
CONTINUOUS
 62
     7
100
AcDbLine
 10
-120.70329
 20
-251.41664
 30
0.0
 11
-116.20329
 21
-251.41664
 31
0.0
  0
LINE
  5
757
100
AcDbEntity
  8
0
  6
CONTINUOUS
 62
     7
100
AcDbLine
 10
-147.20329
 20
-248.66238
 30
0.0
 11
-125.20329
 21
-248.66238
 31
0.0
  0
LINE
  5
758
100
AcDbEntity
  8
0
  6
CONTINUOUS
 62
     7
100
AcDbLine
 10
-151.70329
 20
-245.13754
 30
0.0
 11
-120.70329
 21
-245.13754
 31
0.0
  0
LINE
  5
759
100
AcDbEntity
  8
0
  6
CONTINUOUS
 62
     7
100
AcDbLine
 10
-125.20329
 20
-242.56386
 30
0.0
 11
-117.80329
 21
-242.56386
 31
0.0
  0
LINE
  5
75A
100
AcDbEntity
  8
0
  6
CONTINUOUS
 62
     7
100
AcDbLine
 10
-125.20329
 20
-240.79313
 30
0.0
 11
-117.80329
 21
-240.79313
 31
0.0
  0
LINE
  5
75B
100
AcDbEntity
  8
0
  6
CONTINUOUS
 62
     7
100
AcDbLine
 10
-120.70329
 20
-239.60661
 30
0.0
 11
-116.20329
 21
-239.60661
 31
0.0
  0
LINE
  5
75C
100
AcDbEntity
  8
0
  6
CONTINUOUS
 62
     7
100
AcDbLine
 10
-147.20329
 20
-238.61766
 30
0.0
 11
-125.20329
 21
-238.61766
 31
0.0
  0
LINE
  5
75D
100
AcDbEntity
  8
0
  6
CONTINUOUS
 62
     7
100
AcDbLine
 10
-156.20329
 20
-237.90576
 30
0.0
 11
-116.20329
 21
-237.90576
 31
0.0
  0
LINE
  5
75E
100
AcDbEntity
  8
0
  6
CONTINUOUS
 62
     7
100
AcDbLine
 10
-118.00329
 20
-240.79313
 30
0.0
 11
-118.00329
 21
-242.56386
 31
0.0
  0
LINE
  5
75F
100
AcDbEntity
  8
0
  6
CONTINUOUS
 62
     7
100
AcDbLine
 10
-117.80329
 20
-240.79313
 30
0.0
 11
-117.80329
 21
-242.56386
 31
0.0
  0
LINE
  5
760
100
AcDbEntity
  8
0
  6
CONTINUOUS
 62
     7
100
AcDbLine
 10
-125.20329
 20
-240.79313
 30
0.0
 11
-125.20329
 21
-237.90576
 31
0.0
  0
LINE
  5
761
100
AcDbEntity
  8
0
  6
CONTINUOUS
 62
     7
100
AcDbLine
 10
-120.70329
 20
-239.60661
 30
0.0
 11
-120.70329
 21
-237.90576
 31
0.0
  0
LINE
  5
762
100
AcDbEntity
  8
0
  6
CONTINUOUS
 62
     7
100
AcDbLine
 10
-117.80329
 20
-254.72115
 30
0.0
 11
-117.80329
 21
-259.65271
 31
0.0
  0
LINE
  5
763
100
AcDbEntity
  8
0
  6
CONTINUOUS
 62
     7
100
AcDbLine
 10
-118.00329
 20
-254.72115
 30
0.0
 11
-118.00329
 21
-259.65271
 31
0.0
  0
LINE
  5
764
100
AcDbEntity
  8
0
  6
CONTINUOUS
 62
     7
100
AcDbLine
 10
-125.20329
 20
-254.72115
 30
0.0
 11
-125.20329
 21
-242.56386
 31
0.0
  0
LINE
  5
765
100
AcDbEntity
  8
0
  6
CONTINUOUS
 62
     7
100
AcDbLine
 10
-120.70329
 20
-251.41664
 30
0.0
 11
-120.70329
 21
-245.13754
 31
0.0
  0
LINE
  5
766
100
AcDbEntity
  8
0
  6
CONTINUOUS
 62
     7
100
AcDbLine
 10
-125.20329
 20
-280.59602
 30
0.0
 11
-125.20329
 21
-259.65271
 31
0.0
  0
LINE
  5
767
100
AcDbEntity
  8
0
  6
CONTINUOUS
 62
     7
100
AcDbLine
 10
-120.70329
 20
-276.0668
 30
0.0
 11
-120.70329
 21
-266.73011
 31
0.0
  0
LINE
  5
768
100
AcDbEntity
  8
0
  6
CONTINUOUS
 62
     7
100
AcDbLine
 10
-118.00329
 20
-280.59602
 30
0.0
 11
-118.00329
 21
-287.35527
 31
0.0
  0
LINE
  5
769
100
AcDbEntity
  8
0
  6
CONTINUOUS
 62
     7
100
AcDbLine
 10
-117.80329
 20
-280.59602
 30
0.0
 11
-117.80329
 21
-287.35527
 31
0.0
  0
LINE
  5
76A
100
AcDbEntity
  8
0
  6
CONTINUOUS
 62
     7
100
AcDbLine
 10
-151.70329
 20
-239.60661
 30
0.0
 11
-151.70329
 21
-237.90576
 31
0.0
  0
LINE
  5
76B
100
AcDbEntity
  8
0
  6
CONTINUOUS
 62
     7
100
AcDbLine
 10
-147.20329
 20
-240.79313
 30
0.0
 11
-147.20329
 21
-237.90576
 31
0.0
  0
LINE
  5
76C
100
AcDbEntity
  8
0
  6
CONTINUOUS
 62
     7
100
AcDbLine
 10
-154.60329
 20
-240.79313
 30
0.0
 11
-154.60329
 21
-242.56386
 31
0.0
  0
LINE
  5
76D
100
AcDbEntity
  8
0
  6
CONTINUOUS
 62
     7
100
AcDbLine
 10
-154.40329
 20
-240.79313
 30
0.0
 11
-154.40329
 21
-242.56386
 31
0.0
  0
LINE
  5
76E
100
AcDbEntity
  8
0
  6
CONTINUOUS
 62
     7
100
AcDbLine
 10
-151.70329
 20
-239.60661
 30
0.0
 11
-156.20329
 21
-239.60661
 31
0.0
  0
LINE
  5
76F
100
AcDbEntity
  8
0
  6
CONTINUOUS
 62
     7
100
AcDbLine
 10
-147.20329
 20
-240.79313
 30
0.0
 11
-154.60329
 21
-240.79313
 31
0.0
  0
LINE
  5
770
100
AcDbEntity
  8
0
  6
CONTINUOUS
 62
     7
100
AcDbLine
 10
-147.20329
 20
-242.56386
 30
0.0
 11
-154.60329
 21
-242.56386
 31
0.0
  0
LINE
  5
771
100
AcDbEntity
  8
0
  6
CONTINUOUS
 62
     7
100
AcDbLine
 10
-151.70329
 20
-251.41664
 30
0.0
 11
-156.20329
 21
-251.41664
 31
0.0
  0
LINE
  5
772
100
AcDbEntity
  8
0
  6
CONTINUOUS
 62
     7
100
AcDbLine
 10
-147.20329
 20
-254.72115
 30
0.0
 11
-154.60329
 21
-254.72115
 31
0.0
  0
LINE
  5
773
100
AcDbEntity
  8
0
  6
CONTINUOUS
 62
     7
100
AcDbLine
 10
-147.20329
 20
-259.65271
 30
0.0
 11
-154.60329
 21
-259.65271
 31
0.0
  0
LINE
  5
774
100
AcDbEntity
  8
0
  6
CONTINUOUS
 62
     7
100
AcDbLine
 10
-151.70329
 20
-276.0668
 30
0.0
 11
-156.20329
 21
-276.0668
 31
0.0
  0
LINE
  5
775
100
AcDbEntity
  8
0
  6
CONTINUOUS
 62
     7
100
AcDbLine
 10
-147.20329
 20
-280.59602
 30
0.0
 11
-154.60329
 21
-280.59602
 31
0.0
  0
LINE
  5
776
100
AcDbEntity
  8
0
  6
CONTINUOUS
 62
     7
100
AcDbLine
 10
-147.20329
 20
-287.35527
 30
0.0
 11
-154.60329
 21
-287.35527
 31
0.0
  0
LINE
  5
777
100
AcDbEntity
  8
0
  6
CONTINUOUS
 62
     7
100
AcDbLine
 10
-151.70329
 20
-306.89263
 30
0.0
 11
-151.70329
 21
-297.0232
 31
0.0
  0
LINE
  5
778
100
AcDbEntity
  8
0
  6
CONTINUOUS
 62
     7
100
AcDbLine
 10
-154.60329
 20
-254.72115
 30
0.0
 11
-154.60329
 21
-259.65271
 31
0.0
  0
LINE
  5
779
100
AcDbEntity
  8
0
  6
CONTINUOUS
 62
     7
100
AcDbLine
 10
-154.40329
 20
-254.72115
 30
0.0
 11
-154.40329
 21
-259.65271
 31
0.0
  0
LINE
  5
77A
100
AcDbEntity
  8
0
  6
CONTINUOUS
 62
     7
100
AcDbLine
 10
-147.20329
 20
-254.72115
 30
0.0
 11
-147.20329
 21
-242.56386
 31
0.0
  0
LINE
  5
77B
100
AcDbEntity
  8
0
  6
CONTINUOUS
 62
     7
100
AcDbLine
 10
-151.70329
 20
-251.41664
 30
0.0
 11
-151.70329
 21
-245.13754
 31
0.0
  0
LINE
  5
77C
100
AcDbEntity
  8
0
  6
CONTINUOUS
 62
     7
100
AcDbLine
 10
-147.20329
 20
-280.59602
 30
0.0
 11
-147.20329
 21
-259.65271
 31
0.0
  0
LINE
  5
77D
100
AcDbEntity
  8
0
  6
CONTINUOUS
 62
     7
100
AcDbLine
 10
-151.70329
 20
-276.0668
 30
0.0
 11
-151.70329
 21
-266.73011
 31
0.0
  0
LINE
  5
77E
100
AcDbEntity
  8
0
  6
CONTINUOUS
 62
     7
100
AcDbLine
 10
-154.40329
 20
-280.59602
 30
0.0
 11
-154.40329
 21
-287.35527
 31
0.0
  0
LINE
  5
77F
100
AcDbEntity
  8
0
  6
CONTINUOUS
 62
     7
100
AcDbLine
 10
-154.60329
 20
-280.59602
 30
0.0
 11
-154.60329
 21
-287.35527
 31
0.0
  0
LINE
  5
780
100
AcDbEntity
  8
0
  6
CENTER
 62
     7
100
AcDbLine
 10
-161.20329
 20
-348.90576
 30
0.0
 11
-111.20329
 21
-348.90576
 31
0.0
  0
LINE
  5
781
100
AcDbEntity
  8
0
  6
CENTER
 62
     7
100
AcDbLine
 10
-161.20329
 20
-324.01159
 30
0.0
 11
-111.20329
 21
-324.01159
 31
0.0
  0
LINE
  5
782
100
AcDbEntity
  8
0
  6
CENTER
 62
     7
100
AcDbLine
 10
-161.20329
 20
-273.79994
 30
0.0
 11
-111.20329
 21
-273.79994
 31
0.0
  0
LINE
  5
783
100
AcDbEntity
  8
0
  6
CENTER
 62
     7
100
AcDbLine
 10
-161.20329
 20
-255.48273
 30
0.0
 11
-111.20329
 21
-255.48273
 31
0.0
  0
LINE
  5
784
100
AcDbEntity
  8
0
  6
CENTER
 62
     7
100
AcDbLine
 10
-161.20329
 20
-248.90576
 30
0.0
 11
-111.20329
 21
-248.90576
 31
0.0
  0
POINT
  5
785
100
AcDbEntity
  8
0
  6
CONTINUOUS
 62
     7
100
AcDbPoint
 10
53.796711
 20
-168.90575
 30
0.0
  0
POINT
  5
786
100
AcDbEntity
  8
0
  6
CONTINUOUS
 62
     7
100
AcDbPoint
 10
74.796711
 20
-168.90575
 30
0.0
  0
LINE
  5
787
100
AcDbEntity
  8
0
  6
CENTER
 62
     7
100
AcDbLine
 10
27.796711
 20
-143.90575
 30
0.0
 11
27.796711
 21
-193.90575
 31
0.0
  0
LINE
  5
788
100
AcDbEntity
  8
0
  6
CONTINUOUS
 62
     7
100
AcDbLine
 10
36.796711
 20
-150.50575
 30
0.0
 11
36.796711
 21
-157.90575
 31
0.0
  0
LINE
  5
789
100
AcDbEntity
  8
0
  6
CONTINUOUS
 62
     7
100
AcDbLine
 10
36.796711
 20
-187.30575
 30
0.0
 11
43.796711
 21
-187.30575
 31
0.0
  0
LINE
  5
78A
100
AcDbEntity
  8
0
  6
CENTER
 62
     7
100
AcDbLine
 10
2.642319
 20
-143.90575
 30
0.0
 11
2.642319
 21
-193.90575
 31
0.0
  0
LINE
  5
78B
100
AcDbEntity
  8
0
  6
CONTINUOUS
 62
     7
100
AcDbLine
 10
-33.569798
 20
-153.40575
 30
0.0
 11
-33.407505
 21
-153.40575
 31
0.0
  0
LINE
  5
78C
100
AcDbEntity
  8
0
  6
CENTER
 62
     7
100
AcDbLine
 10
53.796711
 20
-143.90575
 30
0.0
 11
53.796711
 21
-193.90575
 31
0.0
  0
LINE
  5
78D
100
AcDbEntity
  8
0
  6
CONTINUOUS
 62
     7
100
AcDbLine
 10
48.487236
 20
-188.90575
 30
0.0
 11
48.487236
 21
-184.40575
 31
0.0
  0
LINE
  5
78E
100
AcDbEntity
  8
0
  6
CONTINUOUS
 62
     7
100
AcDbLine
 10
43.796711
 20
-150.50575
 30
0.0
 11
43.796711
 21
-157.90575
 31
0.0
  0
LINE
  5
78F
100
AcDbEntity
  8
0
  6
CONTINUOUS
 62
     7
100
AcDbLine
 10
36.796711
 20
-150.50575
 30
0.0
 11
43.796711
 21
-150.50575
 31
0.0
  0
LINE
  5
790
100
AcDbEntity
  8
0
  6
CONTINUOUS
 62
     7
100
AcDbLine
 10
-33.569798
 20
-188.90575
 30
0.0
 11
48.487236
 21
-188.90575
 31
0.0
  0
LINE
  5
791
100
AcDbEntity
  8
0
  6
CONTINUOUS
 62
     7
100
AcDbLine
 10
52.396711
 20
-157.90575
 30
0.0
 11
52.396711
 21
-179.90575
 31
0.0
  0
LINE
  5
792
100
AcDbEntity
  8
0
  6
CONTINUOUS
 62
     7
100
AcDbLine
 10
48.487236
 20
-148.90575
 30
0.0
 11
48.487236
 21
-153.40575
 31
0.0
  0
LINE
  5
793
100
AcDbEntity
  8
0
  6
CONTINUOUS
 62
     7
100
AcDbLine
 10
26.796711
 20
-153.40575
 30
0.0
 11
26.796711
 21
-184.40575
 31
0.0
  0
LINE
  5
794
100
AcDbEntity
  8
0
  6
CONTINUOUS
 62
     7
100
AcDbLine
 10
-33.569798
 20
-148.90575
 30
0.0
 11
48.487236
 21
-148.90575
 31
0.0
  0
LINE
  5
795
100
AcDbEntity
  8
0
  6
CONTINUOUS
 62
     7
100
AcDbLine
 10
-33.569798
 20
-184.40575
 30
0.0
 11
-33.407505
 21
-184.40575
 31
0.0
  0
LINE
  5
796
100
AcDbEntity
  8
0
  6
CONTINUOUS
 62
     7
100
AcDbLine
 10
8.56704
 20
-150.50575
 30
0.0
 11
8.56704
 21
-157.90575
 31
0.0
  0
LINE
  5
797
100
AcDbEntity
  8
0
  6
CONTINUOUS
 62
     7
100
AcDbLine
 10
-33.569798
 20
-157.90575
 30
0.0
 11
-30.851482
 21
-157.90575
 31
0.0
  0
LINE
  5
798
100
AcDbEntity
  8
0
  6
CONTINUOUS
 62
     7
100
AcDbLine
 10
15.339375
 20
-150.50575
 30
0.0
 11
15.339375
 21
-157.90575
 31
0.0
  0
LINE
  5
799
100
AcDbEntity
  8
0
  6
CENTER
 62
     7
100
AcDbLine
 10
-43.569798
 20
-168.90575
 30
0.0
 11
74.796711
 21
-168.90575
 31
0.0
  0
LINE
  5
79A
100
AcDbEntity
  8
0
  6
CONTINUOUS
 62
     7
100
AcDbLine
 10
36.796711
 20
-179.90575
 30
0.0
 11
36.796711
 21
-187.30575
 31
0.0
  0
LINE
  5
79B
100
AcDbEntity
  8
0
  6
CONTINUOUS
 62
     7
100
AcDbLine
 10
43.796711
 20
-179.90575
 30
0.0
 11
43.796711
 21
-187.30575
 31
0.0
  0
LINE
  5
79C
100
AcDbEntity
  8
0
  6
CONTINUOUS
 62
     7
100
AcDbLine
 10
43.796711
 20
-157.90575
 30
0.0
 11
52.396711
 21
-157.90575
 31
0.0
  0
LINE
  5
79D
100
AcDbEntity
  8
0
  6
CONTINUOUS
 62
     7
100
AcDbLine
 10
43.796711
 20
-179.90575
 30
0.0
 11
52.396711
 21
-179.90575
 31
0.0
  0
LINE
  5
79E
100
AcDbEntity
  8
0
  6
CONTINUOUS
 62
     7
100
AcDbLine
 10
36.796711
 20
-187.10575
 30
0.0
 11
43.796711
 21
-187.10575
 31
0.0
  0
LINE
  5
79F
100
AcDbEntity
  8
0
  6
CONTINUOUS
 62
     7
100
AcDbLine
 10
36.796711
 20
-150.70575
 30
0.0
 11
43.796711
 21
-150.70575
 31
0.0
  0
LINE
  5
7A0
100
AcDbEntity
  8
0
  6
CONTINUOUS
 62
     7
100
AcDbLine
 10
48.487236
 20
-153.40575
 30
0.0
 11
52.396711
 21
-153.40575
 31
0.0
  0
LINE
  5
7A1
100
AcDbEntity
  8
0
  6
CONTINUOUS
 62
     7
100
AcDbLine
 10
48.487236
 20
-184.40575
 30
0.0
 11
52.396711
 21
-184.40575
 31
0.0
  0
LINE
  5
7A2
100
AcDbEntity
  8
0
  6
CONTINUOUS
 62
     7
100
AcDbLine
 10
19.877346
 20
-148.90575
 30
0.0
 11
19.877346
 21
-153.40575
 31
0.0
  0
LINE
  5
7A3
100
AcDbEntity
  8
0
  6
CONTINUOUS
 62
     7
100
AcDbLine
 10
23.659672
 20
-157.90575
 30
0.0
 11
23.659672
 21
-179.90575
 31
0.0
  0
LINE
  5
7A4
100
AcDbEntity
  8
0
  6
CONTINUOUS
 62
     7
100
AcDbLine
 10
-1.096203
 20
-153.40575
 30
0.0
 11
-1.096203
 21
-184.40575
 31
0.0
  0
LINE
  5
7A5
100
AcDbEntity
  8
0
  6
CONTINUOUS
 62
     7
100
AcDbLine
 10
-6.100845
 20
-157.90575
 30
0.0
 11
-6.100845
 21
-179.90575
 31
0.0
  0
LINE
  5
7A6
100
AcDbEntity
  8
0
  6
CONTINUOUS
 62
     7
100
AcDbLine
 10
-8.875382
 20
-148.90575
 30
0.0
 11
-8.875382
 21
-153.40575
 31
0.0
  0
LINE
  5
7A7
100
AcDbEntity
  8
0
  6
CONTINUOUS
 62
     7
100
AcDbLine
 10
-12.204227
 20
-150.50575
 30
0.0
 11
-12.204227
 21
-157.90575
 31
0.0
  0
LINE
  5
7A8
100
AcDbEntity
  8
0
  6
CONTINUOUS
 62
     7
100
AcDbLine
 10
-17.172108
 20
-150.50575
 30
0.0
 11
-17.172108
 21
-157.90575
 31
0.0
  0
LINE
  5
7A9
100
AcDbEntity
  8
0
  6
CONTINUOUS
 62
     7
100
AcDbLine
 10
-24.236973
 20
-153.40575
 30
0.0
 11
-24.236973
 21
-184.40575
 31
0.0
  0
LINE
  5
7AA
100
AcDbEntity
  8
0
  6
CONTINUOUS
 62
     7
100
AcDbLine
 10
-26.795475
 20
-157.90575
 30
0.0
 11
-26.795475
 21
-179.90575
 31
0.0
  0
LINE
  5
7AB
100
AcDbEntity
  8
0
  6
CONTINUOUS
 62
     7
100
AcDbLine
 10
-27.811939
 20
-148.90575
 30
0.0
 11
-27.811939
 21
-153.40575
 31
0.0
  0
LINE
  5
7AC
100
AcDbEntity
  8
0
  6
CONTINUOUS
 62
     7
100
AcDbLine
 10
-29.031475
 20
-150.50575
 30
0.0
 11
-29.031475
 21
-157.90575
 31
0.0
  0
LINE
  5
7AD
100
AcDbEntity
  8
0
  6
CONTINUOUS
 62
     7
100
AcDbLine
 10
-30.851482
 20
-150.50575
 30
0.0
 11
-30.851482
 21
-157.90575
 31
0.0
  0
LINE
  5
7AE
100
AcDbEntity
  8
0
  6
CONTINUOUS
 62
     7
100
AcDbLine
 10
-33.407505
 20
-153.40575
 30
0.0
 11
-33.407505
 21
-184.40575
 31
0.0
  0
LINE
  5
7AF
100
AcDbEntity
  8
0
  6
CONTINUOUS
 62
     7
100
AcDbLine
 10
-33.569798
 20
-148.90575
 30
0.0
 11
-33.569798
 21
-157.90575
 31
0.0
  0
LINE
  5
7B0
100
AcDbEntity
  8
0
  6
CONTINUOUS
 62
     7
100
AcDbLine
 10
-30.851482
 20
-150.50575
 30
0.0
 11
-29.031475
 21
-150.50575
 31
0.0
  0
LINE
  5
7B1
100
AcDbEntity
  8
0
  6
CONTINUOUS
 62
     7
100
AcDbLine
 10
-30.851482
 20
-150.70575
 30
0.0
 11
-29.031475
 21
-150.70575
 31
0.0
  0
LINE
  5
7B2
100
AcDbEntity
  8
0
  6
CONTINUOUS
 62
     7
100
AcDbLine
 10
8.56704
 20
-150.50575
 30
0.0
 11
15.339375
 21
-150.50575
 31
0.0
  0
LINE
  5
7B3
100
AcDbEntity
  8
0
  6
CONTINUOUS
 62
     7
100
AcDbLine
 10
8.56704
 20
-150.70575
 30
0.0
 11
15.339375
 21
-150.70575
 31
0.0
  0
LINE
  5
7B4
100
AcDbEntity
  8
0
  6
CONTINUOUS
 62
     7
100
AcDbLine
 10
-17.172108
 20
-150.50575
 30
0.0
 11
-12.204227
 21
-150.50575
 31
0.0
  0
LINE
  5
7B5
100
AcDbEntity
  8
0
  6
CONTINUOUS
 62
     7
100
AcDbLine
 10
-17.172108
 20
-150.70575
 30
0.0
 11
-12.204227
 21
-150.70575
 31
0.0
  0
LINE
  5
7B6
100
AcDbEntity
  8
0
  6
CONTINUOUS
 62
     7
100
AcDbLine
 10
15.339375
 20
-157.90575
 30
0.0
 11
36.796711
 21
-157.90575
 31
0.0
  0
LINE
  5
7B7
100
AcDbEntity
  8
0
  6
CONTINUOUS
 62
     7
100
AcDbLine
 10
19.877346
 20
-153.40575
 30
0.0
 11
26.796711
 21
-153.40575
 31
0.0
  0
LINE
  5
7B8
100
AcDbEntity
  8
0
  6
CONTINUOUS
 62
     7
100
AcDbLine
 10
-8.875382
 20
-153.40575
 30
0.0
 11
-1.096203
 21
-153.40575
 31
0.0
  0
LINE
  5
7B9
100
AcDbEntity
  8
0
  6
CONTINUOUS
 62
     7
100
AcDbLine
 10
-12.204227
 20
-157.90575
 30
0.0
 11
8.56704
 21
-157.90575
 31
0.0
  0
LINE
  5
7BA
100
AcDbEntity
  8
0
  6
CONTINUOUS
 62
     7
100
AcDbLine
 10
-27.811939
 20
-153.40575
 30
0.0
 11
-24.236973
 21
-153.40575
 31
0.0
  0
LINE
  5
7BB
100
AcDbEntity
  8
0
  6
CONTINUOUS
 62
     7
100
AcDbLine
 10
-29.031475
 20
-157.90575
 30
0.0
 11
-17.172108
 21
-157.90575
 31
0.0
  0
LINE
  5
7BC
100
AcDbEntity
  8
0
  6
CONTINUOUS
 62
     7
100
AcDbLine
 10
-30.851482
 20
-187.30575
 30
0.0
 11
-29.031475
 21
-187.30575
 31
0.0
  0
LINE
  5
7BD
100
AcDbEntity
  8
0
  6
CONTINUOUS
 62
     7
100
AcDbLine
 10
-33.569798
 20
-188.90575
 30
0.0
 11
-33.569798
 21
-179.90575
 31
0.0
  0
LINE
  5
7BE
100
AcDbEntity
  8
0
  6
CONTINUOUS
 62
     7
100
AcDbLine
 10
-30.851482
 20
-187.30575
 30
0.0
 11
-30.851482
 21
-179.90575
 31
0.0
  0
LINE
  5
7BF
100
AcDbEntity
  8
0
  6
CONTINUOUS
 62
     7
100
AcDbLine
 10
-29.031475
 20
-187.30575
 30
0.0
 11
-29.031475
 21
-179.90575
 31
0.0
  0
LINE
  5
7C0
100
AcDbEntity
  8
0
  6
CONTINUOUS
 62
     7
100
AcDbLine
 10
-27.811939
 20
-188.90575
 30
0.0
 11
-27.811939
 21
-184.40575
 31
0.0
  0
LINE
  5
7C1
100
AcDbEntity
  8
0
  6
CONTINUOUS
 62
     7
100
AcDbLine
 10
-17.172108
 20
-187.30575
 30
0.0
 11
-17.172108
 21
-179.90575
 31
0.0
  0
LINE
  5
7C2
100
AcDbEntity
  8
0
  6
CONTINUOUS
 62
     7
100
AcDbLine
 10
-12.204227
 20
-187.30575
 30
0.0
 11
-12.204227
 21
-179.90575
 31
0.0
  0
LINE
  5
7C3
100
AcDbEntity
  8
0
  6
CONTINUOUS
 62
     7
100
AcDbLine
 10
-8.875382
 20
-188.90575
 30
0.0
 11
-8.875382
 21
-184.40575
 31
0.0
  0
LINE
  5
7C4
100
AcDbEntity
  8
0
  6
CONTINUOUS
 62
     7
100
AcDbLine
 10
19.877346
 20
-188.90575
 30
0.0
 11
19.877346
 21
-184.40575
 31
0.0
  0
LINE
  5
7C5
100
AcDbEntity
  8
0
  6
CONTINUOUS
 62
     7
100
AcDbLine
 10
15.339375
 20
-187.30575
 30
0.0
 11
15.339375
 21
-179.90575
 31
0.0
  0
LINE
  5
7C6
100
AcDbEntity
  8
0
  6
CONTINUOUS
 62
     7
100
AcDbLine
 10
-33.569798
 20
-179.90575
 30
0.0
 11
-30.851482
 21
-179.90575
 31
0.0
  0
LINE
  5
7C7
100
AcDbEntity
  8
0
  6
CONTINUOUS
 62
     7
100
AcDbLine
 10
8.56704
 20
-187.30575
 30
0.0
 11
8.56704
 21
-179.90575
 31
0.0
  0
LINE
  5
7C8
100
AcDbEntity
  8
0
  6
CONTINUOUS
 62
     7
100
AcDbLine
 10
-30.851482
 20
-187.10575
 30
0.0
 11
-29.031475
 21
-187.10575
 31
0.0
  0
LINE
  5
7C9
100
AcDbEntity
  8
0
  6
CONTINUOUS
 62
     7
100
AcDbLine
 10
8.56704
 20
-187.30575
 30
0.0
 11
15.339375
 21
-187.30575
 31
0.0
  0
LINE
  5
7CA
100
AcDbEntity
  8
0
  6
CONTINUOUS
 62
     7
100
AcDbLine
 10
8.56704
 20
-187.10575
 30
0.0
 11
15.339375
 21
-187.10575
 31
0.0
  0
LINE
  5
7CB
100
AcDbEntity
  8
0
  6
CONTINUOUS
 62
     7
100
AcDbLine
 10
-17.172108
 20
-187.30575
 30
0.0
 11
-12.204227
 21
-187.30575
 31
0.0
  0
LINE
  5
7CC
100
AcDbEntity
  8
0
  6
CONTINUOUS
 62
     7
100
AcDbLine
 10
-17.172108
 20
-187.10575
 30
0.0
 11
-12.204227
 21
-187.10575
 31
0.0
  0
LINE
  5
7CD
100
AcDbEntity
  8
0
  6
CONTINUOUS
 62
     7
100
AcDbLine
 10
15.339375
 20
-179.90575
 30
0.0
 11
36.796711
 21
-179.90575
 31
0.0
  0
LINE
  5
7CE
100
AcDbEntity
  8
0
  6
CONTINUOUS
 62
     7
100
AcDbLine
 10
19.877346
 20
-184.40575
 30
0.0
 11
26.796711
 21
-184.40575
 31
0.0
  0
LINE
  5
7CF
100
AcDbEntity
  8
0
  6
CONTINUOUS
 62
     7
100
AcDbLine
 10
-8.875382
 20
-184.40575
 30
0.0
 11
-1.096203
 21
-184.40575
 31
0.0
  0
LINE
  5
7D0
100
AcDbEntity
  8
0
  6
CONTINUOUS
 62
     7
100
AcDbLine
 10
-12.204227
 20
-179.90575
 30
0.0
 11
8.56704
 21
-179.90575
 31
0.0
  0
LINE
  5
7D1
100
AcDbEntity
  8
0
  6
CONTINUOUS
 62
     7
100
AcDbLine
 10
-27.811939
 20
-184.40575
 30
0.0
 11
-24.236973
 21
-184.40575
 31
0.0
  0
LINE
  5
7D2
100
AcDbEntity
  8
0
  6
CONTINUOUS
 62
     7
100
AcDbLine
 10
-29.031475
 20
-179.90575
 30
0.0
 11
-17.172108
 21
-179.90575
 31
0.0
  0
LINE
  5
7D3
100
AcDbEntity
  8
0
  6
CENTER
 62
     7
100
AcDbLine
 10
-15.80978
 20
-143.90575
 30
0.0
 11
-15.80978
 21
-193.90575
 31
0.0
  0
LINE
  5
7D4
100
AcDbEntity
  8
0
  6
CENTER
 62
     7
100
AcDbLine
 10
-22.569782
 20
-143.90575
 30
0.0
 11
-22.569782
 21
-193.90575
 31
0.0
  0
LINE
  5
7D5
100
AcDbEntity
  8
0
  6
CENTER
 62
     7
100
AcDbLine
 10
34.796711
 20
-183.90575
 30
0.0
 11
45.796711
 21
-183.90575
 31
0.0
  0
LINE
  5
7D6
100
AcDbEntity
  8
0
  6
CENTER
 62
     7
100
AcDbLine
 10
34.796711
 20
-153.90575
 30
0.0
 11
45.796711
 21
-153.90575
 31
0.0
  0
POINT
  5
7D7
100
AcDbEntity
  8
0
  6
CONTINUOUS
 62
     7
100
AcDbPoint
 10
53.796711
 20
-248.90575
 30
0.0
  0
POINT
  5
7D8
100
AcDbEntity
  8
0
  6
CONTINUOUS
 62
     7
100
AcDbPoint
 10
74.796711
 20
-248.90575
 30
0.0
  0
LINE
  5
7D9
100
AcDbEntity
  8
0
  6
CENTER
 62
     7
100
AcDbLine
 10
53.796711
 20
-242.90575
 30
0.0
 11
53.796711
 21
-254.90575
 31
0.0
  0
LINE
  5
7DA
100
AcDbEntity
  8
0
  6
CONTINUOUS
 62
     7
100
AcDbLine
 10
27.796711
 20
-237.90575
 30
0.0
 11
53.796711
 21
-237.90575
 31
0.0
  0
LINE
  5
7DB
100
AcDbEntity
  8
0
  6
CENTER
 62
     7
100
AcDbLine
 10
27.430222
 20
-248.90575
 30
0.0
 11
74.796711
 21
-248.90575
 31
0.0
  0
LINE
  5
7DC
100
AcDbEntity
  8
0
  6
CONTINUOUS
 62
     7
100
AcDbLine
 10
27.796711
 20
-259.90575
 30
0.0
 11
48.190933
 21
-259.90575
 31
0.0
  0
LINE
  5
7DD
100
AcDbEntity
  8
0
  6
CONTINUOUS
 62
     7
100
AcDbLine
 10
51.296711
 20
-245.78325
 30
0.0
 11
51.296711
 21
-252.02825
 31
0.0
  0
LINE
  5
7DE
100
AcDbEntity
  8
0
  6
CONTINUOUS
 62
     7
100
AcDbLine
 10
46.404653
 20
-257.71526
 30
0.0
 11
48.38377
 21
-259.37593
 31
0.0
  0
LINE
  5
7DF
100
AcDbEntity
  8
0
  6
CENTER
 62
     7
100
AcDbLine
 10
-43.569798
 20
-298.90575
 30
0.0
 11
74.796711
 21
-298.90575
 31
0.0
  0
LINE
  5
7E0
100
AcDbEntity
  8
0
  6
CENTER
 62
     7
100
AcDbLine
 10
27.430222
 20
-227.90575
 30
0.0
 11
27.430222
 21
-369.90575
 31
0.0
  0
LINE
  5
7E1
100
AcDbEntity
  8
0
  6
CENTER
 62
     7
100
AcDbLine
 10
27.430222
 20
-348.90575
 30
0.0
 11
74.796711
 21
-348.90575
 31
0.0
  0
LINE
  5
7E2
100
AcDbEntity
  8
0
  6
CENTER
 62
     7
100
AcDbLine
 10
2.642319
 20
-249.48271
 30
0.0
 11
2.642319
 21
-261.48271
 31
0.0
  0
LINE
  5
7E3
100
AcDbEntity
  8
0
  6
CENTER
 62
     7
100
AcDbLine
 10
-21.80978
 20
-324.01157
 30
0.0
 11
-9.80978
 21
-324.01157
 31
0.0
  0
LINE
  5
7E4
100
AcDbEntity
  8
0
  6
CONTINUOUS
 62
     7
100
AcDbLine
 10
-0.140247
 20
-244.84049
 30
0.0
 11
25.014139
 21
-238.26351
 31
0.0
  0
LINE
  5
7E5
100
AcDbEntity
  8
0
  6
CONTINUOUS
 62
     7
100
AcDbLine
 10
5.424892
 20
-266.12498
 30
0.0
 11
25.155825
 21
-260.96603
 31
0.0
  0
LINE
  5
7E6
100
AcDbEntity
  8
0
  6
CONTINUOUS
 62
     7
100
AcDbLine
 10
24.588148
 20
-246.5172
 30
0.0
 11
26.167891
 21
-252.55909
 31
0.0
  0
LINE
  5
7E7
100
AcDbEntity
  8
0
  6
CONTINUOUS
 62
     7
100
AcDbLine
 10
22.873533
 20
-259.29864
 30
0.0
 11
25.208366
 21
-260.40467
 31
0.0
  0
LINE
  5
7E8
100
AcDbEntity
  8
0
  6
CONTINUOUS
 62
     7
100
AcDbLine
 10
-23.559368
 20
-265.99326
 30
0.0
 11
-5.107269
 21
-247.67606
 31
0.0
  0
LINE
  5
7E9
100
AcDbEntity
  8
0
  6
CONTINUOUS
 62
     7
100
AcDbLine
 10
-8.060196
 20
-281.60658
 30
0.0
 11
6.413506
 21
-267.23869
 31
0.0
  0
LINE
  5
7EA
100
AcDbEntity
  8
0
  6
CONTINUOUS
 62
     7
100
AcDbLine
 10
-1.331749
 20
-255.02796
 30
0.0
 11
3.067902
 21
-259.46001
 31
0.0
  0
LINE
  5
7EB
100
AcDbEntity
  8
0
  6
CONTINUOUS
 62
     7
100
AcDbLine
 10
3.602573
 20
-266.94255
 30
0.0
 11
6.177105
 21
-266.72683
 31
0.0
  0
LINE
  5
7EC
100
AcDbEntity
  8
0
  6
CONTINUOUS
 62
     7
100
AcDbLine
 10
-33.191486
 20
-296.04573
 30
0.0
 11
-26.431469
 21
-270.93991
 31
0.0
  0
LINE
  5
7ED
100
AcDbEntity
  8
0
  6
CONTINUOUS
 62
     7
100
AcDbLine
 10
-11.948101
 20
-301.76575
 30
0.0
 11
-6.645592
 21
-282.07291
 31
0.0
  0
LINE
  5
7EE
100
AcDbEntity
  8
0
  6
CONTINUOUS
 62
     7
100
AcDbLine
 10
-19.474888
 20
-275.40209
 30
0.0
 11
-13.444668
 21
-277.02579
 31
0.0
  0
LINE
  5
7EF
100
AcDbEntity
  8
0
  6
CONTINUOUS
 62
     7
100
AcDbLine
 10
-9.225178
 20
-283.22823
 30
0.0
 11
-7.107048
 21
-281.74896
 31
0.0
  0
LINE
  5
7F0
100
AcDbEntity
  8
0
  6
CONTINUOUS
 62
     7
100
AcDbLine
 10
-26.431507
 20
-326.87157
 30
0.0
 11
-33.191479
 21
-301.76574
 31
0.0
  0
LINE
  5
7F1
100
AcDbEntity
  8
0
  6
CONTINUOUS
 62
     7
100
AcDbLine
 10
-5.18811
 20
-321.15159
 30
0.0
 11
-10.490589
 21
-301.45874
 31
0.0
  0
LINE
  5
7F2
100
AcDbEntity
  8
0
  6
CENTER
 62
     7
100
AcDbLine
 10
-3.357681
 20
-255.48271
 30
0.0
 11
8.642319
 21
-255.48271
 31
0.0
  0
LINE
  5
7F3
100
AcDbEntity
  8
0
  6
CONTINUOUS
 62
     7
100
AcDbLine
 10
-24.934895
 20
-302.13161
 30
0.0
 11
-18.904667
 21
-300.50792
 31
0.0
  0
LINE
  5
7F4
100
AcDbEntity
  8
0
  6
CONTINUOUS
 62
     7
100
AcDbLine
 10
-12.141308
 20
-303.75312
 30
0.0
 11
-11.052311
 21
-301.41029
 31
0.0
  0
LINE
  5
7F5
100
AcDbEntity
  8
0
  6
CONTINUOUS
 62
     7
100
AcDbLine
 10
-5.107349
 20
-350.13548
 30
0.0
 11
-23.559391
 21
-331.8182
 31
0.0
  0
LINE
  5
7F6
100
AcDbEntity
  8
0
  6
CENTER
 62
     7
100
AcDbLine
 10
27.796711
 20
-242.90575
 30
0.0
 11
27.796711
 21
-254.90575
 31
0.0
  0
LINE
  5
7F7
100
AcDbEntity
  8
0
  6
CONTINUOUS
 62
     7
100
AcDbLine
 10
10.391876
 20
-334.52221
 30
0.0
 11
-4.081776
 21
-320.15427
 31
0.0
  0
LINE
  5
7F8
100
AcDbEntity
  8
0
  6
CENTER
 62
     7
100
AcDbLine
 10
-15.80978
 20
-267.79992
 30
0.0
 11
-15.80978
 21
-279.79992
 31
0.0
  0
LINE
  5
7F9
100
AcDbEntity
  8
0
  6
CONTINUOUS
 62
     7
100
AcDbLine
 10
-16.235371
 20
-327.98886
 30
0.0
 11
-11.835712
 21
-323.55683
 31
0.0
  0
LINE
  5
7FA
100
AcDbEntity
  8
0
  6
CONTINUOUS
 62
     7
100
AcDbLine
 10
-4.357285
 20
-322.9673
 30
0.0
 11
-4.591888
 21
-320.39442
 31
0.0
  0
LINE
  5
7FB
100
AcDbEntity
  8
0
  6
CENTER
 62
     7
100
AcDbLine
 10
-21.80978
 20
-273.79992
 30
0.0
 11
-9.80978
 21
-273.79992
 31
0.0
  0
LINE
  5
7FC
100
AcDbEntity
  8
0
  6
CENTER
 62
     7
100
AcDbLine
 10
-3.357681
 20
-342.32878
 30
0.0
 11
8.642319
 21
-342.32878
 31
0.0
  0
LINE
  5
7FD
100
AcDbEntity
  8
0
  6
CONTINUOUS
 62
     7
100
AcDbLine
 10
25.014074
 20
-359.54809
 30
0.0
 11
-0.140293
 21
-352.97101
 31
0.0
  0
LINE
  5
7FE
100
AcDbEntity
  8
0
  6
CENTER
 62
     7
100
AcDbLine
 10
-22.569782
 20
-292.90575
 30
0.0
 11
-22.569782
 21
-304.90575
 31
0.0
  0
LINE
  5
7FF
100
AcDbEntity
  8
0
  6
CONTINUOUS
 62
     7
100
AcDbLine
 10
30.57929
 20
-338.26363
 30
0.0
 11
10.848377
 21
-333.10461
 31
0.0
  0
LINE
  5
800
100
AcDbEntity
  8
0
  6
CENTER
 62
     7
100
AcDbLine
 10
-15.80978
 20
-318.01157
 30
0.0
 11
-15.80978
 21
-330.01157
 31
0.0
  0
LINE
  5
801
100
AcDbEntity
  8
0
  6
CONTINUOUS
 62
     7
100
AcDbLine
 10
4.271126
 20
-345.98213
 30
0.0
 11
5.850887
 21
-339.94025
 31
0.0
  0
LINE
  5
802
100
AcDbEntity
  8
0
  6
CONTINUOUS
 62
     7
100
AcDbLine
 10
12.022449
 20
-335.67572
 30
0.0
 11
10.527794
 21
-333.56841
 31
0.0
  0
LINE
  5
803
100
AcDbEntity
  8
0
  6
CENTER
 62
     7
100
AcDbLine
 10
2.642319
 20
-336.32878
 30
0.0
 11
2.642319
 21
-348.32878
 31
0.0
  0
LINE
  5
804
100
AcDbEntity
  8
0
  6
CONTINUOUS
 62
     7
100
AcDbLine
 10
35.188765
 20
-340.09624
 30
0.0
 11
33.209648
 21
-338.43556
 31
0.0
  0
LINE
  5
805
100
AcDbEntity
  8
0
  6
CONTINUOUS
 62
     7
100
AcDbLine
 10
53.796711
 20
-337.90575
 30
0.0
 11
33.402489
 21
-337.90575
 31
0.0
  0
LINE
  5
806
100
AcDbEntity
  8
0
  6
CONTINUOUS
 62
     7
100
AcDbLine
 10
53.796711
 20
-359.90575
 30
0.0
 11
27.796711
 21
-359.90575
 31
0.0
  0
LINE
  5
807
100
AcDbEntity
  8
0
  6
CONTINUOUS
 62
     7
100
AcDbLine
 10
30.296711
 20
-352.02824
 30
0.0
 11
30.296711
 21
-345.78325
 31
0.0
  0
LINE
  5
808
100
AcDbEntity
  8
0
  6
CENTER
 62
     7
100
AcDbLine
 10
53.796711
 20
-354.90575
 30
0.0
 11
53.796711
 21
-342.90575
 31
0.0
  0
LINE
  5
809
100
AcDbEntity
  8
0
  6
CENTER
 62
     7
100
AcDbLine
 10
27.796711
 20
-354.90575
 30
0.0
 11
27.796711
 21
-342.90575
 31
0.0
  0
ARC
  5
80A
100
AcDbEntity
  8
0
  6
CONTINUOUS
 62
     7
100
AcDbCircle
 10
27.796711
 20
-248.90575
 30
0.0
 40
11.0
100
AcDbArc
 50
90.000003
 51
270.0
  0
CIRCLE
  5
80B
100
AcDbEntity
  8
0
  6
CONTINUOUS
 62
     7
100
AcDbCircle
 10
53.796711
 20
-248.90575
 30
0.0
 40
4.0
  0
ARC
  5
80C
100
AcDbEntity
  8
0
  6
CONTINUOUS
 62
     7
100
AcDbCircle
 10
53.796711
 20
-248.90575
 30
0.0
 40
11.5
100
AcDbArc
 50
118.95503
 51
230.00001
  0
ARC
  5
80D
100
AcDbEntity
  8
0
  6
CONTINUOUS
 62
     7
100
AcDbCircle
 10
47.987236
 20
-238.40575
 30
0.0
 40
0.5
100
AcDbArc
 50
298.95503
 51
90.000003
  0
ARC
  5
80E
100
AcDbEntity
  8
0
  6
CONTINUOUS
 62
     7
100
AcDbCircle
 10
48.190933
 20
-259.60575
 30
0.0
 40
0.3
100
AcDbArc
 50
270.0
 51
50.0
  0
ARC
  5
80F
100
AcDbEntity
  8
0
  6
CENTER
 62
     7
100
AcDbCircle
 10
27.430222
 20
-298.90575
 30
0.0
 40
50.0
100
AcDbArc
 50
90.000003
 51
270.0
  0
ARC
  5
810
100
AcDbEntity
  8
0
  6
CONTINUOUS
 62
     7
100
AcDbCircle
 10
2.642323
 20
-255.48273
 30
0.0
 40
11.0
100
AcDbArc
 50
104.6528
 51
284.65281
  0
CIRCLE
  5
811
100
AcDbEntity
  8
0
  6
CONTINUOUS
 62
     7
100
AcDbCircle
 10
27.796711
 20
-248.90575
 30
0.0
 40
4.0
  0
ARC
  5
812
100
AcDbEntity
  8
0
  6
CONTINUOUS
 62
     7
100
AcDbCircle
 10
27.796711
 20
-248.90575
 30
0.0
 40
11.5
100
AcDbArc
 50
133.60783
 51
244.65281
  0
ARC
  5
813
100
AcDbEntity
  8
0
  6
CONTINUOUS
 62
     7
100
AcDbCircle
 10
19.520088
 20
-240.21681
 30
0.0
 40
0.5
100
AcDbArc
 50
313.60783
 51
104.6528
  0
ARC
  5
814
100
AcDbEntity
  8
0
  6
CONTINUOUS
 62
     7
100
AcDbCircle
 10
25.079935
 20
-260.67579
 30
0.0
 40
0.3
100
AcDbArc
 50
284.6528
 51
64.652802
  0
ARC
  5
815
100
AcDbEntity
  8
0
  6
CONTINUOUS
 62
     7
100
AcDbCircle
 10
-15.80978
 20
-273.79992
 30
0.0
 40
11.0
100
AcDbArc
 50
134.78979
 51
314.78981
  0
CIRCLE
  5
816
100
AcDbEntity
  8
0
  6
CONTINUOUS
 62
     7
100
AcDbCircle
 10
2.642319
 20
-255.48271
 30
0.0
 40
4.0
  0
ARC
  5
817
100
AcDbEntity
  8
0
  6
CONTINUOUS
 62
     7
100
AcDbCircle
 10
2.642319
 20
-255.48271
 30
0.0
 40
11.5
100
AcDbArc
 50
163.74482
 51
274.78979
  0
ARC
  5
818
100
AcDbEntity
  8
0
  6
CONTINUOUS
 62
     7
100
AcDbCircle
 10
-8.877976
 20
-252.12372
 30
0.0
 40
0.5
100
AcDbArc
 50
343.74482
 51
134.78979
  0
ARC
  5
819
100
AcDbEntity
  8
0
  6
CONTINUOUS
 62
     7
100
AcDbCircle
 10
6.202152
 20
-267.02578
 30
0.0
 40
0.3
100
AcDbArc
 50
314.7898
 51
94.789802
  0
ARC
  5
81A
100
AcDbEntity
  8
0
  6
CONTINUOUS
 62
     7
100
AcDbCircle
 10
-22.569798
 20
-298.90574
 30
0.0
 40
11.0
100
AcDbArc
 50
164.9299
 51
344.92991
  0
CIRCLE
  5
81B
100
AcDbEntity
  8
0
  6
CONTINUOUS
 62
     7
100
AcDbCircle
 10
-15.80978
 20
-273.79992
 30
0.0
 40
4.0
  0
ARC
  5
81C
100
AcDbEntity
  8
0
  6
CONTINUOUS
 62
     7
100
AcDbCircle
 10
-15.80978
 20
-273.79992
 30
0.0
 40
11.5
100
AcDbArc
 50
193.88492
 51
304.9299
  0
ARC
  5
81D
100
AcDbEntity
  8
0
  6
CONTINUOUS
 62
     7
100
AcDbCircle
 10
-27.459133
 20
-276.67959
 30
0.0
 40
0.5
100
AcDbArc
 50
13.884924
 51
164.9299
  0
ARC
  5
81E
100
AcDbEntity
  8
0
  6
CONTINUOUS
 62
     7
100
AcDbCircle
 10
-6.935272
 20
-281.99492
 30
0.0
 40
0.3
100
AcDbArc
 50
344.9299
 51
124.9299
  0
ARC
  5
81F
100
AcDbEntity
  8
0
  6
CONTINUOUS
 62
     7
100
AcDbCircle
 10
-15.809803
 20
-324.01158
 30
0.0
 40
11.0
100
AcDbArc
 50
195.07
 51
15.07
  0
CIRCLE
  5
820
100
AcDbEntity
  8
0
  6
CONTINUOUS
 62
     7
100
AcDbCircle
 10
-22.569782
 20
-298.90575
 30
0.0
 40
4.0
  0
ARC
  5
821
100
AcDbEntity
  8
0
  6
CONTINUOUS
 62
     7
100
AcDbCircle
 10
-22.569782
 20
-298.90575
 30
0.0
 40
11.5
100
AcDbArc
 50
224.02503
 51
335.07
  0
ARC
  5
822
100
AcDbEntity
  8
0
  6
CONTINUOUS
 62
     7
100
AcDbCircle
 10
-31.198215
 20
-307.24541
 30
0.0
 40
0.5
100
AcDbArc
 50
44.025026
 51
195.07
  0
ARC
  5
823
100
AcDbEntity
  8
0
  6
CONTINUOUS
 62
     7
100
AcDbCircle
 10
-10.78027
 20
-301.53675
 30
0.0
 40
0.3
100
AcDbArc
 50
15.07
 51
155.07001
  0
ARC
  5
824
100
AcDbEntity
  8
0
  6
CONTINUOUS
 62
     7
100
AcDbCircle
 10
2.642258
 20
-342.32884
 30
0.0
 40
11.0
100
AcDbArc
 50
225.21
 51
45.209999
  0
CIRCLE
  5
825
100
AcDbEntity
  8
0
  6
CONTINUOUS
 62
     7
100
AcDbCircle
 10
-15.80978
 20
-324.01157
 30
0.0
 40
4.0
  0
ARC
  5
826
100
AcDbEntity
  8
0
  6
CONTINUOUS
 62
     7
100
AcDbCircle
 10
-15.80978
 20
-324.01157
 30
0.0
 40
11.5
100
AcDbArc
 50
254.16502
 51
5.21
  0
ARC
  5
827
100
AcDbEntity
  8
0
  6
CONTINUOUS
 62
     7
100
AcDbCircle
 10
-19.084187
 20
-335.55619
 30
0.0
 40
0.5
100
AcDbArc
 50
74.165022
 51
225.21
  0
ARC
  5
828
100
AcDbEntity
  8
0
  6
CONTINUOUS
 62
     7
100
AcDbCircle
 10
-4.293133
 20
-320.36718
 30
0.0
 40
0.3
100
AcDbArc
 50
45.209999
 51
185.21001
  0
ARC
  5
829
100
AcDbEntity
  8
0
  6
CONTINUOUS
 62
     7
100
AcDbCircle
 10
27.796682
 20
-348.90585
 30
0.0
 40
11.0
100
AcDbArc
 50
255.347
 51
75.347
  0
CIRCLE
  5
82A
100
AcDbEntity
  8
0
  6
CONTINUOUS
 62
     7
100
AcDbCircle
 10
2.642319
 20
-342.32878
 30
0.0
 40
4.0
  0
ARC
  5
82B
100
AcDbEntity
  8
0
  6
CONTINUOUS
 62
     7
100
AcDbCircle
 10
2.642319
 20
-342.32878
 30
0.0
 40
11.5
100
AcDbArc
 50
284.30202
 51
35.347001
  0
ARC
  5
82C
100
AcDbEntity
  8
0
  6
CONTINUOUS
 62
     7
100
AcDbCircle
 10
5.606716
 20
-353.95686
 30
0.0
 40
0.5
100
AcDbArc
 50
104.30202
 51
255.347
  0
ARC
  5
82D
100
AcDbEntity
  8
0
  6
CONTINUOUS
 62
     7
100
AcDbCircle
 10
10.772491
 20
-333.39485
 30
0.0
 40
0.3
100
AcDbArc
 50
75.347
 51
215.347
  0
ARC
  5
82E
100
AcDbEntity
  8
0
  6
CONTINUOUS
 62
     7
100
AcDbCircle
 10
33.606186
 20
-359.40575
 30
0.0
 40
0.5
100
AcDbArc
 50
118.95503
 51
270.0
  0
ARC
  5
82F
100
AcDbEntity
  8
0
  6
CONTINUOUS
 62
     7
100
AcDbCircle
 10
27.796711
 20
-348.90575
 30
0.0
 40
11.5
100
AcDbArc
 50
298.95503
 51
50.0
  0
ARC
  5
830
100
AcDbEntity
  8
0
  6
CONTINUOUS
 62
     7
100
AcDbCircle
 10
33.402489
 20
-338.20575
 30
0.0
 40
0.3
100
AcDbArc
 50
90.000003
 51
230.00001
  0
CIRCLE
  5
831
100
AcDbEntity
  8
0
  6
CONTINUOUS
 62
     7
100
AcDbCircle
 10
27.796711
 20
-348.90575
 30
0.0
 40
4.0
  0
ARC
  5
832
100
AcDbEntity
  8
0
  6
CONTINUOUS
 62
     7
100
AcDbCircle
 10
53.796711
 20
-348.90575
 30
0.0
 40
11.0
100
AcDbArc
 50
270.0
 51
90.000003
  0
POINT
  5
833
100
AcDbEntity
  8
0
  6
CONTINUOUS
 62
     7
100
AcDbPoint
 10
53.796711
 20
-423.90576
 30
0.0
  0
POINT
  5
834
100
AcDbEntity
  8
0
  6
CONTINUOUS
 62
     7
100
AcDbPoint
 10
74.796711
 20
-423.90576
 30
0.0
  0
LINE
  5
835
100
AcDbEntity
  8
0
  6
CENTER
 62
     7
100
AcDbLine
 10
-43.569798
 20
-423.90576
 30
0.0
 11
74.796711
 21
-423.90576
 31
0.0
  0
LINE
  5
836
100
AcDbEntity
  8
0
  6
CONTINUOUS
 62
     7
100
AcDbLine
 10
44.796711
 20
-442.30576
 30
0.0
 11
37.796711
 21
-442.30576
 31
0.0
  0
LINE
  5
837
100
AcDbEntity
  8
0
  6
CONTINUOUS
 62
     7
100
AcDbLine
 10
44.796711
 20
-442.10576
 30
0.0
 11
37.796711
 21
-442.10576
 31
0.0
  0
LINE
  5
838
100
AcDbEntity
  8
0
  6
CONTINUOUS
 62
     7
100
AcDbLine
 10
37.796711
 20
-434.90576
 30
0.0
 11
16.306793
 21
-434.90576
 31
0.0
  0
LINE
  5
839
100
AcDbEntity
  8
0
  6
CONTINUOUS
 62
     7
100
AcDbLine
 10
44.796711
 20
-442.30576
 30
0.0
 11
44.796711
 21
-434.90576
 31
0.0
  0
LINE
  5
83A
100
AcDbEntity
  8
0
  6
CONTINUOUS
 62
     7
100
AcDbLine
 10
44.796711
 20
-405.70576
 30
0.0
 11
37.796711
 21
-405.70576
 31
0.0
  0
LINE
  5
83B
100
AcDbEntity
  8
0
  6
CONTINUOUS
 62
     7
100
AcDbLine
 10
37.796711
 20
-412.90576
 30
0.0
 11
16.306793
 21
-412.90576
 31
0.0
  0
LINE
  5
83C
100
AcDbEntity
  8
0
  6
CONTINUOUS
 62
     7
100
AcDbLine
 10
33.106186
 20
-403.90576
 30
0.0
 11
33.106186
 21
-408.40576
 31
0.0
  0
LINE
  5
83D
100
AcDbEntity
  8
0
  6
CONTINUOUS
 62
     7
100
AcDbLine
 10
29.196711
 20
-434.90576
 30
0.0
 11
29.196711
 21
-412.90576
 31
0.0
  0
LINE
  5
83E
100
AcDbEntity
  8
0
  6
CONTINUOUS
 62
     7
100
AcDbLine
 10
37.796711
 20
-442.30576
 30
0.0
 11
37.796711
 21
-434.90576
 31
0.0
  0
LINE
  5
83F
100
AcDbEntity
  8
0
  6
CONTINUOUS
 62
     7
100
AcDbLine
 10
37.796711
 20
-412.90576
 30
0.0
 11
37.796711
 21
-405.50576
 31
0.0
  0
LINE
  5
840
100
AcDbEntity
  8
0
  6
CONTINUOUS
 62
     7
100
AcDbLine
 10
44.796711
 20
-412.90576
 30
0.0
 11
44.796711
 21
-405.50576
 31
0.0
  0
LINE
  5
841
100
AcDbEntity
  8
0
  6
CONTINUOUS
 62
     7
100
AcDbLine
 10
54.796711
 20
-439.40576
 30
0.0
 11
54.796711
 21
-408.40576
 31
0.0
  0
LINE
  5
842
100
AcDbEntity
  8
0
  6
CENTER
 62
     7
100
AcDbLine
 10
2.642319
 20
-448.90576
 30
0.0
 11
2.642319
 21
-398.90576
 31
0.0
  0
LINE
  5
843
100
AcDbEntity
  8
0
  6
CENTER
 62
     7
100
AcDbLine
 10
27.796711
 20
-448.90576
 30
0.0
 11
27.796711
 21
-398.90576
 31
0.0
  0
LINE
  5
844
100
AcDbEntity
  8
0
  6
CONTINUOUS
 62
     7
100
AcDbLine
 10
54.796711
 20
-434.90576
 30
0.0
 11
44.796711
 21
-434.90576
 31
0.0
  0
LINE
  5
845
100
AcDbEntity
  8
0
  6
CONTINUOUS
 62
     7
100
AcDbLine
 10
57.706191
 20
-408.40576
 30
0.0
 11
54.796711
 21
-408.40576
 31
0.0
  0
LINE
  5
846
100
AcDbEntity
  8
0
  6
CONTINUOUS
 62
     7
100
AcDbLine
 10
54.796711
 20
-412.90576
 30
0.0
 11
44.796711
 21
-412.90576
 31
0.0
  0
LINE
  5
847
100
AcDbEntity
  8
0
  6
CENTER
 62
     7
100
AcDbLine
 10
53.796711
 20
-448.90576
 30
0.0
 11
53.796711
 21
-398.90576
 31
0.0
  0
LINE
  5
848
100
AcDbEntity
  8
0
  6
CONTINUOUS
 62
     7
100
AcDbLine
 10
57.706191
 20
-403.90576
 30
0.0
 11
-33.569798
 21
-403.90576
 31
0.0
  0
LINE
  5
849
100
AcDbEntity
  8
0
  6
CONTINUOUS
 62
     7
100
AcDbLine
 10
44.796711
 20
-405.50576
 30
0.0
 11
37.796711
 21
-405.50576
 31
0.0
  0
LINE
  5
84A
100
AcDbEntity
  8
0
  6
CONTINUOUS
 62
     7
100
AcDbLine
 10
57.706191
 20
-439.40576
 30
0.0
 11
54.796711
 21
-439.40576
 31
0.0
  0
LINE
  5
84B
100
AcDbEntity
  8
0
  6
CONTINUOUS
 62
     7
100
AcDbLine
 10
33.106186
 20
-443.90576
 30
0.0
 11
33.106186
 21
-439.40576
 31
0.0
  0
LINE
  5
84C
100
AcDbEntity
  8
0
  6
CONTINUOUS
 62
     7
100
AcDbLine
 10
57.706191
 20
-443.90576
 30
0.0
 11
-33.569798
 21
-443.90576
 31
0.0
  0
LINE
  5
84D
100
AcDbEntity
  8
0
  6
CONTINUOUS
 62
     7
100
AcDbLine
 10
25.993073
 20
-408.40576
 30
0.0
 11
25.993073
 21
-439.40576
 31
0.0
  0
LINE
  5
84E
100
AcDbEntity
  8
0
  6
CONTINUOUS
 62
     7
100
AcDbLine
 10
16.306793
 20
-405.50576
 30
0.0
 11
16.306793
 21
-412.90576
 31
0.0
  0
LINE
  5
84F
100
AcDbEntity
  8
0
  6
CONTINUOUS
 62
     7
100
AcDbLine
 10
9.534466
 20
-405.50576
 30
0.0
 11
9.534466
 21
-412.90576
 31
0.0
  0
LINE
  5
850
100
AcDbEntity
  8
0
  6
CONTINUOUS
 62
     7
100
AcDbLine
 10
4.996498
 20
-403.90576
 30
0.0
 11
4.996498
 21
-408.40576
 31
0.0
  0
LINE
  5
851
100
AcDbEntity
  8
0
  6
CONTINUOUS
 62
     7
100
AcDbLine
 10
1.214176
 20
-412.90576
 30
0.0
 11
1.214176
 21
-434.90576
 31
0.0
  0
LINE
  5
852
100
AcDbEntity
  8
0
  6
CONTINUOUS
 62
     7
100
AcDbLine
 10
-4.365574
 20
-408.40576
 30
0.0
 11
-4.365574
 21
-439.40576
 31
0.0
  0
LINE
  5
853
100
AcDbEntity
  8
0
  6
CONTINUOUS
 62
     7
100
AcDbLine
 10
-11.494602
 20
-405.50576
 30
0.0
 11
-11.494602
 21
-412.90576
 31
0.0
  0
LINE
  5
854
100
AcDbEntity
  8
0
  6
CONTINUOUS
 62
     7
100
AcDbLine
 10
-16.462452
 20
-405.50576
 30
0.0
 11
-16.462452
 21
-412.90576
 31
0.0
  0
LINE
  5
855
100
AcDbEntity
  8
0
  6
CONTINUOUS
 62
     7
100
AcDbLine
 10
-19.791294
 20
-403.90576
 30
0.0
 11
-19.791294
 21
-408.40576
 31
0.0
  0
LINE
  5
856
100
AcDbEntity
  8
0
  6
CONTINUOUS
 62
     7
100
AcDbLine
 10
-22.565823
 20
-412.90576
 30
0.0
 11
-22.565823
 21
-434.90576
 31
0.0
  0
LINE
  5
857
100
AcDbEntity
  8
0
  6
CONTINUOUS
 62
     7
100
AcDbLine
 10
-26.127522
 20
-408.40576
 30
0.0
 11
-26.127522
 21
-439.40576
 31
0.0
  0
LINE
  5
858
100
AcDbEntity
  8
0
  6
CONTINUOUS
 62
     7
100
AcDbLine
 10
-28.771496
 20
-405.50576
 30
0.0
 11
-28.771496
 21
-412.90576
 31
0.0
  0
LINE
  5
859
100
AcDbEntity
  8
0
  6
CONTINUOUS
 62
     7
100
AcDbLine
 10
-30.591488
 20
-405.50576
 30
0.0
 11
-30.591488
 21
-412.90576
 31
0.0
  0
LINE
  5
85A
100
AcDbEntity
  8
0
  6
CONTINUOUS
 62
     7
100
AcDbLine
 10
-31.811016
 20
-403.90576
 30
0.0
 11
-31.811016
 21
-408.40576
 31
0.0
  0
LINE
  5
85B
100
AcDbEntity
  8
0
  6
CONTINUOUS
 62
     7
100
AcDbLine
 10
-32.82748
 20
-412.90576
 30
0.0
 11
-32.82748
 21
-434.90576
 31
0.0
  0
LINE
  5
85C
100
AcDbEntity
  8
0
  6
CONTINUOUS
 62
     7
100
AcDbLine
 10
-33.569798
 20
-403.90576
 30
0.0
 11
-33.569798
 21
-412.90576
 31
0.0
  0
LINE
  5
85D
100
AcDbEntity
  8
0
  6
CONTINUOUS
 62
     7
100
AcDbLine
 10
-30.591488
 20
-405.70576
 30
0.0
 11
-28.771496
 21
-405.70576
 31
0.0
  0
LINE
  5
85E
100
AcDbEntity
  8
0
  6
CONTINUOUS
 62
     7
100
AcDbLine
 10
-30.591488
 20
-405.50576
 30
0.0
 11
-28.771496
 21
-405.50576
 31
0.0
  0
LINE
  5
85F
100
AcDbEntity
  8
0
  6
CONTINUOUS
 62
     7
100
AcDbLine
 10
4.996498
 20
-408.40576
 30
0.0
 11
-4.365574
 21
-408.40576
 31
0.0
  0
LINE
  5
860
100
AcDbEntity
  8
0
  6
CONTINUOUS
 62
     7
100
AcDbLine
 10
9.534466
 20
-412.90576
 30
0.0
 11
-11.494602
 21
-412.90576
 31
0.0
  0
LINE
  5
861
100
AcDbEntity
  8
0
  6
CONTINUOUS
 62
     7
100
AcDbLine
 10
-19.791294
 20
-408.40576
 30
0.0
 11
-26.127522
 21
-408.40576
 31
0.0
  0
LINE
  5
862
100
AcDbEntity
  8
0
  6
CONTINUOUS
 62
     7
100
AcDbLine
 10
-16.462452
 20
-412.90576
 30
0.0
 11
-28.771496
 21
-412.90576
 31
0.0
  0
LINE
  5
863
100
AcDbEntity
  8
0
  6
CONTINUOUS
 62
     7
100
AcDbLine
 10
-31.811016
 20
-408.40576
 30
0.0
 11
-33.569798
 21
-408.40576
 31
0.0
  0
LINE
  5
864
100
AcDbEntity
  8
0
  6
CONTINUOUS
 62
     7
100
AcDbLine
 10
-30.591488
 20
-412.90576
 30
0.0
 11
-33.569798
 21
-412.90576
 31
0.0
  0
LINE
  5
865
100
AcDbEntity
  8
0
  6
CONTINUOUS
 62
     7
100
AcDbLine
 10
-16.462452
 20
-405.50576
 30
0.0
 11
-11.494602
 21
-405.50576
 31
0.0
  0
LINE
  5
866
100
AcDbEntity
  8
0
  6
CONTINUOUS
 62
     7
100
AcDbLine
 10
-16.462452
 20
-405.70576
 30
0.0
 11
-11.494602
 21
-405.70576
 31
0.0
  0
LINE
  5
867
100
AcDbEntity
  8
0
  6
CONTINUOUS
 62
     7
100
AcDbLine
 10
9.534466
 20
-405.70576
 30
0.0
 11
16.306793
 21
-405.70576
 31
0.0
  0
LINE
  5
868
100
AcDbEntity
  8
0
  6
CONTINUOUS
 62
     7
100
AcDbLine
 10
9.534466
 20
-405.50576
 30
0.0
 11
16.306793
 21
-405.50576
 31
0.0
  0
LINE
  5
869
100
AcDbEntity
  8
0
  6
CONTINUOUS
 62
     7
100
AcDbLine
 10
-30.591488
 20
-442.30576
 30
0.0
 11
-28.771496
 21
-442.30576
 31
0.0
  0
LINE
  5
86A
100
AcDbEntity
  8
0
  6
CONTINUOUS
 62
     7
100
AcDbLine
 10
-30.591488
 20
-442.10576
 30
0.0
 11
-28.771496
 21
-442.10576
 31
0.0
  0
LINE
  5
86B
100
AcDbEntity
  8
0
  6
CONTINUOUS
 62
     7
100
AcDbLine
 10
-33.569798
 20
-443.90576
 30
0.0
 11
-33.569798
 21
-434.90576
 31
0.0
  0
LINE
  5
86C
100
AcDbEntity
  8
0
  6
CONTINUOUS
 62
     7
100
AcDbLine
 10
-31.811016
 20
-443.90576
 30
0.0
 11
-31.811016
 21
-439.40576
 31
0.0
  0
LINE
  5
86D
100
AcDbEntity
  8
0
  6
CONTINUOUS
 62
     7
100
AcDbLine
 10
-30.591488
 20
-442.30576
 30
0.0
 11
-30.591488
 21
-434.90576
 31
0.0
  0
LINE
  5
86E
100
AcDbEntity
  8
0
  6
CONTINUOUS
 62
     7
100
AcDbLine
 10
-28.771496
 20
-442.30576
 30
0.0
 11
-28.771496
 21
-434.90576
 31
0.0
  0
LINE
  5
86F
100
AcDbEntity
  8
0
  6
CONTINUOUS
 62
     7
100
AcDbLine
 10
-19.791294
 20
-443.90576
 30
0.0
 11
-19.791294
 21
-439.40576
 31
0.0
  0
LINE
  5
870
100
AcDbEntity
  8
0
  6
CONTINUOUS
 62
     7
100
AcDbLine
 10
-16.462452
 20
-442.30576
 30
0.0
 11
-16.462452
 21
-434.90576
 31
0.0
  0
LINE
  5
871
100
AcDbEntity
  8
0
  6
CONTINUOUS
 62
     7
100
AcDbLine
 10
-11.494602
 20
-442.30576
 30
0.0
 11
-11.494602
 21
-434.90576
 31
0.0
  0
LINE
  5
872
100
AcDbEntity
  8
0
  6
CONTINUOUS
 62
     7
100
AcDbLine
 10
4.996498
 20
-443.90576
 30
0.0
 11
4.996498
 21
-439.40576
 31
0.0
  0
LINE
  5
873
100
AcDbEntity
  8
0
  6
CONTINUOUS
 62
     7
100
AcDbLine
 10
9.534466
 20
-442.30576
 30
0.0
 11
9.534466
 21
-434.90576
 31
0.0
  0
LINE
  5
874
100
AcDbEntity
  8
0
  6
CONTINUOUS
 62
     7
100
AcDbLine
 10
16.306793
 20
-442.30576
 30
0.0
 11
16.306793
 21
-434.90576
 31
0.0
  0
LINE
  5
875
100
AcDbEntity
  8
0
  6
CONTINUOUS
 62
     7
100
AcDbLine
 10
4.996498
 20
-439.40576
 30
0.0
 11
-4.365574
 21
-439.40576
 31
0.0
  0
LINE
  5
876
100
AcDbEntity
  8
0
  6
CONTINUOUS
 62
     7
100
AcDbLine
 10
9.534466
 20
-434.90576
 30
0.0
 11
-11.494602
 21
-434.90576
 31
0.0
  0
LINE
  5
877
100
AcDbEntity
  8
0
  6
CONTINUOUS
 62
     7
100
AcDbLine
 10
-19.791294
 20
-439.40576
 30
0.0
 11
-26.127522
 21
-439.40576
 31
0.0
  0
LINE
  5
878
100
AcDbEntity
  8
0
  6
CONTINUOUS
 62
     7
100
AcDbLine
 10
-16.462452
 20
-434.90576
 30
0.0
 11
-28.771496
 21
-434.90576
 31
0.0
  0
LINE
  5
879
100
AcDbEntity
  8
0
  6
CONTINUOUS
 62
     7
100
AcDbLine
 10
-31.811016
 20
-439.40576
 30
0.0
 11
-33.569798
 21
-439.40576
 31
0.0
  0
LINE
  5
87A
100
AcDbEntity
  8
0
  6
CONTINUOUS
 62
     7
100
AcDbLine
 10
-30.591488
 20
-434.90576
 30
0.0
 11
-33.569798
 21
-434.90576
 31
0.0
  0
LINE
  5
87B
100
AcDbEntity
  8
0
  6
CONTINUOUS
 62
     7
100
AcDbLine
 10
-16.462452
 20
-442.30576
 30
0.0
 11
-11.494602
 21
-442.30576
 31
0.0
  0
LINE
  5
87C
100
AcDbEntity
  8
0
  6
CONTINUOUS
 62
     7
100
AcDbLine
 10
-16.462452
 20
-442.10576
 30
0.0
 11
-11.494602
 21
-442.10576
 31
0.0
  0
LINE
  5
87D
100
AcDbEntity
  8
0
  6
CONTINUOUS
 62
     7
100
AcDbLine
 10
9.534466
 20
-442.10576
 30
0.0
 11
16.306793
 21
-442.10576
 31
0.0
  0
LINE
  5
87E
100
AcDbEntity
  8
0
  6
CONTINUOUS
 62
     7
100
AcDbLine
 10
9.534466
 20
-442.30576
 30
0.0
 11
16.306793
 21
-442.30576
 31
0.0
  0
LINE
  5
87F
100
AcDbEntity
  8
0
  6
CENTER
 62
     7
100
AcDbLine
 10
-15.80978
 20
-448.90576
 30
0.0
 11
-15.80978
 21
-398.90576
 31
0.0
  0
LINE
  5
880
100
AcDbEntity
  8
0
  6
CENTER
 62
     7
100
AcDbLine
 10
-22.569782
 20
-448.90576
 30
0.0
 11
-22.569782
 21
-398.90576
 31
0.0
  0
LINE
  5
881
100
AcDbEntity
  8
0
  6
CONTINUOUS
 62
     7
100
AcDbLine
 10
33.106186
 20
-439.40576
 30
0.0
 11
25.993073
 21
-439.40576
 31
0.0
  0
LINE
  5
882
100
AcDbEntity
  8
0
  6
CONTINUOUS
 62
     7
100
AcDbLine
 10
33.106186
 20
-408.40576
 30
0.0
 11
25.993073
 21
-408.40576
 31
0.0
  0
LINE
  5
883
100
AcDbEntity
  8
0
  6
CENTER
 62
     7
100
AcDbLine
 10
35.796711
 20
-438.90576
 30
0.0
 11
46.796711
 21
-438.90576
 31
0.0
  0
LINE
  5
884
100
AcDbEntity
  8
0
  6
CENTER
 62
     7
100
AcDbLine
 10
35.796711
 20
-408.90576
 30
0.0
 11
46.796711
 21
-408.90576
 31
0.0
  0
POINT
  5
885
100
AcDbEntity
  8
0
  6
CONTINUOUS
 62
     7
100
AcDbPoint
 10
168.79671
 20
-178.90575
 30
0.0
  0
POINT
  5
886
100
AcDbEntity
  8
0
  6
CONTINUOUS
 62
     7
100
AcDbPoint
 10
184.79671
 20
-178.90575
 30
0.0
  0
LINE
  5
887
100
AcDbEntity
  8
0
  6
CONTINUOUS
 62
     7
100
AcDbLine
 10
179.79671
 20
-189.90575
 30
0.0
 11
179.79671
 21
-198.90575
 31
0.0
  0
LINE
  5
888
100
AcDbEntity
  8
0
  6
CONTINUOUS
 62
     7
100
AcDbLine
 10
179.79671
 20
-158.90575
 30
0.0
 11
157.79671
 21
-158.90575
 31
0.0
  0
LINE
  5
889
100
AcDbEntity
  8
0
  6
CONTINUOUS
 62
     7
100
AcDbLine
 10
179.79671
 20
-158.90575
 30
0.0
 11
179.79671
 21
-167.90575
 31
0.0
  0
LINE
  5
88A
100
AcDbEntity
  8
0
  6
CONTINUOUS
 62
     4
100
AcDbLine
 10
177.99671
 20
-167.90575
 30
0.0
 11
177.99671
 21
-189.90575
 31
0.0
  0
LINE
  5
88B
100
AcDbEntity
  8
0
  6
CONTINUOUS
 62
     7
100
AcDbLine
 10
162.79671
 20
-167.90575
 30
0.0
 11
162.79671
 21
-189.90575
 31
0.0
  0
LINE
  5
88C
100
AcDbEntity
  8
0
  6
CONTINUOUS
 62
     7
100
AcDbLine
 10
179.79671
 20
-189.90575
 30
0.0
 11
157.79671
 21
-189.90575
 31
0.0
  0
LINE
  5
88D
100
AcDbEntity
  8
0
  6
CENTER
 62
     7
100
AcDbLine
 10
184.79671
 20
-178.90575
 30
0.0
 11
152.79671
 21
-178.90575
 31
0.0
  0
LINE
  5
88E
100
AcDbEntity
  8
0
  6
CONTINUOUS
 62
     7
100
AcDbLine
 10
179.79671
 20
-198.90575
 30
0.0
 11
157.79671
 21
-198.90575
 31
0.0
  0
LINE
  5
88F
100
AcDbEntity
  8
0
  6
CONTINUOUS
 62
     7
100
AcDbLine
 10
179.79671
 20
-167.90575
 30
0.0
 11
157.79671
 21
-167.90575
 31
0.0
  0
LINE
  5
890
100
AcDbEntity
  8
0
  6
CENTER
 62
     7
100
AcDbLine
 10
168.79671
 20
-153.90575
 30
0.0
 11
168.79671
 21
-203.90575
 31
0.0
  0
LINE
  5
891
100
AcDbEntity
  8
0
  6
CONTINUOUS
 62
     7
100
AcDbLine
 10
179.79671
 20
-194.40575
 30
0.0
 11
157.79671
 21
-194.40575
 31
0.0
  0
LINE
  5
892
100
AcDbEntity
  8
0
  6
CONTINUOUS
 62
     7
100
AcDbLine
 10
157.79671
 20
-158.90575
 30
0.0
 11
157.79671
 21
-198.90575
 31
0.0
  0
LINE
  5
893
100
AcDbEntity
  8
0
  6
CONTINUOUS
 62
     7
100
AcDbLine
 10
179.79671
 20
-163.40575
 30
0.0
 11
157.79671
 21
-163.40575
 31
0.0
  0
LINE
  5
894
100
AcDbEntity
  8
0
  6
CENTER
 62
     7
100
AcDbLine
 10
179.79671
 20
-193.90575
 30
0.0
 11
172.79671
 21
-193.90575
 31
0.0
  0
LINE
  5
895
100
AcDbEntity
  8
0
  6
CENTER
 62
     7
100
AcDbLine
 10
176.29671
 20
-197.40575
 30
0.0
 11
176.29671
 21
-190.40575
 31
0.0
  0
LINE
  5
896
100
AcDbEntity
  8
0
  6
CENTER
 62
     7
100
AcDbLine
 10
168.79671
 20
-153.90575
 30
0.0
 11
168.79671
 21
-203.90575
 31
0.0
  0
LINE
  5
897
100
AcDbEntity
  8
0
  6
CENTER
 62
     7
100
AcDbLine
 10
179.79671
 20
-163.90575
 30
0.0
 11
172.79671
 21
-163.90575
 31
0.0
  0
LINE
  5
898
100
AcDbEntity
  8
0
  6
CENTER
 62
     7
100
AcDbLine
 10
176.29671
 20
-160.40575
 30
0.0
 11
176.29671
 21
-167.40575
 31
0.0
  0
LINE
  5
899
100
AcDbEntity
  8
0
  6
DASHED
 62
     4
100
AcDbLine
 10
181.09671
 20
-163.90575
 30
0.0
 11
177.89671
 21
-163.90575
 31
0.0
  0
LINE
  5
89A
100
AcDbEntity
  8
0
  6
DASHED
 62
     4
100
AcDbLine
 10
175.49671
 20
-165.29076
 30
0.0
 11
175.36371
 21
-166.81374
 31
0.0
  0
LINE
  5
89B
100
AcDbEntity
  8
0
  6
DASHED
 62
     4
100
AcDbLine
 10
175.26371
 20
-166.90575
 30
0.0
 11
174.95271
 21
-166.90575
 31
0.0
  0
LINE
  5
89C
100
AcDbEntity
  8
0
  6
DASHED
 62
     4
100
AcDbLine
 10
200.9967
 20
-164.40575
 30
0.0
 11
181.59671
 21
-164.40575
 31
0.0
  0
LINE
  5
89D
100
AcDbEntity
  8
0
  6
DASHED
 62
     4
100
AcDbLine
 10
201.4967
 20
-163.90575
 30
0.0
 11
204.6967
 21
-163.90575
 31
0.0
  0
LINE
  5
89E
100
AcDbEntity
  8
0
  6
DASHED
 62
     4
100
AcDbLine
 10
207.09671
 20
-165.29077
 30
0.0
 11
207.22871
 21
-166.81375
 31
0.0
  0
LINE
  5
89F
100
AcDbEntity
  8
0
  6
DASHED
 62
     4
100
AcDbLine
 10
207.3287
 20
-166.90575
 30
0.0
 11
207.63971
 21
-166.90575
 31
0.0
  0
LINE
  5
8A0
100
AcDbEntity
  8
0
  6
CENTER
 62
     7
100
AcDbLine
 10
202.79671
 20
-163.90575
 30
0.0
 11
209.79671
 21
-163.90575
 31
0.0
  0
LINE
  5
8A1
100
AcDbEntity
  8
0
  6
DASHED
 62
     4
100
AcDbLine
 10
173.97071
 20
-166.01876
 30
0.0
 11
173.09671
 21
-163.90576
 31
0.0
  0
LINE
  5
8A2
100
AcDbEntity
  8
0
  6
DASHED
 62
     4
100
AcDbLine
 10
208.62171
 20
-166.01876
 30
0.0
 11
209.49671
 21
-163.90575
 31
0.0
  0
LINE
  5
8A3
100
AcDbEntity
  8
0
  6
CENTER
 62
     7
100
AcDbLine
 10
206.29671
 20
-160.40575
 30
0.0
 11
206.29671
 21
-167.40575
 31
0.0
  0
LINE
  5
8A4
100
AcDbEntity
  8
0
  6
DASHED
 62
     4
100
AcDbLine
 10
176.29671
 20
-160.70575
 30
0.0
 11
206.29671
 21
-160.70575
 31
0.0
  0
LINE
  5
8A5
100
AcDbEntity
  8
0
  6
CENTER
 62
     7
100
AcDbLine
 10
191.29671
 20
-166.95375
 30
0.0
 11
191.29671
 21
-158.65575
 31
0.0
  0
LINE
  5
8A6
100
AcDbEntity
  8
0
  6
CONTINUOUS
 62
     4
100
AcDbLine
 10
179.49671
 20
-167.90575
 30
0.0
 11
179.49671
 21
-189.90575
 31
0.0
  0
LINE
  5
8A7
100
AcDbEntity
  8
0
  6
CONTINUOUS
 62
     4
100
AcDbLine
 10
175.79671
 20
-167.90575
 30
0.0
 11
175.79671
 21
-189.90575
 31
0.0
  0
ARC
  5
8A8
100
AcDbEntity
  8
0
  6
DASHED
 62
     4
100
AcDbCircle
 10
176.29671
 20
-163.90575
 30
0.0
 40
3.2
100
AcDbArc
 50
89.998992
 51
180.00001
  0
ARC
  5
8A9
100
AcDbEntity
  8
0
  6
DASHED
 62
     4
100
AcDbCircle
 10
174.91071
 20
-164.70573
 30
0.0
 40
0.4
100
AcDbArc
 50
112.811
 51
307.18789
  0
ARC
  5
8AA
100
AcDbEntity
  8
0
  6
DASHED
 62
     4
100
AcDbCircle
 10
176.29671
 20
-163.90575
 30
0.0
 40
1.6
100
AcDbArc
 50
359.9977
 51
195.63901
  0
ARC
  5
8AB
100
AcDbEntity
  8
0
  6
DASHED
 62
     4
100
AcDbCircle
 10
181.59671
 20
-163.90575
 30
0.0
 40
0.5
100
AcDbArc
 50
179.99999
 51
270.0
  0
ARC
  5
8AC
100
AcDbEntity
  8
0
  6
DASHED
 62
     4
100
AcDbCircle
 10
176.29671
 20
-163.90575
 30
0.0
 40
1.6
100
AcDbArc
 50
224.359
 51
239.999
  0
ARC
  5
8AD
100
AcDbEntity
  8
0
  6
CONTINUOUS
 62
     4
100
AcDbCircle
 10
175.26371
 20
-166.80574
 30
0.0
 40
0.1
100
AcDbArc
 50
269.998
 51
355.0138
  0
ARC
  5
8AE
100
AcDbEntity
  8
0
  6
DASHED
 62
     4
100
AcDbCircle
 10
206.29671
 20
-163.90575
 30
0.0
 40
3.2
100
AcDbArc
 50
359.9997
 51
89.998992
  0
ARC
  5
8AF
100
AcDbEntity
  8
0
  6
DASHED
 62
     4
100
AcDbCircle
 10
207.6817
 20
-164.70573
 30
0.0
 40
0.4
100
AcDbArc
 50
232.81499
 51
67.183004
  0
ARC
  5
8B0
100
AcDbEntity
  8
0
  6
DASHED
 62
     4
100
AcDbCircle
 10
206.29671
 20
-163.90575
 30
0.0
 40
1.6
100
AcDbArc
 50
344.3624
 51
180.00001
  0
ARC
  5
8B1
100
AcDbEntity
  8
0
  6
DASHED
 62
     4
100
AcDbCircle
 10
200.9967
 20
-163.90575
 30
0.0
 40
0.5
100
AcDbArc
 50
270.0
 51
0.000003
  0
ARC
  5
8B2
100
AcDbEntity
  8
0
  6
DASHED
 62
     4
100
AcDbCircle
 10
206.29671
 20
-163.90575
 30
0.0
 40
1.6
100
AcDbArc
 50
300.0009
 51
315.6401
  0
ARC
  5
8B3
100
AcDbEntity
  8
0
  6
CONTINUOUS
 62
     4
100
AcDbCircle
 10
207.3287
 20
-166.80574
 30
0.0
 40
0.1
100
AcDbArc
 50
184.98601
 51
270.00174
  0
ARC
  5
8B4
100
AcDbEntity
  8
0
  6
DASHED
 62
     4
100
AcDbCircle
 10
175.51171
 20
-165.29973
 30
0.0
 40
1.7
100
AcDbArc
 50
205.044
 51
250.831
  0
ARC
  5
8B5
100
AcDbEntity
  8
0
  6
DASHED
 62
     4
100
AcDbCircle
 10
207.0807
 20
-165.29973
 30
0.0
 40
1.7
100
AcDbArc
 50
289.1678
 51
334.9555
  0
POINT
  5
8B6
100
AcDbEntity
  8
0
  6
CONTINUOUS
 62
     7
100
AcDbPoint
 10
313.79672
 20
-178.90575
 30
0.0
  0
POINT
  5
8B7
100
AcDbEntity
  8
0
  6
CONTINUOUS
 62
     7
100
AcDbPoint
 10
328.29672
 20
-178.90575
 30
0.0
  0
LINE
  5
8B8
100
AcDbEntity
  8
0
  6
CONTINUOUS
 62
     7
100
AcDbLine
 10
286.79672
 20
-189.90575
 30
0.0
 11
296.79672
 21
-189.90575
 31
0.0
  0
LINE
  5
8B9
100
AcDbEntity
  8
0
  6
CENTER
 62
     7
100
AcDbLine
 10
271.29672
 20
-178.90575
 30
0.0
 11
328.29672
 21
-178.90575
 31
0.0
  0
LINE
  5
8BA
100
AcDbEntity
  8
0
  6
CONTINUOUS
 62
     7
100
AcDbLine
 10
308.48725
 20
-163.60575
 30
0.0
 11
323.79672
 21
-163.60575
 31
0.0
  0
LINE
  5
8BB
100
AcDbEntity
  8
0
  6
CONTINUOUS
 62
     7
100
AcDbLine
 10
308.48725
 20
-194.20575
 30
0.0
 11
323.79672
 21
-194.20575
 31
0.0
  0
LINE
  5
8BC
100
AcDbEntity
  8
0
  6
CONTINUOUS
 62
     7
100
AcDbLine
 10
276.79672
 20
-198.90575
 30
0.0
 11
308.48725
 21
-198.90575
 31
0.0
  0
LINE
  5
8BD
100
AcDbEntity
  8
0
  6
CONTINUOUS
 62
     7
100
AcDbLine
 10
286.79672
 20
-167.90575
 30
0.0
 11
296.79672
 21
-167.90575
 31
0.0
  0
LINE
  5
8BE
100
AcDbEntity
  8
0
  6
CONTINUOUS
 62
     7
100
AcDbLine
 10
276.79672
 20
-158.90575
 30
0.0
 11
308.48725
 21
-158.90575
 31
0.0
  0
LINE
  5
8BF
100
AcDbEntity
  8
0
  6
CONTINUOUS
 62
     7
100
AcDbLine
 10
276.79672
 20
-163.40575
 30
0.0
 11
286.79672
 21
-163.40575
 31
0.0
  0
LINE
  5
8C0
100
AcDbEntity
  8
0
  6
CONTINUOUS
 62
     7
100
AcDbLine
 10
311.29672
 20
-198.90575
 30
0.0
 11
317.79672
 21
-196.53994
 31
0.0
  0
LINE
  5
8C1
100
AcDbEntity
  8
0
  6
CONTINUOUS
 62
     7
100
AcDbLine
 10
276.79672
 20
-194.40575
 30
0.0
 11
286.79672
 21
-194.40575
 31
0.0
  0
LINE
  5
8C2
100
AcDbEntity
  8
0
  6
CONTINUOUS
 62
     7
100
AcDbLine
 10
311.29672
 20
-158.90575
 30
0.0
 11
317.79672
 21
-161.27155
 31
0.0
  0
LINE
  5
8C3
100
AcDbEntity
  8
0
  6
CONTINUOUS
 62
     7
100
AcDbLine
 10
309.79672
 20
-158.90575
 30
0.0
 11
311.29672
 21
-158.90575
 31
0.0
  0
LINE
  5
8C4
100
AcDbEntity
  8
0
  6
CONTINUOUS
 62
     7
100
AcDbLine
 10
276.79672
 20
-158.90575
 30
0.0
 11
276.79672
 21
-163.40575
 31
0.0
  0
LINE
  5
8C5
100
AcDbEntity
  8
0
  6
CONTINUOUS
 62
     7
100
AcDbLine
 10
308.48725
 20
-158.90575
 30
0.0
 11
308.48725
 21
-163.60575
 31
0.0
  0
LINE
  5
8C6
100
AcDbEntity
  8
0
  6
CONTINUOUS
 62
     7
100
AcDbLine
 10
286.79672
 20
-163.40575
 30
0.0
 11
286.79672
 21
-167.90575
 31
0.0
  0
LINE
  5
8C7
100
AcDbEntity
  8
0
  6
CONTINUOUS
 62
     7
100
AcDbLine
 10
296.79672
 20
-197.30575
 30
0.0
 11
303.79672
 21
-197.30575
 31
0.0
  0
LINE
  5
8C8
100
AcDbEntity
  8
0
  6
CENTER
 62
     7
100
AcDbLine
 10
313.79672
 20
-153.90575
 30
0.0
 11
313.79672
 21
-203.90575
 31
0.0
  0
LINE
  5
8C9
100
AcDbEntity
  8
0
  6
CENTER
 62
     7
100
AcDbLine
 10
287.79672
 20
-153.90575
 30
0.0
 11
287.79672
 21
-203.90575
 31
0.0
  0
LINE
  5
8CA
100
AcDbEntity
  8
0
  6
CONTINUOUS
 62
     7
100
AcDbLine
 10
296.79672
 20
-160.50575
 30
0.0
 11
296.79672
 21
-167.90575
 31
0.0
  0
LINE
  5
8CB
100
AcDbEntity
  8
0
  6
CONTINUOUS
 62
     7
100
AcDbLine
 10
296.79672
 20
-160.50575
 30
0.0
 11
303.79672
 21
-160.50575
 31
0.0
  0
LINE
  5
8CC
100
AcDbEntity
  8
0
  6
CONTINUOUS
 62
     4
100
AcDbLine
 10
312.39672
 20
-167.90575
 30
0.0
 11
312.39672
 21
-189.90575
 31
0.0
  0
LINE
  5
8CD
100
AcDbEntity
  8
0
  6
CONTINUOUS
 62
     7
100
AcDbLine
 10
323.79672
 20
-163.60575
 30
0.0
 11
323.79672
 21
-167.90575
 31
0.0
  0
LINE
  5
8CE
100
AcDbEntity
  8
0
  6
CONTINUOUS
 62
     7
100
AcDbLine
 10
323.79672
 20
-194.20575
 30
0.0
 11
323.79672
 21
-189.90575
 31
0.0
  0
LINE
  5
8CF
100
AcDbEntity
  8
0
  6
CONTINUOUS
 62
     7
100
AcDbLine
 10
303.79672
 20
-160.50575
 30
0.0
 11
303.79672
 21
-167.90575
 31
0.0
  0
LINE
  5
8D0
100
AcDbEntity
  8
0
  6
CONTINUOUS
 62
     7
100
AcDbLine
 10
308.48725
 20
-198.90575
 30
0.0
 11
308.48725
 21
-194.20575
 31
0.0
  0
LINE
  5
8D1
100
AcDbEntity
  8
0
  6
CONTINUOUS
 62
     7
100
AcDbLine
 10
276.79672
 20
-198.90575
 30
0.0
 11
276.79672
 21
-194.40575
 31
0.0
  0
LINE
  5
8D2
100
AcDbEntity
  8
0
  6
CONTINUOUS
 62
     7
100
AcDbLine
 10
296.79672
 20
-189.90575
 30
0.0
 11
296.79672
 21
-197.30575
 31
0.0
  0
LINE
  5
8D3
100
AcDbEntity
  8
0
  6
CONTINUOUS
 62
     7
100
AcDbLine
 10
303.79672
 20
-189.90575
 30
0.0
 11
303.79672
 21
-197.30575
 31
0.0
  0
LINE
  5
8D4
100
AcDbEntity
  8
0
  6
CONTINUOUS
 62
     7
100
AcDbLine
 10
303.79672
 20
-167.90575
 30
0.0
 11
323.79672
 21
-167.90575
 31
0.0
  0
LINE
  5
8D5
100
AcDbEntity
  8
0
  6
CONTINUOUS
 62
     7
100
AcDbLine
 10
303.79672
 20
-189.90575
 30
0.0
 11
323.79672
 21
-189.90575
 31
0.0
  0
LINE
  5
8D6
100
AcDbEntity
  8
0
  6
CONTINUOUS
 62
     4
100
AcDbLine
 10
296.84672
 20
-197.10575
 30
0.0
 11
303.74672
 21
-197.10575
 31
0.0
  0
LINE
  5
8D7
100
AcDbEntity
  8
0
  6
CONTINUOUS
 62
     4
100
AcDbLine
 10
296.84672
 20
-160.70575
 30
0.0
 11
303.74672
 21
-160.70575
 31
0.0
  0
LINE
  5
8D8
100
AcDbEntity
  8
0
  6
CONTINUOUS
 62
     4
100
AcDbLine
 10
320.79672
 20
-167.90575
 30
0.0
 11
320.79672
 21
-189.90575
 31
0.0
  0
LINE
  5
8D9
100
AcDbEntity
  8
0
  6
CONTINUOUS
 62
     7
100
AcDbLine
 10
309.79672
 20
-158.90575
 30
0.0
 11
309.79672
 21
-163.60575
 31
0.0
  0
LINE
  5
8DA
100
AcDbEntity
  8
0
  6
CONTINUOUS
 62
     7
100
AcDbLine
 10
317.79672
 20
-161.27155
 30
0.0
 11
317.79672
 21
-163.60575
 31
0.0
  0
LINE
  5
8DB
100
AcDbEntity
  8
0
  6
CONTINUOUS
 62
     7
100
AcDbLine
 10
317.79672
 20
-196.53994
 30
0.0
 11
317.79672
 21
-194.20575
 31
0.0
  0
LINE
  5
8DC
100
AcDbEntity
  8
0
  6
CONTINUOUS
 62
     7
100
AcDbLine
 10
309.79672
 20
-198.90575
 30
0.0
 11
309.79672
 21
-194.20575
 31
0.0
  0
LINE
  5
8DD
100
AcDbEntity
  8
0
  6
CONTINUOUS
 62
     4
100
AcDbLine
 10
303.74672
 20
-167.90575
 30
0.0
 11
320.79672
 21
-167.90575
 31
0.0
  0
LINE
  5
8DE
100
AcDbEntity
  8
0
  6
CONTINUOUS
 62
     4
100
AcDbLine
 10
303.74672
 20
-160.70575
 30
0.0
 11
303.74672
 21
-167.90575
 31
0.0
  0
LINE
  5
8DF
100
AcDbEntity
  8
0
  6
CONTINUOUS
 62
     4
100
AcDbLine
 10
286.79672
 20
-167.90575
 30
0.0
 11
286.79672
 21
-189.90575
 31
0.0
  0
LINE
  5
8E0
100
AcDbEntity
  8
0
  6
CONTINUOUS
 62
     4
100
AcDbLine
 10
303.74672
 20
-189.90575
 30
0.0
 11
320.79672
 21
-189.90575
 31
0.0
  0
LINE
  5
8E1
100
AcDbEntity
  8
0
  6
CONTINUOUS
 62
     4
100
AcDbLine
 10
286.79672
 20
-189.90575
 30
0.0
 11
296.84672
 21
-189.90575
 31
0.0
  0
LINE
  5
8E2
100
AcDbEntity
  8
0
  6
CONTINUOUS
 62
     4
100
AcDbLine
 10
303.74672
 20
-197.10575
 30
0.0
 11
303.74672
 21
-189.90575
 31
0.0
  0
LINE
  5
8E3
100
AcDbEntity
  8
0
  6
CONTINUOUS
 62
     4
100
AcDbLine
 10
286.79672
 20
-167.90575
 30
0.0
 11
296.84672
 21
-167.90575
 31
0.0
  0
LINE
  5
8E4
100
AcDbEntity
  8
0
  6
CONTINUOUS
 62
     4
100
AcDbLine
 10
296.84672
 20
-160.70575
 30
0.0
 11
296.84672
 21
-167.90575
 31
0.0
  0
LINE
  5
8E5
100
AcDbEntity
  8
0
  6
CONTINUOUS
 62
     7
100
AcDbLine
 10
286.79672
 20
-189.90575
 30
0.0
 11
286.79672
 21
-194.40575
 31
0.0
  0
LINE
  5
8E6
100
AcDbEntity
  8
0
  6
CONTINUOUS
 62
     4
100
AcDbLine
 10
296.84672
 20
-197.10575
 30
0.0
 11
296.84672
 21
-189.90575
 31
0.0
  0
LINE
  5
8E7
100
AcDbEntity
  8
0
  6
CONTINUOUS
 62
     7
100
AcDbLine
 10
309.79672
 20
-198.90575
 30
0.0
 11
311.29672
 21
-198.90575
 31
0.0
  0
LINE
  5
8E8
100
AcDbEntity
  8
0
  6
CENTER
 62
     7
100
AcDbLine
 10
294.79672
 20
-193.90575
 30
0.0
 11
305.79672
 21
-193.90575
 31
0.0
  0
LINE
  5
8E9
100
AcDbEntity
  8
0
  6
CENTER
 62
     7
100
AcDbLine
 10
294.79672
 20
-163.90575
 30
0.0
 11
305.79672
 21
-163.90575
 31
0.0
  0
POINT
  5
8EA
100
AcDbEntity
  8
0
  6
CONTINUOUS
 62
     7
100
AcDbPoint
 10
313.79672
 20
-248.90575
 30
0.0
  0
POINT
  5
8EB
100
AcDbEntity
  8
0
  6
CONTINUOUS
 62
     7
100
AcDbPoint
 10
319.79672
 20
-248.90575
 30
0.0
  0
LINE
  5
8EC
100
AcDbEntity
  8
0
  6
CENTER
 62
     7
100
AcDbLine
 10
319.79672
 20
-248.90575
 30
0.0
 11
307.79672
 21
-248.90575
 31
0.0
  0
LINE
  5
8ED
100
AcDbEntity
  8
0
  6
CONTINUOUS
 62
     7
100
AcDbLine
 10
287.79672
 20
-237.90575
 30
0.0
 11
312.10238
 21
-237.90575
 31
0.0
  0
LINE
  5
8EE
100
AcDbEntity
  8
0
  6
CENTER
 62
     7
100
AcDbLine
 10
293.79672
 20
-248.90575
 30
0.0
 11
281.79672
 21
-248.90575
 31
0.0
  0
LINE
  5
8EF
100
AcDbEntity
  8
0
  6
CENTER
 62
     7
100
AcDbLine
 10
313.79672
 20
-242.90575
 30
0.0
 11
313.79672
 21
-254.90575
 31
0.0
  0
LINE
  5
8F0
100
AcDbEntity
  8
0
  6
CONTINUOUS
 62
     7
100
AcDbLine
 10
287.79672
 20
-259.90575
 30
0.0
 11
308.19094
 21
-259.90575
 31
0.0
  0
LINE
  5
8F1
100
AcDbEntity
  8
0
  6
CENTER
 62
     7
100
AcDbLine
 10
287.79672
 20
-242.90575
 30
0.0
 11
287.79672
 21
-254.90575
 31
0.0
  0
LINE
  5
8F2
100
AcDbEntity
  8
0
  6
CONTINUOUS
 62
     7
100
AcDbLine
 10
311.29672
 20
-245.78325
 30
0.0
 11
311.29672
 21
-252.02825
 31
0.0
  0
LINE
  5
8F3
100
AcDbEntity
  8
0
  6
CONTINUOUS
 62
     7
100
AcDbLine
 10
305.66662
 20
-257.0391
 30
0.0
 11
306.28906
 21
-256.2973
 31
0.0
  0
LINE
  5
8F4
100
AcDbEntity
  8
0
  6
CONTINUOUS
 62
     7
100
AcDbLine
 10
312.39672
 20
-239.00423
 30
0.0
 11
312.10238
 21
-237.90575
 31
0.0
  0
LINE
  5
8F5
100
AcDbEntity
  8
0
  6
CONTINUOUS
 62
     7
100
AcDbLine
 10
306.40466
 20
-257.71526
 30
0.0
 11
308.38378
 21
-259.37593
 31
0.0
  0
ARC
  5
8F6
100
AcDbEntity
  8
0
  6
CONTINUOUS
 62
     7
100
AcDbCircle
 10
287.79672
 20
-248.90575
 30
0.0
 40
11.0
100
AcDbArc
 50
90.000003
 51
270.0
  0
CIRCLE
  5
8F7
100
AcDbEntity
  8
0
  6
CONTINUOUS
 62
     7
100
AcDbCircle
 10
313.79672
 20
-248.90575
 30
0.0
 40
4.0
  0
ARC
  5
8F8
100
AcDbEntity
  8
0
  6
CONTINUOUS
 62
     7
100
AcDbCircle
 10
313.79672
 20
-248.90575
 30
0.0
 40
11.5
100
AcDbArc
 50
118.95503
 51
230.00001
  0
CIRCLE
  5
8F9
100
AcDbEntity
  8
0
  6
CONTINUOUS
 62
     7
100
AcDbCircle
 10
287.79672
 20
-248.90575
 30
0.0
 40
4.0
  0
ARC
  5
8FA
100
AcDbEntity
  8
0
  6
CONTINUOUS
 62
     7
100
AcDbCircle
 10
306.67209
 20
-256.61869
 30
0.0
 40
0.5
100
AcDbArc
 50
47.270599
 51
140.0
  0
ARC
  5
8FB
100
AcDbEntity
  8
0
  6
CONTINUOUS
 62
     7
100
AcDbCircle
 10
313.79672
 20
-248.90575
 30
0.0
 40
10.0
100
AcDbArc
 50
227.2706
 51
98.047844
  0
ARC
  5
8FC
100
AcDbEntity
  8
0
  6
CONTINUOUS
 62
     7
100
AcDbCircle
 10
307.98725
 20
-238.40575
 30
0.0
 40
0.5
100
AcDbArc
 50
298.95503
 51
90.000003
  0
ARC
  5
8FD
100
AcDbEntity
  8
0
  6
CONTINUOUS
 62
     7
100
AcDbCircle
 10
308.19094
 20
-259.60575
 30
0.0
 40
0.3
100
AcDbArc
 50
270.0
 51
50.0
  0
POINT
  5
8FE
100
AcDbEntity
  8
0
  6
CONTINUOUS
 62
     7
100
AcDbPoint
 10
313.79672
 20
-318.90576
 30
0.0
  0
POINT
  5
8FF
100
AcDbEntity
  8
0
  6
CONTINUOUS
 62
     7
100
AcDbPoint
 10
328.29672
 20
-318.90576
 30
0.0
  0
LINE
  5
900
100
AcDbEntity
  8
0
  6
CONTINUOUS
 62
     7
100
AcDbLine
 10
276.79672
 20
-334.40576
 30
0.0
 11
276.79672
 21
-338.90576
 31
0.0
  0
LINE
  5
901
100
AcDbEntity
  8
0
  6
CONTINUOUS
 62
     7
100
AcDbLine
 10
276.79672
 20
-334.40576
 30
0.0
 11
287.29672
 21
-334.40576
 31
0.0
  0
LINE
  5
902
100
AcDbEntity
  8
0
  6
CONTINUOUS
 62
     7
100
AcDbLine
 10
308.49094
 20
-303.60576
 30
0.0
 11
323.79672
 21
-303.60576
 31
0.0
  0
LINE
  5
903
100
AcDbEntity
  8
0
  6
CONTINUOUS
 62
     7
100
AcDbLine
 10
276.79672
 20
-303.40576
 30
0.0
 11
287.29672
 21
-303.40576
 31
0.0
  0
LINE
  5
904
100
AcDbEntity
  8
0
  6
CONTINUOUS
 62
     7
100
AcDbLine
 10
308.49094
 20
-334.20576
 30
0.0
 11
323.79672
 21
-334.20576
 31
0.0
  0
LINE
  5
905
100
AcDbEntity
  8
0
  6
CONTINUOUS
 62
     7
100
AcDbLine
 10
276.79672
 20
-298.90576
 30
0.0
 11
308.49094
 21
-298.90576
 31
0.0
  0
LINE
  5
906
100
AcDbEntity
  8
0
  6
CENTER
 62
     7
100
AcDbLine
 10
271.29672
 20
-318.90576
 30
0.0
 11
328.29672
 21
-318.90576
 31
0.0
  0
LINE
  5
907
100
AcDbEntity
  8
0
  6
CONTINUOUS
 62
     7
100
AcDbLine
 10
276.79672
 20
-338.90576
 30
0.0
 11
308.49094
 21
-338.90576
 31
0.0
  0
LINE
  5
908
100
AcDbEntity
  8
0
  6
CONTINUOUS
 62
     7
100
AcDbLine
 10
286.79672
 20
-303.40576
 30
0.0
 11
286.79672
 21
-334.40576
 31
0.0
  0
LINE
  5
909
100
AcDbEntity
  8
0
  6
CENTER
 62
     7
100
AcDbLine
 10
313.79672
 20
-293.90576
 30
0.0
 11
313.79672
 21
-343.90576
 31
0.0
  0
LINE
  5
90A
100
AcDbEntity
  8
0
  6
CENTER
 62
     7
100
AcDbLine
 10
287.79672
 20
-293.90576
 30
0.0
 11
287.79672
 21
-343.90576
 31
0.0
  0
LINE
  5
90B
100
AcDbEntity
  8
0
  6
CONTINUOUS
 62
     7
100
AcDbLine
 10
323.79672
 20
-303.60576
 30
0.0
 11
323.79672
 21
-307.90576
 31
0.0
  0
LINE
  5
90C
100
AcDbEntity
  8
0
  6
CONTINUOUS
 62
     7
100
AcDbLine
 10
323.79672
 20
-334.20576
 30
0.0
 11
323.79672
 21
-329.90576
 31
0.0
  0
LINE
  5
90D
100
AcDbEntity
  8
0
  6
CONTINUOUS
 62
     7
100
AcDbLine
 10
314.66828
 20
-307.90576
 30
0.0
 11
314.66828
 21
-329.90576
 31
0.0
  0
LINE
  5
90E
100
AcDbEntity
  8
0
  6
CONTINUOUS
 62
     7
100
AcDbLine
 10
314.66828
 20
-307.90576
 30
0.0
 11
323.79672
 21
-307.90576
 31
0.0
  0
LINE
  5
90F
100
AcDbEntity
  8
0
  6
CONTINUOUS
 62
     7
100
AcDbLine
 10
314.66828
 20
-329.90576
 30
0.0
 11
323.79672
 21
-329.90576
 31
0.0
  0
LINE
  5
910
100
AcDbEntity
  8
0
  6
CONTINUOUS
 62
     7
100
AcDbLine
 10
287.29672
 20
-303.40576
 30
0.0
 11
287.29672
 21
-334.40576
 31
0.0
  0
LINE
  5
911
100
AcDbEntity
  8
0
  6
CONTINUOUS
 62
     7
100
AcDbLine
 10
276.79672
 20
-298.90576
 30
0.0
 11
276.79672
 21
-303.40576
 31
0.0
  0
LINE
  5
912
100
AcDbEntity
  8
0
  6
CONTINUOUS
 62
     7
100
AcDbLine
 10
320.79672
 20
-307.90576
 30
0.0
 11
320.79672
 21
-329.90576
 31
0.0
  0
LINE
  5
913
100
AcDbEntity
  8
0
  6
CONTINUOUS
 62
     7
100
AcDbLine
 10
309.79672
 20
-298.90576
 30
0.0
 11
311.29672
 21
-298.90576
 31
0.0
  0
LINE
  5
914
100
AcDbEntity
  8
0
  6
CONTINUOUS
 62
     7
100
AcDbLine
 10
311.29672
 20
-298.90576
 30
0.0
 11
317.79672
 21
-301.27157
 31
0.0
  0
LINE
  5
915
100
AcDbEntity
  8
0
  6
CONTINUOUS
 62
     7
100
AcDbLine
 10
311.29672
 20
-338.90576
 30
0.0
 11
317.79672
 21
-336.53996
 31
0.0
  0
LINE
  5
916
100
AcDbEntity
  8
0
  6
CONTINUOUS
 62
     7
100
AcDbLine
 10
309.79672
 20
-298.90576
 30
0.0
 11
309.79672
 21
-303.60576
 31
0.0
  0
LINE
  5
917
100
AcDbEntity
  8
0
  6
CONTINUOUS
 62
     7
100
AcDbLine
 10
309.79672
 20
-338.90576
 30
0.0
 11
311.29672
 21
-338.90576
 31
0.0
  0
LINE
  5
918
100
AcDbEntity
  8
0
  6
CONTINUOUS
 62
     7
100
AcDbLine
 10
317.79672
 20
-301.27157
 30
0.0
 11
317.79672
 21
-303.60576
 31
0.0
  0
LINE
  5
919
100
AcDbEntity
  8
0
  6
CONTINUOUS
 62
     7
100
AcDbLine
 10
317.79672
 20
-336.53996
 30
0.0
 11
317.79672
 21
-334.20576
 31
0.0
  0
LINE
  5
91A
100
AcDbEntity
  8
0
  6
CONTINUOUS
 62
     7
100
AcDbLine
 10
309.79672
 20
-338.90576
 30
0.0
 11
309.79672
 21
-334.20576
 31
0.0
  0
LINE
  5
91B
100
AcDbEntity
  8
0
  6
CONTINUOUS
 62
     7
100
AcDbLine
 10
308.49094
 20
-298.90576
 30
0.0
 11
308.49094
 21
-303.60576
 31
0.0
  0
LINE
  5
91C
100
AcDbEntity
  8
0
  6
CONTINUOUS
 62
     7
100
AcDbLine
 10
308.49094
 20
-334.20576
 30
0.0
 11
308.49094
 21
-338.90576
 31
0.0
  0
POINT
  5
91D
100
AcDbEntity
  8
0
  6
CONTINUOUS
 62
     7
100
AcDbPoint
 10
418.79672
 20
-178.90575
 30
0.0
  0
POINT
  5
91E
100
AcDbEntity
  8
0
  6
CONTINUOUS
 62
     7
100
AcDbPoint
 10
434.79672
 20
-178.90575
 30
0.0
  0
LINE
  5
91F
100
AcDbEntity
  8
0
  6
CONTINUOUS
 62
     7
100
AcDbLine
 10
414.79672
 20
-194.20575
 30
0.0
 11
414.79672
 21
-198.90575
 31
0.0
  0
LINE
  5
920
100
AcDbEntity
  8
0
  6
CONTINUOUS
 62
     7
100
AcDbLine
 10
422.79672
 20
-163.60575
 30
0.0
 11
422.79672
 21
-158.90575
 31
0.0
  0
LINE
  5
921
100
AcDbEntity
  8
0
  6
CONTINUOUS
 62
     7
100
AcDbLine
 10
414.79672
 20
-163.60575
 30
0.0
 11
414.79672
 21
-158.90575
 31
0.0
  0
LINE
  5
922
100
AcDbEntity
  8
0
  6
CONTINUOUS
 62
     4
100
AcDbLine
 10
409.59672
 20
-189.90575
 30
0.0
 11
409.59672
 21
-167.90575
 31
0.0
  0
LINE
  5
923
100
AcDbEntity
  8
0
  6
CENTER
 62
     7
100
AcDbLine
 10
418.79672
 20
-203.90575
 30
0.0
 11
418.79672
 21
-153.90575
 31
0.0
  0
LINE
  5
924
100
AcDbEntity
  8
0
  6
CENTER
 62
     7
100
AcDbLine
 10
407.79672
 20
-193.90575
 30
0.0
 11
414.79672
 21
-193.90575
 31
0.0
  0
LINE
  5
925
100
AcDbEntity
  8
0
  6
CONTINUOUS
 62
     7
100
AcDbLine
 10
424.79672
 20
-189.90575
 30
0.0
 11
424.79672
 21
-167.90575
 31
0.0
  0
LINE
  5
926
100
AcDbEntity
  8
0
  6
CONTINUOUS
 62
     7
100
AcDbLine
 10
429.79672
 20
-198.90575
 30
0.0
 11
429.79672
 21
-194.20575
 31
0.0
  0
LINE
  5
927
100
AcDbEntity
  8
0
  6
CONTINUOUS
 62
     7
100
AcDbLine
 10
407.79672
 20
-167.90575
 30
0.0
 11
407.79672
 21
-158.90575
 31
0.0
  0
LINE
  5
928
100
AcDbEntity
  8
0
  6
CONTINUOUS
 62
     7
100
AcDbLine
 10
407.79672
 20
-198.90575
 30
0.0
 11
407.79672
 21
-189.90575
 31
0.0
  0
LINE
  5
929
100
AcDbEntity
  8
0
  6
CONTINUOUS
 62
     4
100
AcDbLine
 10
411.79672
 20
-189.90575
 30
0.0
 11
411.79672
 21
-167.90575
 31
0.0
  0
LINE
  5
92A
100
AcDbEntity
  8
0
  6
CONTINUOUS
 62
     7
100
AcDbLine
 10
429.79672
 20
-163.60575
 30
0.0
 11
429.79672
 21
-158.90575
 31
0.0
  0
LINE
  5
92B
100
AcDbEntity
  8
0
  6
CONTINUOUS
 62
     7
100
AcDbLine
 10
429.29672
 20
-194.20575
 30
0.0
 11
429.29672
 21
-163.60575
 31
0.0
  0
LINE
  5
92C
100
AcDbEntity
  8
0
  6
CENTER
 62
     7
100
AcDbLine
 10
411.29672
 20
-197.40575
 30
0.0
 11
411.29672
 21
-190.40575
 31
0.0
  0
LINE
  5
92D
100
AcDbEntity
  8
0
  6
CONTINUOUS
 62
     7
100
AcDbLine
 10
407.79672
 20
-198.90575
 30
0.0
 11
429.79672
 21
-198.90575
 31
0.0
  0
LINE
  5
92E
100
AcDbEntity
  8
0
  6
CENTER
 62
     7
100
AcDbLine
 10
407.79672
 20
-163.90575
 30
0.0
 11
414.79672
 21
-163.90575
 31
0.0
  0
LINE
  5
92F
100
AcDbEntity
  8
0
  6
DASHED
 62
     4
100
AcDbLine
 10
381.29672
 20
-197.10575
 30
0.0
 11
411.29672
 21
-197.10575
 31
0.0
  0
LINE
  5
930
100
AcDbEntity
  8
0
  6
CONTINUOUS
 62
     7
100
AcDbLine
 10
407.79672
 20
-189.90575
 30
0.0
 11
429.29672
 21
-189.90575
 31
0.0
  0
LINE
  5
931
100
AcDbEntity
  8
0
  6
CONTINUOUS
 62
     7
100
AcDbLine
 10
407.79672
 20
-158.90575
 30
0.0
 11
429.79672
 21
-158.90575
 31
0.0
  0
LINE
  5
932
100
AcDbEntity
  8
0
  6
CENTER
 62
     7
100
AcDbLine
 10
402.79672
 20
-178.90575
 30
0.0
 11
434.79672
 21
-178.90575
 31
0.0
  0
LINE
  5
933
100
AcDbEntity
  8
0
  6
CONTINUOUS
 62
     7
100
AcDbLine
 10
407.79672
 20
-167.90575
 30
0.0
 11
429.29672
 21
-167.90575
 31
0.0
  0
LINE
  5
934
100
AcDbEntity
  8
0
  6
CENTER
 62
     7
100
AcDbLine
 10
411.29672
 20
-160.40575
 30
0.0
 11
411.29672
 21
-167.40575
 31
0.0
  0
LINE
  5
935
100
AcDbEntity
  8
0
  6
DASHED
 62
     4
100
AcDbLine
 10
406.49672
 20
-193.90575
 30
0.0
 11
409.69672
 21
-193.90575
 31
0.0
  0
LINE
  5
936
100
AcDbEntity
  8
0
  6
DASHED
 62
     4
100
AcDbLine
 10
412.09672
 20
-192.52074
 30
0.0
 11
412.22972
 21
-190.99775
 31
0.0
  0
LINE
  5
937
100
AcDbEntity
  8
0
  6
DASHED
 62
     4
100
AcDbLine
 10
412.32972
 20
-190.90575
 30
0.0
 11
412.64072
 21
-190.90575
 31
0.0
  0
LINE
  5
938
100
AcDbEntity
  8
0
  6
DASHED
 62
     4
100
AcDbLine
 10
386.59673
 20
-193.40575
 30
0.0
 11
405.99672
 21
-193.40575
 31
0.0
  0
LINE
  5
939
100
AcDbEntity
  8
0
  6
DASHED
 62
     4
100
AcDbLine
 10
386.09673
 20
-193.90575
 30
0.0
 11
382.89673
 21
-193.90575
 31
0.0
  0
LINE
  5
93A
100
AcDbEntity
  8
0
  6
DASHED
 62
     4
100
AcDbLine
 10
380.49672
 20
-192.52072
 30
0.0
 11
380.36472
 21
-190.99775
 31
0.0
  0
LINE
  5
93B
100
AcDbEntity
  8
0
  6
DASHED
 62
     4
100
AcDbLine
 10
380.26472
 20
-190.90575
 30
0.0
 11
379.95372
 21
-190.90575
 31
0.0
  0
LINE
  5
93C
100
AcDbEntity
  8
0
  6
CENTER
 62
     7
100
AcDbLine
 10
384.79672
 20
-193.90575
 30
0.0
 11
377.79672
 21
-193.90575
 31
0.0
  0
LINE
  5
93D
100
AcDbEntity
  8
0
  6
DASHED
 62
     4
100
AcDbLine
 10
413.62272
 20
-191.79274
 30
0.0
 11
414.49672
 21
-193.90573
 31
0.0
  0
LINE
  5
93E
100
AcDbEntity
  8
0
  6
DASHED
 62
     4
100
AcDbLine
 10
378.97172
 20
-191.79274
 30
0.0
 11
378.09672
 21
-193.90575
 31
0.0
  0
LINE
  5
93F
100
AcDbEntity
  8
0
  6
CENTER
 62
     7
100
AcDbLine
 10
381.29672
 20
-197.40575
 30
0.0
 11
381.29672
 21
-190.40575
 31
0.0
  0
LINE
  5
940
100
AcDbEntity
  8
0
  6
CENTER
 62
     7
100
AcDbLine
 10
396.29672
 20
-190.85774
 30
0.0
 11
396.29672
 21
-199.15575
 31
0.0
  0
LINE
  5
941
100
AcDbEntity
  8
0
  6
CONTINUOUS
 62
     4
100
AcDbLine
 10
408.09672
 20
-189.90575
 30
0.0
 11
408.09672
 21
-167.90575
 31
0.0
  0
LINE
  5
942
100
AcDbEntity
  8
0
  6
CONTINUOUS
 62
     7
100
AcDbLine
 10
407.79672
 20
-194.20575
 30
0.0
 11
429.79672
 21
-194.20575
 31
0.0
  0
LINE
  5
943
100
AcDbEntity
  8
0
  6
CONTINUOUS
 62
     7
100
AcDbLine
 10
407.79672
 20
-163.60575
 30
0.0
 11
429.79672
 21
-163.60575
 31
0.0
  0
LINE
  5
944
100
AcDbEntity
  8
0
  6
CONTINUOUS
 62
     7
100
AcDbLine
 10
422.79672
 20
-194.20575
 30
0.0
 11
422.79672
 21
-198.90575
 31
0.0
  0
ARC
  5
945
100
AcDbEntity
  8
0
  6
DASHED
 62
     4
100
AcDbCircle
 10
411.29672
 20
-193.90575
 30
0.0
 40
1.6
100
AcDbArc
 50
179.9977
 51
15.639012
  0
ARC
  5
946
100
AcDbEntity
  8
0
  6
DASHED
 62
     4
100
AcDbCircle
 10
412.68272
 20
-193.10576
 30
0.0
 40
0.4
100
AcDbArc
 50
292.811
 51
127.1879
  0
ARC
  5
947
100
AcDbEntity
  8
0
  6
DASHED
 62
     4
100
AcDbCircle
 10
411.29672
 20
-193.90575
 30
0.0
 40
3.2
100
AcDbArc
 50
269.99899
 51
0.000001
  0
ARC
  5
948
100
AcDbEntity
  8
0
  6
DASHED
 62
     4
100
AcDbCircle
 10
405.99672
 20
-193.90575
 30
0.0
 40
0.5
100
AcDbArc
 50
0.0
 51
90.000003
  0
ARC
  5
949
100
AcDbEntity
  8
0
  6
DASHED
 62
     4
100
AcDbCircle
 10
411.29672
 20
-193.90575
 30
0.0
 40
1.6
100
AcDbArc
 50
44.358998
 51
59.998998
  0
ARC
  5
94A
100
AcDbEntity
  8
0
  6
CONTINUOUS
 62
     4
100
AcDbCircle
 10
412.32972
 20
-191.00575
 30
0.0
 40
0.1
100
AcDbArc
 50
89.998001
 51
175.0138
  0
ARC
  5
94B
100
AcDbEntity
  8
0
  6
DASHED
 62
     4
100
AcDbCircle
 10
381.29672
 20
-193.90575
 30
0.0
 40
3.2
100
AcDbArc
 50
179.9997
 51
269.99899
  0
ARC
  5
94C
100
AcDbEntity
  8
0
  6
DASHED
 62
     4
100
AcDbCircle
 10
379.91173
 20
-193.10576
 30
0.0
 40
0.4
100
AcDbArc
 50
52.814998
 51
247.18302
  0
ARC
  5
94D
100
AcDbEntity
  8
0
  6
DASHED
 62
     4
100
AcDbCircle
 10
381.29672
 20
-193.90575
 30
0.0
 40
1.6
100
AcDbArc
 50
164.3624
 51
0.00001
  0
ARC
  5
94E
100
AcDbEntity
  8
0
  6
DASHED
 62
     4
100
AcDbCircle
 10
386.59673
 20
-193.90575
 30
0.0
 40
0.5
100
AcDbArc
 50
90.000003
 51
180.00001
  0
ARC
  5
94F
100
AcDbEntity
  8
0
  6
DASHED
 62
     4
100
AcDbCircle
 10
381.29672
 20
-193.90575
 30
0.0
 40
1.6
100
AcDbArc
 50
120.0009
 51
135.6401
  0
ARC
  5
950
100
AcDbEntity
  8
0
  6
CONTINUOUS
 62
     4
100
AcDbCircle
 10
380.26472
 20
-191.00575
 30
0.0
 40
0.1
100
AcDbArc
 50
4.986001
 51
90.001737
  0
ARC
  5
951
100
AcDbEntity
  8
0
  6
DASHED
 62
     4
100
AcDbCircle
 10
412.08172
 20
-192.51176
 30
0.0
 40
1.7
100
AcDbArc
 50
25.044
 51
70.831001
  0
ARC
  5
952
100
AcDbEntity
  8
0
  6
DASHED
 62
     4
100
AcDbCircle
 10
380.51273
 20
-192.51176
 30
0.0
 40
1.7
100
AcDbArc
 50
109.1678
 51
154.9555
  0
ARC
  5
953
100
AcDbEntity
  8
0
  6
CONTINUOUS
 62
     7
100
AcDbCircle
 10
418.79672
 20
-156.70714
 30
0.0
 40
4.564414
100
AcDbArc
 50
208.79547
 51
331.20452
  0
POLYLINE
  5
954
100
AcDbEntity
  8
0
  6
CONTINUOUS
 62
     7
100
AcDb2dPolyline
 66
     1
 10
0.0
 20
0.0
 30
0.0
  0
VERTEX
  5
955
100
AcDbEntity
  8
0
  6
CONTINUOUS
 62
     7
100
AcDbVertex
100
AcDb2dVertex
 10
422.79672
 20
-198.90575
 30
0.0
 42
0.107733
  0
VERTEX
  5
956
100
AcDbEntity
  8
0
  6
CONTINUOUS
 62
     7
100
AcDbVertex
100
AcDb2dVertex
 10
422.6595
 20
-198.2914
 30
0.0
 42
0.080189
  0
VERTEX
  5
957
100
AcDbEntity
  8
0
  6
CONTINUOUS
 62
     7
100
AcDbVertex
100
AcDb2dVertex
 10
422.30448
 20
-197.76873
 30
0.0
 42
0.055761
  0
VERTEX
  5
958
100
AcDbEntity
  8
0
  6
CONTINUOUS
 62
     7
100
AcDbVertex
100
AcDb2dVertex
 10
421.82217
 20
-197.35814
 30
0.0
 42
0.040956
  0
VERTEX
  5
959
100
AcDbEntity
  8
0
  6
CONTINUOUS
 62
     7
100
AcDbVertex
100
AcDb2dVertex
 10
421.27017
 20
-197.04648
 30
0.0
 42
0.032461
  0
VERTEX
  5
95A
100
AcDbEntity
  8
0
  6
CONTINUOUS
 62
     7
100
AcDbVertex
100
AcDb2dVertex
 10
420.67861
 20
-196.81812
 30
0.0
 42
0.0276
  0
VERTEX
  5
95B
100
AcDbEntity
  8
0
  6
CONTINUOUS
 62
     7
100
AcDbVertex
100
AcDb2dVertex
 10
420.06323
 20
-196.66166
 30
0.0
 42
0.024887
  0
VERTEX
  5
95C
100
AcDbEntity
  8
0
  6
CONTINUOUS
 62
     7
100
AcDbVertex
100
AcDb2dVertex
 10
419.43473
 20
-196.57023
 30
0.0
 42
0.023666
  0
VERTEX
  5
95D
100
AcDbEntity
  8
0
  6
CONTINUOUS
 62
     7
100
AcDbVertex
100
AcDb2dVertex
 10
418.80029
 20
-196.53994
 30
0.0
 42
0.023614
  0
VERTEX
  5
95E
100
AcDbEntity
  8
0
  6
CONTINUOUS
 62
     7
100
AcDbVertex
100
AcDb2dVertex
 10
418.16701
 20
-196.56944
 30
0.0
 42
0.024836
  0
VERTEX
  5
95F
100
AcDbEntity
  8
0
  6
CONTINUOUS
 62
     7
100
AcDbVertex
100
AcDb2dVertex
 10
417.53901
 20
-196.65993
 30
0.0
 42
0.027579
  0
VERTEX
  5
960
100
AcDbEntity
  8
0
  6
CONTINUOUS
 62
     7
100
AcDbVertex
100
AcDb2dVertex
 10
416.92276
 20
-196.81563
 30
0.0
 42
0.032474
  0
VERTEX
  5
961
100
AcDbEntity
  8
0
  6
CONTINUOUS
 62
     7
100
AcDbVertex
100
AcDb2dVertex
 10
416.3293
 20
-197.04368
 30
0.0
 42
0.040898
  0
VERTEX
  5
962
100
AcDbEntity
  8
0
  6
CONTINUOUS
 62
     7
100
AcDbVertex
100
AcDb2dVertex
 10
415.77613
 20
-197.35483
 30
0.0
 42
0.055658
  0
VERTEX
  5
963
100
AcDbEntity
  8
0
  6
CONTINUOUS
 62
     7
100
AcDbVertex
100
AcDb2dVertex
 10
415.29248
 20
-197.76495
 30
0.0
 42
0.080083
  0
VERTEX
  5
964
100
AcDbEntity
  8
0
  6
CONTINUOUS
 62
     7
100
AcDbVertex
100
AcDb2dVertex
 10
414.93573
 20
-198.28749
 30
0.0
 42
0.107885
  0
VERTEX
  5
965
100
AcDbEntity
  8
0
  6
CONTINUOUS
 62
     7
100
AcDbVertex
100
AcDb2dVertex
 10
414.79673
 20
-198.90297
 30
0.0
  0
SEQEND
  5
966
100
AcDbEntity
  8
0
 62
     7
  0
ENDSEC
  0
SECTION
  2
OBJECTS
  0
DICTIONARY
  5
C
100
AcDbDictionary
  3
ACAD_GROUP
350
D
  3
ACAD_MLINESTYLE
350
E
  0
DICTIONARY
  5
D
102
{ACAD_REACTORS
330
C
102
}
100
AcDbDictionary
  0
DICTIONARY
  5
E
102
{ACAD_REACTORS
330
C
102
}
100
AcDbDictionary
  3
STANDARD
350
1C
  0
MLINESTYLE
  5
1C
102
{ACAD_REACTORS
330
E
102
}
100
AcDbMlineStyle
  2
STANDARD
 70
     0
  3

 62
     0
 51
90.0
 52
90.0
 71
     2
 49
0.5
 62
   256
  6
BYLAYER
 49
-0.5
 62
   256
  6
BYLAYER
  0
ENDSEC
  0
EOF
