  0
SECTION
  2
HEADER
  9
$ACADVER
  1
AC1012
  9
$DWGCODEPAGE
  3
dos932
  9
$INSBASE
 10
0.0
 20
0.0
 30
0.0
  9
$EXTMIN
 10
-508.30862
 20
-584.2677
 30
0.0
  9
$EXTMAX
 10
561.69135
 20
559.7323
 30
0.0
  9
$LIMMIN
 10
0.0
 20
0.0
  9
$LIMMAX
 10
12.0
 20
9.0
  9
$ORTHOMODE
 70
     0
  9
$REGENMODE
 70
     1
  9
$FILLMODE
 70
     1
  9
$QTEXTMODE
 70
     0
  9
$MIRRTEXT
 70
     1
  9
$DRAGMODE
 70
     2
  9
$LTSCALE
 40
1.0
  9
$OSMODE
 70
     0
  9
$ATTMODE
 70
     1
  9
$TEXTSIZE
 40
0.2
  9
$TRACEWID
 40
0.05
  9
$TEXTSTYLE
  7
STANDARD
  9
$CLAYER
  8
0
  9
$CELTYPE
  6
CONTINUOUS
  9
$CECOLOR
 62
   256
  9
$CELTSCALE
 40
1.0
  9
$DELOBJ
 70
     1
  9
$DISPSILH
 70
     0
  9
$DIMSCALE
 40
1.0
  9
$DIMASZ
 40
0.18
  9
$DIMEXO
 40
0.0625
  9
$DIMDLI
 40
0.38
  9
$DIMRND
 40
0.0
  9
$DIMDLE
 40
0.0
  9
$DIMEXE
 40
0.18
  9
$DIMTP
 40
0.0
  9
$DIMTM
 40
0.0
  9
$DIMTXT
 40
0.18
  9
$DIMCEN
 40
0.09
  9
$DIMTSZ
 40
0.0
  9
$DIMTOL
 70
     0
  9
$DIMLIM
 70
     0
  9
$DIMTIH
 70
     1
  9
$DIMTOH
 70
     1
  9
$DIMSE1
 70
     0
  9
$DIMSE2
 70
     0
  9
$DIMTAD
 70
     0
  9
$DIMZIN
 70
     0
  9
$DIMBLK
  1

  9
$DIMASO
 70
     1
  9
$DIMSHO
 70
     1
  9
$DIMPOST
  1

  9
$DIMAPOST
  1

  9
$DIMALT
 70
     0
  9
$DIMALTD
 70
     2
  9
$DIMALTF
 40
25.4
  9
$DIMLFAC
 40
1.0
  9
$DIMTOFL
 70
     0
  9
$DIMTVP
 40
0.0
  9
$DIMTIX
 70
     0
  9
$DIMSOXD
 70
     0
  9
$DIMSAH
 70
     0
  9
$DIMBLK1
  1

  9
$DIMBLK2
  1

  9
$DIMSTYLE
  2
STANDARD
  9
$DIMCLRD
 70
     0
  9
$DIMCLRE
 70
     0
  9
$DIMCLRT
 70
     0
  9
$DIMTFAC
 40
1.0
  9
$DIMGAP
 40
0.09
  9
$DIMJUST
 70
     0
  9
$DIMSD1
 70
     0
  9
$DIMSD2
 70
     0
  9
$DIMTOLJ
 70
     1
  9
$DIMTZIN
 70
     0
  9
$DIMALTZ
 70
     0
  9
$DIMALTTZ
 70
     0
  9
$DIMFIT
 70
     3
  9
$DIMUPT
 70
     0
  9
$DIMUNIT
 70
     2
  9
$DIMDEC
 70
     4
  9
$DIMTDEC
 70
     4
  9
$DIMALTU
 70
     2
  9
$DIMALTTD
 70
     2
  9
$DIMTXSTY
  7
STANDARD
  9
$DIMAUNIT
 70
     0
  9
$LUNITS
 70
     2
  9
$LUPREC
 70
     4
  9
$SKETCHINC
 40
0.1
  9
$FILLETRAD
 40
0.0
  9
$AUNITS
 70
     0
  9
$AUPREC
 70
     0
  9
$MENU
  1
.
  9
$ELEVATION
 40
0.0
  9
$PELEVATION
 40
0.0
  9
$THICKNESS
 40
0.0
  9
$LIMCHECK
 70
     0
  9
$BLIPMODE
 70
     1
  9
$CHAMFERA
 40
0.0
  9
$CHAMFERB
 40
0.0
  9
$CHAMFERC
 40
0.0
  9
$CHAMFERD
 40
0.0
  9
$SKPOLY
 70
     0
  9
$TDCREATE
 40
0.0000000000
  9
$TDUPDATE
 40
2452163.612393750
  9
$TDINDWG
 40
0.0066240741
  9
$TDUSRTIMER
 40
0.0066240741
  9
$USRTIMER
 70
     1
  9
$ANGBASE
 50
0.0
  9
$ANGDIR
 70
     0
  9
$PDMODE
 70
     0
  9
$PDSIZE
 40
0.0
  9
$PLINEWID
 40
0.0
  9
$COORDS
 70
     1
  9
$SPLFRAME
 70
     0
  9
$SPLINETYPE
 70
     6
  9
$SPLINESEGS
 70
     8
  9
$ATTDIA
 70
     0
  9
$ATTREQ
 70
     1
  9
$HANDLING
 70
     1
  9
$HANDSEED
  5
970
  9
$SURFTAB1
 70
     6
  9
$SURFTAB2
 70
     6
  9
$SURFTYPE
 70
     6
  9
$SURFU
 70
     6
  9
$SURFV
 70
     6
  9
$UCSNAME
  2

  9
$UCSORG
 10
0.0
 20
0.0
 30
0.0
  9
$UCSXDIR
 10
1.0
 20
0.0
 30
0.0
  9
$UCSYDIR
 10
0.0
 20
1.0
 30
0.0
  9
$PUCSNAME
  2

  9
$PUCSORG
 10
0.0
 20
0.0
 30
0.0
  9
$PUCSXDIR
 10
1.0
 20
0.0
 30
0.0
  9
$PUCSYDIR
 10
0.0
 20
1.0
 30
0.0
  9
$USERI1
 70
     0
  9
$USERI2
 70
     0
  9
$USERI3
 70
     0
  9
$USERI4
 70
     0
  9
$USERI5
 70
     0
  9
$USERR1
 40
0.0
  9
$USERR2
 40
0.0
  9
$USERR3
 40
0.0
  9
$USERR4
 40
0.0
  9
$USERR5
 40
0.0
  9
$WORLDVIEW
 70
     1
  9
$SHADEDGE
 70
     3
  9
$SHADEDIF
 70
    70
  9
$TILEMODE
 70
     1
  9
$MAXACTVP
 70
    16
  9
$PINSBASE
 10
0.0
 20
0.0
 30
0.0
  9
$PLIMCHECK
 70
     0
  9
$PEXTMIN
 10
1.000000E+20
 20
1.000000E+20
 30
1.000000E+20
  9
$PEXTMAX
 10
-1.000000E+20
 20
-1.000000E+20
 30
-1.000000E+20
  9
$PLIMMIN
 10
0.0
 20
0.0
  9
$PLIMMAX
 10
12.0
 20
9.0
  9
$UNITMODE
 70
     0
  9
$VISRETAIN
 70
     0
  9
$PLINEGEN
 70
     0
  9
$PSLTSCALE
 70
     1
  9
$TREEDEPTH
 70
  3020
  9
$PICKSTYLE
 70
     1
  9
$CMLSTYLE
  2
STANDARD
  9
$CMLJUST
 70
     0
  9
$CMLSCALE
 40
1.0
  9
$SAVEIMAGES
 70
     0
  0
ENDSEC
  0
SECTION
  2
CLASSES
  0
ENDSEC
  0
SECTION
  2
TABLES
  0
TABLE
  2
VPORT
  5
8
100
AcDbSymbolTable
 70
     4
  0
VPORT
  5
96F
100
AcDbSymbolTableRecord
100
AcDbViewportTableRecord
  2
*ACTIVE
 70
     0
 10
0.0
 20
0.0
 11
1.0
 21
1.0
 12
35.505401
 22
-10.202876
 13
0.0
 23
0.0
 14
1.0
 24
1.0
 15
0.0
 25
0.0
 16
0.0
 26
0.0
 36
1.0
 17
0.0
 27
0.0
 37
0.0
 40
1144.000316
 41
1.820976
 42
50.0
 43
0.0
 44
0.0
 50
0.0
 51
0.0
 71
     0
 72
   100
 73
     1
 74
     1
 75
     0
 76
     0
 77
     0
 78
     0
  0
ENDTAB
  0
TABLE
  2
LTYPE
  5
5
100
AcDbSymbolTable
 70
     5
  0
LTYPE
  5
13
100
AcDbSymbolTableRecord
100
AcDbLinetypeTableRecord
  2
BYBLOCK
 70
     0
  3

 72
    65
 73
     0
 40
0.0
  0
LTYPE
  5
14
100
AcDbSymbolTableRecord
100
AcDbLinetypeTableRecord
  2
BYLAYER
 70
     0
  3

 72
    65
 73
     0
 40
0.0
  0
LTYPE
  5
15
100
AcDbSymbolTableRecord
100
AcDbLinetypeTableRecord
  2
CONTINUOUS
 70
    64
  3
Solid line
 72
    65
 73
     0
 40
0.0
  0
LTYPE
  5
1E
100
AcDbSymbolTableRecord
100
AcDbLinetypeTableRecord
  2
DASHED
 70
    64
  3
__ __ __ __ __ __ __ __ __ __ __ __ __ __ __
 72
    65
 73
     2
 40
3.5
 49
2.0
 74
     0
 49
-1.5
 74
     0
  0
LTYPE
  5
1F
100
AcDbSymbolTableRecord
100
AcDbLinetypeTableRecord
  2
CENTER
 70
    64
  3
____ _ ____ _ ____ _ ____ _ ____ _ ____ _ ____
 72
    65
 73
     4
 40
17.5
 49
13.0
 74
     0
 49
-1.5
 74
     0
 49
1.5
 74
     0
 49
-1.5
 74
     0
  0
LTYPE
  5
20
100
AcDbSymbolTableRecord
100
AcDbLinetypeTableRecord
  2
PHANTOM
 70
    64
  3
_____ _ _ _____ _ _ _____ _ _ _____ _ _ ____  
 72
    65
 73
     6
 40
15.5
 49
8.0
 74
     0
 49
-1.5
 74
     0
 49
1.5
 74
     0
 49
-1.5
 74
     0
 49
1.5
 74
     0
 49
-1.5
 74
     0
  0
LTYPE
  5
21
100
AcDbSymbolTableRecord
100
AcDbLinetypeTableRecord
  2
DOT
 70
    64
  3
. . . . . . . . . . . . . . . . . . . . . . . .
 72
    65
 73
     2
 40
0.25
 49
0.0
 74
     0
 49
-0.25
 74
     0
  0
ENDTAB
  0
TABLE
  2
LAYER
  5
2
100
AcDbSymbolTable
 70
     1
  0
LAYER
  5
F
100
AcDbSymbolTableRecord
100
AcDbLayerTableRecord
  2
0
 70
     0
 62
     7
  6
CONTINUOUS
  0
ENDTAB
  0
TABLE
  2
STYLE
  5
3
100
AcDbSymbolTable
 70
     1
  0
STYLE
  5
10
100
AcDbSymbolTableRecord
100
AcDbTextStyleTableRecord
  2
STANDARD
 70
     0
 40
0.0
 41
1.0
 50
0.0
 71
     0
 42
0.2
  3
txt
  4

  0
ENDTAB
  0
TABLE
  2
VIEW
  5
6
100
AcDbSymbolTable
 70
     0
  0
ENDTAB
  0
TABLE
  2
UCS
  5
7
100
AcDbSymbolTable
 70
     0
  0
ENDTAB
  0
TABLE
  2
APPID
  5
9
100
AcDbSymbolTable
 70
     1
  0
APPID
  5
11
100
AcDbSymbolTableRecord
100
AcDbRegAppTableRecord
  2
ACAD
 70
     0
  0
ENDTAB
  0
TABLE
  2
DIMSTYLE
  5
A
100
AcDbSymbolTable
 70
     1
  0
DIMSTYLE
105
96C
100
AcDbSymbolTableRecord
100
AcDbDimStyleTableRecord
  2
STANDARD
 70
     0
  3

  4

  5

  6

  7

 40
1.0
 41
0.18
 42
0.0625
 43
0.38
 44
0.18
 45
0.0
 46
0.0
 47
0.0
 48
0.0
140
0.18
141
0.09
142
0.0
143
25.4
144
1.0
145
0.0
146
1.0
147
0.09
 71
     0
 72
     0
 73
     1
 74
     1
 75
     0
 76
     0
 77
     0
 78
     0
170
     0
171
     2
172
     0
173
     0
174
     0
175
     0
176
     0
177
     0
178
     0
270
     2
271
     4
272
     4
273
     2
274
     2
340
10
275
     0
280
     0
281
     0
282
     0
283
     1
284
     0
285
     0
286
     0
287
     3
288
     0
  0
ENDTAB
  0
TABLE
  2
BLOCK_RECORD
  5
1
100
AcDbSymbolTable
 70
     0
  0
BLOCK_RECORD
  5
19
100
AcDbSymbolTableRecord
100
AcDbBlockTableRecord
  2
*MODEL_SPACE
  0
BLOCK_RECORD
  5
16
100
AcDbSymbolTableRecord
100
AcDbBlockTableRecord
  2
*PAPER_SPACE
  0
ENDTAB
  0
ENDSEC
  0
SECTION
  2
BLOCKS
  0
BLOCK
  5
1A
100
AcDbEntity
  8
0
100
AcDbBlockBegin
  2
*MODEL_SPACE
 70
     0
 10
0.0
 20
0.0
 30
0.0
  3
*MODEL_SPACE
  1

  0
ENDBLK
  5
1B
100
AcDbEntity
  8
0
100
AcDbBlockEnd
  0
BLOCK
  5
17
100
AcDbEntity
 67
     1
  8
0
100
AcDbBlockBegin
  2
*PAPER_SPACE
 70
     0
 10
0.0
 20
0.0
 30
0.0
  3
*PAPER_SPACE
  1

  0
ENDBLK
  5
18
100
AcDbEntity
 67
     1
  8
0
100
AcDbBlockEnd
  0
ENDSEC
  0
SECTION
  2
ENTITIES
  0
LINE
  5
22
100
AcDbEntity
  8
0
  6
CONTINUOUS
 62
     7
100
AcDbLine
 10
411.69138
 20
559.7323
 30
0.0
 11
411.69138
 21
543.7323
 31
0.0
  0
LINE
  5
23
100
AcDbEntity
  8
0
  6
CONTINUOUS
 62
     7
100
AcDbLine
 10
61.69136
 20
165.73233
 30
0.0
 11
61.69136
 21
-180.26767
 31
0.0
  0
LINE
  5
24
100
AcDbEntity
  8
0
  6
CONTINUOUS
 62
     7
100
AcDbLine
 10
-508.30862
 20
559.7323
 30
0.0
 11
561.69135
 21
559.7323
 31
0.0
  0
LINE
  5
25
100
AcDbEntity
  8
0
  6
CONTINUOUS
 62
     7
100
AcDbLine
 10
-508.30862
 20
559.7323
 30
0.0
 11
-508.30862
 21
-584.2677
 31
0.0
  0
LINE
  5
26
100
AcDbEntity
  8
0
  6
CONTINUOUS
 62
     7
100
AcDbLine
 10
411.69138
 20
551.7323
 30
0.0
 11
561.69135
 21
551.7323
 31
0.0
  0
LINE
  5
27
100
AcDbEntity
  8
0
  6
CONTINUOUS
 62
     7
100
AcDbLine
 10
-508.30862
 20
-584.2677
 30
0.0
 11
561.69135
 21
-584.2677
 31
0.0
  0
LINE
  5
28
100
AcDbEntity
  8
0
  6
CONTINUOUS
 62
     7
100
AcDbLine
 10
-508.30862
 20
511.73233
 30
0.0
 11
561.69135
 21
511.73233
 31
0.0
  0
LINE
  5
29
100
AcDbEntity
  8
0
  6
CONTINUOUS
 62
     7
100
AcDbLine
 10
-508.30862
 20
519.7323
 30
0.0
 11
561.69135
 21
519.7323
 31
0.0
  0
LINE
  5
2A
100
AcDbEntity
  8
0
  6
CONTINUOUS
 62
     7
100
AcDbLine
 10
-508.30862
 20
527.7323
 30
0.0
 11
561.69135
 21
527.7323
 31
0.0
  0
LINE
  5
2B
100
AcDbEntity
  8
0
  6
CONTINUOUS
 62
     7
100
AcDbLine
 10
-508.30862
 20
535.7323
 30
0.0
 11
561.69135
 21
535.7323
 31
0.0
  0
LINE
  5
2C
100
AcDbEntity
  8
0
  6
CONTINUOUS
 62
     7
100
AcDbLine
 10
-508.30862
 20
543.7323
 30
0.0
 11
561.69135
 21
543.7323
 31
0.0
  0
LINE
  5
2D
100
AcDbEntity
  8
0
  6
CONTINUOUS
 62
     7
100
AcDbLine
 10
501.69138
 20
559.7323
 30
0.0
 11
501.69138
 21
543.7323
 31
0.0
  0
LINE
  5
2E
100
AcDbEntity
  8
0
  6
CONTINUOUS
 62
     7
100
AcDbLine
 10
561.69135
 20
559.7323
 30
0.0
 11
561.69135
 21
-584.2677
 31
0.0
  0
LINE
  5
2F
100
AcDbEntity
  8
0
  6
CONTINUOUS
 62
     7
100
AcDbLine
 10
-508.30862
 20
-190.26767
 30
0.0
 11
561.69135
 21
-190.26767
 31
0.0
  0
LINE
  5
30
100
AcDbEntity
  8
0
  6
CONTINUOUS
 62
     7
100
AcDbLine
 10
471.69138
 20
559.7323
 30
0.0
 11
471.69138
 21
543.7323
 31
0.0
  0
LINE
  5
31
100
AcDbEntity
  8
0
  6
CONTINUOUS
 62
     7
100
AcDbLine
 10
-398.30862
 20
543.7323
 30
0.0
 11
-398.30862
 21
-180.26767
 31
0.0
  0
LINE
  5
32
100
AcDbEntity
  8
0
  6
CONTINUOUS
 62
     7
100
AcDbLine
 10
-508.30862
 20
181.73233
 30
0.0
 11
561.69135
 21
181.73233
 31
0.0
  0
LINE
  5
33
100
AcDbEntity
  8
0
  6
CONTINUOUS
 62
     7
100
AcDbLine
 10
-508.30862
 20
149.73233
 30
0.0
 11
561.69135
 21
149.73233
 31
0.0
  0
LINE
  5
34
100
AcDbEntity
  8
0
  6
CONTINUOUS
 62
     7
100
AcDbLine
 10
-508.30862
 20
-180.26767
 30
0.0
 11
561.69135
 21
-180.26767
 31
0.0
  0
LINE
  5
35
100
AcDbEntity
  8
0
  6
CONTINUOUS
 62
     7
100
AcDbLine
 10
-508.30862
 20
157.73233
 30
0.0
 11
561.69135
 21
157.73233
 31
0.0
  0
LINE
  5
36
100
AcDbEntity
  8
0
  6
CONTINUOUS
 62
     7
100
AcDbLine
 10
-508.30862
 20
165.73233
 30
0.0
 11
561.69135
 21
165.73233
 31
0.0
  0
LINE
  5
37
100
AcDbEntity
  8
0
  6
CONTINUOUS
 62
     7
100
AcDbLine
 10
-508.30862
 20
173.73233
 30
0.0
 11
561.69135
 21
173.73233
 31
0.0
  0
LINE
  5
38
100
AcDbEntity
  8
0
  6
CONTINUOUS
 62
     7
100
AcDbLine
 10
151.69136
 20
-180.26767
 30
0.0
 11
151.69136
 21
-584.2677
 31
0.0
  0
LINE
  5
39
100
AcDbEntity
  8
0
  6
CONTINUOUS
 62
     7
100
AcDbLine
 10
-208.30864
 20
-180.26767
 30
0.0
 11
-208.30864
 21
-584.2677
 31
0.0
  0
LINE
  5
3A
100
AcDbEntity
  8
0
  6
CONTINUOUS
 62
     7
100
AcDbLine
 10
-408.30862
 20
559.7323
 30
0.0
 11
-408.30862
 21
543.7323
 31
0.0
  0
LINE
  5
3B
100
AcDbEntity
  8
0
  6
CONTINUOUS
 62
     7
100
AcDbLine
 10
-168.30864
 20
519.7323
 30
0.0
 11
-168.30864
 21
181.73233
 31
0.0
  0
LINE
  5
3C
100
AcDbEntity
  8
0
  6
CONTINUOUS
 62
     7
100
AcDbLine
 10
61.69136
 20
527.7323
 30
0.0
 11
61.69136
 21
181.73233
 31
0.0
  0
LINE
  5
3D
100
AcDbEntity
  8
0
  6
CONTINUOUS
 62
     7
100
AcDbLine
 10
-168.30864
 20
157.73233
 30
0.0
 11
-168.30864
 21
-180.26767
 31
0.0
  0
LINE
  5
3E
100
AcDbEntity
  8
0
  6
CONTINUOUS
 62
     7
100
AcDbLine
 10
311.69138
 20
157.73233
 30
0.0
 11
311.69138
 21
-180.26767
 31
0.0
  0
LINE
  5
3F
100
AcDbEntity
  8
0
  6
CONTINUOUS
 62
     7
100
AcDbLine
 10
311.69138
 20
519.7323
 30
0.0
 11
311.69138
 21
181.73233
 31
0.0
  0
TEXT
  5
40
100
AcDbEntity
  8
0
  6
CONTINUOUS
 62
     7
100
AcDbText
 10
161.54836
 20
514.1323
 30
0.0
 40
3.2
  1
Outside (PUM-204-PA)
 41
1.003045
100
AcDbText
  0
TEXT
  5
41
100
AcDbEntity
  8
0
  6
CONTINUOUS
 62
     7
100
AcDbText
 10
-183.85164
 20
522.1323
 30
0.0
 40
3.2
  1
Inside (A)
 41
1.004935
100
AcDbText
  0
TEXT
  5
42
100
AcDbEntity
  8
0
  6
CONTINUOUS
 62
     7
100
AcDbText
 10
-76.851639
 20
514.1323
 30
0.0
 40
3.2
  1
Inside (PUM-204-PB)
 41
1.003253
100
AcDbText
  0
TEXT
  5
43
100
AcDbEntity
  8
0
  6
CONTINUOUS
 62
     7
100
AcDbText
 10
-308.45162
 20
514.1323
 30
0.0
 40
3.2
  1
Outside (PUM-204-PA)
 41
1.003045
100
AcDbText
  0
TEXT
  5
44
100
AcDbEntity
  8
0
  6
CONTINUOUS
 62
     7
100
AcDbText
 10
294.54838
 20
522.1323
 30
0.0
 40
3.2
  1
Outside (B)
 41
1.004473
100
AcDbText
  0
TEXT
  5
45
100
AcDbEntity
  8
0
  6
CONTINUOUS
 62
     7
100
AcDbText
 10
413.14838
 20
514.1323
 30
0.0
 40
3.2
  1
Inside (PUM-204-PB)
 41
1.003253
100
AcDbText
  0
TEXT
  5
46
100
AcDbEntity
  8
0
  6
CONTINUOUS
 62
     7
100
AcDbText
 10
59.748361
 20
538.1323
 30
0.0
 40
3.2
  1
for moving end
 41
1.003491
100
AcDbText
  0
TEXT
  5
47
100
AcDbEntity
  8
0
  6
CONTINUOUS
 62
     7
100
AcDbText
 10
34.148361
 20
530.1323
 30
0.0
 40
3.2
  1
Hole type (for moving end) (M)
 41
1.001608
100
AcDbText
  0
TEXT
  5
48
100
AcDbEntity
  8
0
  6
CONTINUOUS
 62
     7
100
AcDbText
 10
-471.95162
 20
514.1323
 30
0.0
 40
3.2
  1
Orientation
 41
1.004473
100
AcDbText
  0
TEXT
  5
49
100
AcDbEntity
  8
0
  6
CONTINUOUS
 62
     7
100
AcDbText
 10
-473.55162
 20
530.1323
 30
0.0
 40
3.2
  1
Bracket type
 41
1.004089
100
AcDbText
  0
TEXT
  5
4A
100
AcDbEntity
  8
0
  6
CONTINUOUS
 62
     7
100
AcDbText
 10
-481.55162
 20
522.1323
 30
0.0
 40
3.2
  1
Screwing position
 41
1.002863
100
AcDbText
  0
TEXT
  5
4B
100
AcDbEntity
  8
0
  6
CONTINUOUS
 62
     7
100
AcDbText
 10
-459.15162
 20
538.1323
 30
0.0
 40
3.2
  1
use
 41
1.017891
100
AcDbText
  0
TEXT
  5
4C
100
AcDbEntity
  8
0
  6
CONTINUOUS
 62
     7
100
AcDbText
 10
-362.65162
 20
-186.86767
 30
0.0
 40
3.2
  1
PO206-38
 41
1.017891
100
AcDbText
  0
TEXT
  5
4D
100
AcDbEntity
  8
0
  6
CONTINUOUS
 62
     7
100
AcDbText
 10
161.54836
 20
152.13233
 30
0.0
 40
3.2
  1
Outside (PUM-204-HAE)
 41
1.003045
100
AcDbText
  0
TEXT
  5
4E
100
AcDbEntity
  8
0
  6
CONTINUOUS
 62
     7
100
AcDbText
 10
-183.85164
 20
160.13233
 30
0.0
 40
3.2
  1
Inside (A)
 41
1.004935
100
AcDbText
  0
TEXT
  5
4F
100
AcDbEntity
  8
0
  6
CONTINUOUS
 62
     7
100
AcDbText
 10
-76.851639
 20
152.13233
 30
0.0
 40
3.2
  1
Inside (PUM-204-HA)
 41
1.003253
100
AcDbText
  0
TEXT
  5
50
100
AcDbEntity
  8
0
  6
CONTINUOUS
 62
     7
100
AcDbText
 10
-308.45162
 20
152.13233
 30
0.0
 40
3.2
  1
Outside (PUM-204-HA)
 41
1.003045
100
AcDbText
  0
TEXT
  5
51
100
AcDbEntity
  8
0
  6
CONTINUOUS
 62
     7
100
AcDbText
 10
294.54838
 20
160.13233
 30
0.0
 40
3.2
  1
Outside (B)
 41
1.004473
100
AcDbText
  0
TEXT
  5
52
100
AcDbEntity
  8
0
  6
CONTINUOUS
 62
     7
100
AcDbText
 10
413.14838
 20
152.13233
 30
0.0
 40
3.2
  1
Inside (PUM-204-HAE)
 41
1.003253
100
AcDbText
  0
TEXT
  5
53
100
AcDbEntity
  8
0
  6
CONTINUOUS
 62
     7
100
AcDbText
 10
61.348361
 20
176.13233
 30
0.0
 40
3.2
  1
for fixed end
 41
1.003766
100
AcDbText
  0
TEXT
  5
54
100
AcDbEntity
  8
0
  6
CONTINUOUS
 62
     7
100
AcDbText
 10
34.148361
 20
168.13233
 30
0.0
 40
3.2
  1
Pivot type (for fixed end) (F)
 41
1.001608
100
AcDbText
  0
TEXT
  5
55
100
AcDbEntity
  8
0
  6
CONTINUOUS
 62
     7
100
AcDbText
 10
-471.95162
 20
152.13233
 30
0.0
 40
3.2
  1
Orientation
 41
1.004473
100
AcDbText
  0
TEXT
  5
56
100
AcDbEntity
  8
0
  6
CONTINUOUS
 62
     7
100
AcDbText
 10
-473.55162
 20
168.13233
 30
0.0
 40
3.2
  1
Bracket type
 41
1.004089
100
AcDbText
  0
TEXT
  5
57
100
AcDbEntity
  8
0
  6
CONTINUOUS
 62
     7
100
AcDbText
 10
-481.55162
 20
160.13233
 30
0.0
 40
3.2
  1
Screwing position
 41
1.002863
100
AcDbText
  0
TEXT
  5
58
100
AcDbEntity
  8
0
  6
CONTINUOUS
 62
     7
100
AcDbText
 10
-459.15162
 20
176.13233
 30
0.0
 40
3.2
  1
use
 41
1.017891
100
AcDbText
  0
TEXT
  5
59
100
AcDbEntity
  8
0
  6
CONTINUOUS
 62
     7
100
AcDbText
 10
-32.65164
 20
-186.86767
 30
0.0
 40
3.2
  1
PO206-50
 41
1.017891
100
AcDbText
  0
TEXT
  5
5A
100
AcDbEntity
  8
0
  6
CONTINUOUS
 62
     7
100
AcDbText
 10
347.54838
 20
-186.86767
 30
0.0
 40
3.2
  1
1BLOCK
 41
1.008419
100
AcDbText
  0
TEXT
  5
5B
100
AcDbEntity
  8
0
  6
CONTINUOUS
 62
     7
100
AcDbText
 10
424.54838
 20
554.1323
 30
0.0
 40
3.2
  1
KOGANEI CORP.
 41
1.004473
100
AcDbText
  0
TEXT
  5
5C
100
AcDbEntity
  8
0
  6
CONTINUOUS
 62
     7
100
AcDbText
 10
479.14838
 20
554.1323
 30
0.0
 40
3.2
  1
TITLE
 41
1.010223
100
AcDbText
  0
TEXT
  5
5D
100
AcDbEntity
  8
0
  6
CONTINUOUS
 62
     7
100
AcDbText
 10
509.74835
 20
554.1323
 30
0.0
 40
3.2
  1
Plachain Ducts
 41
1.003491
100
AcDbText
  0
TEXT
  5
5E
100
AcDbEntity
  8
0
  6
CONTINUOUS
 62
     7
100
AcDbText
 10
479.14838
 20
546.1323
 30
0.0
 40
3.2
  1
MODEL
 41
1.010223
100
AcDbText
  0
TEXT
  5
5F
100
AcDbEntity
  8
0
  6
CONTINUOUS
 62
     7
100
AcDbText
 10
516.14835
 20
546.1323
 30
0.0
 40
3.2
  1
PO206-38,-50
 41
1.004935
100
AcDbText
  0
TEXT
  5
60
100
AcDbEntity
  8
0
  6
CONTINUOUS
 62
     7
100
AcDbText
 10
437.34838
 20
546.1323
 30
0.0
 40
3.2
  1
1:1
 41
1.017891
100
AcDbText
  0
TEXT
  5
61
100
AcDbEntity
  8
0
  6
CONTINUOUS
 62
     7
100
AcDbText
 10
-477.59456
 20
549.2323
 30
0.0
 40
5.0
  1
PO206
 41
1.006223
100
AcDbText
  0
POINT
  5
62
100
AcDbEntity
  8
0
  6
CONTINUOUS
 62
     7
100
AcDbPoint
 10
-443.30862
 20
442.73233
 30
0.0
  0
POINT
  5
63
100
AcDbEntity
  8
0
  6
CONTINUOUS
 62
     7
100
AcDbPoint
 10
-436.30862
 20
442.73233
 30
0.0
  0
LINE
  5
64
100
AcDbEntity
  8
0
  6
CENTER
 62
     7
100
AcDbLine
 10
-462.30862
 20
467.73233
 30
0.0
 11
-451.30862
 21
467.73233
 31
0.0
  0
LINE
  5
65
100
AcDbEntity
  8
0
  6
CONTINUOUS
 62
     7
100
AcDbLine
 10
-453.30862
 20
471.13233
 30
0.0
 11
-453.30862
 21
463.73233
 31
0.0
  0
LINE
  5
66
100
AcDbEntity
  8
0
  6
CONTINUOUS
 62
     7
100
AcDbLine
 10
-460.30862
 20
471.13233
 30
0.0
 11
-453.30862
 21
471.13233
 31
0.0
  0
LINE
  5
67
100
AcDbEntity
  8
0
  6
CONTINUOUS
 62
     7
100
AcDbLine
 10
-474.6181
 20
417.23233
 30
0.0
 11
-470.30862
 21
417.23233
 31
0.0
  0
LINE
  5
68
100
AcDbEntity
  8
0
  6
CONTINUOUS
 62
     7
100
AcDbLine
 10
-470.30862
 20
463.73233
 30
0.0
 11
-460.30862
 21
463.73233
 31
0.0
  0
LINE
  5
69
100
AcDbEntity
  8
0
  6
CONTINUOUS
 62
     7
100
AcDbLine
 10
-470.30862
 20
421.73233
 30
0.0
 11
-460.30862
 21
421.73233
 31
0.0
  0
LINE
  5
6A
100
AcDbEntity
  8
0
  6
CENTER
 62
     7
100
AcDbLine
 10
-481.6181
 20
442.73233
 30
0.0
 11
-436.30862
 21
442.73233
 31
0.0
  0
LINE
  5
6B
100
AcDbEntity
  8
0
  6
CONTINUOUS
 62
     7
100
AcDbLine
 10
-460.30862
 20
414.33233
 30
0.0
 11
-453.30862
 21
414.33233
 31
0.0
  0
LINE
  5
6C
100
AcDbEntity
  8
0
  6
CONTINUOUS
 62
     7
100
AcDbLine
 10
-460.30862
 20
421.73233
 30
0.0
 11
-460.30862
 21
414.33233
 31
0.0
  0
LINE
  5
6D
100
AcDbEntity
  8
0
  6
CONTINUOUS
 62
     7
100
AcDbLine
 10
-453.30862
 20
421.73233
 30
0.0
 11
-453.30862
 21
414.33233
 31
0.0
  0
LINE
  5
6E
100
AcDbEntity
  8
0
  6
CONTINUOUS
 62
     7
100
AcDbLine
 10
-474.6181
 20
468.23233
 30
0.0
 11
-470.30862
 21
468.23233
 31
0.0
  0
LINE
  5
6F
100
AcDbEntity
  8
0
  6
CONTINUOUS
 62
     7
100
AcDbLine
 10
-448.6181
 20
417.23233
 30
0.0
 11
-444.30862
 21
417.23233
 31
0.0
  0
LINE
  5
70
100
AcDbEntity
  8
0
  6
CONTINUOUS
 62
     7
100
AcDbLine
 10
-460.30862
 20
471.13233
 30
0.0
 11
-460.30862
 21
463.73233
 31
0.0
  0
LINE
  5
71
100
AcDbEntity
  8
0
  6
CONTINUOUS
 62
     7
100
AcDbLine
 10
-453.30862
 20
463.73233
 30
0.0
 11
-444.70862
 21
463.73233
 31
0.0
  0
LINE
  5
72
100
AcDbEntity
  8
0
  6
CONTINUOUS
 62
     7
100
AcDbLine
 10
-453.30862
 20
421.73233
 30
0.0
 11
-444.70862
 21
421.73233
 31
0.0
  0
LINE
  5
73
100
AcDbEntity
  8
0
  6
CONTINUOUS
 62
     7
100
AcDbLine
 10
-448.6181
 20
468.23233
 30
0.0
 11
-444.30862
 21
468.23233
 31
0.0
  0
LINE
  5
74
100
AcDbEntity
  8
0
  6
CENTER
 62
     7
100
AcDbLine
 10
-443.30862
 20
479.73233
 30
0.0
 11
-443.30862
 21
405.73233
 31
0.0
  0
LINE
  5
75
100
AcDbEntity
  8
0
  6
CENTER
 62
     7
100
AcDbLine
 10
-469.30862
 20
479.73233
 30
0.0
 11
-469.30862
 21
405.73233
 31
0.0
  0
LINE
  5
76
100
AcDbEntity
  8
0
  6
CONTINUOUS
 62
     7
100
AcDbLine
 10
-474.6181
 20
472.73233
 30
0.0
 11
-448.6181
 21
472.73233
 31
0.0
  0
LINE
  5
77
100
AcDbEntity
  8
0
  6
CONTINUOUS
 62
     7
100
AcDbLine
 10
-474.6181
 20
412.73233
 30
0.0
 11
-448.6181
 21
412.73233
 31
0.0
  0
LINE
  5
78
100
AcDbEntity
  8
0
  6
CONTINUOUS
 62
     7
100
AcDbLine
 10
-444.70862
 20
463.73233
 30
0.0
 11
-444.70862
 21
421.73233
 31
0.0
  0
LINE
  5
79
100
AcDbEntity
  8
0
  6
CONTINUOUS
 62
     7
100
AcDbLine
 10
-460.30862
 20
470.93233
 30
0.0
 11
-453.30862
 21
470.93233
 31
0.0
  0
LINE
  5
7A
100
AcDbEntity
  8
0
  6
CONTINUOUS
 62
     7
100
AcDbLine
 10
-460.30862
 20
414.53233
 30
0.0
 11
-453.30862
 21
414.53233
 31
0.0
  0
LINE
  5
7B
100
AcDbEntity
  8
0
  6
CENTER
 62
     7
100
AcDbLine
 10
-462.30862
 20
417.73233
 30
0.0
 11
-451.30862
 21
417.73233
 31
0.0
  0
LINE
  5
7C
100
AcDbEntity
  8
0
  6
CONTINUOUS
 62
     7
100
AcDbLine
 10
-474.6181
 20
412.73233
 30
0.0
 11
-448.6181
 21
412.73233
 31
0.0
  0
LINE
  5
7D
100
AcDbEntity
  8
0
  6
CONTINUOUS
 62
     7
100
AcDbLine
 10
-448.6181
 20
417.23233
 30
0.0
 11
-448.6181
 21
412.73233
 31
0.0
  0
LINE
  5
7E
100
AcDbEntity
  8
0
  6
CONTINUOUS
 62
     7
100
AcDbLine
 10
-470.30862
 20
468.23233
 30
0.0
 11
-470.30862
 21
417.23233
 31
0.0
  0
LINE
  5
7F
100
AcDbEntity
  8
0
  6
CONTINUOUS
 62
     7
100
AcDbLine
 10
-448.6181
 20
472.73233
 30
0.0
 11
-448.6181
 21
468.23233
 31
0.0
  0
POINT
  5
80
100
AcDbEntity
  8
0
  6
CONTINUOUS
 62
     7
100
AcDbPoint
 10
-443.30862
 20
346.73233
 30
0.0
  0
POINT
  5
81
100
AcDbEntity
  8
0
  6
CONTINUOUS
 62
     7
100
AcDbPoint
 10
-437.30862
 20
346.73233
 30
0.0
  0
LINE
  5
82
100
AcDbEntity
  8
0
  6
CENTER
 62
     7
100
AcDbLine
 10
-469.30862
 20
352.73233
 30
0.0
 11
-469.30862
 21
340.73233
 31
0.0
  0
LINE
  5
83
100
AcDbEntity
  8
0
  6
CENTER
 62
     7
100
AcDbLine
 10
-475.30862
 20
346.73233
 30
0.0
 11
-463.30862
 21
346.73233
 31
0.0
  0
LINE
  5
84
100
AcDbEntity
  8
0
  6
CONTINUOUS
 62
     7
100
AcDbLine
 10
-444.70862
 20
357.73233
 30
0.0
 11
-469.30862
 21
357.73233
 31
0.0
  0
LINE
  5
85
100
AcDbEntity
  8
0
  6
CONTINUOUS
 62
     7
100
AcDbLine
 10
-448.9144
 20
335.73233
 30
0.0
 11
-469.30862
 21
335.73233
 31
0.0
  0
LINE
  5
86
100
AcDbEntity
  8
0
  6
CONTINUOUS
 62
     7
100
AcDbLine
 10
-445.80862
 20
349.85483
 30
0.0
 11
-445.80862
 21
343.60983
 31
0.0
  0
LINE
  5
87
100
AcDbEntity
  8
0
  6
CENTER
 62
     7
100
AcDbLine
 10
-443.30862
 20
352.73233
 30
0.0
 11
-443.30862
 21
340.73233
 31
0.0
  0
LINE
  5
88
100
AcDbEntity
  8
0
  6
CENTER
 62
     7
100
AcDbLine
 10
-449.30862
 20
346.73233
 30
0.0
 11
-437.30862
 21
346.73233
 31
0.0
  0
LINE
  5
89
100
AcDbEntity
  8
0
  6
CONTINUOUS
 62
     7
100
AcDbLine
 10
-448.72157
 20
336.26214
 30
0.0
 11
-450.70068
 21
337.92282
 31
0.0
  0
ARC
  5
8A
100
AcDbEntity
  8
0
  6
CONTINUOUS
 62
     7
100
AcDbCircle
 10
-449.1181
 20
357.23233
 30
0.0
 40
0.5
100
AcDbArc
 50
298.95503
 51
90.000003
  0
ARC
  5
8B
100
AcDbEntity
  8
0
  6
CONTINUOUS
 62
     7
100
AcDbCircle
 10
-469.30862
 20
346.73233
 30
0.0
 40
11.0
100
AcDbArc
 50
90.000003
 51
270.0
  0
CIRCLE
  5
8C
100
AcDbEntity
  8
0
  6
CONTINUOUS
 62
     7
100
AcDbCircle
 10
-443.30862
 20
346.73233
 30
0.0
 40
4.0
  0
ARC
  5
8D
100
AcDbEntity
  8
0
  6
CONTINUOUS
 62
     7
100
AcDbCircle
 10
-443.30862
 20
346.73233
 30
0.0
 40
11.5
100
AcDbArc
 50
118.95503
 51
230.00001
  0
ARC
  5
8E
100
AcDbEntity
  8
0
  6
CONTINUOUS
 62
     7
100
AcDbCircle
 10
-448.9144
 20
336.03233
 30
0.0
 40
0.3
100
AcDbArc
 50
270.0
 51
50.0
  0
POINT
  5
8F
100
AcDbEntity
  8
0
  6
CONTINUOUS
 62
     7
100
AcDbPoint
 10
-443.30862
 20
250.73233
 30
0.0
  0
POINT
  5
90
100
AcDbEntity
  8
0
  6
CONTINUOUS
 62
     7
100
AcDbPoint
 10
-436.30862
 20
250.73233
 30
0.0
  0
LINE
  5
91
100
AcDbEntity
  8
0
  6
CENTER
 62
     7
100
AcDbLine
 10
-481.6181
 20
250.73233
 30
0.0
 11
-436.30862
 21
250.73233
 31
0.0
  0
LINE
  5
92
100
AcDbEntity
  8
0
  6
CONTINUOUS
 62
     7
100
AcDbLine
 10
-469.80862
 20
276.23233
 30
0.0
 11
-469.80862
 21
225.23233
 31
0.0
  0
LINE
  5
93
100
AcDbEntity
  8
0
  6
CONTINUOUS
 62
     7
100
AcDbLine
 10
-474.6181
 20
225.23233
 30
0.0
 11
-469.80862
 21
225.23233
 31
0.0
  0
LINE
  5
94
100
AcDbEntity
  8
0
  6
CONTINUOUS
 62
     7
100
AcDbLine
 10
-474.6181
 20
276.23233
 30
0.0
 11
-469.80862
 21
276.23233
 31
0.0
  0
LINE
  5
95
100
AcDbEntity
  8
0
  6
CONTINUOUS
 62
     7
100
AcDbLine
 10
-448.6181
 20
225.23233
 30
0.0
 11
-444.30862
 21
225.23233
 31
0.0
  0
LINE
  5
96
100
AcDbEntity
  8
0
  6
CONTINUOUS
 62
     7
100
AcDbLine
 10
-448.6181
 20
276.23233
 30
0.0
 11
-444.30862
 21
276.23233
 31
0.0
  0
LINE
  5
97
100
AcDbEntity
  8
0
  6
CENTER
 62
     7
100
AcDbLine
 10
-443.30862
 20
287.73233
 30
0.0
 11
-443.30862
 21
213.73233
 31
0.0
  0
LINE
  5
98
100
AcDbEntity
  8
0
  6
CENTER
 62
     7
100
AcDbLine
 10
-469.30862
 20
287.73233
 30
0.0
 11
-469.30862
 21
213.73233
 31
0.0
  0
LINE
  5
99
100
AcDbEntity
  8
0
  6
CONTINUOUS
 62
     7
100
AcDbLine
 10
-474.6181
 20
280.73233
 30
0.0
 11
-448.6181
 21
280.73233
 31
0.0
  0
LINE
  5
9A
100
AcDbEntity
  8
0
  6
CONTINUOUS
 62
     7
100
AcDbLine
 10
-474.6181
 20
220.73233
 30
0.0
 11
-448.6181
 21
220.73233
 31
0.0
  0
LINE
  5
9B
100
AcDbEntity
  8
0
  6
CONTINUOUS
 62
     7
100
AcDbLine
 10
-448.6144
 20
280.73233
 30
0.0
 11
-448.6144
 21
276.23233
 31
0.0
  0
LINE
  5
9C
100
AcDbEntity
  8
0
  6
CONTINUOUS
 62
     7
100
AcDbLine
 10
-448.6144
 20
225.23233
 30
0.0
 11
-448.6144
 21
220.73233
 31
0.0
  0
POINT
  5
9D
100
AcDbEntity
  8
0
  6
CONTINUOUS
 62
     7
100
AcDbPoint
 10
-319.30862
 20
423.43231
 30
0.0
  0
POINT
  5
9E
100
AcDbEntity
  8
0
  6
CONTINUOUS
 62
     7
100
AcDbPoint
 10
-301.30862
 20
423.43231
 30
0.0
  0
LINE
  5
9F
100
AcDbEntity
  8
0
  6
CONTINUOUS
 62
     7
100
AcDbLine
 10
-342.6181
 20
417.43231
 30
0.0
 11
-326.30862
 21
417.43231
 31
0.0
  0
LINE
  5
A0
100
AcDbEntity
  8
0
  6
CONTINUOUS
 62
     7
100
AcDbLine
 10
-354.30862
 20
414.33231
 30
0.0
 11
-347.30862
 21
414.33231
 31
0.0
  0
LINE
  5
A1
100
AcDbEntity
  8
0
  6
CENTER
 62
     7
100
AcDbLine
 10
-375.6181
 20
442.73231
 30
0.0
 11
-323.30862
 21
442.73231
 31
0.0
  0
LINE
  5
A2
100
AcDbEntity
  8
0
  6
CONTINUOUS
 62
     7
100
AcDbLine
 10
-368.6181
 20
472.73231
 30
0.0
 11
-342.6181
 21
472.73231
 31
0.0
  0
LINE
  5
A3
100
AcDbEntity
  8
0
  6
CONTINUOUS
 62
     7
100
AcDbLine
 10
-327.30862
 20
468.03231
 30
0.0
 11
-327.30862
 21
463.73231
 31
0.0
  0
LINE
  5
A4
100
AcDbEntity
  8
0
  6
CENTER
 62
     7
100
AcDbLine
 10
-337.30862
 20
479.73231
 30
0.0
 11
-337.30862
 21
405.73231
 31
0.0
  0
LINE
  5
A5
100
AcDbEntity
  8
0
  6
CONTINUOUS
 62
     7
100
AcDbLine
 10
-347.30862
 20
471.13231
 30
0.0
 11
-347.30862
 21
463.73231
 31
0.0
  0
LINE
  5
A6
100
AcDbEntity
  8
0
  6
CONTINUOUS
 62
     7
100
AcDbLine
 10
-364.30862
 20
463.73231
 30
0.0
 11
-354.30862
 21
463.73231
 31
0.0
  0
LINE
  5
A7
100
AcDbEntity
  8
0
  6
CONTINUOUS
 62
     7
100
AcDbLine
 10
-354.30862
 20
471.13231
 30
0.0
 11
-354.30862
 21
463.73231
 31
0.0
  0
LINE
  5
A8
100
AcDbEntity
  8
0
  6
CONTINUOUS
 62
     7
100
AcDbLine
 10
-368.6181
 20
417.23231
 30
0.0
 11
-364.30862
 21
417.23231
 31
0.0
  0
LINE
  5
A9
100
AcDbEntity
  8
0
  6
CONTINUOUS
 62
     7
100
AcDbLine
 10
-354.30862
 20
421.73231
 30
0.0
 11
-354.30862
 21
414.33231
 31
0.0
  0
LINE
  5
AA
100
AcDbEntity
  8
0
  6
CONTINUOUS
 62
     7
100
AcDbLine
 10
-368.6181
 20
468.23231
 30
0.0
 11
-364.30862
 21
468.23231
 31
0.0
  0
LINE
  5
AB
100
AcDbEntity
  8
0
  6
CONTINUOUS
 62
     7
100
AcDbLine
 10
-347.30862
 20
421.73231
 30
0.0
 11
-347.30862
 21
414.33231
 31
0.0
  0
LINE
  5
AC
100
AcDbEntity
  8
0
  6
CONTINUOUS
 62
     7
100
AcDbLine
 10
-364.30862
 20
421.73231
 30
0.0
 11
-354.30862
 21
421.73231
 31
0.0
  0
LINE
  5
AD
100
AcDbEntity
  8
0
  6
CONTINUOUS
 62
     7
100
AcDbLine
 10
-347.30862
 20
463.73231
 30
0.0
 11
-327.30862
 21
463.73231
 31
0.0
  0
LINE
  5
AE
100
AcDbEntity
  8
0
  6
CONTINUOUS
 62
     7
100
AcDbLine
 10
-347.30862
 20
421.73231
 30
0.0
 11
-327.30862
 21
421.73231
 31
0.0
  0
LINE
  5
AF
100
AcDbEntity
  8
0
  6
CONTINUOUS
 62
     7
100
AcDbLine
 10
-354.30862
 20
471.13231
 30
0.0
 11
-347.30862
 21
471.13231
 31
0.0
  0
LINE
  5
B0
100
AcDbEntity
  8
0
  6
CENTER
 62
     7
100
AcDbLine
 10
-363.30862
 20
479.73231
 30
0.0
 11
-363.30862
 21
405.73231
 31
0.0
  0
LINE
  5
B1
100
AcDbEntity
  8
0
  6
CONTINUOUS
 62
     7
100
AcDbLine
 10
-368.6181
 20
412.73231
 30
0.0
 11
-342.6181
 21
412.73231
 31
0.0
  0
LINE
  5
B2
100
AcDbEntity
  8
0
  6
CONTINUOUS
 62
     7
100
AcDbLine
 10
-338.70862
 20
463.73231
 30
0.0
 11
-338.70862
 21
421.73231
 31
0.0
  0
LINE
  5
B3
100
AcDbEntity
  8
0
  6
CONTINUOUS
 62
     7
100
AcDbLine
 10
-354.30862
 20
470.93231
 30
0.0
 11
-347.30862
 21
470.93231
 31
0.0
  0
LINE
  5
B4
100
AcDbEntity
  8
0
  6
CONTINUOUS
 62
     7
100
AcDbLine
 10
-354.30862
 20
414.53231
 30
0.0
 11
-347.30862
 21
414.53231
 31
0.0
  0
LINE
  5
B5
100
AcDbEntity
  8
0
  6
CENTER
 62
     7
100
AcDbLine
 10
-356.30862
 20
417.73231
 30
0.0
 11
-345.30862
 21
417.73231
 31
0.0
  0
LINE
  5
B6
100
AcDbEntity
  8
0
  6
CENTER
 62
     7
100
AcDbLine
 10
-356.30862
 20
467.73231
 30
0.0
 11
-345.30862
 21
467.73231
 31
0.0
  0
LINE
  5
B7
100
AcDbEntity
  8
0
  6
CONTINUOUS
 62
     7
100
AcDbLine
 10
-342.6181
 20
472.73231
 30
0.0
 11
-342.6181
 21
468.03231
 31
0.0
  0
LINE
  5
B8
100
AcDbEntity
  8
0
  6
CONTINUOUS
 62
     7
100
AcDbLine
 10
-342.6181
 20
417.43231
 30
0.0
 11
-342.6181
 21
412.73231
 31
0.0
  0
LINE
  5
B9
100
AcDbEntity
  8
0
  6
CONTINUOUS
 62
     7
100
AcDbLine
 10
-364.30862
 20
468.23231
 30
0.0
 11
-364.30862
 21
417.23231
 31
0.0
  0
LINE
  5
BA
100
AcDbEntity
  8
0
  6
CONTINUOUS
 62
     7
100
AcDbLine
 10
-342.6181
 20
468.03231
 30
0.0
 11
-326.30862
 21
468.03231
 31
0.0
  0
LINE
  5
BB
100
AcDbEntity
  8
0
  6
CONTINUOUS
 62
     7
100
AcDbLine
 10
-327.30862
 20
421.73231
 30
0.0
 11
-327.30862
 21
417.43231
 31
0.0
  0
LINE
  5
BC
100
AcDbEntity
  8
0
  6
CONTINUOUS
 62
     7
100
AcDbLine
 10
-330.30862
 20
463.73231
 30
0.0
 11
-330.30862
 21
421.73231
 31
0.0
  0
LINE
  5
BD
100
AcDbEntity
  8
0
  6
CENTER
 62
     7
100
AcDbLine
 10
-296.40862
 20
423.43231
 30
0.0
 11
-306.20862
 21
423.43231
 31
0.0
  0
LINE
  5
BE
100
AcDbEntity
  8
0
  6
CONTINUOUS
 62
     7
100
AcDbLine
 10
-342.6181
 20
470.03231
 30
0.0
 11
-294.30862
 21
470.03231
 31
0.0
  0
LINE
  5
BF
100
AcDbEntity
  8
0
  6
CENTER
 62
     7
100
AcDbLine
 10
-296.40862
 20
462.03231
 30
0.0
 11
-306.20862
 21
462.03231
 31
0.0
  0
LINE
  5
C0
100
AcDbEntity
  8
0
  6
CONTINUOUS
 62
     7
100
AcDbLine
 10
-294.30862
 20
470.03231
 30
0.0
 11
-294.30862
 21
459.03231
 31
0.0
  0
LINE
  5
C1
100
AcDbEntity
  8
0
  6
CONTINUOUS
 62
     7
100
AcDbLine
 10
-323.30862
 20
456.03231
 30
0.0
 11
-297.30862
 21
456.03231
 31
0.0
  0
LINE
  5
C2
100
AcDbEntity
  8
0
  6
CONTINUOUS
 62
     7
100
AcDbLine
 10
-326.30862
 20
470.03231
 30
0.0
 11
-326.30862
 21
459.03231
 31
0.0
  0
LINE
  5
C3
100
AcDbEntity
  8
0
  6
CENTER
 62
     7
100
AcDbLine
 10
-314.40862
 20
462.03231
 30
0.0
 11
-324.20862
 21
462.03231
 31
0.0
  0
LINE
  5
C4
100
AcDbEntity
  8
0
  6
CENTER
 62
     7
100
AcDbLine
 10
-301.30862
 20
466.93231
 30
0.0
 11
-301.30862
 21
457.13231
 31
0.0
  0
LINE
  5
C5
100
AcDbEntity
  8
0
  6
CENTER
 62
     7
100
AcDbLine
 10
-319.30862
 20
466.93231
 30
0.0
 11
-319.30862
 21
457.13231
 31
0.0
  0
LINE
  5
C6
100
AcDbEntity
  8
0
  6
CONTINUOUS
 62
     7
100
AcDbLine
 10
-294.30862
 20
415.43231
 30
0.0
 11
-294.30862
 21
426.43231
 31
0.0
  0
LINE
  5
C7
100
AcDbEntity
  8
0
  6
CONTINUOUS
 62
     7
100
AcDbLine
 10
-323.30862
 20
429.43231
 30
0.0
 11
-297.30862
 21
429.43231
 31
0.0
  0
LINE
  5
C8
100
AcDbEntity
  8
0
  6
CONTINUOUS
 62
     7
100
AcDbLine
 10
-326.30862
 20
415.43231
 30
0.0
 11
-326.30862
 21
426.43231
 31
0.0
  0
LINE
  5
C9
100
AcDbEntity
  8
0
  6
CENTER
 62
     7
100
AcDbLine
 10
-314.40862
 20
423.43231
 30
0.0
 11
-324.20862
 21
423.43231
 31
0.0
  0
LINE
  5
CA
100
AcDbEntity
  8
0
  6
CENTER
 62
     7
100
AcDbLine
 10
-301.30862
 20
418.53231
 30
0.0
 11
-301.30862
 21
428.33231
 31
0.0
  0
LINE
  5
CB
100
AcDbEntity
  8
0
  6
CENTER
 62
     7
100
AcDbLine
 10
-319.30862
 20
418.53231
 30
0.0
 11
-319.30862
 21
428.33231
 31
0.0
  0
LINE
  5
CC
100
AcDbEntity
  8
0
  6
CONTINUOUS
 62
     7
100
AcDbLine
 10
-342.6181
 20
415.43231
 30
0.0
 11
-294.30862
 21
415.43231
 31
0.0
  0
ARC
  5
CD
100
AcDbEntity
  8
0
  6
CONTINUOUS
 62
     7
100
AcDbCircle
 10
-323.30862
 20
459.03231
 30
0.0
 40
3.0
100
AcDbArc
 50
179.99999
 51
270.0
  0
ARC
  5
CE
100
AcDbEntity
  8
0
  6
CONTINUOUS
 62
     7
100
AcDbCircle
 10
-297.30862
 20
459.03231
 30
0.0
 40
3.0
100
AcDbArc
 50
270.0
 51
0.0
  0
CIRCLE
  5
CF
100
AcDbEntity
  8
0
  6
CONTINUOUS
 62
     7
100
AcDbCircle
 10
-319.30862
 20
462.03231
 30
0.0
 40
2.9
  0
CIRCLE
  5
D0
100
AcDbEntity
  8
0
  6
CONTINUOUS
 62
     7
100
AcDbCircle
 10
-301.30862
 20
462.03231
 30
0.0
 40
2.9
  0
ARC
  5
D1
100
AcDbEntity
  8
0
  6
CONTINUOUS
 62
     7
100
AcDbCircle
 10
-323.30862
 20
426.43231
 30
0.0
 40
3.0
100
AcDbArc
 50
90.000003
 51
180.00001
  0
ARC
  5
D2
100
AcDbEntity
  8
0
  6
CONTINUOUS
 62
     7
100
AcDbCircle
 10
-297.30862
 20
426.43231
 30
0.0
 40
3.0
100
AcDbArc
 50
0.0
 51
90.000003
  0
CIRCLE
  5
D3
100
AcDbEntity
  8
0
  6
CONTINUOUS
 62
     7
100
AcDbCircle
 10
-319.30862
 20
423.43231
 30
0.0
 40
2.9
  0
CIRCLE
  5
D4
100
AcDbEntity
  8
0
  6
CONTINUOUS
 62
     7
100
AcDbCircle
 10
-301.30862
 20
423.43231
 30
0.0
 40
2.9
  0
POINT
  5
D5
100
AcDbEntity
  8
0
  6
CONTINUOUS
 62
     7
100
AcDbPoint
 10
-319.30862
 20
357.73233
 30
0.0
  0
POINT
  5
D6
100
AcDbEntity
  8
0
  6
CONTINUOUS
 62
     7
100
AcDbPoint
 10
-301.30862
 20
357.73233
 30
0.0
  0
LINE
  5
D7
100
AcDbEntity
  8
0
  6
CENTER
 62
     7
100
AcDbLine
 10
-363.30862
 20
352.73233
 30
0.0
 11
-363.30862
 21
340.73233
 31
0.0
  0
LINE
  5
D8
100
AcDbEntity
  8
0
  6
CENTER
 62
     7
100
AcDbLine
 10
-369.30862
 20
346.73233
 30
0.0
 11
-357.30862
 21
346.73233
 31
0.0
  0
LINE
  5
D9
100
AcDbEntity
  8
0
  6
CONTINUOUS
 62
     7
100
AcDbLine
 10
-331.30862
 20
357.73233
 30
0.0
 11
-363.30862
 21
357.73233
 31
0.0
  0
LINE
  5
DA
100
AcDbEntity
  8
0
  6
CONTINUOUS
 62
     7
100
AcDbLine
 10
-337.14862
 20
335.73233
 30
0.0
 11
-363.30862
 21
335.73233
 31
0.0
  0
LINE
  5
DB
100
AcDbEntity
  8
0
  6
CONTINUOUS
 62
     7
100
AcDbLine
 10
-339.80862
 20
349.85483
 30
0.0
 11
-339.80862
 21
343.60983
 31
0.0
  0
LINE
  5
DC
100
AcDbEntity
  8
0
  6
CENTER
 62
     7
100
AcDbLine
 10
-337.30862
 20
352.73233
 30
0.0
 11
-337.30862
 21
340.73233
 31
0.0
  0
LINE
  5
DD
100
AcDbEntity
  8
0
  6
CENTER
 62
     7
100
AcDbLine
 10
-343.30862
 20
346.73233
 30
0.0
 11
-331.30862
 21
346.73233
 31
0.0
  0
LINE
  5
DE
100
AcDbEntity
  8
0
  6
CONTINUOUS
 62
     7
100
AcDbLine
 10
-342.72157
 20
336.26214
 30
0.0
 11
-344.70068
 21
337.92282
 31
0.0
  0
LINE
  5
DF
100
AcDbEntity
  8
0
  6
CENTER
 62
     7
100
AcDbLine
 10
-319.30862
 20
360.73233
 30
0.0
 11
-319.30862
 21
352.73233
 31
0.0
  0
LINE
  5
E0
100
AcDbEntity
  8
0
  6
DASHED
 62
     7
100
AcDbLine
 10
-326.30862
 20
355.73233
 30
0.0
 11
-294.51067
 21
355.73233
 31
0.0
  0
LINE
  5
E1
100
AcDbEntity
  8
0
  6
CONTINUOUS
 62
     7
100
AcDbLine
 10
-346.96937
 20
350.83233
 30
0.0
 11
-342.60768
 21
350.83233
 31
0.0
  0
LINE
  5
E2
100
AcDbEntity
  8
0
  6
CENTER
 62
     7
100
AcDbLine
 10
-301.30862
 20
360.73233
 30
0.0
 11
-301.30862
 21
352.73233
 31
0.0
  0
LINE
  5
E3
100
AcDbEntity
  8
0
  6
CONTINUOUS
 62
     7
100
AcDbLine
 10
-294.30862
 20
357.73233
 30
0.0
 11
-294.30862
 21
355.73233
 31
0.0
  0
LINE
  5
E4
100
AcDbEntity
  8
0
  6
CONTINUOUS
 62
     7
100
AcDbLine
 10
-333.37584
 20
336.39956
 30
0.0
 11
-300.67678
 21
348.3389
 31
0.0
  0
LINE
  5
E5
100
AcDbEntity
  8
0
  6
CONTINUOUS
 62
     7
100
AcDbLine
 10
-344.00788
 20
346.63232
 30
0.0
 11
-347.99179
 21
346.63232
 31
0.0
  0
LINE
  5
E6
100
AcDbEntity
  8
0
  6
DASHED
 62
     7
100
AcDbLine
 10
-326.30862
 20
357.73233
 30
0.0
 11
-326.30862
 21
355.73233
 31
0.0
  0
ARC
  5
E7
100
AcDbEntity
  8
0
  6
CONTINUOUS
 62
     7
100
AcDbCircle
 10
-343.1181
 20
357.23233
 30
0.0
 40
0.5
100
AcDbArc
 50
298.95503
 51
90.000003
  0
ARC
  5
E8
100
AcDbEntity
  8
0
  6
CONTINUOUS
 62
     7
100
AcDbCircle
 10
-363.30862
 20
346.73233
 30
0.0
 40
11.0
100
AcDbArc
 50
90.000003
 51
270.0
  0
CIRCLE
  5
E9
100
AcDbEntity
  8
0
  6
CONTINUOUS
 62
     7
100
AcDbCircle
 10
-337.30862
 20
346.73233
 30
0.0
 40
4.0
  0
ARC
  5
EA
100
AcDbEntity
  8
0
  6
CONTINUOUS
 62
     7
100
AcDbCircle
 10
-337.30862
 20
346.73233
 30
0.0
 40
11.5
100
AcDbArc
 50
118.95503
 51
230.00001
  0
ARC
  5
EB
100
AcDbEntity
  8
0
  6
CONTINUOUS
 62
     7
100
AcDbCircle
 10
-342.9144
 20
336.03233
 30
0.0
 40
0.3
100
AcDbArc
 50
270.0
 51
50.0
  0
ARC
  5
EC
100
AcDbEntity
  8
0
  6
CONTINUOUS
 62
     7
100
AcDbCircle
 10
-337.30862
 20
346.73233
 30
0.0
 40
11.2
100
AcDbArc
 50
183.21457
 51
259.15594
  0
ARC
  5
ED
100
AcDbEntity
  8
0
  6
CONTINUOUS
 62
     7
100
AcDbCircle
 10
-337.30862
 20
346.73233
 30
0.0
 40
11.2
100
AcDbArc
 50
100.84406
 51
154.53838
  0
ARC
  5
EE
100
AcDbEntity
  8
0
  6
CONTINUOUS
 62
     7
100
AcDbCircle
 10
-347.99179
 20
346.13232
 30
0.0
 40
0.5
100
AcDbArc
 50
90.000003
 51
183.21457
  0
ARC
  5
EF
100
AcDbEntity
  8
0
  6
CONTINUOUS
 62
     7
100
AcDbCircle
 10
-337.14862
 20
346.73233
 30
0.0
 40
11.0
100
AcDbArc
 50
269.16656
 51
290.1438
  0
ARC
  5
F0
100
AcDbEntity
  8
0
  6
CONTINUOUS
 62
     7
100
AcDbCircle
 10
-337.30862
 20
346.73233
 30
0.0
 40
6.7
100
AcDbArc
 50
142.27008
 51
180.85524
  0
ARC
  5
F1
100
AcDbEntity
  8
0
  6
CONTINUOUS
 62
     7
100
AcDbCircle
 10
-328.80862
 20
357.73233
 30
0.0
 40
2.5
100
AcDbArc
 50
179.99999
 51
0.00001
  0
ARC
  5
F2
100
AcDbEntity
  8
0
  6
CONTINUOUS
 62
     7
100
AcDbCircle
 10
-304.10658
 20
357.73233
 30
0.0
 40
10.0
100
AcDbArc
 50
290.05856
 51
348.46304
  0
ARC
  5
F3
100
AcDbEntity
  8
0
  6
CONTINUOUS
 62
     7
100
AcDbCircle
 10
-346.96937
 20
351.33233
 30
0.0
 40
0.5
100
AcDbArc
 50
154.53838
 51
270.0
  0
POLYLINE
  5
F4
100
AcDbEntity
  8
0
  6
CONTINUOUS
 62
     7
100
AcDb2dPolyline
 66
     1
 10
0.0
 20
0.0
 30
0.0
  0
VERTEX
  5
F5
100
AcDbEntity
  8
0
  6
CONTINUOUS
 62
     7
100
AcDbVertex
100
AcDb2dVertex
 10
-326.30862
 20
357.73233
 30
0.0
  0
VERTEX
  5
F6
100
AcDbEntity
  8
0
  6
CONTINUOUS
 62
     7
100
AcDbVertex
100
AcDb2dVertex
 10
-294.30862
 20
357.73233
 30
0.0
  0
SEQEND
  5
F7
100
AcDbEntity
  8
0
 62
     7
  0
POINT
  5
F8
100
AcDbEntity
  8
0
  6
CONTINUOUS
 62
     7
100
AcDbPoint
 10
-319.30862
 20
270.03232
 30
0.0
  0
POINT
  5
F9
100
AcDbEntity
  8
0
  6
CONTINUOUS
 62
     7
100
AcDbPoint
 10
-301.30862
 20
270.03232
 30
0.0
  0
LINE
  5
FA
100
AcDbEntity
  8
0
  6
CENTER
 62
     7
100
AcDbLine
 10
-375.6181
 20
250.73232
 30
0.0
 11
-323.30862
 21
250.73232
 31
0.0
  0
LINE
  5
FB
100
AcDbEntity
  8
0
  6
CONTINUOUS
 62
     7
100
AcDbLine
 10
-363.80862
 20
276.23232
 30
0.0
 11
-363.80862
 21
225.23232
 31
0.0
  0
LINE
  5
FC
100
AcDbEntity
  8
0
  6
CONTINUOUS
 62
     7
100
AcDbLine
 10
-368.6181
 20
225.23232
 30
0.0
 11
-363.80862
 21
225.23232
 31
0.0
  0
LINE
  5
FD
100
AcDbEntity
  8
0
  6
CONTINUOUS
 62
     7
100
AcDbLine
 10
-368.6181
 20
276.23232
 30
0.0
 11
-363.80862
 21
276.23232
 31
0.0
  0
LINE
  5
FE
100
AcDbEntity
  8
0
  6
CONTINUOUS
 62
     7
100
AcDbLine
 10
-342.6144
 20
225.43232
 30
0.0
 11
-342.6144
 21
220.73232
 31
0.0
  0
LINE
  5
FF
100
AcDbEntity
  8
0
  6
CONTINUOUS
 62
     7
100
AcDbLine
 10
-342.6181
 20
276.03232
 30
0.0
 11
-294.30862
 21
276.03232
 31
0.0
  0
LINE
  5
100
100
AcDbEntity
  8
0
  6
CENTER
 62
     7
100
AcDbLine
 10
-337.30862
 20
287.73232
 30
0.0
 11
-337.30862
 21
213.73232
 31
0.0
  0
LINE
  5
101
100
AcDbEntity
  8
0
  6
CENTER
 62
     7
100
AcDbLine
 10
-363.30862
 20
287.73232
 30
0.0
 11
-363.30862
 21
213.73232
 31
0.0
  0
LINE
  5
102
100
AcDbEntity
  8
0
  6
CONTINUOUS
 62
     7
100
AcDbLine
 10
-368.6181
 20
280.73232
 30
0.0
 11
-342.6181
 21
280.73232
 31
0.0
  0
LINE
  5
103
100
AcDbEntity
  8
0
  6
CONTINUOUS
 62
     7
100
AcDbLine
 10
-368.6181
 20
220.73232
 30
0.0
 11
-342.6181
 21
220.73232
 31
0.0
  0
LINE
  5
104
100
AcDbEntity
  8
0
  6
CONTINUOUS
 62
     7
100
AcDbLine
 10
-342.6181
 20
225.43232
 30
0.0
 11
-294.30862
 21
225.43232
 31
0.0
  0
LINE
  5
105
100
AcDbEntity
  8
0
  6
CENTER
 62
     7
100
AcDbLine
 10
-296.40862
 20
270.03232
 30
0.0
 11
-306.20862
 21
270.03232
 31
0.0
  0
LINE
  5
106
100
AcDbEntity
  8
0
  6
CONTINUOUS
 62
     7
100
AcDbLine
 10
-342.6181
 20
278.03232
 30
0.0
 11
-294.30862
 21
278.03232
 31
0.0
  0
LINE
  5
107
100
AcDbEntity
  8
0
  6
CONTINUOUS
 62
     7
100
AcDbLine
 10
-294.30862
 20
278.03232
 30
0.0
 11
-294.30862
 21
267.03232
 31
0.0
  0
LINE
  5
108
100
AcDbEntity
  8
0
  6
CONTINUOUS
 62
     7
100
AcDbLine
 10
-323.30862
 20
264.03232
 30
0.0
 11
-297.30862
 21
264.03232
 31
0.0
  0
LINE
  5
109
100
AcDbEntity
  8
0
  6
CONTINUOUS
 62
     7
100
AcDbLine
 10
-326.30862
 20
276.03232
 30
0.0
 11
-326.30862
 21
267.03232
 31
0.0
  0
LINE
  5
10A
100
AcDbEntity
  8
0
  6
CENTER
 62
     7
100
AcDbLine
 10
-314.40862
 20
270.03232
 30
0.0
 11
-324.20862
 21
270.03232
 31
0.0
  0
LINE
  5
10B
100
AcDbEntity
  8
0
  6
CENTER
 62
     7
100
AcDbLine
 10
-301.30862
 20
274.93232
 30
0.0
 11
-301.30862
 21
265.13232
 31
0.0
  0
LINE
  5
10C
100
AcDbEntity
  8
0
  6
CENTER
 62
     7
100
AcDbLine
 10
-319.30862
 20
274.93232
 30
0.0
 11
-319.30862
 21
265.13232
 31
0.0
  0
LINE
  5
10D
100
AcDbEntity
  8
0
  6
CONTINUOUS
 62
     7
100
AcDbLine
 10
-294.30862
 20
223.43232
 30
0.0
 11
-294.30862
 21
234.43232
 31
0.0
  0
LINE
  5
10E
100
AcDbEntity
  8
0
  6
CONTINUOUS
 62
     7
100
AcDbLine
 10
-323.30862
 20
237.43232
 30
0.0
 11
-297.30862
 21
237.43232
 31
0.0
  0
LINE
  5
10F
100
AcDbEntity
  8
0
  6
CENTER
 62
     7
100
AcDbLine
 10
-314.40862
 20
231.43232
 30
0.0
 11
-324.20862
 21
231.43232
 31
0.0
  0
LINE
  5
110
100
AcDbEntity
  8
0
  6
CENTER
 62
     7
100
AcDbLine
 10
-296.40862
 20
231.43232
 30
0.0
 11
-306.20862
 21
231.43232
 31
0.0
  0
LINE
  5
111
100
AcDbEntity
  8
0
  6
CENTER
 62
     7
100
AcDbLine
 10
-319.30862
 20
226.53232
 30
0.0
 11
-319.30862
 21
236.33232
 31
0.0
  0
LINE
  5
112
100
AcDbEntity
  8
0
  6
CONTINUOUS
 62
     7
100
AcDbLine
 10
-326.30862
 20
225.43232
 30
0.0
 11
-326.30862
 21
234.43232
 31
0.0
  0
LINE
  5
113
100
AcDbEntity
  8
0
  6
CENTER
 62
     7
100
AcDbLine
 10
-301.30862
 20
226.53232
 30
0.0
 11
-301.30862
 21
236.33232
 31
0.0
  0
LINE
  5
114
100
AcDbEntity
  8
0
  6
CONTINUOUS
 62
     7
100
AcDbLine
 10
-342.6181
 20
223.43232
 30
0.0
 11
-294.30862
 21
223.43232
 31
0.0
  0
LINE
  5
115
100
AcDbEntity
  8
0
  6
CONTINUOUS
 62
     7
100
AcDbLine
 10
-336.3488
 20
271.73232
 30
0.0
 11
-327.30862
 21
271.73232
 31
0.0
  0
LINE
  5
116
100
AcDbEntity
  8
0
  6
CONTINUOUS
 62
     7
100
AcDbLine
 10
-327.30862
 20
276.03232
 30
0.0
 11
-327.30862
 21
271.73232
 31
0.0
  0
LINE
  5
117
100
AcDbEntity
  8
0
  6
CONTINUOUS
 62
     7
100
AcDbLine
 10
-330.30862
 20
271.73232
 30
0.0
 11
-330.30862
 21
229.73232
 31
0.0
  0
LINE
  5
118
100
AcDbEntity
  8
0
  6
CONTINUOUS
 62
     7
100
AcDbLine
 10
-336.3488
 20
229.73232
 30
0.0
 11
-327.30862
 21
229.73232
 31
0.0
  0
LINE
  5
119
100
AcDbEntity
  8
0
  6
CONTINUOUS
 62
     7
100
AcDbLine
 10
-327.30862
 20
229.73232
 30
0.0
 11
-327.30862
 21
225.43232
 31
0.0
  0
LINE
  5
11A
100
AcDbEntity
  8
0
  6
CONTINUOUS
 62
     7
100
AcDbLine
 10
-336.3488
 20
271.73232
 30
0.0
 11
-336.3488
 21
229.73232
 31
0.0
  0
LINE
  5
11B
100
AcDbEntity
  8
0
  6
CONTINUOUS
 62
     7
100
AcDbLine
 10
-342.6144
 20
280.73232
 30
0.0
 11
-342.6144
 21
276.03232
 31
0.0
  0
ARC
  5
11C
100
AcDbEntity
  8
0
  6
CONTINUOUS
 62
     7
100
AcDbCircle
 10
-323.30862
 20
267.03232
 30
0.0
 40
3.0
100
AcDbArc
 50
179.99999
 51
270.0
  0
ARC
  5
11D
100
AcDbEntity
  8
0
  6
CONTINUOUS
 62
     7
100
AcDbCircle
 10
-297.30862
 20
267.03232
 30
0.0
 40
3.0
100
AcDbArc
 50
270.0
 51
0.0
  0
CIRCLE
  5
11E
100
AcDbEntity
  8
0
  6
CONTINUOUS
 62
     7
100
AcDbCircle
 10
-319.30862
 20
270.03232
 30
0.0
 40
2.9
  0
CIRCLE
  5
11F
100
AcDbEntity
  8
0
  6
CONTINUOUS
 62
     7
100
AcDbCircle
 10
-301.30862
 20
270.03232
 30
0.0
 40
2.9
  0
ARC
  5
120
100
AcDbEntity
  8
0
  6
CONTINUOUS
 62
     7
100
AcDbCircle
 10
-297.30862
 20
234.43232
 30
0.0
 40
3.0
100
AcDbArc
 50
0.0
 51
90.000003
  0
CIRCLE
  5
121
100
AcDbEntity
  8
0
  6
CONTINUOUS
 62
     7
100
AcDbCircle
 10
-319.30862
 20
231.43232
 30
0.0
 40
2.9
  0
ARC
  5
122
100
AcDbEntity
  8
0
  6
CONTINUOUS
 62
     7
100
AcDbCircle
 10
-323.30862
 20
234.43232
 30
0.0
 40
3.0
100
AcDbArc
 50
90.000003
 51
180.00001
  0
CIRCLE
  5
123
100
AcDbEntity
  8
0
  6
CONTINUOUS
 62
     7
100
AcDbCircle
 10
-301.30862
 20
231.43232
 30
0.0
 40
2.9
  0
POINT
  5
124
100
AcDbEntity
  8
0
  6
CONTINUOUS
 62
     7
100
AcDbPoint
 10
-237.30864
 20
357.73233
 30
0.0
  0
POINT
  5
125
100
AcDbEntity
  8
0
  6
CONTINUOUS
 62
     7
100
AcDbPoint
 10
-198.70864
 20
357.73233
 30
0.0
  0
LINE
  5
126
100
AcDbEntity
  8
0
  6
CENTER
 62
     7
100
AcDbLine
 10
-255.00864
 20
346.73233
 30
0.0
 11
-181.00864
 21
346.73233
 31
0.0
  0
LINE
  5
127
100
AcDbEntity
  8
0
  6
CONTINUOUS
 62
     7
100
AcDbLine
 10
-248.00864
 20
357.73233
 30
0.0
 11
-231.30864
 21
357.73233
 31
0.0
  0
LINE
  5
128
100
AcDbEntity
  8
0
  6
CONTINUOUS
 62
     7
100
AcDbLine
 10
-248.00864
 20
335.73233
 30
0.0
 11
-188.00864
 21
335.73233
 31
0.0
  0
LINE
  5
129
100
AcDbEntity
  8
0
  6
CONTINUOUS
 62
     7
100
AcDbLine
 10
-243.30864
 20
336.23233
 30
0.0
 11
-192.70864
 21
336.23233
 31
0.0
  0
LINE
  5
12A
100
AcDbEntity
  8
0
  6
CONTINUOUS
 62
     7
100
AcDbLine
 10
-239.00864
 20
340.73233
 30
0.0
 11
-197.00864
 21
340.73233
 31
0.0
  0
LINE
  5
12B
100
AcDbEntity
  8
0
  6
CONTINUOUS
 62
     7
100
AcDbLine
 10
-231.30864
 20
357.43233
 30
0.0
 11
-204.70864
 21
357.43233
 31
0.0
  0
LINE
  5
12C
100
AcDbEntity
  8
0
  6
CONTINUOUS
 62
     7
100
AcDbLine
 10
-239.00864
 20
353.73233
 30
0.0
 11
-197.00864
 21
353.73233
 31
0.0
  0
LINE
  5
12D
100
AcDbEntity
  8
0
  6
CONTINUOUS
 62
     7
100
AcDbLine
 10
-243.30864
 20
355.73233
 30
0.0
 11
-231.30864
 21
355.73233
 31
0.0
  0
LINE
  5
12E
100
AcDbEntity
  8
0
  6
CONTINUOUS
 62
     7
100
AcDbLine
 10
-188.00864
 20
357.73233
 30
0.0
 11
-188.00864
 21
335.73233
 31
0.0
  0
LINE
  5
12F
100
AcDbEntity
  8
0
  6
CENTER
 62
     7
100
AcDbLine
 10
-218.00864
 20
364.73233
 30
0.0
 11
-218.00864
 21
328.73233
 31
0.0
  0
LINE
  5
130
100
AcDbEntity
  8
0
  6
CONTINUOUS
 62
     7
100
AcDbLine
 10
-248.00864
 20
357.73233
 30
0.0
 11
-248.00864
 21
335.73233
 31
0.0
  0
LINE
  5
131
100
AcDbEntity
  8
0
  6
CONTINUOUS
 62
     7
100
AcDbLine
 10
-197.00864
 20
355.73233
 30
0.0
 11
-197.00864
 21
336.23233
 31
0.0
  0
LINE
  5
132
100
AcDbEntity
  8
0
  6
CONTINUOUS
 62
     7
100
AcDbLine
 10
-239.00864
 20
355.73233
 30
0.0
 11
-239.00864
 21
336.23233
 31
0.0
  0
LINE
  5
133
100
AcDbEntity
  8
0
  6
CONTINUOUS
 62
     7
100
AcDbLine
 10
-192.70864
 20
355.73233
 30
0.0
 11
-192.70864
 21
335.73233
 31
0.0
  0
LINE
  5
134
100
AcDbEntity
  8
0
  6
CONTINUOUS
 62
     7
100
AcDbLine
 10
-243.30864
 20
355.73233
 30
0.0
 11
-243.30864
 21
335.73233
 31
0.0
  0
LINE
  5
135
100
AcDbEntity
  8
0
  6
CONTINUOUS
 62
     7
100
AcDbLine
 10
-190.70864
 20
357.73233
 30
0.0
 11
-190.70864
 21
335.73233
 31
0.0
  0
LINE
  5
136
100
AcDbEntity
  8
0
  6
CONTINUOUS
 62
     7
100
AcDbLine
 10
-245.30864
 20
357.73233
 30
0.0
 11
-245.30864
 21
335.73233
 31
0.0
  0
LINE
  5
137
100
AcDbEntity
  8
0
  6
CONTINUOUS
 62
     7
100
AcDbLine
 10
-231.30864
 20
357.73233
 30
0.0
 11
-231.30864
 21
355.73233
 31
0.0
  0
LINE
  5
138
100
AcDbEntity
  8
0
  6
CONTINUOUS
 62
     7
100
AcDbLine
 10
-204.70864
 20
355.73233
 30
0.0
 11
-192.70864
 21
355.73233
 31
0.0
  0
LINE
  5
139
100
AcDbEntity
  8
0
  6
CONTINUOUS
 62
     7
100
AcDbLine
 10
-204.70864
 20
357.73233
 30
0.0
 11
-188.00864
 21
357.73233
 31
0.0
  0
LINE
  5
13A
100
AcDbEntity
  8
0
  6
CENTER
 62
     7
100
AcDbLine
 10
-237.30864
 20
360.73233
 30
0.0
 11
-237.30864
 21
352.73233
 31
0.0
  0
LINE
  5
13B
100
AcDbEntity
  8
0
  6
CENTER
 62
     7
100
AcDbLine
 10
-198.70864
 20
360.73233
 30
0.0
 11
-198.70864
 21
352.73233
 31
0.0
  0
LINE
  5
13C
100
AcDbEntity
  8
0
  6
CONTINUOUS
 62
     7
100
AcDbLine
 10
-204.70864
 20
357.73233
 30
0.0
 11
-204.70864
 21
355.73233
 31
0.0
  0
POINT
  5
13D
100
AcDbEntity
  8
0
  6
CONTINUOUS
 62
     7
100
AcDbPoint
 10
-89.30864
 20
423.43231
 30
0.0
  0
POINT
  5
13E
100
AcDbEntity
  8
0
  6
CONTINUOUS
 62
     7
100
AcDbPoint
 10
-71.30864
 20
423.43231
 30
0.0
  0
LINE
  5
13F
100
AcDbEntity
  8
0
  6
CONTINUOUS
 62
     7
100
AcDbLine
 10
-112.61811
 20
415.43231
 30
0.0
 11
-64.30864
 21
415.43231
 31
0.0
  0
LINE
  5
140
100
AcDbEntity
  8
0
  6
CENTER
 62
     7
100
AcDbLine
 10
-89.30864
 20
418.53231
 30
0.0
 11
-89.30864
 21
428.33231
 31
0.0
  0
LINE
  5
141
100
AcDbEntity
  8
0
  6
CENTER
 62
     7
100
AcDbLine
 10
-71.30864
 20
418.53231
 30
0.0
 11
-71.30864
 21
428.33231
 31
0.0
  0
LINE
  5
142
100
AcDbEntity
  8
0
  6
CENTER
 62
     7
100
AcDbLine
 10
-84.408639
 20
423.43231
 30
0.0
 11
-94.20864
 21
423.43231
 31
0.0
  0
LINE
  5
143
100
AcDbEntity
  8
0
  6
CONTINUOUS
 62
     7
100
AcDbLine
 10
-96.30864
 20
417.43231
 30
0.0
 11
-96.30864
 21
426.43231
 31
0.0
  0
LINE
  5
144
100
AcDbEntity
  8
0
  6
CONTINUOUS
 62
     7
100
AcDbLine
 10
-93.30864
 20
429.43231
 30
0.0
 11
-67.30864
 21
429.43231
 31
0.0
  0
LINE
  5
145
100
AcDbEntity
  8
0
  6
CONTINUOUS
 62
     7
100
AcDbLine
 10
-64.30864
 20
415.43231
 30
0.0
 11
-64.30864
 21
426.43231
 31
0.0
  0
LINE
  5
146
100
AcDbEntity
  8
0
  6
CENTER
 62
     7
100
AcDbLine
 10
-89.30864
 20
466.93231
 30
0.0
 11
-89.30864
 21
457.13231
 31
0.0
  0
LINE
  5
147
100
AcDbEntity
  8
0
  6
CENTER
 62
     7
100
AcDbLine
 10
-71.30864
 20
466.93231
 30
0.0
 11
-71.30864
 21
457.13231
 31
0.0
  0
LINE
  5
148
100
AcDbEntity
  8
0
  6
CENTER
 62
     7
100
AcDbLine
 10
-84.408639
 20
462.03231
 30
0.0
 11
-94.20864
 21
462.03231
 31
0.0
  0
LINE
  5
149
100
AcDbEntity
  8
0
  6
CONTINUOUS
 62
     7
100
AcDbLine
 10
-96.30864
 20
468.03231
 30
0.0
 11
-96.30864
 21
459.03231
 31
0.0
  0
LINE
  5
14A
100
AcDbEntity
  8
0
  6
CONTINUOUS
 62
     7
100
AcDbLine
 10
-93.30864
 20
456.03231
 30
0.0
 11
-67.30864
 21
456.03231
 31
0.0
  0
LINE
  5
14B
100
AcDbEntity
  8
0
  6
CONTINUOUS
 62
     7
100
AcDbLine
 10
-64.30864
 20
470.03231
 30
0.0
 11
-64.30864
 21
459.03231
 31
0.0
  0
LINE
  5
14C
100
AcDbEntity
  8
0
  6
CENTER
 62
     7
100
AcDbLine
 10
-66.40864
 20
462.03231
 30
0.0
 11
-76.208639
 21
462.03231
 31
0.0
  0
LINE
  5
14D
100
AcDbEntity
  8
0
  6
CONTINUOUS
 62
     7
100
AcDbLine
 10
-112.61811
 20
470.03231
 30
0.0
 11
-64.30864
 21
470.03231
 31
0.0
  0
LINE
  5
14E
100
AcDbEntity
  8
0
  6
CENTER
 62
     7
100
AcDbLine
 10
-66.40864
 20
423.43231
 30
0.0
 11
-76.208639
 21
423.43231
 31
0.0
  0
LINE
  5
14F
100
AcDbEntity
  8
0
  6
CONTINUOUS
 62
     7
100
AcDbLine
 10
-100.30864
 20
463.73231
 30
0.0
 11
-100.30864
 21
421.73231
 31
0.0
  0
LINE
  5
150
100
AcDbEntity
  8
0
  6
CONTINUOUS
 62
     7
100
AcDbLine
 10
-97.30864
 20
421.73231
 30
0.0
 11
-97.30864
 21
417.43231
 31
0.0
  0
LINE
  5
151
100
AcDbEntity
  8
0
  6
CONTINUOUS
 62
     7
100
AcDbLine
 10
-112.61811
 20
468.03231
 30
0.0
 11
-64.30864
 21
468.03231
 31
0.0
  0
LINE
  5
152
100
AcDbEntity
  8
0
  6
CONTINUOUS
 62
     7
100
AcDbLine
 10
-134.30864
 20
468.23231
 30
0.0
 11
-134.30864
 21
417.23231
 31
0.0
  0
LINE
  5
153
100
AcDbEntity
  8
0
  6
CONTINUOUS
 62
     7
100
AcDbLine
 10
-112.61811
 20
417.43231
 30
0.0
 11
-112.61811
 21
412.73231
 31
0.0
  0
LINE
  5
154
100
AcDbEntity
  8
0
  6
CONTINUOUS
 62
     7
100
AcDbLine
 10
-112.61811
 20
472.73231
 30
0.0
 11
-112.61811
 21
468.03231
 31
0.0
  0
LINE
  5
155
100
AcDbEntity
  8
0
  6
CENTER
 62
     7
100
AcDbLine
 10
-126.30864
 20
467.73231
 30
0.0
 11
-115.30864
 21
467.73231
 31
0.0
  0
LINE
  5
156
100
AcDbEntity
  8
0
  6
CONTINUOUS
 62
     7
100
AcDbLine
 10
-124.30864
 20
414.53231
 30
0.0
 11
-117.30864
 21
414.53231
 31
0.0
  0
LINE
  5
157
100
AcDbEntity
  8
0
  6
CONTINUOUS
 62
     7
100
AcDbLine
 10
-124.30864
 20
470.93231
 30
0.0
 11
-117.30864
 21
470.93231
 31
0.0
  0
LINE
  5
158
100
AcDbEntity
  8
0
  6
CONTINUOUS
 62
     7
100
AcDbLine
 10
-108.70864
 20
463.73231
 30
0.0
 11
-108.70864
 21
421.73231
 31
0.0
  0
LINE
  5
159
100
AcDbEntity
  8
0
  6
CONTINUOUS
 62
     7
100
AcDbLine
 10
-138.61812
 20
412.73231
 30
0.0
 11
-112.61811
 21
412.73231
 31
0.0
  0
LINE
  5
15A
100
AcDbEntity
  8
0
  6
CENTER
 62
     7
100
AcDbLine
 10
-133.30864
 20
479.73231
 30
0.0
 11
-133.30864
 21
405.73231
 31
0.0
  0
LINE
  5
15B
100
AcDbEntity
  8
0
  6
CONTINUOUS
 62
     7
100
AcDbLine
 10
-124.30864
 20
471.13231
 30
0.0
 11
-117.30864
 21
471.13231
 31
0.0
  0
LINE
  5
15C
100
AcDbEntity
  8
0
  6
CONTINUOUS
 62
     7
100
AcDbLine
 10
-117.30864
 20
421.73231
 30
0.0
 11
-97.30864
 21
421.73231
 31
0.0
  0
LINE
  5
15D
100
AcDbEntity
  8
0
  6
CONTINUOUS
 62
     7
100
AcDbLine
 10
-117.30864
 20
463.73231
 30
0.0
 11
-97.30864
 21
463.73231
 31
0.0
  0
LINE
  5
15E
100
AcDbEntity
  8
0
  6
CONTINUOUS
 62
     7
100
AcDbLine
 10
-134.30864
 20
421.73231
 30
0.0
 11
-124.30864
 21
421.73231
 31
0.0
  0
LINE
  5
15F
100
AcDbEntity
  8
0
  6
CONTINUOUS
 62
     7
100
AcDbLine
 10
-117.30864
 20
421.73231
 30
0.0
 11
-117.30864
 21
414.33231
 31
0.0
  0
LINE
  5
160
100
AcDbEntity
  8
0
  6
CONTINUOUS
 62
     7
100
AcDbLine
 10
-138.61812
 20
468.23231
 30
0.0
 11
-134.30864
 21
468.23231
 31
0.0
  0
LINE
  5
161
100
AcDbEntity
  8
0
  6
CONTINUOUS
 62
     7
100
AcDbLine
 10
-124.30864
 20
421.73231
 30
0.0
 11
-124.30864
 21
414.33231
 31
0.0
  0
LINE
  5
162
100
AcDbEntity
  8
0
  6
CONTINUOUS
 62
     7
100
AcDbLine
 10
-138.61812
 20
417.23231
 30
0.0
 11
-134.30864
 21
417.23231
 31
0.0
  0
LINE
  5
163
100
AcDbEntity
  8
0
  6
CONTINUOUS
 62
     7
100
AcDbLine
 10
-124.30864
 20
471.13231
 30
0.0
 11
-124.30864
 21
463.73231
 31
0.0
  0
LINE
  5
164
100
AcDbEntity
  8
0
  6
CONTINUOUS
 62
     7
100
AcDbLine
 10
-134.30864
 20
463.73231
 30
0.0
 11
-124.30864
 21
463.73231
 31
0.0
  0
LINE
  5
165
100
AcDbEntity
  8
0
  6
CONTINUOUS
 62
     7
100
AcDbLine
 10
-117.30864
 20
471.13231
 30
0.0
 11
-117.30864
 21
463.73231
 31
0.0
  0
LINE
  5
166
100
AcDbEntity
  8
0
  6
CENTER
 62
     7
100
AcDbLine
 10
-107.30864
 20
479.73231
 30
0.0
 11
-107.30864
 21
405.73231
 31
0.0
  0
LINE
  5
167
100
AcDbEntity
  8
0
  6
CONTINUOUS
 62
     7
100
AcDbLine
 10
-97.30864
 20
468.03231
 30
0.0
 11
-97.30864
 21
463.73231
 31
0.0
  0
LINE
  5
168
100
AcDbEntity
  8
0
  6
CONTINUOUS
 62
     7
100
AcDbLine
 10
-138.61812
 20
472.73231
 30
0.0
 11
-112.61811
 21
472.73231
 31
0.0
  0
LINE
  5
169
100
AcDbEntity
  8
0
  6
CENTER
 62
     7
100
AcDbLine
 10
-145.61812
 20
442.73231
 30
0.0
 11
-93.30864
 21
442.73231
 31
0.0
  0
LINE
  5
16A
100
AcDbEntity
  8
0
  6
CONTINUOUS
 62
     7
100
AcDbLine
 10
-124.30864
 20
414.33231
 30
0.0
 11
-117.30864
 21
414.33231
 31
0.0
  0
LINE
  5
16B
100
AcDbEntity
  8
0
  6
CONTINUOUS
 62
     7
100
AcDbLine
 10
-112.61811
 20
417.43231
 30
0.0
 11
-64.30864
 21
417.43231
 31
0.0
  0
LINE
  5
16C
100
AcDbEntity
  8
0
  6
CENTER
 62
     7
100
AcDbLine
 10
-126.30864
 20
417.73231
 30
0.0
 11
-115.30864
 21
417.73231
 31
0.0
  0
CIRCLE
  5
16D
100
AcDbEntity
  8
0
  6
CONTINUOUS
 62
     7
100
AcDbCircle
 10
-71.30864
 20
423.43231
 30
0.0
 40
2.9
  0
CIRCLE
  5
16E
100
AcDbEntity
  8
0
  6
CONTINUOUS
 62
     7
100
AcDbCircle
 10
-89.30864
 20
423.43231
 30
0.0
 40
2.9
  0
ARC
  5
16F
100
AcDbEntity
  8
0
  6
CONTINUOUS
 62
     7
100
AcDbCircle
 10
-67.30864
 20
426.43231
 30
0.0
 40
3.0
100
AcDbArc
 50
0.0
 51
90.000003
  0
ARC
  5
170
100
AcDbEntity
  8
0
  6
CONTINUOUS
 62
     7
100
AcDbCircle
 10
-93.30864
 20
426.43231
 30
0.0
 40
3.0
100
AcDbArc
 50
90.000003
 51
180.00001
  0
CIRCLE
  5
171
100
AcDbEntity
  8
0
  6
CONTINUOUS
 62
     7
100
AcDbCircle
 10
-71.30864
 20
462.03231
 30
0.0
 40
2.9
  0
CIRCLE
  5
172
100
AcDbEntity
  8
0
  6
CONTINUOUS
 62
     7
100
AcDbCircle
 10
-89.30864
 20
462.03231
 30
0.0
 40
2.9
  0
ARC
  5
173
100
AcDbEntity
  8
0
  6
CONTINUOUS
 62
     7
100
AcDbCircle
 10
-67.30864
 20
459.03231
 30
0.0
 40
3.0
100
AcDbArc
 50
270.0
 51
0.0
  0
ARC
  5
174
100
AcDbEntity
  8
0
  6
CONTINUOUS
 62
     7
100
AcDbCircle
 10
-93.30864
 20
459.03231
 30
0.0
 40
3.0
100
AcDbArc
 50
179.99999
 51
270.0
  0
POINT
  5
175
100
AcDbEntity
  8
0
  6
CONTINUOUS
 62
     7
100
AcDbPoint
 10
-89.30864
 20
335.73233
 30
0.0
  0
POINT
  5
176
100
AcDbEntity
  8
0
  6
CONTINUOUS
 62
     7
100
AcDbPoint
 10
-71.30864
 20
335.73233
 30
0.0
  0
LINE
  5
177
100
AcDbEntity
  8
0
  6
DASHED
 62
     7
100
AcDbLine
 10
-96.30864
 20
335.73233
 30
0.0
 11
-96.30864
 21
337.73233
 31
0.0
  0
LINE
  5
178
100
AcDbEntity
  8
0
  6
CONTINUOUS
 62
     7
100
AcDbLine
 10
-114.00789
 20
346.63232
 30
0.0
 11
-117.9918
 21
346.63232
 31
0.0
  0
LINE
  5
179
100
AcDbEntity
  8
0
  6
CONTINUOUS
 62
     7
100
AcDbLine
 10
-103.37585
 20
357.0651
 30
0.0
 11
-70.676796
 21
345.12576
 31
0.0
  0
LINE
  5
17A
100
AcDbEntity
  8
0
  6
CONTINUOUS
 62
     7
100
AcDbLine
 10
-64.30864
 20
335.73233
 30
0.0
 11
-64.30864
 21
337.73233
 31
0.0
  0
LINE
  5
17B
100
AcDbEntity
  8
0
  6
CENTER
 62
     7
100
AcDbLine
 10
-71.30864
 20
332.73233
 30
0.0
 11
-71.30864
 21
340.73233
 31
0.0
  0
LINE
  5
17C
100
AcDbEntity
  8
0
  6
CONTINUOUS
 62
     7
100
AcDbLine
 10
-116.96939
 20
350.83233
 30
0.0
 11
-112.6077
 21
350.83233
 31
0.0
  0
LINE
  5
17D
100
AcDbEntity
  8
0
  6
DASHED
 62
     7
100
AcDbLine
 10
-96.30864
 20
337.73233
 30
0.0
 11
-64.510681
 21
337.73233
 31
0.0
  0
LINE
  5
17E
100
AcDbEntity
  8
0
  6
CENTER
 62
     7
100
AcDbLine
 10
-89.30864
 20
332.73233
 30
0.0
 11
-89.30864
 21
340.73233
 31
0.0
  0
LINE
  5
17F
100
AcDbEntity
  8
0
  6
CONTINUOUS
 62
     7
100
AcDbLine
 10
-112.72158
 20
336.26214
 30
0.0
 11
-114.7007
 21
337.92282
 31
0.0
  0
LINE
  5
180
100
AcDbEntity
  8
0
  6
CENTER
 62
     7
100
AcDbLine
 10
-113.30864
 20
346.73233
 30
0.0
 11
-101.30864
 21
346.73233
 31
0.0
  0
LINE
  5
181
100
AcDbEntity
  8
0
  6
CENTER
 62
     7
100
AcDbLine
 10
-107.30864
 20
352.73233
 30
0.0
 11
-107.30864
 21
340.73233
 31
0.0
  0
LINE
  5
182
100
AcDbEntity
  8
0
  6
CONTINUOUS
 62
     7
100
AcDbLine
 10
-109.80864
 20
349.85483
 30
0.0
 11
-109.80864
 21
343.60983
 31
0.0
  0
LINE
  5
183
100
AcDbEntity
  8
0
  6
CONTINUOUS
 62
     7
100
AcDbLine
 10
-101.30864
 20
335.73233
 30
0.0
 11
-133.30864
 21
335.73233
 31
0.0
  0
LINE
  5
184
100
AcDbEntity
  8
0
  6
CONTINUOUS
 62
     7
100
AcDbLine
 10
-107.14864
 20
357.73233
 30
0.0
 11
-133.30864
 21
357.73233
 31
0.0
  0
LINE
  5
185
100
AcDbEntity
  8
0
  6
CENTER
 62
     7
100
AcDbLine
 10
-139.30864
 20
346.73233
 30
0.0
 11
-127.30864
 21
346.73233
 31
0.0
  0
LINE
  5
186
100
AcDbEntity
  8
0
  6
CENTER
 62
     7
100
AcDbLine
 10
-133.30864
 20
352.73233
 30
0.0
 11
-133.30864
 21
340.73233
 31
0.0
  0
ARC
  5
187
100
AcDbEntity
  8
0
  6
CONTINUOUS
 62
     7
100
AcDbCircle
 10
-116.96939
 20
351.33233
 30
0.0
 40
0.5
100
AcDbArc
 50
154.53838
 51
270.0
  0
ARC
  5
188
100
AcDbEntity
  8
0
  6
CONTINUOUS
 62
     7
100
AcDbCircle
 10
-74.106599
 20
335.73233
 30
0.0
 40
10.0
100
AcDbArc
 50
11.536959
 51
69.941444
  0
ARC
  5
189
100
AcDbEntity
  8
0
  6
CONTINUOUS
 62
     7
100
AcDbCircle
 10
-98.80864
 20
335.73233
 30
0.0
 40
2.5
100
AcDbArc
 50
0.0
 51
180.00001
  0
ARC
  5
18A
100
AcDbEntity
  8
0
  6
CONTINUOUS
 62
     7
100
AcDbCircle
 10
-107.30864
 20
346.73233
 30
0.0
 40
6.7
100
AcDbArc
 50
142.27008
 51
180.85524
  0
ARC
  5
18B
100
AcDbEntity
  8
0
  6
CONTINUOUS
 62
     7
100
AcDbCircle
 10
-107.14864
 20
346.73233
 30
0.0
 40
11.0
100
AcDbArc
 50
69.856197
 51
90.833443
  0
ARC
  5
18C
100
AcDbEntity
  8
0
  6
CONTINUOUS
 62
     7
100
AcDbCircle
 10
-117.9918
 20
346.13232
 30
0.0
 40
0.5
100
AcDbArc
 50
90.000003
 51
183.21457
  0
ARC
  5
18D
100
AcDbEntity
  8
0
  6
CONTINUOUS
 62
     7
100
AcDbCircle
 10
-107.30864
 20
346.73233
 30
0.0
 40
11.2
100
AcDbArc
 50
100.84406
 51
154.53838
  0
ARC
  5
18E
100
AcDbEntity
  8
0
  6
CONTINUOUS
 62
     7
100
AcDbCircle
 10
-107.30864
 20
346.73233
 30
0.0
 40
11.2
100
AcDbArc
 50
183.21457
 51
259.15594
  0
ARC
  5
18F
100
AcDbEntity
  8
0
  6
CONTINUOUS
 62
     7
100
AcDbCircle
 10
-112.91442
 20
336.03233
 30
0.0
 40
0.3
100
AcDbArc
 50
270.0
 51
50.0
  0
ARC
  5
190
100
AcDbEntity
  8
0
  6
CONTINUOUS
 62
     7
100
AcDbCircle
 10
-107.30864
 20
346.73233
 30
0.0
 40
11.5
100
AcDbArc
 50
118.95503
 51
230.00001
  0
CIRCLE
  5
191
100
AcDbEntity
  8
0
  6
CONTINUOUS
 62
     7
100
AcDbCircle
 10
-107.30864
 20
346.73233
 30
0.0
 40
4.0
  0
ARC
  5
192
100
AcDbEntity
  8
0
  6
CONTINUOUS
 62
     7
100
AcDbCircle
 10
-133.30864
 20
346.73233
 30
0.0
 40
11.0
100
AcDbArc
 50
90.000003
 51
270.0
  0
ARC
  5
193
100
AcDbEntity
  8
0
  6
CONTINUOUS
 62
     7
100
AcDbCircle
 10
-113.11811
 20
357.23233
 30
0.0
 40
0.5
100
AcDbArc
 50
298.95503
 51
90.000003
  0
POLYLINE
  5
194
100
AcDbEntity
  8
0
  6
CONTINUOUS
 62
     7
100
AcDb2dPolyline
 66
     1
 10
0.0
 20
0.0
 30
0.0
  0
VERTEX
  5
195
100
AcDbEntity
  8
0
  6
CONTINUOUS
 62
     7
100
AcDbVertex
100
AcDb2dVertex
 10
-96.30864
 20
335.73233
 30
0.0
  0
VERTEX
  5
196
100
AcDbEntity
  8
0
  6
CONTINUOUS
 62
     7
100
AcDbVertex
100
AcDb2dVertex
 10
-64.30864
 20
335.73233
 30
0.0
  0
SEQEND
  5
197
100
AcDbEntity
  8
0
 62
     7
  0
POINT
  5
198
100
AcDbEntity
  8
0
  6
CONTINUOUS
 62
     7
100
AcDbPoint
 10
-89.30864
 20
270.03232
 30
0.0
  0
POINT
  5
199
100
AcDbEntity
  8
0
  6
CONTINUOUS
 62
     7
100
AcDbPoint
 10
-71.30864
 20
270.03232
 30
0.0
  0
LINE
  5
19A
100
AcDbEntity
  8
0
  6
CONTINUOUS
 62
     7
100
AcDbLine
 10
-106.34881
 20
271.73232
 30
0.0
 11
-106.34881
 21
229.73232
 31
0.0
  0
LINE
  5
19B
100
AcDbEntity
  8
0
  6
CONTINUOUS
 62
     7
100
AcDbLine
 10
-97.30864
 20
229.73232
 30
0.0
 11
-97.30864
 21
225.43232
 31
0.0
  0
LINE
  5
19C
100
AcDbEntity
  8
0
  6
CONTINUOUS
 62
     7
100
AcDbLine
 10
-106.34881
 20
229.73232
 30
0.0
 11
-97.30864
 21
229.73232
 31
0.0
  0
LINE
  5
19D
100
AcDbEntity
  8
0
  6
CONTINUOUS
 62
     7
100
AcDbLine
 10
-100.30864
 20
271.73232
 30
0.0
 11
-100.30864
 21
229.73232
 31
0.0
  0
LINE
  5
19E
100
AcDbEntity
  8
0
  6
CONTINUOUS
 62
     7
100
AcDbLine
 10
-97.30864
 20
276.03232
 30
0.0
 11
-97.30864
 21
271.73232
 31
0.0
  0
LINE
  5
19F
100
AcDbEntity
  8
0
  6
CONTINUOUS
 62
     7
100
AcDbLine
 10
-106.34881
 20
271.73232
 30
0.0
 11
-97.30864
 21
271.73232
 31
0.0
  0
LINE
  5
1A0
100
AcDbEntity
  8
0
  6
CONTINUOUS
 62
     7
100
AcDbLine
 10
-112.61811
 20
223.43232
 30
0.0
 11
-64.30864
 21
223.43232
 31
0.0
  0
LINE
  5
1A1
100
AcDbEntity
  8
0
  6
CENTER
 62
     7
100
AcDbLine
 10
-71.30864
 20
226.53232
 30
0.0
 11
-71.30864
 21
236.33232
 31
0.0
  0
LINE
  5
1A2
100
AcDbEntity
  8
0
  6
CONTINUOUS
 62
     7
100
AcDbLine
 10
-96.30864
 20
223.43232
 30
0.0
 11
-96.30864
 21
234.43232
 31
0.0
  0
LINE
  5
1A3
100
AcDbEntity
  8
0
  6
CENTER
 62
     7
100
AcDbLine
 10
-89.30864
 20
226.53232
 30
0.0
 11
-89.30864
 21
236.33232
 31
0.0
  0
LINE
  5
1A4
100
AcDbEntity
  8
0
  6
CENTER
 62
     7
100
AcDbLine
 10
-66.40864
 20
231.43232
 30
0.0
 11
-76.208639
 21
231.43232
 31
0.0
  0
LINE
  5
1A5
100
AcDbEntity
  8
0
  6
CENTER
 62
     7
100
AcDbLine
 10
-84.408639
 20
231.43232
 30
0.0
 11
-94.20864
 21
231.43232
 31
0.0
  0
LINE
  5
1A6
100
AcDbEntity
  8
0
  6
CONTINUOUS
 62
     7
100
AcDbLine
 10
-93.30864
 20
237.43232
 30
0.0
 11
-67.30864
 21
237.43232
 31
0.0
  0
LINE
  5
1A7
100
AcDbEntity
  8
0
  6
CONTINUOUS
 62
     7
100
AcDbLine
 10
-64.30864
 20
223.43232
 30
0.0
 11
-64.30864
 21
234.43232
 31
0.0
  0
LINE
  5
1A8
100
AcDbEntity
  8
0
  6
CENTER
 62
     7
100
AcDbLine
 10
-89.30864
 20
274.93232
 30
0.0
 11
-89.30864
 21
265.13232
 31
0.0
  0
LINE
  5
1A9
100
AcDbEntity
  8
0
  6
CENTER
 62
     7
100
AcDbLine
 10
-71.30864
 20
274.93232
 30
0.0
 11
-71.30864
 21
265.13232
 31
0.0
  0
LINE
  5
1AA
100
AcDbEntity
  8
0
  6
CENTER
 62
     7
100
AcDbLine
 10
-84.408639
 20
270.03232
 30
0.0
 11
-94.20864
 21
270.03232
 31
0.0
  0
LINE
  5
1AB
100
AcDbEntity
  8
0
  6
CONTINUOUS
 62
     7
100
AcDbLine
 10
-96.30864
 20
278.03232
 30
0.0
 11
-96.30864
 21
267.03232
 31
0.0
  0
LINE
  5
1AC
100
AcDbEntity
  8
0
  6
CONTINUOUS
 62
     7
100
AcDbLine
 10
-93.30864
 20
264.03232
 30
0.0
 11
-67.30864
 21
264.03232
 31
0.0
  0
LINE
  5
1AD
100
AcDbEntity
  8
0
  6
CONTINUOUS
 62
     7
100
AcDbLine
 10
-64.30864
 20
278.03232
 30
0.0
 11
-64.30864
 21
267.03232
 31
0.0
  0
LINE
  5
1AE
100
AcDbEntity
  8
0
  6
CONTINUOUS
 62
     7
100
AcDbLine
 10
-112.61811
 20
278.03232
 30
0.0
 11
-64.30864
 21
278.03232
 31
0.0
  0
LINE
  5
1AF
100
AcDbEntity
  8
0
  6
CENTER
 62
     7
100
AcDbLine
 10
-66.40864
 20
270.03232
 30
0.0
 11
-76.208639
 21
270.03232
 31
0.0
  0
LINE
  5
1B0
100
AcDbEntity
  8
0
  6
CONTINUOUS
 62
     7
100
AcDbLine
 10
-112.61811
 20
225.43232
 30
0.0
 11
-96.30864
 21
225.43232
 31
0.0
  0
LINE
  5
1B1
100
AcDbEntity
  8
0
  6
CONTINUOUS
 62
     7
100
AcDbLine
 10
-138.61812
 20
220.73232
 30
0.0
 11
-112.61811
 21
220.73232
 31
0.0
  0
LINE
  5
1B2
100
AcDbEntity
  8
0
  6
CONTINUOUS
 62
     7
100
AcDbLine
 10
-138.61812
 20
280.73232
 30
0.0
 11
-112.61811
 21
280.73232
 31
0.0
  0
LINE
  5
1B3
100
AcDbEntity
  8
0
  6
CENTER
 62
     7
100
AcDbLine
 10
-133.30864
 20
287.73232
 30
0.0
 11
-133.30864
 21
213.73232
 31
0.0
  0
LINE
  5
1B4
100
AcDbEntity
  8
0
  6
CENTER
 62
     7
100
AcDbLine
 10
-107.30864
 20
287.73232
 30
0.0
 11
-107.30864
 21
213.73232
 31
0.0
  0
LINE
  5
1B5
100
AcDbEntity
  8
0
  6
CONTINUOUS
 62
     7
100
AcDbLine
 10
-112.61811
 20
276.03232
 30
0.0
 11
-96.30864
 21
276.03232
 31
0.0
  0
LINE
  5
1B6
100
AcDbEntity
  8
0
  6
CONTINUOUS
 62
     7
100
AcDbLine
 10
-138.61812
 20
276.23232
 30
0.0
 11
-133.80864
 21
276.23232
 31
0.0
  0
LINE
  5
1B7
100
AcDbEntity
  8
0
  6
CONTINUOUS
 62
     7
100
AcDbLine
 10
-138.61812
 20
225.23232
 30
0.0
 11
-133.80864
 21
225.23232
 31
0.0
  0
LINE
  5
1B8
100
AcDbEntity
  8
0
  6
CONTINUOUS
 62
     7
100
AcDbLine
 10
-133.80864
 20
276.23232
 30
0.0
 11
-133.80864
 21
225.23232
 31
0.0
  0
LINE
  5
1B9
100
AcDbEntity
  8
0
  6
CENTER
 62
     7
100
AcDbLine
 10
-145.61812
 20
250.73232
 30
0.0
 11
-93.30864
 21
250.73232
 31
0.0
  0
LINE
  5
1BA
100
AcDbEntity
  8
0
  6
CONTINUOUS
 62
     7
100
AcDbLine
 10
-112.61442
 20
225.43232
 30
0.0
 11
-112.61442
 21
220.73232
 31
0.0
  0
LINE
  5
1BB
100
AcDbEntity
  8
0
  6
CONTINUOUS
 62
     7
100
AcDbLine
 10
-112.61442
 20
280.73232
 30
0.0
 11
-112.61442
 21
276.03232
 31
0.0
  0
CIRCLE
  5
1BC
100
AcDbEntity
  8
0
  6
CONTINUOUS
 62
     7
100
AcDbCircle
 10
-71.30864
 20
231.43232
 30
0.0
 40
2.9
  0
ARC
  5
1BD
100
AcDbEntity
  8
0
  6
CONTINUOUS
 62
     7
100
AcDbCircle
 10
-93.30864
 20
234.43232
 30
0.0
 40
3.0
100
AcDbArc
 50
90.000003
 51
180.00001
  0
CIRCLE
  5
1BE
100
AcDbEntity
  8
0
  6
CONTINUOUS
 62
     7
100
AcDbCircle
 10
-89.30864
 20
231.43232
 30
0.0
 40
2.9
  0
ARC
  5
1BF
100
AcDbEntity
  8
0
  6
CONTINUOUS
 62
     7
100
AcDbCircle
 10
-67.30864
 20
234.43232
 30
0.0
 40
3.0
100
AcDbArc
 50
0.0
 51
90.000003
  0
CIRCLE
  5
1C0
100
AcDbEntity
  8
0
  6
CONTINUOUS
 62
     7
100
AcDbCircle
 10
-71.30864
 20
270.03232
 30
0.0
 40
2.9
  0
CIRCLE
  5
1C1
100
AcDbEntity
  8
0
  6
CONTINUOUS
 62
     7
100
AcDbCircle
 10
-89.30864
 20
270.03232
 30
0.0
 40
2.9
  0
ARC
  5
1C2
100
AcDbEntity
  8
0
  6
CONTINUOUS
 62
     7
100
AcDbCircle
 10
-67.30864
 20
267.03232
 30
0.0
 40
3.0
100
AcDbArc
 50
270.0
 51
0.0
  0
ARC
  5
1C3
100
AcDbEntity
  8
0
  6
CONTINUOUS
 62
     7
100
AcDbCircle
 10
-93.30864
 20
267.03232
 30
0.0
 40
3.0
100
AcDbArc
 50
179.99999
 51
270.0
  0
POINT
  5
1C4
100
AcDbEntity
  8
0
  6
CONTINUOUS
 62
     7
100
AcDbPoint
 10
-7.308639
 20
335.73233
 30
0.0
  0
POINT
  5
1C5
100
AcDbEntity
  8
0
  6
CONTINUOUS
 62
     7
100
AcDbPoint
 10
31.291359
 20
335.73233
 30
0.0
  0
LINE
  5
1C6
100
AcDbEntity
  8
0
  6
CONTINUOUS
 62
     7
100
AcDbLine
 10
25.291359
 20
335.73233
 30
0.0
 11
25.291359
 21
337.73233
 31
0.0
  0
LINE
  5
1C7
100
AcDbEntity
  8
0
  6
CENTER
 62
     7
100
AcDbLine
 10
31.291359
 20
332.73233
 30
0.0
 11
31.291359
 21
340.73233
 31
0.0
  0
LINE
  5
1C8
100
AcDbEntity
  8
0
  6
CENTER
 62
     7
100
AcDbLine
 10
-7.308639
 20
332.73233
 30
0.0
 11
-7.308639
 21
340.73233
 31
0.0
  0
LINE
  5
1C9
100
AcDbEntity
  8
0
  6
CONTINUOUS
 62
     7
100
AcDbLine
 10
32.99136
 20
357.73233
 30
0.0
 11
41.99136
 21
357.73233
 31
0.0
  0
LINE
  5
1CA
100
AcDbEntity
  8
0
  6
CONTINUOUS
 62
     7
100
AcDbLine
 10
25.291359
 20
337.73233
 30
0.0
 11
37.291359
 21
337.73233
 31
0.0
  0
LINE
  5
1CB
100
AcDbEntity
  8
0
  6
CONTINUOUS
 62
     7
100
AcDbLine
 10
-1.308639
 20
335.73233
 30
0.0
 11
-1.308639
 21
337.73233
 31
0.0
  0
LINE
  5
1CC
100
AcDbEntity
  8
0
  6
CONTINUOUS
 62
     7
100
AcDbLine
 10
-15.308639
 20
357.73233
 30
0.0
 11
-15.308639
 21
335.73233
 31
0.0
  0
LINE
  5
1CD
100
AcDbEntity
  8
0
  6
CONTINUOUS
 62
     7
100
AcDbLine
 10
39.291359
 20
357.73233
 30
0.0
 11
39.291359
 21
335.73233
 31
0.0
  0
LINE
  5
1CE
100
AcDbEntity
  8
0
  6
CONTINUOUS
 62
     7
100
AcDbLine
 10
-13.308639
 20
337.73233
 30
0.0
 11
-13.308639
 21
357.73233
 31
0.0
  0
LINE
  5
1CF
100
AcDbEntity
  8
0
  6
CONTINUOUS
 62
     7
100
AcDbLine
 10
37.291359
 20
337.73233
 30
0.0
 11
37.291359
 21
357.73233
 31
0.0
  0
LINE
  5
1D0
100
AcDbEntity
  8
0
  6
CONTINUOUS
 62
     7
100
AcDbLine
 10
-9.008639
 20
357.73233
 30
0.0
 11
-9.008639
 21
337.73233
 31
0.0
  0
LINE
  5
1D1
100
AcDbEntity
  8
0
  6
CONTINUOUS
 62
     7
100
AcDbLine
 10
32.99136
 20
357.73233
 30
0.0
 11
32.99136
 21
337.73233
 31
0.0
  0
LINE
  5
1D2
100
AcDbEntity
  8
0
  6
CONTINUOUS
 62
     7
100
AcDbLine
 10
-18.008639
 20
357.73233
 30
0.0
 11
-18.008639
 21
335.73233
 31
0.0
  0
LINE
  5
1D3
100
AcDbEntity
  8
0
  6
CENTER
 62
     7
100
AcDbLine
 10
11.99136
 20
364.73233
 30
0.0
 11
11.99136
 21
328.73233
 31
0.0
  0
LINE
  5
1D4
100
AcDbEntity
  8
0
  6
CONTINUOUS
 62
     7
100
AcDbLine
 10
41.99136
 20
357.73233
 30
0.0
 11
41.99136
 21
335.73233
 31
0.0
  0
LINE
  5
1D5
100
AcDbEntity
  8
0
  6
CONTINUOUS
 62
     7
100
AcDbLine
 10
-13.308639
 20
337.73233
 30
0.0
 11
-1.308639
 21
337.73233
 31
0.0
  0
LINE
  5
1D6
100
AcDbEntity
  8
0
  6
CONTINUOUS
 62
     7
100
AcDbLine
 10
-9.008639
 20
353.73233
 30
0.0
 11
32.99136
 21
353.73233
 31
0.0
  0
LINE
  5
1D7
100
AcDbEntity
  8
0
  6
CONTINUOUS
 62
     7
100
AcDbLine
 10
-9.008639
 20
357.43233
 30
0.0
 11
32.99136
 21
357.43233
 31
0.0
  0
LINE
  5
1D8
100
AcDbEntity
  8
0
  6
CONTINUOUS
 62
     7
100
AcDbLine
 10
-9.008639
 20
340.73233
 30
0.0
 11
32.99136
 21
340.73233
 31
0.0
  0
LINE
  5
1D9
100
AcDbEntity
  8
0
  6
CONTINUOUS
 62
     7
100
AcDbLine
 10
-1.308639
 20
336.23233
 30
0.0
 11
25.291359
 21
336.23233
 31
0.0
  0
LINE
  5
1DA
100
AcDbEntity
  8
0
  6
CONTINUOUS
 62
     7
100
AcDbLine
 10
-18.008639
 20
335.73233
 30
0.0
 11
41.99136
 21
335.73233
 31
0.0
  0
LINE
  5
1DB
100
AcDbEntity
  8
0
  6
CONTINUOUS
 62
     7
100
AcDbLine
 10
-18.008639
 20
357.73233
 30
0.0
 11
-9.008639
 21
357.73233
 31
0.0
  0
LINE
  5
1DC
100
AcDbEntity
  8
0
  6
CENTER
 62
     7
100
AcDbLine
 10
-25.00864
 20
346.73233
 30
0.0
 11
48.99136
 21
346.73233
 31
0.0
  0
POINT
  5
1DD
100
AcDbEntity
  8
0
  6
CONTINUOUS
 62
     7
100
AcDbPoint
 10
140.69136
 20
409.43231
 30
0.0
  0
POINT
  5
1DE
100
AcDbEntity
  8
0
  6
CONTINUOUS
 62
     7
100
AcDbPoint
 10
158.69136
 20
409.43231
 30
0.0
  0
LINE
  5
1DF
100
AcDbEntity
  8
0
  6
CONTINUOUS
 62
     7
100
AcDbLine
 10
117.38189
 20
415.43231
 30
0.0
 11
133.69136
 21
415.43231
 31
0.0
  0
LINE
  5
1E0
100
AcDbEntity
  8
0
  6
CENTER
 62
     7
100
AcDbLine
 10
163.59136
 20
409.43231
 30
0.0
 11
153.79136
 21
409.43231
 31
0.0
  0
LINE
  5
1E1
100
AcDbEntity
  8
0
  6
CONTINUOUS
 62
     7
100
AcDbLine
 10
136.69136
 20
403.43231
 30
0.0
 11
162.69136
 21
403.43231
 31
0.0
  0
LINE
  5
1E2
100
AcDbEntity
  8
0
  6
CONTINUOUS
 62
     7
100
AcDbLine
 10
117.38189
 20
417.43231
 30
0.0
 11
165.69136
 21
417.43231
 31
0.0
  0
LINE
  5
1E3
100
AcDbEntity
  8
0
  6
CENTER
 62
     7
100
AcDbLine
 10
145.59136
 20
409.43231
 30
0.0
 11
135.79136
 21
409.43231
 31
0.0
  0
LINE
  5
1E4
100
AcDbEntity
  8
0
  6
CENTER
 62
     7
100
AcDbLine
 10
158.69136
 20
414.33231
 30
0.0
 11
158.69136
 21
404.53231
 31
0.0
  0
LINE
  5
1E5
100
AcDbEntity
  8
0
  6
CONTINUOUS
 62
     7
100
AcDbLine
 10
133.69136
 20
417.43231
 30
0.0
 11
133.69136
 21
406.43231
 31
0.0
  0
LINE
  5
1E6
100
AcDbEntity
  8
0
  6
CENTER
 62
     7
100
AcDbLine
 10
140.69136
 20
471.13231
 30
0.0
 11
140.69136
 21
480.93231
 31
0.0
  0
LINE
  5
1E7
100
AcDbEntity
  8
0
  6
CENTER
 62
     7
100
AcDbLine
 10
158.69136
 20
471.13231
 30
0.0
 11
158.69136
 21
480.93231
 31
0.0
  0
LINE
  5
1E8
100
AcDbEntity
  8
0
  6
CENTER
 62
     7
100
AcDbLine
 10
145.59136
 20
476.03231
 30
0.0
 11
135.79136
 21
476.03231
 31
0.0
  0
LINE
  5
1E9
100
AcDbEntity
  8
0
  6
CONTINUOUS
 62
     7
100
AcDbLine
 10
133.69136
 20
468.03231
 30
0.0
 11
133.69136
 21
479.03231
 31
0.0
  0
LINE
  5
1EA
100
AcDbEntity
  8
0
  6
CONTINUOUS
 62
     7
100
AcDbLine
 10
136.69136
 20
482.03231
 30
0.0
 11
162.69136
 21
482.03231
 31
0.0
  0
LINE
  5
1EB
100
AcDbEntity
  8
0
  6
CONTINUOUS
 62
     7
100
AcDbLine
 10
165.69136
 20
468.03231
 30
0.0
 11
165.69136
 21
479.03231
 31
0.0
  0
LINE
  5
1EC
100
AcDbEntity
  8
0
  6
CENTER
 62
     7
100
AcDbLine
 10
163.59136
 20
476.03231
 30
0.0
 11
153.79136
 21
476.03231
 31
0.0
  0
LINE
  5
1ED
100
AcDbEntity
  8
0
  6
CONTINUOUS
 62
     7
100
AcDbLine
 10
117.38189
 20
468.03231
 30
0.0
 11
165.69136
 21
468.03231
 31
0.0
  0
LINE
  5
1EE
100
AcDbEntity
  8
0
  6
CONTINUOUS
 62
     7
100
AcDbLine
 10
165.69136
 20
417.43231
 30
0.0
 11
165.69136
 21
406.43231
 31
0.0
  0
LINE
  5
1EF
100
AcDbEntity
  8
0
  6
CONTINUOUS
 62
     7
100
AcDbLine
 10
129.69136
 20
463.73231
 30
0.0
 11
129.69136
 21
421.73231
 31
0.0
  0
LINE
  5
1F0
100
AcDbEntity
  8
0
  6
CONTINUOUS
 62
     7
100
AcDbLine
 10
132.69136
 20
421.73231
 30
0.0
 11
132.69136
 21
417.43231
 31
0.0
  0
LINE
  5
1F1
100
AcDbEntity
  8
0
  6
CONTINUOUS
 62
     7
100
AcDbLine
 10
117.38189
 20
470.03231
 30
0.0
 11
133.69136
 21
470.03231
 31
0.0
  0
LINE
  5
1F2
100
AcDbEntity
  8
0
  6
CONTINUOUS
 62
     7
100
AcDbLine
 10
95.69136
 20
468.23231
 30
0.0
 11
95.69136
 21
417.23231
 31
0.0
  0
LINE
  5
1F3
100
AcDbEntity
  8
0
  6
CONTINUOUS
 62
     7
100
AcDbLine
 10
117.38189
 20
417.43231
 30
0.0
 11
117.38189
 21
412.73231
 31
0.0
  0
LINE
  5
1F4
100
AcDbEntity
  8
0
  6
CONTINUOUS
 62
     7
100
AcDbLine
 10
117.38189
 20
472.73231
 30
0.0
 11
117.38189
 21
468.03231
 31
0.0
  0
LINE
  5
1F5
100
AcDbEntity
  8
0
  6
CENTER
 62
     7
100
AcDbLine
 10
103.69136
 20
467.73231
 30
0.0
 11
114.69136
 21
467.73231
 31
0.0
  0
LINE
  5
1F6
100
AcDbEntity
  8
0
  6
CONTINUOUS
 62
     7
100
AcDbLine
 10
105.69136
 20
414.53231
 30
0.0
 11
112.69136
 21
414.53231
 31
0.0
  0
LINE
  5
1F7
100
AcDbEntity
  8
0
  6
CONTINUOUS
 62
     7
100
AcDbLine
 10
105.69136
 20
470.93231
 30
0.0
 11
112.69136
 21
470.93231
 31
0.0
  0
LINE
  5
1F8
100
AcDbEntity
  8
0
  6
CONTINUOUS
 62
     7
100
AcDbLine
 10
121.29136
 20
463.73231
 30
0.0
 11
121.29136
 21
421.73231
 31
0.0
  0
LINE
  5
1F9
100
AcDbEntity
  8
0
  6
CONTINUOUS
 62
     7
100
AcDbLine
 10
91.381882
 20
412.73231
 30
0.0
 11
117.38189
 21
412.73231
 31
0.0
  0
LINE
  5
1FA
100
AcDbEntity
  8
0
  6
CENTER
 62
     7
100
AcDbLine
 10
96.69136
 20
479.73232
 30
0.0
 11
96.69136
 21
405.73231
 31
0.0
  0
LINE
  5
1FB
100
AcDbEntity
  8
0
  6
CONTINUOUS
 62
     7
100
AcDbLine
 10
105.69136
 20
471.13231
 30
0.0
 11
112.69136
 21
471.13231
 31
0.0
  0
LINE
  5
1FC
100
AcDbEntity
  8
0
  6
CONTINUOUS
 62
     7
100
AcDbLine
 10
112.69136
 20
421.73231
 30
0.0
 11
132.69136
 21
421.73231
 31
0.0
  0
LINE
  5
1FD
100
AcDbEntity
  8
0
  6
CONTINUOUS
 62
     7
100
AcDbLine
 10
112.69136
 20
463.73231
 30
0.0
 11
132.69136
 21
463.73231
 31
0.0
  0
LINE
  5
1FE
100
AcDbEntity
  8
0
  6
CONTINUOUS
 62
     7
100
AcDbLine
 10
95.69136
 20
421.73231
 30
0.0
 11
105.69136
 21
421.73231
 31
0.0
  0
LINE
  5
1FF
100
AcDbEntity
  8
0
  6
CONTINUOUS
 62
     7
100
AcDbLine
 10
112.69136
 20
421.73231
 30
0.0
 11
112.69136
 21
414.33231
 31
0.0
  0
LINE
  5
200
100
AcDbEntity
  8
0
  6
CONTINUOUS
 62
     7
100
AcDbLine
 10
91.381882
 20
468.23231
 30
0.0
 11
95.69136
 21
468.23231
 31
0.0
  0
LINE
  5
201
100
AcDbEntity
  8
0
  6
CONTINUOUS
 62
     7
100
AcDbLine
 10
105.69136
 20
421.73231
 30
0.0
 11
105.69136
 21
414.33231
 31
0.0
  0
LINE
  5
202
100
AcDbEntity
  8
0
  6
CONTINUOUS
 62
     7
100
AcDbLine
 10
91.381882
 20
417.23231
 30
0.0
 11
95.69136
 21
417.23231
 31
0.0
  0
LINE
  5
203
100
AcDbEntity
  8
0
  6
CONTINUOUS
 62
     7
100
AcDbLine
 10
105.69136
 20
471.13231
 30
0.0
 11
105.69136
 21
463.73231
 31
0.0
  0
LINE
  5
204
100
AcDbEntity
  8
0
  6
CENTER
 62
     7
100
AcDbLine
 10
140.69136
 20
414.33231
 30
0.0
 11
140.69136
 21
404.53231
 31
0.0
  0
LINE
  5
205
100
AcDbEntity
  8
0
  6
CONTINUOUS
 62
     7
100
AcDbLine
 10
105.69136
 20
414.33231
 30
0.0
 11
112.69136
 21
414.33231
 31
0.0
  0
LINE
  5
206
100
AcDbEntity
  8
0
  6
CENTER
 62
     7
100
AcDbLine
 10
84.381882
 20
442.73231
 30
0.0
 11
136.69136
 21
442.73231
 31
0.0
  0
LINE
  5
207
100
AcDbEntity
  8
0
  6
CONTINUOUS
 62
     7
100
AcDbLine
 10
91.381882
 20
472.73231
 30
0.0
 11
117.38189
 21
472.73231
 31
0.0
  0
LINE
  5
208
100
AcDbEntity
  8
0
  6
CENTER
 62
     7
100
AcDbLine
 10
122.69136
 20
479.73232
 30
0.0
 11
122.69136
 21
405.73231
 31
0.0
  0
LINE
  5
209
100
AcDbEntity
  8
0
  6
CONTINUOUS
 62
     7
100
AcDbLine
 10
132.69136
 20
468.03231
 30
0.0
 11
132.69136
 21
463.73231
 31
0.0
  0
LINE
  5
20A
100
AcDbEntity
  8
0
  6
CONTINUOUS
 62
     7
100
AcDbLine
 10
112.69136
 20
471.13231
 30
0.0
 11
112.69136
 21
463.73231
 31
0.0
  0
LINE
  5
20B
100
AcDbEntity
  8
0
  6
CONTINUOUS
 62
     7
100
AcDbLine
 10
95.69136
 20
463.73231
 30
0.0
 11
105.69136
 21
463.73231
 31
0.0
  0
LINE
  5
20C
100
AcDbEntity
  8
0
  6
CENTER
 62
     7
100
AcDbLine
 10
103.69136
 20
417.73231
 30
0.0
 11
114.69136
 21
417.73231
 31
0.0
  0
ARC
  5
20D
100
AcDbEntity
  8
0
  6
CONTINUOUS
 62
     7
100
AcDbCircle
 10
162.69136
 20
406.43231
 30
0.0
 40
3.0
100
AcDbArc
 50
270.0
 51
0.0
  0
CIRCLE
  5
20E
100
AcDbEntity
  8
0
  6
CONTINUOUS
 62
     7
100
AcDbCircle
 10
140.69136
 20
409.43231
 30
0.0
 40
2.9
  0
ARC
  5
20F
100
AcDbEntity
  8
0
  6
CONTINUOUS
 62
     7
100
AcDbCircle
 10
136.69136
 20
406.43231
 30
0.0
 40
3.0
100
AcDbArc
 50
179.99999
 51
270.0
  0
CIRCLE
  5
210
100
AcDbEntity
  8
0
  6
CONTINUOUS
 62
     7
100
AcDbCircle
 10
158.69136
 20
476.03231
 30
0.0
 40
2.9
  0
CIRCLE
  5
211
100
AcDbEntity
  8
0
  6
CONTINUOUS
 62
     7
100
AcDbCircle
 10
140.69136
 20
476.03231
 30
0.0
 40
2.9
  0
ARC
  5
212
100
AcDbEntity
  8
0
  6
CONTINUOUS
 62
     7
100
AcDbCircle
 10
162.69136
 20
479.03231
 30
0.0
 40
3.0
100
AcDbArc
 50
0.0
 51
90.000003
  0
ARC
  5
213
100
AcDbEntity
  8
0
  6
CONTINUOUS
 62
     7
100
AcDbCircle
 10
136.69136
 20
479.03231
 30
0.0
 40
3.0
100
AcDbArc
 50
90.000003
 51
180.00001
  0
CIRCLE
  5
214
100
AcDbEntity
  8
0
  6
CONTINUOUS
 62
     7
100
AcDbCircle
 10
158.69136
 20
409.43231
 30
0.0
 40
2.9
  0
POINT
  5
215
100
AcDbEntity
  8
0
  6
CONTINUOUS
 62
     7
100
AcDbPoint
 10
140.69136
 20
357.73233
 30
0.0
  0
POINT
  5
216
100
AcDbEntity
  8
0
  6
CONTINUOUS
 62
     7
100
AcDbPoint
 10
158.69136
 20
357.73233
 30
0.0
  0
LINE
  5
217
100
AcDbEntity
  8
0
  6
CONTINUOUS
 62
     7
100
AcDbLine
 10
133.69136
 20
357.73233
 30
0.0
 11
133.69136
 21
355.73233
 31
0.0
  0
LINE
  5
218
100
AcDbEntity
  8
0
  6
CONTINUOUS
 62
     7
100
AcDbLine
 10
115.99211
 20
346.63232
 30
0.0
 11
112.0082
 21
346.63232
 31
0.0
  0
LINE
  5
219
100
AcDbEntity
  8
0
  6
CONTINUOUS
 62
     7
100
AcDbLine
 10
126.62415
 20
336.39956
 30
0.0
 11
159.3232
 21
348.3389
 31
0.0
  0
LINE
  5
21A
100
AcDbEntity
  8
0
  6
CONTINUOUS
 62
     7
100
AcDbLine
 10
165.69136
 20
357.73233
 30
0.0
 11
165.69136
 21
355.73233
 31
0.0
  0
LINE
  5
21B
100
AcDbEntity
  8
0
  6
CENTER
 62
     7
100
AcDbLine
 10
158.69136
 20
360.73233
 30
0.0
 11
158.69136
 21
352.73233
 31
0.0
  0
LINE
  5
21C
100
AcDbEntity
  8
0
  6
CONTINUOUS
 62
     7
100
AcDbLine
 10
113.03061
 20
350.83233
 30
0.0
 11
117.3923
 21
350.83233
 31
0.0
  0
LINE
  5
21D
100
AcDbEntity
  8
0
  6
CONTINUOUS
 62
     7
100
AcDbLine
 10
133.69136
 20
355.73233
 30
0.0
 11
165.48932
 21
355.73233
 31
0.0
  0
LINE
  5
21E
100
AcDbEntity
  8
0
  6
CENTER
 62
     7
100
AcDbLine
 10
140.69136
 20
360.73233
 30
0.0
 11
140.69136
 21
352.73233
 31
0.0
  0
LINE
  5
21F
100
AcDbEntity
  8
0
  6
CONTINUOUS
 62
     7
100
AcDbLine
 10
117.27842
 20
336.26214
 30
0.0
 11
115.2993
 21
337.92282
 31
0.0
  0
LINE
  5
220
100
AcDbEntity
  8
0
  6
CENTER
 62
     7
100
AcDbLine
 10
116.69136
 20
346.73233
 30
0.0
 11
128.69136
 21
346.73233
 31
0.0
  0
LINE
  5
221
100
AcDbEntity
  8
0
  6
CENTER
 62
     7
100
AcDbLine
 10
122.69136
 20
352.73233
 30
0.0
 11
122.69136
 21
340.73233
 31
0.0
  0
LINE
  5
222
100
AcDbEntity
  8
0
  6
CONTINUOUS
 62
     7
100
AcDbLine
 10
120.19136
 20
349.85483
 30
0.0
 11
120.19136
 21
343.60983
 31
0.0
  0
LINE
  5
223
100
AcDbEntity
  8
0
  6
CONTINUOUS
 62
     7
100
AcDbLine
 10
122.85136
 20
335.73233
 30
0.0
 11
96.69136
 21
335.73233
 31
0.0
  0
LINE
  5
224
100
AcDbEntity
  8
0
  6
CONTINUOUS
 62
     7
100
AcDbLine
 10
128.69136
 20
357.73233
 30
0.0
 11
96.69136
 21
357.73233
 31
0.0
  0
LINE
  5
225
100
AcDbEntity
  8
0
  6
CENTER
 62
     7
100
AcDbLine
 10
90.69136
 20
346.73233
 30
0.0
 11
102.69136
 21
346.73233
 31
0.0
  0
LINE
  5
226
100
AcDbEntity
  8
0
  6
CENTER
 62
     7
100
AcDbLine
 10
96.69136
 20
352.73233
 30
0.0
 11
96.69136
 21
340.73233
 31
0.0
  0
ARC
  5
227
100
AcDbEntity
  8
0
  6
CONTINUOUS
 62
     7
100
AcDbCircle
 10
113.03061
 20
351.33233
 30
0.0
 40
0.5
100
AcDbArc
 50
154.53838
 51
270.0
  0
ARC
  5
228
100
AcDbEntity
  8
0
  6
CONTINUOUS
 62
     7
100
AcDbCircle
 10
155.8934
 20
357.73233
 30
0.0
 40
10.0
100
AcDbArc
 50
290.05856
 51
348.46304
  0
ARC
  5
229
100
AcDbEntity
  8
0
  6
CONTINUOUS
 62
     7
100
AcDbCircle
 10
131.19136
 20
357.73233
 30
0.0
 40
2.5
100
AcDbArc
 50
179.99999
 51
0.00001
  0
ARC
  5
22A
100
AcDbEntity
  8
0
  6
CONTINUOUS
 62
     7
100
AcDbCircle
 10
122.69136
 20
346.73233
 30
0.0
 40
6.7
100
AcDbArc
 50
142.27008
 51
180.85524
  0
ARC
  5
22B
100
AcDbEntity
  8
0
  6
CONTINUOUS
 62
     7
100
AcDbCircle
 10
122.85136
 20
346.73233
 30
0.0
 40
11.0
100
AcDbArc
 50
269.16656
 51
290.1438
  0
ARC
  5
22C
100
AcDbEntity
  8
0
  6
CONTINUOUS
 62
     7
100
AcDbCircle
 10
112.0082
 20
346.13232
 30
0.0
 40
0.5
100
AcDbArc
 50
90.000003
 51
183.21457
  0
ARC
  5
22D
100
AcDbEntity
  8
0
  6
CONTINUOUS
 62
     7
100
AcDbCircle
 10
122.69136
 20
346.73233
 30
0.0
 40
11.2
100
AcDbArc
 50
100.84406
 51
154.53838
  0
ARC
  5
22E
100
AcDbEntity
  8
0
  6
CONTINUOUS
 62
     7
100
AcDbCircle
 10
122.69136
 20
346.73233
 30
0.0
 40
11.2
100
AcDbArc
 50
183.21457
 51
259.15594
  0
ARC
  5
22F
100
AcDbEntity
  8
0
  6
CONTINUOUS
 62
     7
100
AcDbCircle
 10
117.08558
 20
336.03233
 30
0.0
 40
0.3
100
AcDbArc
 50
270.0
 51
50.0
  0
ARC
  5
230
100
AcDbEntity
  8
0
  6
CONTINUOUS
 62
     7
100
AcDbCircle
 10
122.69136
 20
346.73233
 30
0.0
 40
11.5
100
AcDbArc
 50
118.95503
 51
230.00001
  0
CIRCLE
  5
231
100
AcDbEntity
  8
0
  6
CONTINUOUS
 62
     7
100
AcDbCircle
 10
122.69136
 20
346.73233
 30
0.0
 40
4.0
  0
ARC
  5
232
100
AcDbEntity
  8
0
  6
CONTINUOUS
 62
     7
100
AcDbCircle
 10
96.69136
 20
346.73233
 30
0.0
 40
11.0
100
AcDbArc
 50
90.000003
 51
270.0
  0
ARC
  5
233
100
AcDbEntity
  8
0
  6
CONTINUOUS
 62
     7
100
AcDbCircle
 10
116.88189
 20
357.23233
 30
0.0
 40
0.5
100
AcDbArc
 50
298.95503
 51
90.000003
  0
POLYLINE
  5
234
100
AcDbEntity
  8
0
  6
CONTINUOUS
 62
     7
100
AcDb2dPolyline
 66
     1
 10
0.0
 20
0.0
 30
0.0
  0
VERTEX
  5
235
100
AcDbEntity
  8
0
  6
CONTINUOUS
 62
     7
100
AcDbVertex
100
AcDb2dVertex
 10
133.69136
 20
357.73233
 30
0.0
  0
VERTEX
  5
236
100
AcDbEntity
  8
0
  6
CONTINUOUS
 62
     7
100
AcDbVertex
100
AcDb2dVertex
 10
165.69136
 20
357.73233
 30
0.0
  0
SEQEND
  5
237
100
AcDbEntity
  8
0
 62
     7
  0
POINT
  5
238
100
AcDbEntity
  8
0
  6
CONTINUOUS
 62
     7
100
AcDbPoint
 10
140.69136
 20
284.03232
 30
0.0
  0
POINT
  5
239
100
AcDbEntity
  8
0
  6
CONTINUOUS
 62
     7
100
AcDbPoint
 10
158.69136
 20
284.03232
 30
0.0
  0
LINE
  5
23A
100
AcDbEntity
  8
0
  6
CONTINUOUS
 62
     7
100
AcDbLine
 10
117.38558
 20
225.43232
 30
0.0
 11
117.38558
 21
220.73232
 31
0.0
  0
LINE
  5
23B
100
AcDbEntity
  8
0
  6
CENTER
 62
     7
100
AcDbLine
 10
158.69136
 20
279.13232
 30
0.0
 11
158.69136
 21
288.93232
 31
0.0
  0
LINE
  5
23C
100
AcDbEntity
  8
0
  6
CONTINUOUS
 62
     7
100
AcDbLine
 10
123.65119
 20
271.73232
 30
0.0
 11
123.65119
 21
229.73232
 31
0.0
  0
LINE
  5
23D
100
AcDbEntity
  8
0
  6
CONTINUOUS
 62
     7
100
AcDbLine
 10
132.69136
 20
229.73232
 30
0.0
 11
132.69136
 21
225.43232
 31
0.0
  0
LINE
  5
23E
100
AcDbEntity
  8
0
  6
CONTINUOUS
 62
     7
100
AcDbLine
 10
123.65119
 20
229.73232
 30
0.0
 11
132.69136
 21
229.73232
 31
0.0
  0
LINE
  5
23F
100
AcDbEntity
  8
0
  6
CONTINUOUS
 62
     7
100
AcDbLine
 10
129.69136
 20
271.73232
 30
0.0
 11
129.69136
 21
229.73232
 31
0.0
  0
LINE
  5
240
100
AcDbEntity
  8
0
  6
CONTINUOUS
 62
     7
100
AcDbLine
 10
132.69136
 20
276.03232
 30
0.0
 11
132.69136
 21
271.73232
 31
0.0
  0
LINE
  5
241
100
AcDbEntity
  8
0
  6
CONTINUOUS
 62
     7
100
AcDbLine
 10
123.65119
 20
271.73232
 30
0.0
 11
132.69136
 21
271.73232
 31
0.0
  0
LINE
  5
242
100
AcDbEntity
  8
0
  6
CENTER
 62
     7
100
AcDbLine
 10
158.69136
 20
222.33232
 30
0.0
 11
158.69136
 21
212.53232
 31
0.0
  0
LINE
  5
243
100
AcDbEntity
  8
0
  6
CONTINUOUS
 62
     7
100
AcDbLine
 10
136.69136
 20
211.43232
 30
0.0
 11
162.69136
 21
211.43232
 31
0.0
  0
LINE
  5
244
100
AcDbEntity
  8
0
  6
CENTER
 62
     7
100
AcDbLine
 10
140.69136
 20
222.33232
 30
0.0
 11
140.69136
 21
212.53232
 31
0.0
  0
LINE
  5
245
100
AcDbEntity
  8
0
  6
CONTINUOUS
 62
     7
100
AcDbLine
 10
117.38189
 20
225.43232
 30
0.0
 11
165.69136
 21
225.43232
 31
0.0
  0
LINE
  5
246
100
AcDbEntity
  8
0
  6
CONTINUOUS
 62
     7
100
AcDbLine
 10
133.69136
 20
223.43232
 30
0.0
 11
133.69136
 21
214.43232
 31
0.0
  0
LINE
  5
247
100
AcDbEntity
  8
0
  6
CENTER
 62
     7
100
AcDbLine
 10
163.59136
 20
217.43232
 30
0.0
 11
153.79136
 21
217.43232
 31
0.0
  0
LINE
  5
248
100
AcDbEntity
  8
0
  6
CONTINUOUS
 62
     7
100
AcDbLine
 10
165.69136
 20
225.43232
 30
0.0
 11
165.69136
 21
214.43232
 31
0.0
  0
LINE
  5
249
100
AcDbEntity
  8
0
  6
CONTINUOUS
 62
     7
100
AcDbLine
 10
117.38189
 20
223.43232
 30
0.0
 11
165.69136
 21
223.43232
 31
0.0
  0
LINE
  5
24A
100
AcDbEntity
  8
0
  6
CENTER
 62
     7
100
AcDbLine
 10
145.59136
 20
217.43232
 30
0.0
 11
135.79136
 21
217.43232
 31
0.0
  0
LINE
  5
24B
100
AcDbEntity
  8
0
  6
CONTINUOUS
 62
     7
100
AcDbLine
 10
91.381882
 20
220.73232
 30
0.0
 11
117.38189
 21
220.73232
 31
0.0
  0
LINE
  5
24C
100
AcDbEntity
  8
0
  6
CONTINUOUS
 62
     7
100
AcDbLine
 10
91.381882
 20
280.73232
 30
0.0
 11
117.38189
 21
280.73232
 31
0.0
  0
LINE
  5
24D
100
AcDbEntity
  8
0
  6
CENTER
 62
     7
100
AcDbLine
 10
96.69136
 20
287.73232
 30
0.0
 11
96.69136
 21
213.73232
 31
0.0
  0
LINE
  5
24E
100
AcDbEntity
  8
0
  6
CENTER
 62
     7
100
AcDbLine
 10
122.69136
 20
287.73232
 30
0.0
 11
122.69136
 21
213.73232
 31
0.0
  0
LINE
  5
24F
100
AcDbEntity
  8
0
  6
CONTINUOUS
 62
     7
100
AcDbLine
 10
91.381882
 20
276.23232
 30
0.0
 11
96.19136
 21
276.23232
 31
0.0
  0
LINE
  5
250
100
AcDbEntity
  8
0
  6
CONTINUOUS
 62
     7
100
AcDbLine
 10
91.381882
 20
225.23232
 30
0.0
 11
96.19136
 21
225.23232
 31
0.0
  0
LINE
  5
251
100
AcDbEntity
  8
0
  6
CONTINUOUS
 62
     7
100
AcDbLine
 10
96.19136
 20
276.23232
 30
0.0
 11
96.19136
 21
225.23232
 31
0.0
  0
LINE
  5
252
100
AcDbEntity
  8
0
  6
CENTER
 62
     7
100
AcDbLine
 10
84.381882
 20
250.73232
 30
0.0
 11
136.69136
 21
250.73232
 31
0.0
  0
LINE
  5
253
100
AcDbEntity
  8
0
  6
CENTER
 62
     7
100
AcDbLine
 10
145.59136
 20
284.03232
 30
0.0
 11
135.79136
 21
284.03232
 31
0.0
  0
LINE
  5
254
100
AcDbEntity
  8
0
  6
CONTINUOUS
 62
     7
100
AcDbLine
 10
117.38189
 20
278.03232
 30
0.0
 11
165.69136
 21
278.03232
 31
0.0
  0
LINE
  5
255
100
AcDbEntity
  8
0
  6
CONTINUOUS
 62
     7
100
AcDbLine
 10
165.69136
 20
276.03232
 30
0.0
 11
165.69136
 21
287.03232
 31
0.0
  0
LINE
  5
256
100
AcDbEntity
  8
0
  6
CENTER
 62
     7
100
AcDbLine
 10
163.59136
 20
284.03232
 30
0.0
 11
153.79136
 21
284.03232
 31
0.0
  0
LINE
  5
257
100
AcDbEntity
  8
0
  6
CONTINUOUS
 62
     7
100
AcDbLine
 10
133.69136
 20
278.03232
 30
0.0
 11
133.69136
 21
287.03232
 31
0.0
  0
LINE
  5
258
100
AcDbEntity
  8
0
  6
CONTINUOUS
 62
     7
100
AcDbLine
 10
117.38189
 20
276.03232
 30
0.0
 11
165.69136
 21
276.03232
 31
0.0
  0
LINE
  5
259
100
AcDbEntity
  8
0
  6
CENTER
 62
     7
100
AcDbLine
 10
140.69136
 20
279.13232
 30
0.0
 11
140.69136
 21
288.93232
 31
0.0
  0
LINE
  5
25A
100
AcDbEntity
  8
0
  6
CONTINUOUS
 62
     7
100
AcDbLine
 10
136.69136
 20
290.03232
 30
0.0
 11
162.69136
 21
290.03232
 31
0.0
  0
LINE
  5
25B
100
AcDbEntity
  8
0
  6
CONTINUOUS
 62
     7
100
AcDbLine
 10
117.38558
 20
280.73232
 30
0.0
 11
117.38558
 21
276.03232
 31
0.0
  0
CIRCLE
  5
25C
100
AcDbEntity
  8
0
  6
CONTINUOUS
 62
     7
100
AcDbCircle
 10
158.69136
 20
217.43232
 30
0.0
 40
2.9
  0
ARC
  5
25D
100
AcDbEntity
  8
0
  6
CONTINUOUS
 62
     7
100
AcDbCircle
 10
162.69136
 20
214.43232
 30
0.0
 40
3.0
100
AcDbArc
 50
270.0
 51
0.0
  0
ARC
  5
25E
100
AcDbEntity
  8
0
  6
CONTINUOUS
 62
     7
100
AcDbCircle
 10
136.69136
 20
214.43232
 30
0.0
 40
3.0
100
AcDbArc
 50
179.99999
 51
270.0
  0
CIRCLE
  5
25F
100
AcDbEntity
  8
0
  6
CONTINUOUS
 62
     7
100
AcDbCircle
 10
140.69136
 20
217.43232
 30
0.0
 40
2.9
  0
CIRCLE
  5
260
100
AcDbEntity
  8
0
  6
CONTINUOUS
 62
     7
100
AcDbCircle
 10
140.69136
 20
284.03232
 30
0.0
 40
2.9
  0
ARC
  5
261
100
AcDbEntity
  8
0
  6
CONTINUOUS
 62
     7
100
AcDbCircle
 10
136.69136
 20
287.03232
 30
0.0
 40
3.0
100
AcDbArc
 50
90.000003
 51
180.00001
  0
ARC
  5
262
100
AcDbEntity
  8
0
  6
CONTINUOUS
 62
     7
100
AcDbCircle
 10
162.69136
 20
287.03232
 30
0.0
 40
3.0
100
AcDbArc
 50
0.0
 51
90.000003
  0
CIRCLE
  5
263
100
AcDbEntity
  8
0
  6
CONTINUOUS
 62
     7
100
AcDbCircle
 10
158.69136
 20
284.03232
 30
0.0
 40
2.9
  0
POINT
  5
264
100
AcDbEntity
  8
0
  6
CONTINUOUS
 62
     7
100
AcDbPoint
 10
210.69136
 20
357.73233
 30
0.0
  0
POINT
  5
265
100
AcDbEntity
  8
0
  6
CONTINUOUS
 62
     7
100
AcDbPoint
 10
277.29136
 20
357.73233
 30
0.0
  0
LINE
  5
266
100
AcDbEntity
  8
0
  6
CONTINUOUS
 62
     7
100
AcDbLine
 10
283.29136
 20
357.73233
 30
0.0
 11
283.29136
 21
355.73233
 31
0.0
  0
LINE
  5
267
100
AcDbEntity
  8
0
  6
CENTER
 62
     7
100
AcDbLine
 10
210.69136
 20
360.73233
 30
0.0
 11
210.69136
 21
352.73233
 31
0.0
  0
LINE
  5
268
100
AcDbEntity
  8
0
  6
CONTINUOUS
 62
     7
100
AcDbLine
 10
269.29136
 20
357.73233
 30
0.0
 11
269.29136
 21
335.73233
 31
0.0
  0
LINE
  5
269
100
AcDbEntity
  8
0
  6
CONTINUOUS
 62
     7
100
AcDbLine
 10
271.29136
 20
355.73233
 30
0.0
 11
283.29136
 21
355.73233
 31
0.0
  0
LINE
  5
26A
100
AcDbEntity
  8
0
  6
CONTINUOUS
 62
     7
100
AcDbLine
 10
204.69136
 20
357.73233
 30
0.0
 11
204.69136
 21
355.73233
 31
0.0
  0
LINE
  5
26B
100
AcDbEntity
  8
0
  6
CONTINUOUS
 62
     7
100
AcDbLine
 10
218.69136
 20
357.73233
 30
0.0
 11
218.69136
 21
335.73233
 31
0.0
  0
LINE
  5
26C
100
AcDbEntity
  8
0
  6
CONTINUOUS
 62
     7
100
AcDbLine
 10
216.69136
 20
355.73233
 30
0.0
 11
216.69136
 21
335.73233
 31
0.0
  0
LINE
  5
26D
100
AcDbEntity
  8
0
  6
CENTER
 62
     7
100
AcDbLine
 10
277.29136
 20
360.73233
 30
0.0
 11
277.29136
 21
352.73233
 31
0.0
  0
LINE
  5
26E
100
AcDbEntity
  8
0
  6
CONTINUOUS
 62
     7
100
AcDbLine
 10
222.99136
 20
357.73233
 30
0.0
 11
222.99136
 21
336.23233
 31
0.0
  0
LINE
  5
26F
100
AcDbEntity
  8
0
  6
CONTINUOUS
 62
     7
100
AcDbLine
 10
264.99136
 20
357.73233
 30
0.0
 11
264.99136
 21
336.23233
 31
0.0
  0
LINE
  5
270
100
AcDbEntity
  8
0
  6
CONTINUOUS
 62
     7
100
AcDbLine
 10
213.99136
 20
355.73233
 30
0.0
 11
213.99136
 21
335.73233
 31
0.0
  0
LINE
  5
271
100
AcDbEntity
  8
0
  6
CENTER
 62
     7
100
AcDbLine
 10
243.99136
 20
364.73233
 30
0.0
 11
243.99136
 21
328.73233
 31
0.0
  0
LINE
  5
272
100
AcDbEntity
  8
0
  6
CONTINUOUS
 62
     7
100
AcDbLine
 10
273.99136
 20
355.73233
 30
0.0
 11
273.99136
 21
335.73233
 31
0.0
  0
LINE
  5
273
100
AcDbEntity
  8
0
  6
CONTINUOUS
 62
     7
100
AcDbLine
 10
216.69136
 20
355.73233
 30
0.0
 11
204.69136
 21
355.73233
 31
0.0
  0
LINE
  5
274
100
AcDbEntity
  8
0
  6
CONTINUOUS
 62
     7
100
AcDbLine
 10
222.99136
 20
353.73233
 30
0.0
 11
264.99136
 21
353.73233
 31
0.0
  0
LINE
  5
275
100
AcDbEntity
  8
0
  6
CONTINUOUS
 62
     7
100
AcDbLine
 10
222.99136
 20
357.43233
 30
0.0
 11
264.99136
 21
357.43233
 31
0.0
  0
LINE
  5
276
100
AcDbEntity
  8
0
  6
CONTINUOUS
 62
     7
100
AcDbLine
 10
222.99136
 20
340.73233
 30
0.0
 11
264.99136
 21
340.73233
 31
0.0
  0
LINE
  5
277
100
AcDbEntity
  8
0
  6
CONTINUOUS
 62
     7
100
AcDbLine
 10
218.69136
 20
336.23233
 30
0.0
 11
269.29136
 21
336.23233
 31
0.0
  0
LINE
  5
278
100
AcDbEntity
  8
0
  6
CONTINUOUS
 62
     7
100
AcDbLine
 10
213.99136
 20
335.73233
 30
0.0
 11
273.99136
 21
335.73233
 31
0.0
  0
LINE
  5
279
100
AcDbEntity
  8
0
  6
CONTINUOUS
 62
     7
100
AcDbLine
 10
204.69136
 20
357.73233
 30
0.0
 11
222.99136
 21
357.73233
 31
0.0
  0
LINE
  5
27A
100
AcDbEntity
  8
0
  6
CENTER
 62
     7
100
AcDbLine
 10
206.99136
 20
346.73233
 30
0.0
 11
280.99136
 21
346.73233
 31
0.0
  0
LINE
  5
27B
100
AcDbEntity
  8
0
  6
CONTINUOUS
 62
     7
100
AcDbLine
 10
271.29136
 20
355.73233
 30
0.0
 11
271.29136
 21
335.73233
 31
0.0
  0
LINE
  5
27C
100
AcDbEntity
  8
0
  6
CONTINUOUS
 62
     7
100
AcDbLine
 10
264.99136
 20
357.73233
 30
0.0
 11
283.29136
 21
357.73233
 31
0.0
  0
POINT
  5
27D
100
AcDbEntity
  8
0
  6
CONTINUOUS
 62
     7
100
AcDbPoint
 10
390.69138
 20
409.43231
 30
0.0
  0
POINT
  5
27E
100
AcDbEntity
  8
0
  6
CONTINUOUS
 62
     7
100
AcDbPoint
 10
408.69138
 20
409.43231
 30
0.0
  0
LINE
  5
27F
100
AcDbEntity
  8
0
  6
CENTER
 62
     7
100
AcDbLine
 10
353.69138
 20
417.73231
 30
0.0
 11
364.69138
 21
417.73231
 31
0.0
  0
LINE
  5
280
100
AcDbEntity
  8
0
  6
CONTINUOUS
 62
     7
100
AcDbLine
 10
367.3819
 20
415.43231
 30
0.0
 11
415.69138
 21
415.43231
 31
0.0
  0
LINE
  5
281
100
AcDbEntity
  8
0
  6
CENTER
 62
     7
100
AcDbLine
 10
413.59138
 20
409.43231
 30
0.0
 11
403.79138
 21
409.43231
 31
0.0
  0
LINE
  5
282
100
AcDbEntity
  8
0
  6
CONTINUOUS
 62
     7
100
AcDbLine
 10
386.69138
 20
403.43231
 30
0.0
 11
412.69138
 21
403.43231
 31
0.0
  0
LINE
  5
283
100
AcDbEntity
  8
0
  6
CONTINUOUS
 62
     7
100
AcDbLine
 10
367.3819
 20
417.43231
 30
0.0
 11
415.69138
 21
417.43231
 31
0.0
  0
LINE
  5
284
100
AcDbEntity
  8
0
  6
CENTER
 62
     7
100
AcDbLine
 10
395.59138
 20
409.43231
 30
0.0
 11
385.79138
 21
409.43231
 31
0.0
  0
LINE
  5
285
100
AcDbEntity
  8
0
  6
CENTER
 62
     7
100
AcDbLine
 10
408.69138
 20
414.33231
 30
0.0
 11
408.69138
 21
404.53231
 31
0.0
  0
LINE
  5
286
100
AcDbEntity
  8
0
  6
CONTINUOUS
 62
     7
100
AcDbLine
 10
383.69138
 20
415.43231
 30
0.0
 11
383.69138
 21
406.43231
 31
0.0
  0
LINE
  5
287
100
AcDbEntity
  8
0
  6
CENTER
 62
     7
100
AcDbLine
 10
390.69138
 20
471.13231
 30
0.0
 11
390.69138
 21
480.93231
 31
0.0
  0
LINE
  5
288
100
AcDbEntity
  8
0
  6
CENTER
 62
     7
100
AcDbLine
 10
408.69138
 20
471.13231
 30
0.0
 11
408.69138
 21
480.93231
 31
0.0
  0
LINE
  5
289
100
AcDbEntity
  8
0
  6
CENTER
 62
     7
100
AcDbLine
 10
395.59138
 20
476.03231
 30
0.0
 11
385.79138
 21
476.03231
 31
0.0
  0
LINE
  5
28A
100
AcDbEntity
  8
0
  6
CONTINUOUS
 62
     7
100
AcDbLine
 10
383.69138
 20
470.03231
 30
0.0
 11
383.69138
 21
479.03231
 31
0.0
  0
LINE
  5
28B
100
AcDbEntity
  8
0
  6
CONTINUOUS
 62
     7
100
AcDbLine
 10
386.69138
 20
482.03231
 30
0.0
 11
412.69138
 21
482.03231
 31
0.0
  0
LINE
  5
28C
100
AcDbEntity
  8
0
  6
CONTINUOUS
 62
     7
100
AcDbLine
 10
415.69138
 20
468.03231
 30
0.0
 11
415.69138
 21
479.03231
 31
0.0
  0
LINE
  5
28D
100
AcDbEntity
  8
0
  6
CENTER
 62
     7
100
AcDbLine
 10
413.59138
 20
476.03231
 30
0.0
 11
403.79138
 21
476.03231
 31
0.0
  0
LINE
  5
28E
100
AcDbEntity
  8
0
  6
CONTINUOUS
 62
     7
100
AcDbLine
 10
367.3819
 20
468.03231
 30
0.0
 11
415.69138
 21
468.03231
 31
0.0
  0
LINE
  5
28F
100
AcDbEntity
  8
0
  6
CONTINUOUS
 62
     7
100
AcDbLine
 10
415.69138
 20
417.43231
 30
0.0
 11
415.69138
 21
406.43231
 31
0.0
  0
LINE
  5
290
100
AcDbEntity
  8
0
  6
CONTINUOUS
 62
     7
100
AcDbLine
 10
379.69138
 20
463.73231
 30
0.0
 11
379.69138
 21
421.73231
 31
0.0
  0
LINE
  5
291
100
AcDbEntity
  8
0
  6
CONTINUOUS
 62
     7
100
AcDbLine
 10
382.69138
 20
421.73231
 30
0.0
 11
382.69138
 21
417.43231
 31
0.0
  0
LINE
  5
292
100
AcDbEntity
  8
0
  6
CONTINUOUS
 62
     7
100
AcDbLine
 10
367.3819
 20
470.03231
 30
0.0
 11
415.69138
 21
470.03231
 31
0.0
  0
LINE
  5
293
100
AcDbEntity
  8
0
  6
CONTINUOUS
 62
     7
100
AcDbLine
 10
345.69138
 20
468.23231
 30
0.0
 11
345.69138
 21
417.23231
 31
0.0
  0
LINE
  5
294
100
AcDbEntity
  8
0
  6
CONTINUOUS
 62
     7
100
AcDbLine
 10
367.3819
 20
417.43231
 30
0.0
 11
367.3819
 21
412.73231
 31
0.0
  0
LINE
  5
295
100
AcDbEntity
  8
0
  6
CONTINUOUS
 62
     7
100
AcDbLine
 10
367.3819
 20
472.73231
 30
0.0
 11
367.3819
 21
468.03231
 31
0.0
  0
LINE
  5
296
100
AcDbEntity
  8
0
  6
CENTER
 62
     7
100
AcDbLine
 10
353.69138
 20
467.73231
 30
0.0
 11
364.69138
 21
467.73231
 31
0.0
  0
LINE
  5
297
100
AcDbEntity
  8
0
  6
CONTINUOUS
 62
     7
100
AcDbLine
 10
355.69138
 20
414.53231
 30
0.0
 11
362.69138
 21
414.53231
 31
0.0
  0
LINE
  5
298
100
AcDbEntity
  8
0
  6
CONTINUOUS
 62
     7
100
AcDbLine
 10
355.69138
 20
470.93231
 30
0.0
 11
362.69138
 21
470.93231
 31
0.0
  0
LINE
  5
299
100
AcDbEntity
  8
0
  6
CONTINUOUS
 62
     7
100
AcDbLine
 10
371.29138
 20
463.73231
 30
0.0
 11
371.29138
 21
421.73231
 31
0.0
  0
LINE
  5
29A
100
AcDbEntity
  8
0
  6
CONTINUOUS
 62
     7
100
AcDbLine
 10
341.3819
 20
412.73231
 30
0.0
 11
367.3819
 21
412.73231
 31
0.0
  0
LINE
  5
29B
100
AcDbEntity
  8
0
  6
CENTER
 62
     7
100
AcDbLine
 10
346.69138
 20
479.73232
 30
0.0
 11
346.69138
 21
405.73231
 31
0.0
  0
LINE
  5
29C
100
AcDbEntity
  8
0
  6
CONTINUOUS
 62
     7
100
AcDbLine
 10
355.69138
 20
471.13231
 30
0.0
 11
362.69138
 21
471.13231
 31
0.0
  0
LINE
  5
29D
100
AcDbEntity
  8
0
  6
CONTINUOUS
 62
     7
100
AcDbLine
 10
362.69138
 20
421.73231
 30
0.0
 11
382.69138
 21
421.73231
 31
0.0
  0
LINE
  5
29E
100
AcDbEntity
  8
0
  6
CONTINUOUS
 62
     7
100
AcDbLine
 10
362.69138
 20
463.73231
 30
0.0
 11
382.69138
 21
463.73231
 31
0.0
  0
LINE
  5
29F
100
AcDbEntity
  8
0
  6
CONTINUOUS
 62
     7
100
AcDbLine
 10
345.69138
 20
421.73231
 30
0.0
 11
355.69138
 21
421.73231
 31
0.0
  0
LINE
  5
2A0
100
AcDbEntity
  8
0
  6
CONTINUOUS
 62
     7
100
AcDbLine
 10
362.69138
 20
421.73231
 30
0.0
 11
362.69138
 21
414.33231
 31
0.0
  0
LINE
  5
2A1
100
AcDbEntity
  8
0
  6
CONTINUOUS
 62
     7
100
AcDbLine
 10
341.3819
 20
468.23231
 30
0.0
 11
345.69138
 21
468.23231
 31
0.0
  0
LINE
  5
2A2
100
AcDbEntity
  8
0
  6
CONTINUOUS
 62
     7
100
AcDbLine
 10
355.69138
 20
421.73231
 30
0.0
 11
355.69138
 21
414.33231
 31
0.0
  0
LINE
  5
2A3
100
AcDbEntity
  8
0
  6
CONTINUOUS
 62
     7
100
AcDbLine
 10
341.3819
 20
417.23231
 30
0.0
 11
345.69138
 21
417.23231
 31
0.0
  0
LINE
  5
2A4
100
AcDbEntity
  8
0
  6
CONTINUOUS
 62
     7
100
AcDbLine
 10
355.69138
 20
471.13231
 30
0.0
 11
355.69138
 21
463.73231
 31
0.0
  0
LINE
  5
2A5
100
AcDbEntity
  8
0
  6
CENTER
 62
     7
100
AcDbLine
 10
390.69138
 20
414.33231
 30
0.0
 11
390.69138
 21
404.53231
 31
0.0
  0
LINE
  5
2A6
100
AcDbEntity
  8
0
  6
CONTINUOUS
 62
     7
100
AcDbLine
 10
355.69138
 20
414.33231
 30
0.0
 11
362.69138
 21
414.33231
 31
0.0
  0
LINE
  5
2A7
100
AcDbEntity
  8
0
  6
CENTER
 62
     7
100
AcDbLine
 10
334.3819
 20
442.73231
 30
0.0
 11
386.69138
 21
442.73231
 31
0.0
  0
LINE
  5
2A8
100
AcDbEntity
  8
0
  6
CONTINUOUS
 62
     7
100
AcDbLine
 10
341.3819
 20
472.73231
 30
0.0
 11
367.3819
 21
472.73231
 31
0.0
  0
LINE
  5
2A9
100
AcDbEntity
  8
0
  6
CENTER
 62
     7
100
AcDbLine
 10
372.69138
 20
479.73232
 30
0.0
 11
372.69138
 21
405.73231
 31
0.0
  0
LINE
  5
2AA
100
AcDbEntity
  8
0
  6
CONTINUOUS
 62
     7
100
AcDbLine
 10
382.69138
 20
468.03231
 30
0.0
 11
382.69138
 21
463.73231
 31
0.0
  0
LINE
  5
2AB
100
AcDbEntity
  8
0
  6
CONTINUOUS
 62
     7
100
AcDbLine
 10
362.69138
 20
471.13231
 30
0.0
 11
362.69138
 21
463.73231
 31
0.0
  0
LINE
  5
2AC
100
AcDbEntity
  8
0
  6
CONTINUOUS
 62
     7
100
AcDbLine
 10
345.69138
 20
463.73231
 30
0.0
 11
355.69138
 21
463.73231
 31
0.0
  0
ARC
  5
2AD
100
AcDbEntity
  8
0
  6
CONTINUOUS
 62
     7
100
AcDbCircle
 10
412.69138
 20
406.43231
 30
0.0
 40
3.0
100
AcDbArc
 50
270.0
 51
0.0
  0
CIRCLE
  5
2AE
100
AcDbEntity
  8
0
  6
CONTINUOUS
 62
     7
100
AcDbCircle
 10
390.69138
 20
409.43231
 30
0.0
 40
2.9
  0
ARC
  5
2AF
100
AcDbEntity
  8
0
  6
CONTINUOUS
 62
     7
100
AcDbCircle
 10
386.69138
 20
406.43231
 30
0.0
 40
3.0
100
AcDbArc
 50
179.99999
 51
270.0
  0
CIRCLE
  5
2B0
100
AcDbEntity
  8
0
  6
CONTINUOUS
 62
     7
100
AcDbCircle
 10
408.69138
 20
476.03231
 30
0.0
 40
2.9
  0
CIRCLE
  5
2B1
100
AcDbEntity
  8
0
  6
CONTINUOUS
 62
     7
100
AcDbCircle
 10
390.69138
 20
476.03231
 30
0.0
 40
2.9
  0
ARC
  5
2B2
100
AcDbEntity
  8
0
  6
CONTINUOUS
 62
     7
100
AcDbCircle
 10
412.69138
 20
479.03231
 30
0.0
 40
3.0
100
AcDbArc
 50
0.0
 51
90.000003
  0
ARC
  5
2B3
100
AcDbEntity
  8
0
  6
CONTINUOUS
 62
     7
100
AcDbCircle
 10
386.69138
 20
479.03231
 30
0.0
 40
3.0
100
AcDbArc
 50
90.000003
 51
180.00001
  0
CIRCLE
  5
2B4
100
AcDbEntity
  8
0
  6
CONTINUOUS
 62
     7
100
AcDbCircle
 10
408.69138
 20
409.43231
 30
0.0
 40
2.9
  0
POINT
  5
2B5
100
AcDbEntity
  8
0
  6
CONTINUOUS
 62
     7
100
AcDbPoint
 10
390.69138
 20
335.73233
 30
0.0
  0
POINT
  5
2B6
100
AcDbEntity
  8
0
  6
CONTINUOUS
 62
     7
100
AcDbPoint
 10
408.69138
 20
335.73233
 30
0.0
  0
LINE
  5
2B7
100
AcDbEntity
  8
0
  6
CENTER
 62
     7
100
AcDbLine
 10
346.69138
 20
352.73233
 30
0.0
 11
346.69138
 21
340.73233
 31
0.0
  0
LINE
  5
2B8
100
AcDbEntity
  8
0
  6
CENTER
 62
     7
100
AcDbLine
 10
340.69138
 20
346.73233
 30
0.0
 11
352.69138
 21
346.73233
 31
0.0
  0
LINE
  5
2B9
100
AcDbEntity
  8
0
  6
CONTINUOUS
 62
     7
100
AcDbLine
 10
372.85138
 20
357.73233
 30
0.0
 11
346.69138
 21
357.73233
 31
0.0
  0
LINE
  5
2BA
100
AcDbEntity
  8
0
  6
CONTINUOUS
 62
     7
100
AcDbLine
 10
378.69138
 20
335.73233
 30
0.0
 11
346.69138
 21
335.73233
 31
0.0
  0
LINE
  5
2BB
100
AcDbEntity
  8
0
  6
CONTINUOUS
 62
     7
100
AcDbLine
 10
370.19138
 20
349.85483
 30
0.0
 11
370.19138
 21
343.60983
 31
0.0
  0
LINE
  5
2BC
100
AcDbEntity
  8
0
  6
CENTER
 62
     7
100
AcDbLine
 10
372.69138
 20
352.73233
 30
0.0
 11
372.69138
 21
340.73233
 31
0.0
  0
LINE
  5
2BD
100
AcDbEntity
  8
0
  6
CENTER
 62
     7
100
AcDbLine
 10
366.69138
 20
346.73233
 30
0.0
 11
378.69138
 21
346.73233
 31
0.0
  0
LINE
  5
2BE
100
AcDbEntity
  8
0
  6
CONTINUOUS
 62
     7
100
AcDbLine
 10
367.27843
 20
336.26214
 30
0.0
 11
365.29932
 21
337.92282
 31
0.0
  0
LINE
  5
2BF
100
AcDbEntity
  8
0
  6
CENTER
 62
     7
100
AcDbLine
 10
390.69138
 20
332.73233
 30
0.0
 11
390.69138
 21
340.73233
 31
0.0
  0
LINE
  5
2C0
100
AcDbEntity
  8
0
  6
CONTINUOUS
 62
     7
100
AcDbLine
 10
383.69138
 20
337.73233
 30
0.0
 11
415.48933
 21
337.73233
 31
0.0
  0
LINE
  5
2C1
100
AcDbEntity
  8
0
  6
CONTINUOUS
 62
     7
100
AcDbLine
 10
363.03063
 20
350.83233
 30
0.0
 11
367.39232
 21
350.83233
 31
0.0
  0
LINE
  5
2C2
100
AcDbEntity
  8
0
  6
CENTER
 62
     7
100
AcDbLine
 10
408.69138
 20
332.73233
 30
0.0
 11
408.69138
 21
340.73233
 31
0.0
  0
LINE
  5
2C3
100
AcDbEntity
  8
0
  6
CONTINUOUS
 62
     7
100
AcDbLine
 10
415.69138
 20
335.73233
 30
0.0
 11
415.69138
 21
337.73233
 31
0.0
  0
LINE
  5
2C4
100
AcDbEntity
  8
0
  6
CONTINUOUS
 62
     7
100
AcDbLine
 10
376.62416
 20
357.0651
 30
0.0
 11
409.32322
 21
345.12576
 31
0.0
  0
LINE
  5
2C5
100
AcDbEntity
  8
0
  6
CONTINUOUS
 62
     7
100
AcDbLine
 10
365.99212
 20
346.63232
 30
0.0
 11
362.00821
 21
346.63232
 31
0.0
  0
LINE
  5
2C6
100
AcDbEntity
  8
0
  6
CONTINUOUS
 62
     7
100
AcDbLine
 10
383.69138
 20
335.73233
 30
0.0
 11
383.69138
 21
337.73233
 31
0.0
  0
ARC
  5
2C7
100
AcDbEntity
  8
0
  6
CONTINUOUS
 62
     7
100
AcDbCircle
 10
366.8819
 20
357.23233
 30
0.0
 40
0.5
100
AcDbArc
 50
298.95503
 51
90.000003
  0
ARC
  5
2C8
100
AcDbEntity
  8
0
  6
CONTINUOUS
 62
     7
100
AcDbCircle
 10
346.69138
 20
346.73233
 30
0.0
 40
11.0
100
AcDbArc
 50
90.000003
 51
270.0
  0
CIRCLE
  5
2C9
100
AcDbEntity
  8
0
  6
CONTINUOUS
 62
     7
100
AcDbCircle
 10
372.69138
 20
346.73233
 30
0.0
 40
4.0
  0
ARC
  5
2CA
100
AcDbEntity
  8
0
  6
CONTINUOUS
 62
     7
100
AcDbCircle
 10
372.69138
 20
346.73233
 30
0.0
 40
11.5
100
AcDbArc
 50
118.95503
 51
230.00001
  0
ARC
  5
2CB
100
AcDbEntity
  8
0
  6
CONTINUOUS
 62
     7
100
AcDbCircle
 10
367.0856
 20
336.03233
 30
0.0
 40
0.3
100
AcDbArc
 50
270.0
 51
50.0
  0
ARC
  5
2CC
100
AcDbEntity
  8
0
  6
CONTINUOUS
 62
     7
100
AcDbCircle
 10
372.69138
 20
346.73233
 30
0.0
 40
11.2
100
AcDbArc
 50
183.21457
 51
259.15594
  0
ARC
  5
2CD
100
AcDbEntity
  8
0
  6
CONTINUOUS
 62
     7
100
AcDbCircle
 10
372.69138
 20
346.73233
 30
0.0
 40
11.2
100
AcDbArc
 50
100.84406
 51
154.53838
  0
ARC
  5
2CE
100
AcDbEntity
  8
0
  6
CONTINUOUS
 62
     7
100
AcDbCircle
 10
362.00821
 20
346.13232
 30
0.0
 40
0.5
100
AcDbArc
 50
90.000003
 51
183.21457
  0
ARC
  5
2CF
100
AcDbEntity
  8
0
  6
CONTINUOUS
 62
     7
100
AcDbCircle
 10
372.85138
 20
346.73233
 30
0.0
 40
11.0
100
AcDbArc
 50
69.856197
 51
90.833443
  0
ARC
  5
2D0
100
AcDbEntity
  8
0
  6
CONTINUOUS
 62
     7
100
AcDbCircle
 10
372.69138
 20
346.73233
 30
0.0
 40
6.7
100
AcDbArc
 50
142.27008
 51
180.85524
  0
ARC
  5
2D1
100
AcDbEntity
  8
0
  6
CONTINUOUS
 62
     7
100
AcDbCircle
 10
381.19138
 20
335.73233
 30
0.0
 40
2.5
100
AcDbArc
 50
0.0
 51
180.00001
  0
ARC
  5
2D2
100
AcDbEntity
  8
0
  6
CONTINUOUS
 62
     7
100
AcDbCircle
 10
405.89342
 20
335.73233
 30
0.0
 40
10.0
100
AcDbArc
 50
11.536959
 51
69.941444
  0
ARC
  5
2D3
100
AcDbEntity
  8
0
  6
CONTINUOUS
 62
     7
100
AcDbCircle
 10
363.03063
 20
351.33233
 30
0.0
 40
0.5
100
AcDbArc
 50
154.53838
 51
270.0
  0
POLYLINE
  5
2D4
100
AcDbEntity
  8
0
  6
CONTINUOUS
 62
     7
100
AcDb2dPolyline
 66
     1
 10
0.0
 20
0.0
 30
0.0
  0
VERTEX
  5
2D5
100
AcDbEntity
  8
0
  6
CONTINUOUS
 62
     7
100
AcDbVertex
100
AcDb2dVertex
 10
383.69138
 20
335.73233
 30
0.0
  0
VERTEX
  5
2D6
100
AcDbEntity
  8
0
  6
CONTINUOUS
 62
     7
100
AcDbVertex
100
AcDb2dVertex
 10
415.69138
 20
335.73233
 30
0.0
  0
SEQEND
  5
2D7
100
AcDbEntity
  8
0
 62
     7
  0
POINT
  5
2D8
100
AcDbEntity
  8
0
  6
CONTINUOUS
 62
     7
100
AcDbPoint
 10
390.69138
 20
284.03232
 30
0.0
  0
POINT
  5
2D9
100
AcDbEntity
  8
0
  6
CONTINUOUS
 62
     7
100
AcDbPoint
 10
408.69138
 20
284.03232
 30
0.0
  0
LINE
  5
2DA
100
AcDbEntity
  8
0
  6
CENTER
 62
     7
100
AcDbLine
 10
408.69138
 20
279.13232
 30
0.0
 11
408.69138
 21
288.93232
 31
0.0
  0
LINE
  5
2DB
100
AcDbEntity
  8
0
  6
CONTINUOUS
 62
     7
100
AcDbLine
 10
373.6512
 20
271.73232
 30
0.0
 11
373.6512
 21
229.73232
 31
0.0
  0
LINE
  5
2DC
100
AcDbEntity
  8
0
  6
CONTINUOUS
 62
     7
100
AcDbLine
 10
382.69138
 20
229.73232
 30
0.0
 11
382.69138
 21
225.43232
 31
0.0
  0
LINE
  5
2DD
100
AcDbEntity
  8
0
  6
CONTINUOUS
 62
     7
100
AcDbLine
 10
373.6512
 20
229.73232
 30
0.0
 11
382.69138
 21
229.73232
 31
0.0
  0
LINE
  5
2DE
100
AcDbEntity
  8
0
  6
CONTINUOUS
 62
     7
100
AcDbLine
 10
379.69138
 20
271.73232
 30
0.0
 11
379.69138
 21
229.73232
 31
0.0
  0
LINE
  5
2DF
100
AcDbEntity
  8
0
  6
CONTINUOUS
 62
     7
100
AcDbLine
 10
382.69138
 20
276.03232
 30
0.0
 11
382.69138
 21
271.73232
 31
0.0
  0
LINE
  5
2E0
100
AcDbEntity
  8
0
  6
CONTINUOUS
 62
     7
100
AcDbLine
 10
373.6512
 20
271.73232
 30
0.0
 11
382.69138
 21
271.73232
 31
0.0
  0
LINE
  5
2E1
100
AcDbEntity
  8
0
  6
CENTER
 62
     7
100
AcDbLine
 10
408.69138
 20
222.33232
 30
0.0
 11
408.69138
 21
212.53232
 31
0.0
  0
LINE
  5
2E2
100
AcDbEntity
  8
0
  6
CONTINUOUS
 62
     7
100
AcDbLine
 10
386.69138
 20
211.43232
 30
0.0
 11
412.69138
 21
211.43232
 31
0.0
  0
LINE
  5
2E3
100
AcDbEntity
  8
0
  6
CENTER
 62
     7
100
AcDbLine
 10
390.69138
 20
222.33232
 30
0.0
 11
390.69138
 21
212.53232
 31
0.0
  0
LINE
  5
2E4
100
AcDbEntity
  8
0
  6
CONTINUOUS
 62
     7
100
AcDbLine
 10
367.3819
 20
225.43232
 30
0.0
 11
415.69138
 21
225.43232
 31
0.0
  0
LINE
  5
2E5
100
AcDbEntity
  8
0
  6
CONTINUOUS
 62
     7
100
AcDbLine
 10
383.69138
 20
225.43232
 30
0.0
 11
383.69138
 21
214.43232
 31
0.0
  0
LINE
  5
2E6
100
AcDbEntity
  8
0
  6
CENTER
 62
     7
100
AcDbLine
 10
413.59138
 20
217.43232
 30
0.0
 11
403.79138
 21
217.43232
 31
0.0
  0
LINE
  5
2E7
100
AcDbEntity
  8
0
  6
CONTINUOUS
 62
     7
100
AcDbLine
 10
415.69138
 20
225.43232
 30
0.0
 11
415.69138
 21
214.43232
 31
0.0
  0
LINE
  5
2E8
100
AcDbEntity
  8
0
  6
CONTINUOUS
 62
     7
100
AcDbLine
 10
367.3819
 20
223.43232
 30
0.0
 11
383.69138
 21
223.43232
 31
0.0
  0
LINE
  5
2E9
100
AcDbEntity
  8
0
  6
CENTER
 62
     7
100
AcDbLine
 10
395.59138
 20
217.43232
 30
0.0
 11
385.79138
 21
217.43232
 31
0.0
  0
LINE
  5
2EA
100
AcDbEntity
  8
0
  6
CONTINUOUS
 62
     7
100
AcDbLine
 10
341.3819
 20
220.73232
 30
0.0
 11
367.3819
 21
220.73232
 31
0.0
  0
LINE
  5
2EB
100
AcDbEntity
  8
0
  6
CONTINUOUS
 62
     7
100
AcDbLine
 10
341.3819
 20
280.73232
 30
0.0
 11
367.3819
 21
280.73232
 31
0.0
  0
LINE
  5
2EC
100
AcDbEntity
  8
0
  6
CENTER
 62
     7
100
AcDbLine
 10
346.69138
 20
287.73232
 30
0.0
 11
346.69138
 21
213.73232
 31
0.0
  0
LINE
  5
2ED
100
AcDbEntity
  8
0
  6
CENTER
 62
     7
100
AcDbLine
 10
372.69138
 20
287.73232
 30
0.0
 11
372.69138
 21
213.73232
 31
0.0
  0
LINE
  5
2EE
100
AcDbEntity
  8
0
  6
CONTINUOUS
 62
     7
100
AcDbLine
 10
341.3819
 20
276.23232
 30
0.0
 11
346.19138
 21
276.23232
 31
0.0
  0
LINE
  5
2EF
100
AcDbEntity
  8
0
  6
CONTINUOUS
 62
     7
100
AcDbLine
 10
341.3819
 20
225.23232
 30
0.0
 11
346.19138
 21
225.23232
 31
0.0
  0
LINE
  5
2F0
100
AcDbEntity
  8
0
  6
CONTINUOUS
 62
     7
100
AcDbLine
 10
346.19138
 20
276.23232
 30
0.0
 11
346.19138
 21
225.23232
 31
0.0
  0
LINE
  5
2F1
100
AcDbEntity
  8
0
  6
CENTER
 62
     7
100
AcDbLine
 10
334.3819
 20
250.73232
 30
0.0
 11
386.69138
 21
250.73232
 31
0.0
  0
LINE
  5
2F2
100
AcDbEntity
  8
0
  6
CENTER
 62
     7
100
AcDbLine
 10
395.59138
 20
284.03232
 30
0.0
 11
385.79138
 21
284.03232
 31
0.0
  0
LINE
  5
2F3
100
AcDbEntity
  8
0
  6
CONTINUOUS
 62
     7
100
AcDbLine
 10
367.3819
 20
278.03232
 30
0.0
 11
383.69138
 21
278.03232
 31
0.0
  0
LINE
  5
2F4
100
AcDbEntity
  8
0
  6
CONTINUOUS
 62
     7
100
AcDbLine
 10
415.69138
 20
276.03232
 30
0.0
 11
415.69138
 21
287.03232
 31
0.0
  0
LINE
  5
2F5
100
AcDbEntity
  8
0
  6
CENTER
 62
     7
100
AcDbLine
 10
413.59138
 20
284.03232
 30
0.0
 11
403.79138
 21
284.03232
 31
0.0
  0
LINE
  5
2F6
100
AcDbEntity
  8
0
  6
CONTINUOUS
 62
     7
100
AcDbLine
 10
383.69138
 20
276.03232
 30
0.0
 11
383.69138
 21
287.03232
 31
0.0
  0
LINE
  5
2F7
100
AcDbEntity
  8
0
  6
CONTINUOUS
 62
     7
100
AcDbLine
 10
367.3819
 20
276.03232
 30
0.0
 11
415.69138
 21
276.03232
 31
0.0
  0
LINE
  5
2F8
100
AcDbEntity
  8
0
  6
CENTER
 62
     7
100
AcDbLine
 10
390.69138
 20
279.13232
 30
0.0
 11
390.69138
 21
288.93232
 31
0.0
  0
LINE
  5
2F9
100
AcDbEntity
  8
0
  6
CONTINUOUS
 62
     7
100
AcDbLine
 10
386.69138
 20
290.03232
 30
0.0
 11
412.69138
 21
290.03232
 31
0.0
  0
LINE
  5
2FA
100
AcDbEntity
  8
0
  6
CONTINUOUS
 62
     7
100
AcDbLine
 10
367.3856
 20
280.73232
 30
0.0
 11
367.3856
 21
276.03232
 31
0.0
  0
LINE
  5
2FB
100
AcDbEntity
  8
0
  6
CONTINUOUS
 62
     7
100
AcDbLine
 10
367.3856
 20
225.43232
 30
0.0
 11
367.3856
 21
220.73232
 31
0.0
  0
CIRCLE
  5
2FC
100
AcDbEntity
  8
0
  6
CONTINUOUS
 62
     7
100
AcDbCircle
 10
408.69138
 20
217.43232
 30
0.0
 40
2.9
  0
ARC
  5
2FD
100
AcDbEntity
  8
0
  6
CONTINUOUS
 62
     7
100
AcDbCircle
 10
412.69138
 20
214.43232
 30
0.0
 40
3.0
100
AcDbArc
 50
270.0
 51
0.0
  0
ARC
  5
2FE
100
AcDbEntity
  8
0
  6
CONTINUOUS
 62
     7
100
AcDbCircle
 10
386.69138
 20
214.43232
 30
0.0
 40
3.0
100
AcDbArc
 50
179.99999
 51
270.0
  0
CIRCLE
  5
2FF
100
AcDbEntity
  8
0
  6
CONTINUOUS
 62
     7
100
AcDbCircle
 10
390.69138
 20
217.43232
 30
0.0
 40
2.9
  0
CIRCLE
  5
300
100
AcDbEntity
  8
0
  6
CONTINUOUS
 62
     7
100
AcDbCircle
 10
390.69138
 20
284.03232
 30
0.0
 40
2.9
  0
ARC
  5
301
100
AcDbEntity
  8
0
  6
CONTINUOUS
 62
     7
100
AcDbCircle
 10
386.69138
 20
287.03232
 30
0.0
 40
3.0
100
AcDbArc
 50
90.000003
 51
180.00001
  0
ARC
  5
302
100
AcDbEntity
  8
0
  6
CONTINUOUS
 62
     7
100
AcDbCircle
 10
412.69138
 20
287.03232
 30
0.0
 40
3.0
100
AcDbArc
 50
0.0
 51
90.000003
  0
CIRCLE
  5
303
100
AcDbEntity
  8
0
  6
CONTINUOUS
 62
     7
100
AcDbCircle
 10
408.69138
 20
284.03232
 30
0.0
 40
2.9
  0
POINT
  5
304
100
AcDbEntity
  8
0
  6
CONTINUOUS
 62
     7
100
AcDbPoint
 10
460.69138
 20
335.73233
 30
0.0
  0
POINT
  5
305
100
AcDbEntity
  8
0
  6
CONTINUOUS
 62
     7
100
AcDbPoint
 10
527.29137
 20
335.73233
 30
0.0
  0
LINE
  5
306
100
AcDbEntity
  8
0
  6
CONTINUOUS
 62
     7
100
AcDbLine
 10
463.99138
 20
357.73233
 30
0.0
 11
463.99138
 21
337.73233
 31
0.0
  0
LINE
  5
307
100
AcDbEntity
  8
0
  6
CONTINUOUS
 62
     7
100
AcDbLine
 10
514.99137
 20
357.73233
 30
0.0
 11
514.99137
 21
336.23233
 31
0.0
  0
LINE
  5
308
100
AcDbEntity
  8
0
  6
CONTINUOUS
 62
     7
100
AcDbLine
 10
472.99138
 20
357.73233
 30
0.0
 11
472.99138
 21
336.23233
 31
0.0
  0
LINE
  5
309
100
AcDbEntity
  8
0
  6
CENTER
 62
     7
100
AcDbLine
 10
527.29137
 20
332.73233
 30
0.0
 11
527.29137
 21
340.73233
 31
0.0
  0
LINE
  5
30A
100
AcDbEntity
  8
0
  6
CONTINUOUS
 62
     7
100
AcDbLine
 10
466.69138
 20
337.73233
 30
0.0
 11
466.69138
 21
357.73233
 31
0.0
  0
LINE
  5
30B
100
AcDbEntity
  8
0
  6
CONTINUOUS
 62
     7
100
AcDbLine
 10
468.69138
 20
335.73233
 30
0.0
 11
468.69138
 21
357.73233
 31
0.0
  0
LINE
  5
30C
100
AcDbEntity
  8
0
  6
CONTINUOUS
 62
     7
100
AcDbLine
 10
454.69138
 20
335.73233
 30
0.0
 11
454.69138
 21
337.73233
 31
0.0
  0
LINE
  5
30D
100
AcDbEntity
  8
0
  6
CONTINUOUS
 62
     7
100
AcDbLine
 10
521.29137
 20
337.73233
 30
0.0
 11
533.29137
 21
337.73233
 31
0.0
  0
LINE
  5
30E
100
AcDbEntity
  8
0
  6
CONTINUOUS
 62
     7
100
AcDbLine
 10
519.29137
 20
335.73233
 30
0.0
 11
519.29137
 21
357.73233
 31
0.0
  0
LINE
  5
30F
100
AcDbEntity
  8
0
  6
CENTER
 62
     7
100
AcDbLine
 10
460.69138
 20
332.73233
 30
0.0
 11
460.69138
 21
340.73233
 31
0.0
  0
LINE
  5
310
100
AcDbEntity
  8
0
  6
CONTINUOUS
 62
     7
100
AcDbLine
 10
533.29137
 20
335.73233
 30
0.0
 11
533.29137
 21
337.73233
 31
0.0
  0
LINE
  5
311
100
AcDbEntity
  8
0
  6
CENTER
 62
     7
100
AcDbLine
 10
493.99137
 20
364.73233
 30
0.0
 11
493.99137
 21
328.73233
 31
0.0
  0
LINE
  5
312
100
AcDbEntity
  8
0
  6
CONTINUOUS
 62
     7
100
AcDbLine
 10
523.99137
 20
357.73233
 30
0.0
 11
523.99137
 21
337.73233
 31
0.0
  0
LINE
  5
313
100
AcDbEntity
  8
0
  6
CONTINUOUS
 62
     7
100
AcDbLine
 10
466.69138
 20
337.73233
 30
0.0
 11
454.69138
 21
337.73233
 31
0.0
  0
LINE
  5
314
100
AcDbEntity
  8
0
  6
CONTINUOUS
 62
     7
100
AcDbLine
 10
472.99138
 20
353.73233
 30
0.0
 11
514.99137
 21
353.73233
 31
0.0
  0
LINE
  5
315
100
AcDbEntity
  8
0
  6
CONTINUOUS
 62
     7
100
AcDbLine
 10
472.99138
 20
357.43233
 30
0.0
 11
514.99137
 21
357.43233
 31
0.0
  0
LINE
  5
316
100
AcDbEntity
  8
0
  6
CONTINUOUS
 62
     7
100
AcDbLine
 10
472.99138
 20
340.73233
 30
0.0
 11
514.99137
 21
340.73233
 31
0.0
  0
LINE
  5
317
100
AcDbEntity
  8
0
  6
CONTINUOUS
 62
     7
100
AcDbLine
 10
468.69138
 20
336.23233
 30
0.0
 11
519.29137
 21
336.23233
 31
0.0
  0
LINE
  5
318
100
AcDbEntity
  8
0
  6
CONTINUOUS
 62
     7
100
AcDbLine
 10
454.69138
 20
335.73233
 30
0.0
 11
533.29137
 21
335.73233
 31
0.0
  0
LINE
  5
319
100
AcDbEntity
  8
0
  6
CONTINUOUS
 62
     7
100
AcDbLine
 10
463.99138
 20
357.73233
 30
0.0
 11
472.99138
 21
357.73233
 31
0.0
  0
LINE
  5
31A
100
AcDbEntity
  8
0
  6
CENTER
 62
     7
100
AcDbLine
 10
456.99138
 20
346.73233
 30
0.0
 11
530.99138
 21
346.73233
 31
0.0
  0
LINE
  5
31B
100
AcDbEntity
  8
0
  6
CONTINUOUS
 62
     7
100
AcDbLine
 10
521.29137
 20
337.73233
 30
0.0
 11
521.29137
 21
357.73233
 31
0.0
  0
LINE
  5
31C
100
AcDbEntity
  8
0
  6
CONTINUOUS
 62
     7
100
AcDbLine
 10
514.99137
 20
357.73233
 30
0.0
 11
523.99137
 21
357.73233
 31
0.0
  0
POINT
  5
31D
100
AcDbEntity
  8
0
  6
CONTINUOUS
 62
     7
100
AcDbPoint
 10
-443.30862
 20
74.73233
 30
0.0
  0
POINT
  5
31E
100
AcDbEntity
  8
0
  6
CONTINUOUS
 62
     7
100
AcDbPoint
 10
-430.99914
 20
74.73233
 30
0.0
  0
LINE
  5
31F
100
AcDbEntity
  8
0
  6
CENTER
 62
     7
100
AcDbLine
 10
-430.99914
 20
74.73233
 30
0.0
 11
-476.30862
 21
74.73233
 31
0.0
  0
LINE
  5
320
100
AcDbEntity
  8
0
  6
CONTINUOUS
 62
     7
100
AcDbLine
 10
-442.80862
 20
49.23233
 30
0.0
 11
-442.80862
 21
100.23233
 31
0.0
  0
LINE
  5
321
100
AcDbEntity
  8
0
  6
CONTINUOUS
 62
     7
100
AcDbLine
 10
-437.99914
 20
100.23233
 30
0.0
 11
-442.80862
 21
100.23233
 31
0.0
  0
LINE
  5
322
100
AcDbEntity
  8
0
  6
CONTINUOUS
 62
     7
100
AcDbLine
 10
-437.99914
 20
49.23233
 30
0.0
 11
-442.80862
 21
49.23233
 31
0.0
  0
LINE
  5
323
100
AcDbEntity
  8
0
  6
CONTINUOUS
 62
     7
100
AcDbLine
 10
-463.99915
 20
100.23233
 30
0.0
 11
-468.30862
 21
100.23233
 31
0.0
  0
LINE
  5
324
100
AcDbEntity
  8
0
  6
CONTINUOUS
 62
     7
100
AcDbLine
 10
-463.99915
 20
49.23233
 30
0.0
 11
-468.30862
 21
49.23233
 31
0.0
  0
LINE
  5
325
100
AcDbEntity
  8
0
  6
CENTER
 62
     7
100
AcDbLine
 10
-469.30862
 20
37.73233
 30
0.0
 11
-469.30862
 21
111.73233
 31
0.0
  0
LINE
  5
326
100
AcDbEntity
  8
0
  6
CENTER
 62
     7
100
AcDbLine
 10
-443.30862
 20
37.73233
 30
0.0
 11
-443.30862
 21
111.73233
 31
0.0
  0
LINE
  5
327
100
AcDbEntity
  8
0
  6
CONTINUOUS
 62
     7
100
AcDbLine
 10
-437.99914
 20
44.73233
 30
0.0
 11
-463.99915
 21
44.73233
 31
0.0
  0
LINE
  5
328
100
AcDbEntity
  8
0
  6
CONTINUOUS
 62
     7
100
AcDbLine
 10
-437.99914
 20
104.73233
 30
0.0
 11
-463.99915
 21
104.73233
 31
0.0
  0
LINE
  5
329
100
AcDbEntity
  8
0
  6
CONTINUOUS
 62
     7
100
AcDbLine
 10
-464.00285
 20
104.73233
 30
0.0
 11
-464.00285
 21
100.23233
 31
0.0
  0
LINE
  5
32A
100
AcDbEntity
  8
0
  6
CONTINUOUS
 62
     7
100
AcDbLine
 10
-464.00285
 20
49.23233
 30
0.0
 11
-464.00285
 21
44.73233
 31
0.0
  0
POINT
  5
32B
100
AcDbEntity
  8
0
  6
CONTINUOUS
 62
     7
100
AcDbPoint
 10
-443.30862
 20
-21.267673
 30
0.0
  0
POINT
  5
32C
100
AcDbEntity
  8
0
  6
CONTINUOUS
 62
     7
100
AcDbPoint
 10
-437.30862
 20
-21.267673
 30
0.0
  0
LINE
  5
32D
100
AcDbEntity
  8
0
  6
CENTER
 62
     7
100
AcDbLine
 10
-443.30862
 20
-27.267673
 30
0.0
 11
-443.30862
 21
-15.267673
 31
0.0
  0
LINE
  5
32E
100
AcDbEntity
  8
0
  6
CENTER
 62
     7
100
AcDbLine
 10
-437.30862
 20
-21.267673
 30
0.0
 11
-449.30862
 21
-21.267673
 31
0.0
  0
LINE
  5
32F
100
AcDbEntity
  8
0
  6
CONTINUOUS
 62
     7
100
AcDbLine
 10
-467.90862
 20
-32.267673
 30
0.0
 11
-443.30862
 21
-32.267673
 31
0.0
  0
LINE
  5
330
100
AcDbEntity
  8
0
  6
CONTINUOUS
 62
     7
100
AcDbLine
 10
-463.70285
 20
-10.267673
 30
0.0
 11
-443.30862
 21
-10.267673
 31
0.0
  0
LINE
  5
331
100
AcDbEntity
  8
0
  6
CONTINUOUS
 62
     7
100
AcDbLine
 10
-466.80862
 20
-24.390172
 30
0.0
 11
-466.80862
 21
-18.145175
 31
0.0
  0
LINE
  5
332
100
AcDbEntity
  8
0
  6
CENTER
 62
     7
100
AcDbLine
 10
-469.30862
 20
-27.267673
 30
0.0
 11
-469.30862
 21
-15.267673
 31
0.0
  0
LINE
  5
333
100
AcDbEntity
  8
0
  6
CENTER
 62
     7
100
AcDbLine
 10
-463.30862
 20
-21.267673
 30
0.0
 11
-475.30862
 21
-21.267673
 31
0.0
  0
LINE
  5
334
100
AcDbEntity
  8
0
  6
CONTINUOUS
 62
     7
100
AcDbLine
 10
-463.89568
 20
-10.797486
 30
0.0
 11
-461.91657
 21
-12.458161
 31
0.0
  0
ARC
  5
335
100
AcDbEntity
  8
0
  6
CONTINUOUS
 62
     7
100
AcDbCircle
 10
-463.49915
 20
-31.767673
 30
0.0
 40
0.5
100
AcDbArc
 50
118.95503
 51
270.0
  0
ARC
  5
336
100
AcDbEntity
  8
0
  6
CONTINUOUS
 62
     7
100
AcDbCircle
 10
-443.30862
 20
-21.267673
 30
0.0
 40
11.0
100
AcDbArc
 50
270.0
 51
90.000003
  0
CIRCLE
  5
337
100
AcDbEntity
  8
0
  6
CONTINUOUS
 62
     7
100
AcDbCircle
 10
-469.30862
 20
-21.267673
 30
0.0
 40
4.0
  0
ARC
  5
338
100
AcDbEntity
  8
0
  6
CONTINUOUS
 62
     7
100
AcDbCircle
 10
-469.30862
 20
-21.267673
 30
0.0
 40
11.5
100
AcDbArc
 50
298.95503
 51
50.0
  0
ARC
  5
339
100
AcDbEntity
  8
0
  6
CONTINUOUS
 62
     7
100
AcDbCircle
 10
-463.70285
 20
-10.567674
 30
0.0
 40
0.3
100
AcDbArc
 50
90.000003
 51
230.00001
  0
POINT
  5
33A
100
AcDbEntity
  8
0
  6
CONTINUOUS
 62
     7
100
AcDbPoint
 10
-443.30862
 20
-117.26767
 30
0.0
  0
POINT
  5
33B
100
AcDbEntity
  8
0
  6
CONTINUOUS
 62
     7
100
AcDbPoint
 10
-430.99914
 20
-117.26767
 30
0.0
  0
LINE
  5
33C
100
AcDbEntity
  8
0
  6
CONTINUOUS
 62
     7
100
AcDbLine
 10
-459.30862
 20
-145.66767
 30
0.0
 11
-459.30862
 21
-138.26767
 31
0.0
  0
LINE
  5
33D
100
AcDbEntity
  8
0
  6
CONTINUOUS
 62
     7
100
AcDbLine
 10
-452.30862
 20
-145.66767
 30
0.0
 11
-459.30862
 21
-145.66767
 31
0.0
  0
LINE
  5
33E
100
AcDbEntity
  8
0
  6
CONTINUOUS
 62
     7
100
AcDbLine
 10
-437.99914
 20
-91.76767
 30
0.0
 11
-442.30862
 21
-91.76767
 31
0.0
  0
LINE
  5
33F
100
AcDbEntity
  8
0
  6
CONTINUOUS
 62
     7
100
AcDbLine
 10
-442.30862
 20
-138.26767
 30
0.0
 11
-452.30862
 21
-138.26767
 31
0.0
  0
LINE
  5
340
100
AcDbEntity
  8
0
  6
CONTINUOUS
 62
     7
100
AcDbLine
 10
-442.30862
 20
-96.26767
 30
0.0
 11
-452.30862
 21
-96.26767
 31
0.0
  0
LINE
  5
341
100
AcDbEntity
  8
0
  6
CENTER
 62
     7
100
AcDbLine
 10
-430.99914
 20
-117.26767
 30
0.0
 11
-476.30862
 21
-117.26767
 31
0.0
  0
LINE
  5
342
100
AcDbEntity
  8
0
  6
CONTINUOUS
 62
     7
100
AcDbLine
 10
-452.30862
 20
-88.86767
 30
0.0
 11
-459.30862
 21
-88.86767
 31
0.0
  0
LINE
  5
343
100
AcDbEntity
  8
0
  6
CONTINUOUS
 62
     7
100
AcDbLine
 10
-452.30862
 20
-96.26767
 30
0.0
 11
-452.30862
 21
-88.86767
 31
0.0
  0
LINE
  5
344
100
AcDbEntity
  8
0
  6
CONTINUOUS
 62
     7
100
AcDbLine
 10
-459.30862
 20
-96.26767
 30
0.0
 11
-459.30862
 21
-88.86767
 31
0.0
  0
LINE
  5
345
100
AcDbEntity
  8
0
  6
CONTINUOUS
 62
     7
100
AcDbLine
 10
-437.99914
 20
-142.76767
 30
0.0
 11
-442.30862
 21
-142.76767
 31
0.0
  0
LINE
  5
346
100
AcDbEntity
  8
0
  6
CONTINUOUS
 62
     7
100
AcDbLine
 10
-463.99915
 20
-91.76767
 30
0.0
 11
-468.30862
 21
-91.76767
 31
0.0
  0
LINE
  5
347
100
AcDbEntity
  8
0
  6
CONTINUOUS
 62
     7
100
AcDbLine
 10
-452.30862
 20
-145.66767
 30
0.0
 11
-452.30862
 21
-138.26767
 31
0.0
  0
LINE
  5
348
100
AcDbEntity
  8
0
  6
CONTINUOUS
 62
     7
100
AcDbLine
 10
-459.30862
 20
-138.26767
 30
0.0
 11
-467.90862
 21
-138.26767
 31
0.0
  0
LINE
  5
349
100
AcDbEntity
  8
0
  6
CONTINUOUS
 62
     7
100
AcDbLine
 10
-459.30862
 20
-96.26767
 30
0.0
 11
-467.90862
 21
-96.26767
 31
0.0
  0
LINE
  5
34A
100
AcDbEntity
  8
0
  6
CONTINUOUS
 62
     7
100
AcDbLine
 10
-463.99915
 20
-142.76767
 30
0.0
 11
-468.30862
 21
-142.76767
 31
0.0
  0
LINE
  5
34B
100
AcDbEntity
  8
0
  6
CENTER
 62
     7
100
AcDbLine
 10
-469.30862
 20
-154.26767
 30
0.0
 11
-469.30862
 21
-80.26767
 31
0.0
  0
LINE
  5
34C
100
AcDbEntity
  8
0
  6
CENTER
 62
     7
100
AcDbLine
 10
-443.30862
 20
-154.26767
 30
0.0
 11
-443.30862
 21
-80.26767
 31
0.0
  0
LINE
  5
34D
100
AcDbEntity
  8
0
  6
CONTINUOUS
 62
     7
100
AcDbLine
 10
-437.99914
 20
-147.26767
 30
0.0
 11
-463.99915
 21
-147.26767
 31
0.0
  0
LINE
  5
34E
100
AcDbEntity
  8
0
  6
CONTINUOUS
 62
     7
100
AcDbLine
 10
-437.99914
 20
-87.26767
 30
0.0
 11
-463.99915
 21
-87.26767
 31
0.0
  0
LINE
  5
34F
100
AcDbEntity
  8
0
  6
CONTINUOUS
 62
     7
100
AcDbLine
 10
-467.90862
 20
-138.26767
 30
0.0
 11
-467.90862
 21
-96.26767
 31
0.0
  0
LINE
  5
350
100
AcDbEntity
  8
0
  6
CONTINUOUS
 62
     7
100
AcDbLine
 10
-452.30862
 20
-145.46767
 30
0.0
 11
-459.30862
 21
-145.46767
 31
0.0
  0
LINE
  5
351
100
AcDbEntity
  8
0
  6
CONTINUOUS
 62
     7
100
AcDbLine
 10
-452.30862
 20
-89.067669
 30
0.0
 11
-459.30862
 21
-89.067669
 31
0.0
  0
LINE
  5
352
100
AcDbEntity
  8
0
  6
CONTINUOUS
 62
     7
100
AcDbLine
 10
-463.99915
 20
-147.26767
 30
0.0
 11
-463.99915
 21
-142.76767
 31
0.0
  0
LINE
  5
353
100
AcDbEntity
  8
0
  6
CONTINUOUS
 62
     7
100
AcDbLine
 10
-463.99915
 20
-91.76767
 30
0.0
 11
-463.99915
 21
-87.26767
 31
0.0
  0
LINE
  5
354
100
AcDbEntity
  8
0
  6
CONTINUOUS
 62
     7
100
AcDbLine
 10
-442.30862
 20
-142.76767
 30
0.0
 11
-442.30862
 21
-91.76767
 31
0.0
  0
LINE
  5
355
100
AcDbEntity
  8
0
  6
CENTER
 62
     7
100
AcDbLine
 10
-450.30862
 20
-142.26767
 30
0.0
 11
-461.30862
 21
-142.26767
 31
0.0
  0
LINE
  5
356
100
AcDbEntity
  8
0
  6
CENTER
 62
     7
100
AcDbLine
 10
-450.30862
 20
-92.26767
 30
0.0
 11
-461.30862
 21
-92.26767
 31
0.0
  0
POINT
  5
357
100
AcDbEntity
  8
0
  6
CONTINUOUS
 62
     7
100
AcDbPoint
 10
-319.30862
 20
57.232327
 30
0.0
  0
POINT
  5
358
100
AcDbEntity
  8
0
  6
CONTINUOUS
 62
     7
100
AcDbPoint
 10
-301.30862
 20
57.232327
 30
0.0
  0
LINE
  5
359
100
AcDbEntity
  8
0
  6
CONTINUOUS
 62
     7
100
AcDbLine
 10
-358.00285
 20
104.73233
 30
0.0
 11
-358.00285
 21
100.23233
 31
0.0
  0
LINE
  5
35A
100
AcDbEntity
  8
0
  6
CENTER
 62
     7
100
AcDbLine
 10
-324.99914
 20
74.732327
 30
0.0
 11
-370.30862
 21
74.732327
 31
0.0
  0
LINE
  5
35B
100
AcDbEntity
  8
0
  6
CONTINUOUS
 62
     7
100
AcDbLine
 10
-336.80862
 20
49.232327
 30
0.0
 11
-336.80862
 21
100.23233
 31
0.0
  0
LINE
  5
35C
100
AcDbEntity
  8
0
  6
CONTINUOUS
 62
     7
100
AcDbLine
 10
-294.30862
 20
100.23233
 30
0.0
 11
-336.80862
 21
100.23233
 31
0.0
  0
LINE
  5
35D
100
AcDbEntity
  8
0
  6
CONTINUOUS
 62
     7
100
AcDbLine
 10
-294.30862
 20
49.232327
 30
0.0
 11
-336.80862
 21
49.232327
 31
0.0
  0
LINE
  5
35E
100
AcDbEntity
  8
0
  6
CONTINUOUS
 62
     7
100
AcDbLine
 10
-357.99915
 20
100.23233
 30
0.0
 11
-362.30862
 21
100.23233
 31
0.0
  0
LINE
  5
35F
100
AcDbEntity
  8
0
  6
CONTINUOUS
 62
     7
100
AcDbLine
 10
-357.99915
 20
49.232327
 30
0.0
 11
-362.30862
 21
49.232327
 31
0.0
  0
LINE
  5
360
100
AcDbEntity
  8
0
  6
CENTER
 62
     7
100
AcDbLine
 10
-363.30862
 20
37.732327
 30
0.0
 11
-363.30862
 21
111.73233
 31
0.0
  0
LINE
  5
361
100
AcDbEntity
  8
0
  6
CENTER
 62
     7
100
AcDbLine
 10
-337.30862
 20
37.732327
 30
0.0
 11
-337.30862
 21
111.73233
 31
0.0
  0
LINE
  5
362
100
AcDbEntity
  8
0
  6
CONTINUOUS
 62
     7
100
AcDbLine
 10
-326.30862
 20
44.732327
 30
0.0
 11
-357.99915
 21
44.732327
 31
0.0
  0
LINE
  5
363
100
AcDbEntity
  8
0
  6
CONTINUOUS
 62
     7
100
AcDbLine
 10
-326.30862
 20
104.73233
 30
0.0
 11
-357.99915
 21
104.73233
 31
0.0
  0
LINE
  5
364
100
AcDbEntity
  8
0
  6
CONTINUOUS
 62
     7
100
AcDbLine
 10
-358.00285
 20
49.232327
 30
0.0
 11
-358.00285
 21
44.732327
 31
0.0
  0
LINE
  5
365
100
AcDbEntity
  8
0
  6
CONTINUOUS
 62
     7
100
AcDbLine
 10
-323.30862
 20
86.232327
 30
0.0
 11
-297.30862
 21
86.232327
 31
0.0
  0
LINE
  5
366
100
AcDbEntity
  8
0
  6
CENTER
 62
     7
100
AcDbLine
 10
-314.40862
 20
57.232327
 30
0.0
 11
-324.20862
 21
57.232327
 31
0.0
  0
LINE
  5
367
100
AcDbEntity
  8
0
  6
CENTER
 62
     7
100
AcDbLine
 10
-314.40862
 20
92.232327
 30
0.0
 11
-324.20862
 21
92.232327
 31
0.0
  0
LINE
  5
368
100
AcDbEntity
  8
0
  6
CONTINUOUS
 62
     7
100
AcDbLine
 10
-326.30862
 20
100.23233
 30
0.0
 11
-326.30862
 21
104.73233
 31
0.0
  0
LINE
  5
369
100
AcDbEntity
  8
0
  6
CONTINUOUS
 62
     7
100
AcDbLine
 10
-294.30862
 20
100.23233
 30
0.0
 11
-294.30862
 21
89.232327
 31
0.0
  0
LINE
  5
36A
100
AcDbEntity
  8
0
  6
CONTINUOUS
 62
     7
100
AcDbLine
 10
-336.80862
 20
98.232327
 30
0.0
 11
-294.30862
 21
98.232327
 31
0.0
  0
LINE
  5
36B
100
AcDbEntity
  8
0
  6
CENTER
 62
     7
100
AcDbLine
 10
-296.40862
 20
92.232327
 30
0.0
 11
-306.20862
 21
92.232327
 31
0.0
  0
LINE
  5
36C
100
AcDbEntity
  8
0
  6
CENTER
 62
     7
100
AcDbLine
 10
-301.30862
 20
97.132328
 30
0.0
 11
-301.30862
 21
87.332327
 31
0.0
  0
LINE
  5
36D
100
AcDbEntity
  8
0
  6
CONTINUOUS
 62
     7
100
AcDbLine
 10
-326.30862
 20
98.232327
 30
0.0
 11
-326.30862
 21
89.232327
 31
0.0
  0
LINE
  5
36E
100
AcDbEntity
  8
0
  6
CONTINUOUS
 62
     7
100
AcDbLine
 10
-326.30862
 20
44.732327
 30
0.0
 11
-326.30862
 21
49.232327
 31
0.0
  0
LINE
  5
36F
100
AcDbEntity
  8
0
  6
CENTER
 62
     7
100
AcDbLine
 10
-319.30862
 20
97.132328
 30
0.0
 11
-319.30862
 21
87.332327
 31
0.0
  0
LINE
  5
370
100
AcDbEntity
  8
0
  6
CONTINUOUS
 62
     7
100
AcDbLine
 10
-294.30862
 20
49.232327
 30
0.0
 11
-294.30862
 21
60.232327
 31
0.0
  0
LINE
  5
371
100
AcDbEntity
  8
0
  6
CONTINUOUS
 62
     7
100
AcDbLine
 10
-336.80862
 20
51.232327
 30
0.0
 11
-294.30862
 21
51.232327
 31
0.0
  0
LINE
  5
372
100
AcDbEntity
  8
0
  6
CENTER
 62
     7
100
AcDbLine
 10
-296.40862
 20
57.232327
 30
0.0
 11
-306.20862
 21
57.232327
 31
0.0
  0
LINE
  5
373
100
AcDbEntity
  8
0
  6
CENTER
 62
     7
100
AcDbLine
 10
-301.30862
 20
52.332326
 30
0.0
 11
-301.30862
 21
62.132327
 31
0.0
  0
LINE
  5
374
100
AcDbEntity
  8
0
  6
CONTINUOUS
 62
     7
100
AcDbLine
 10
-326.30862
 20
51.232327
 30
0.0
 11
-326.30862
 21
60.232327
 31
0.0
  0
LINE
  5
375
100
AcDbEntity
  8
0
  6
CENTER
 62
     7
100
AcDbLine
 10
-319.30862
 20
52.332326
 30
0.0
 11
-319.30862
 21
62.132327
 31
0.0
  0
LINE
  5
376
100
AcDbEntity
  8
0
  6
CONTINUOUS
 62
     7
100
AcDbLine
 10
-323.30862
 20
63.232327
 30
0.0
 11
-297.30862
 21
63.232327
 31
0.0
  0
CIRCLE
  5
377
100
AcDbEntity
  8
0
  6
CONTINUOUS
 62
     7
100
AcDbCircle
 10
-319.30862
 20
92.232327
 30
0.0
 40
2.9
  0
ARC
  5
378
100
AcDbEntity
  8
0
  6
CONTINUOUS
 62
     7
100
AcDbCircle
 10
-323.30862
 20
89.232327
 30
0.0
 40
3.0
100
AcDbArc
 50
179.99999
 51
270.0
  0
ARC
  5
379
100
AcDbEntity
  8
0
  6
CONTINUOUS
 62
     7
100
AcDbCircle
 10
-297.30862
 20
89.232327
 30
0.0
 40
3.0
100
AcDbArc
 50
270.0
 51
0.0
  0
CIRCLE
  5
37A
100
AcDbEntity
  8
0
  6
CONTINUOUS
 62
     7
100
AcDbCircle
 10
-301.30862
 20
92.232327
 30
0.0
 40
2.9
  0
CIRCLE
  5
37B
100
AcDbEntity
  8
0
  6
CONTINUOUS
 62
     7
100
AcDbCircle
 10
-319.30862
 20
57.232327
 30
0.0
 40
2.9
  0
ARC
  5
37C
100
AcDbEntity
  8
0
  6
CONTINUOUS
 62
     7
100
AcDbCircle
 10
-323.30862
 20
60.232327
 30
0.0
 40
3.0
100
AcDbArc
 50
90.000003
 51
180.00001
  0
ARC
  5
37D
100
AcDbEntity
  8
0
  6
CONTINUOUS
 62
     7
100
AcDbCircle
 10
-297.30862
 20
60.232327
 30
0.0
 40
3.0
100
AcDbArc
 50
0.0
 51
90.000003
  0
CIRCLE
  5
37E
100
AcDbEntity
  8
0
  6
CONTINUOUS
 62
     7
100
AcDbCircle
 10
-301.30862
 20
57.232327
 30
0.0
 40
2.9
  0
POINT
  5
37F
100
AcDbEntity
  8
0
  6
CONTINUOUS
 62
     7
100
AcDbPoint
 10
-319.30862
 20
-32.267673
 30
0.0
  0
POINT
  5
380
100
AcDbEntity
  8
0
  6
CONTINUOUS
 62
     7
100
AcDbPoint
 10
-301.30862
 20
-32.267673
 30
0.0
  0
LINE
  5
381
100
AcDbEntity
  8
0
  6
CENTER
 62
     7
100
AcDbLine
 10
-337.30862
 20
-27.267673
 30
0.0
 11
-337.30862
 21
-15.267673
 31
0.0
  0
LINE
  5
382
100
AcDbEntity
  8
0
  6
CENTER
 62
     7
100
AcDbLine
 10
-331.30862
 20
-21.267673
 30
0.0
 11
-343.30862
 21
-21.267673
 31
0.0
  0
LINE
  5
383
100
AcDbEntity
  8
0
  6
CONTINUOUS
 62
     7
100
AcDbLine
 10
-361.90862
 20
-32.267673
 30
0.0
 11
-331.30862
 21
-32.267673
 31
0.0
  0
LINE
  5
384
100
AcDbEntity
  8
0
  6
CONTINUOUS
 62
     7
100
AcDbLine
 10
-357.70285
 20
-10.267673
 30
0.0
 11
-337.30862
 21
-10.267673
 31
0.0
  0
LINE
  5
385
100
AcDbEntity
  8
0
  6
CONTINUOUS
 62
     7
100
AcDbLine
 10
-360.80862
 20
-24.390172
 30
0.0
 11
-360.80862
 21
-18.145174
 31
0.0
  0
LINE
  5
386
100
AcDbEntity
  8
0
  6
CENTER
 62
     7
100
AcDbLine
 10
-363.30862
 20
-27.267673
 30
0.0
 11
-363.30862
 21
-15.267673
 31
0.0
  0
LINE
  5
387
100
AcDbEntity
  8
0
  6
CENTER
 62
     7
100
AcDbLine
 10
-357.30862
 20
-21.267673
 30
0.0
 11
-369.30862
 21
-21.267673
 31
0.0
  0
LINE
  5
388
100
AcDbEntity
  8
0
  6
CONTINUOUS
 62
     7
100
AcDbLine
 10
-357.89568
 20
-10.797485
 30
0.0
 11
-355.91656
 21
-12.458162
 31
0.0
  0
LINE
  5
389
100
AcDbEntity
  8
0
  6
DASHED
 62
     7
100
AcDbLine
 10
-326.30862
 20
-30.267673
 30
0.0
 11
-294.30862
 21
-30.267673
 31
0.0
  0
LINE
  5
38A
100
AcDbEntity
  8
0
  6
CONTINUOUS
 62
     7
100
AcDbLine
 10
-333.55206
 20
-10.928995
 30
0.0
 11
-300.69153
 21
-22.868876
 31
0.0
  0
LINE
  5
38B
100
AcDbEntity
  8
0
  6
CONTINUOUS
 62
     7
100
AcDbLine
 10
-294.30862
 20
-32.267673
 30
0.0
 11
-294.30862
 21
-30.267673
 31
0.0
  0
LINE
  5
38C
100
AcDbEntity
  8
0
  6
DASHED
 62
     7
100
AcDbLine
 10
-326.30862
 20
-32.267673
 30
0.0
 11
-326.30862
 21
-30.267673
 31
0.0
  0
LINE
  5
38D
100
AcDbEntity
  8
0
  6
CENTER
 62
     7
100
AcDbLine
 10
-319.30862
 20
-35.267673
 30
0.0
 11
-319.30862
 21
-27.267673
 31
0.0
  0
LINE
  5
38E
100
AcDbEntity
  8
0
  6
CENTER
 62
     7
100
AcDbLine
 10
-301.30862
 20
-35.267673
 30
0.0
 11
-301.30862
 21
-27.267673
 31
0.0
  0
ARC
  5
38F
100
AcDbEntity
  8
0
  6
CONTINUOUS
 62
     7
100
AcDbCircle
 10
-357.49915
 20
-31.767673
 30
0.0
 40
0.5
100
AcDbArc
 50
118.95503
 51
270.0
  0
ARC
  5
390
100
AcDbEntity
  8
0
  6
CONTINUOUS
 62
     7
100
AcDbCircle
 10
-337.30862
 20
-21.267673
 30
0.0
 40
11.0
100
AcDbArc
 50
270.0
 51
90.000003
  0
CIRCLE
  5
391
100
AcDbEntity
  8
0
  6
CONTINUOUS
 62
     7
100
AcDbCircle
 10
-363.30862
 20
-21.267673
 30
0.0
 40
4.0
  0
ARC
  5
392
100
AcDbEntity
  8
0
  6
CONTINUOUS
 62
     7
100
AcDbCircle
 10
-363.30862
 20
-21.267673
 30
0.0
 40
11.5
100
AcDbArc
 50
298.95503
 51
50.0
  0
ARC
  5
393
100
AcDbEntity
  8
0
  6
CONTINUOUS
 62
     7
100
AcDbCircle
 10
-357.70285
 20
-10.567673
 30
0.0
 40
0.3
100
AcDbArc
 50
90.000003
 51
230.00001
  0
ARC
  5
394
100
AcDbEntity
  8
0
  6
CONTINUOUS
 62
     7
100
AcDbCircle
 10
-328.80862
 20
-32.267673
 30
0.0
 40
2.5
100
AcDbArc
 50
0.0
 51
180.00001
  0
CIRCLE
  5
395
100
AcDbEntity
  8
0
  6
CONTINUOUS
 62
     7
100
AcDbCircle
 10
-337.30862
 20
-21.267673
 30
0.0
 40
4.0
  0
ARC
  5
396
100
AcDbEntity
  8
0
  6
CONTINUOUS
 62
     7
100
AcDbCircle
 10
-304.10658
 20
-32.267673
 30
0.0
 40
10.0
100
AcDbArc
 50
11.536959
 51
70.031378
  0
POLYLINE
  5
397
100
AcDbEntity
  8
0
  6
CONTINUOUS
 62
     7
100
AcDb2dPolyline
 66
     1
 10
0.0
 20
0.0
 30
0.0
  0
VERTEX
  5
398
100
AcDbEntity
  8
0
  6
CONTINUOUS
 62
     7
100
AcDbVertex
100
AcDb2dVertex
 10
-326.30341
 20
-32.267673
 30
0.0
  0
VERTEX
  5
399
100
AcDbEntity
  8
0
  6
CONTINUOUS
 62
     7
100
AcDbVertex
100
AcDb2dVertex
 10
-294.30862
 20
-32.267673
 30
0.0
  0
SEQEND
  5
39A
100
AcDbEntity
  8
0
 62
     7
  0
POINT
  5
39B
100
AcDbEntity
  8
0
  6
CONTINUOUS
 62
     7
100
AcDbPoint
 10
-319.30862
 20
-99.76767
 30
0.0
  0
POINT
  5
39C
100
AcDbEntity
  8
0
  6
CONTINUOUS
 62
     7
100
AcDbPoint
 10
-301.30862
 20
-99.76767
 30
0.0
  0
LINE
  5
39D
100
AcDbEntity
  8
0
  6
CONTINUOUS
 62
     7
100
AcDbLine
 10
-346.30862
 20
-145.66767
 30
0.0
 11
-353.30862
 21
-145.66767
 31
0.0
  0
LINE
  5
39E
100
AcDbEntity
  8
0
  6
CONTINUOUS
 62
     7
100
AcDbLine
 10
-353.30862
 20
-145.66767
 30
0.0
 11
-353.30862
 21
-138.26767
 31
0.0
  0
LINE
  5
39F
100
AcDbEntity
  8
0
  6
CENTER
 62
     7
100
AcDbLine
 10
-324.99914
 20
-117.26767
 30
0.0
 11
-370.30862
 21
-117.26767
 31
0.0
  0
LINE
  5
3A0
100
AcDbEntity
  8
0
  6
CONTINUOUS
 62
     7
100
AcDbLine
 10
-294.30862
 20
-91.76767
 30
0.0
 11
-336.30862
 21
-91.76767
 31
0.0
  0
LINE
  5
3A1
100
AcDbEntity
  8
0
  6
CONTINUOUS
 62
     7
100
AcDbLine
 10
-336.30862
 20
-138.26767
 30
0.0
 11
-346.30862
 21
-138.26767
 31
0.0
  0
LINE
  5
3A2
100
AcDbEntity
  8
0
  6
CONTINUOUS
 62
     7
100
AcDbLine
 10
-336.30862
 20
-96.26767
 30
0.0
 11
-346.30862
 21
-96.26767
 31
0.0
  0
LINE
  5
3A3
100
AcDbEntity
  8
0
  6
CONTINUOUS
 62
     7
100
AcDbLine
 10
-346.30862
 20
-88.86767
 30
0.0
 11
-353.30862
 21
-88.86767
 31
0.0
  0
LINE
  5
3A4
100
AcDbEntity
  8
0
  6
CONTINUOUS
 62
     7
100
AcDbLine
 10
-346.30862
 20
-96.26767
 30
0.0
 11
-346.30862
 21
-88.86767
 31
0.0
  0
LINE
  5
3A5
100
AcDbEntity
  8
0
  6
CONTINUOUS
 62
     7
100
AcDbLine
 10
-353.30862
 20
-96.26767
 30
0.0
 11
-353.30862
 21
-88.86767
 31
0.0
  0
LINE
  5
3A6
100
AcDbEntity
  8
0
  6
CONTINUOUS
 62
     7
100
AcDbLine
 10
-294.30862
 20
-142.76767
 30
0.0
 11
-336.30862
 21
-142.76767
 31
0.0
  0
LINE
  5
3A7
100
AcDbEntity
  8
0
  6
CONTINUOUS
 62
     7
100
AcDbLine
 10
-357.99915
 20
-91.76767
 30
0.0
 11
-362.30862
 21
-91.76767
 31
0.0
  0
LINE
  5
3A8
100
AcDbEntity
  8
0
  6
CONTINUOUS
 62
     7
100
AcDbLine
 10
-346.30862
 20
-145.66767
 30
0.0
 11
-346.30862
 21
-138.26767
 31
0.0
  0
LINE
  5
3A9
100
AcDbEntity
  8
0
  6
CONTINUOUS
 62
     7
100
AcDbLine
 10
-353.30862
 20
-138.26767
 30
0.0
 11
-361.90862
 21
-138.26767
 31
0.0
  0
LINE
  5
3AA
100
AcDbEntity
  8
0
  6
CONTINUOUS
 62
     7
100
AcDbLine
 10
-353.30862
 20
-96.26767
 30
0.0
 11
-361.90862
 21
-96.26767
 31
0.0
  0
LINE
  5
3AB
100
AcDbEntity
  8
0
  6
CONTINUOUS
 62
     7
100
AcDbLine
 10
-357.99915
 20
-142.76767
 30
0.0
 11
-362.30862
 21
-142.76767
 31
0.0
  0
LINE
  5
3AC
100
AcDbEntity
  8
0
  6
CENTER
 62
     7
100
AcDbLine
 10
-363.30862
 20
-154.26767
 30
0.0
 11
-363.30862
 21
-80.26767
 31
0.0
  0
LINE
  5
3AD
100
AcDbEntity
  8
0
  6
CENTER
 62
     7
100
AcDbLine
 10
-337.30862
 20
-154.26767
 30
0.0
 11
-337.30862
 21
-80.26767
 31
0.0
  0
LINE
  5
3AE
100
AcDbEntity
  8
0
  6
CONTINUOUS
 62
     7
100
AcDbLine
 10
-326.30862
 20
-147.26767
 30
0.0
 11
-357.99915
 21
-147.26767
 31
0.0
  0
LINE
  5
3AF
100
AcDbEntity
  8
0
  6
CONTINUOUS
 62
     7
100
AcDbLine
 10
-326.30862
 20
-87.26767
 30
0.0
 11
-357.99915
 21
-87.26767
 31
0.0
  0
LINE
  5
3B0
100
AcDbEntity
  8
0
  6
CONTINUOUS
 62
     7
100
AcDbLine
 10
-361.90862
 20
-138.26767
 30
0.0
 11
-361.90862
 21
-96.26767
 31
0.0
  0
LINE
  5
3B1
100
AcDbEntity
  8
0
  6
CONTINUOUS
 62
     7
100
AcDbLine
 10
-346.30862
 20
-145.46767
 30
0.0
 11
-353.30862
 21
-145.46767
 31
0.0
  0
LINE
  5
3B2
100
AcDbEntity
  8
0
  6
CONTINUOUS
 62
     7
100
AcDbLine
 10
-346.30862
 20
-89.06767
 30
0.0
 11
-353.30862
 21
-89.06767
 31
0.0
  0
LINE
  5
3B3
100
AcDbEntity
  8
0
  6
CENTER
 62
     7
100
AcDbLine
 10
-344.30862
 20
-92.26767
 30
0.0
 11
-355.30862
 21
-92.26767
 31
0.0
  0
LINE
  5
3B4
100
AcDbEntity
  8
0
  6
CONTINUOUS
 62
     7
100
AcDbLine
 10
-357.99915
 20
-147.26767
 30
0.0
 11
-357.99915
 21
-142.76767
 31
0.0
  0
LINE
  5
3B5
100
AcDbEntity
  8
0
  6
CONTINUOUS
 62
     7
100
AcDbLine
 10
-357.99915
 20
-91.76767
 30
0.0
 11
-357.99915
 21
-87.26767
 31
0.0
  0
LINE
  5
3B6
100
AcDbEntity
  8
0
  6
CONTINUOUS
 62
     7
100
AcDbLine
 10
-336.30862
 20
-142.76767
 30
0.0
 11
-336.30862
 21
-91.76767
 31
0.0
  0
LINE
  5
3B7
100
AcDbEntity
  8
0
  6
CONTINUOUS
 62
     7
100
AcDbLine
 10
-294.30862
 20
-142.76767
 30
0.0
 11
-294.30862
 21
-131.76767
 31
0.0
  0
LINE
  5
3B8
100
AcDbEntity
  8
0
  6
CENTER
 62
     7
100
AcDbLine
 10
-296.40862
 20
-134.76767
 30
0.0
 11
-306.20862
 21
-134.76767
 31
0.0
  0
LINE
  5
3B9
100
AcDbEntity
  8
0
  6
CENTER
 62
     7
100
AcDbLine
 10
-296.40862
 20
-99.76767
 30
0.0
 11
-306.20862
 21
-99.76767
 31
0.0
  0
LINE
  5
3BA
100
AcDbEntity
  8
0
  6
CONTINUOUS
 62
     7
100
AcDbLine
 10
-336.30862
 20
-93.76767
 30
0.0
 11
-326.30862
 21
-93.76767
 31
0.0
  0
LINE
  5
3BB
100
AcDbEntity
  8
0
  6
CONTINUOUS
 62
     7
100
AcDbLine
 10
-294.30862
 20
-91.76767
 30
0.0
 11
-294.30862
 21
-102.76767
 31
0.0
  0
LINE
  5
3BC
100
AcDbEntity
  8
0
  6
CENTER
 62
     7
100
AcDbLine
 10
-314.40862
 20
-99.76767
 30
0.0
 11
-324.20862
 21
-99.76767
 31
0.0
  0
LINE
  5
3BD
100
AcDbEntity
  8
0
  6
CONTINUOUS
 62
     7
100
AcDbLine
 10
-323.30862
 20
-105.76767
 30
0.0
 11
-297.30862
 21
-105.76767
 31
0.0
  0
LINE
  5
3BE
100
AcDbEntity
  8
0
  6
CONTINUOUS
 62
     7
100
AcDbLine
 10
-336.30862
 20
-140.76767
 30
0.0
 11
-326.30862
 21
-140.76767
 31
0.0
  0
LINE
  5
3BF
100
AcDbEntity
  8
0
  6
CENTER
 62
     7
100
AcDbLine
 10
-301.30862
 20
-94.86767
 30
0.0
 11
-301.30862
 21
-104.66767
 31
0.0
  0
LINE
  5
3C0
100
AcDbEntity
  8
0
  6
CONTINUOUS
 62
     7
100
AcDbLine
 10
-326.30862
 20
-87.26767
 30
0.0
 11
-326.30862
 21
-102.76767
 31
0.0
  0
LINE
  5
3C1
100
AcDbEntity
  8
0
  6
CENTER
 62
     7
100
AcDbLine
 10
-319.30862
 20
-94.86767
 30
0.0
 11
-319.30862
 21
-104.66767
 31
0.0
  0
LINE
  5
3C2
100
AcDbEntity
  8
0
  6
CENTER
 62
     7
100
AcDbLine
 10
-314.40862
 20
-134.76767
 30
0.0
 11
-324.20862
 21
-134.76767
 31
0.0
  0
LINE
  5
3C3
100
AcDbEntity
  8
0
  6
CONTINUOUS
 62
     7
100
AcDbLine
 10
-323.30862
 20
-128.76767
 30
0.0
 11
-297.30862
 21
-128.76767
 31
0.0
  0
LINE
  5
3C4
100
AcDbEntity
  8
0
  6
CENTER
 62
     7
100
AcDbLine
 10
-301.30862
 20
-139.66767
 30
0.0
 11
-301.30862
 21
-129.86767
 31
0.0
  0
LINE
  5
3C5
100
AcDbEntity
  8
0
  6
CONTINUOUS
 62
     7
100
AcDbLine
 10
-326.30862
 20
-147.26767
 30
0.0
 11
-326.30862
 21
-131.76767
 31
0.0
  0
LINE
  5
3C6
100
AcDbEntity
  8
0
  6
CENTER
 62
     7
100
AcDbLine
 10
-319.30862
 20
-139.66767
 30
0.0
 11
-319.30862
 21
-129.86767
 31
0.0
  0
LINE
  5
3C7
100
AcDbEntity
  8
0
  6
CENTER
 62
     7
100
AcDbLine
 10
-344.30862
 20
-142.26767
 30
0.0
 11
-355.30862
 21
-142.26767
 31
0.0
  0
CIRCLE
  5
3C8
100
AcDbEntity
  8
0
  6
CONTINUOUS
 62
     7
100
AcDbCircle
 10
-319.30862
 20
-99.76767
 30
0.0
 40
2.9
  0
CIRCLE
  5
3C9
100
AcDbEntity
  8
0
  6
CONTINUOUS
 62
     7
100
AcDbCircle
 10
-319.30862
 20
-134.76767
 30
0.0
 40
2.9
  0
ARC
  5
3CA
100
AcDbEntity
  8
0
  6
CONTINUOUS
 62
     7
100
AcDbCircle
 10
-323.30862
 20
-102.76767
 30
0.0
 40
3.0
100
AcDbArc
 50
179.99999
 51
270.0
  0
ARC
  5
3CB
100
AcDbEntity
  8
0
  6
CONTINUOUS
 62
     7
100
AcDbCircle
 10
-297.30862
 20
-102.76767
 30
0.0
 40
3.0
100
AcDbArc
 50
270.0
 51
0.0
  0
CIRCLE
  5
3CC
100
AcDbEntity
  8
0
  6
CONTINUOUS
 62
     7
100
AcDbCircle
 10
-301.30862
 20
-99.76767
 30
0.0
 40
2.9
  0
ARC
  5
3CD
100
AcDbEntity
  8
0
  6
CONTINUOUS
 62
     7
100
AcDbCircle
 10
-323.30862
 20
-131.76767
 30
0.0
 40
3.0
100
AcDbArc
 50
90.000003
 51
180.00001
  0
ARC
  5
3CE
100
AcDbEntity
  8
0
  6
CONTINUOUS
 62
     7
100
AcDbCircle
 10
-297.30862
 20
-131.76767
 30
0.0
 40
3.0
100
AcDbArc
 50
0.0
 51
90.000003
  0
CIRCLE
  5
3CF
100
AcDbEntity
  8
0
  6
CONTINUOUS
 62
     7
100
AcDbCircle
 10
-301.30862
 20
-134.76767
 30
0.0
 40
2.9
  0
POINT
  5
3D0
100
AcDbEntity
  8
0
  6
CONTINUOUS
 62
     7
100
AcDbPoint
 10
-237.30864
 20
-32.267673
 30
0.0
  0
POINT
  5
3D1
100
AcDbEntity
  8
0
  6
CONTINUOUS
 62
     7
100
AcDbPoint
 10
-202.30864
 20
-32.267673
 30
0.0
  0
LINE
  5
3D2
100
AcDbEntity
  8
0
  6
CENTER
 62
     7
100
AcDbLine
 10
-182.80864
 20
-21.267673
 30
0.0
 11
-256.80864
 21
-21.267673
 31
0.0
  0
LINE
  5
3D3
100
AcDbEntity
  8
0
  6
CONTINUOUS
 62
     7
100
AcDbLine
 10
-196.30864
 20
-30.267673
 30
0.0
 11
-196.30864
 21
-10.267673
 31
0.0
  0
LINE
  5
3D4
100
AcDbEntity
  8
0
  6
CONTINUOUS
 62
     7
100
AcDbLine
 10
-189.80864
 20
-10.267673
 30
0.0
 11
-249.80864
 21
-10.267673
 31
0.0
  0
LINE
  5
3D5
100
AcDbEntity
  8
0
  6
CONTINUOUS
 62
     7
100
AcDbLine
 10
-208.30864
 20
-30.467674
 30
0.0
 11
-231.30864
 21
-30.467674
 31
0.0
  0
LINE
  5
3D6
100
AcDbEntity
  8
0
  6
CONTINUOUS
 62
     7
100
AcDbLine
 10
-198.80864
 20
-15.267673
 30
0.0
 11
-240.80864
 21
-15.267673
 31
0.0
  0
LINE
  5
3D7
100
AcDbEntity
  8
0
  6
CONTINUOUS
 62
     7
100
AcDbLine
 10
-208.30864
 20
-31.967673
 30
0.0
 11
-231.30864
 21
-31.967673
 31
0.0
  0
LINE
  5
3D8
100
AcDbEntity
  8
0
  6
CONTINUOUS
 62
     7
100
AcDbLine
 10
-198.80864
 20
-28.267673
 30
0.0
 11
-240.80864
 21
-28.267673
 31
0.0
  0
LINE
  5
3D9
100
AcDbEntity
  8
0
  6
CONTINUOUS
 62
     7
100
AcDbLine
 10
-249.80864
 20
-32.267673
 30
0.0
 11
-249.80864
 21
-10.267673
 31
0.0
  0
LINE
  5
3DA
100
AcDbEntity
  8
0
  6
CENTER
 62
     7
100
AcDbLine
 10
-219.80864
 20
-39.267673
 30
0.0
 11
-219.80864
 21
-3.267674
 31
0.0
  0
LINE
  5
3DB
100
AcDbEntity
  8
0
  6
CONTINUOUS
 62
     7
100
AcDbLine
 10
-189.80864
 20
-32.267673
 30
0.0
 11
-189.80864
 21
-10.267673
 31
0.0
  0
LINE
  5
3DC
100
AcDbEntity
  8
0
  6
CONTINUOUS
 62
     7
100
AcDbLine
 10
-240.80864
 20
-30.267673
 30
0.0
 11
-240.80864
 21
-10.267673
 31
0.0
  0
LINE
  5
3DD
100
AcDbEntity
  8
0
  6
CONTINUOUS
 62
     7
100
AcDbLine
 10
-198.80864
 20
-30.267673
 30
0.0
 11
-198.80864
 21
-10.267673
 31
0.0
  0
LINE
  5
3DE
100
AcDbEntity
  8
0
  6
CONTINUOUS
 62
     7
100
AcDbLine
 10
-243.30864
 20
-30.267673
 30
0.0
 11
-243.30864
 21
-10.267673
 31
0.0
  0
LINE
  5
3DF
100
AcDbEntity
  8
0
  6
CONTINUOUS
 62
     7
100
AcDbLine
 10
-245.30864
 20
-32.267673
 30
0.0
 11
-245.30864
 21
-10.267673
 31
0.0
  0
LINE
  5
3E0
100
AcDbEntity
  8
0
  6
CENTER
 62
     7
100
AcDbLine
 10
-202.30864
 20
-35.267673
 30
0.0
 11
-202.30864
 21
-27.267673
 31
0.0
  0
LINE
  5
3E1
100
AcDbEntity
  8
0
  6
CONTINUOUS
 62
     7
100
AcDbLine
 10
-231.30864
 20
-30.267673
 30
0.0
 11
-243.30864
 21
-30.267673
 31
0.0
  0
LINE
  5
3E2
100
AcDbEntity
  8
0
  6
CONTINUOUS
 62
     7
100
AcDbLine
 10
-231.30864
 20
-32.267673
 30
0.0
 11
-249.80864
 21
-32.267673
 31
0.0
  0
LINE
  5
3E3
100
AcDbEntity
  8
0
  6
CENTER
 62
     7
100
AcDbLine
 10
-237.30864
 20
-35.267673
 30
0.0
 11
-237.30864
 21
-27.267673
 31
0.0
  0
LINE
  5
3E4
100
AcDbEntity
  8
0
  6
CONTINUOUS
 62
     7
100
AcDbLine
 10
-231.30864
 20
-32.267673
 30
0.0
 11
-231.30864
 21
-30.267673
 31
0.0
  0
LINE
  5
3E5
100
AcDbEntity
  8
0
  6
CONTINUOUS
 62
     7
100
AcDbLine
 10
-208.30864
 20
-30.267673
 30
0.0
 11
-196.30864
 21
-30.267673
 31
0.0
  0
LINE
  5
3E6
100
AcDbEntity
  8
0
  6
CONTINUOUS
 62
     7
100
AcDbLine
 10
-194.30864
 20
-32.267673
 30
0.0
 11
-194.30864
 21
-10.267673
 31
0.0
  0
LINE
  5
3E7
100
AcDbEntity
  8
0
  6
CONTINUOUS
 62
     7
100
AcDbLine
 10
-208.30864
 20
-32.267673
 30
0.0
 11
-208.30864
 21
-30.267673
 31
0.0
  0
LINE
  5
3E8
100
AcDbEntity
  8
0
  6
CONTINUOUS
 62
     7
100
AcDbLine
 10
-208.30864
 20
-32.267673
 30
0.0
 11
-189.80864
 21
-32.267673
 31
0.0
  0
POINT
  5
3E9
100
AcDbEntity
  8
0
  6
CONTINUOUS
 62
     7
100
AcDbPoint
 10
-89.30864
 20
57.232327
 30
0.0
  0
POINT
  5
3EA
100
AcDbEntity
  8
0
  6
CONTINUOUS
 62
     7
100
AcDbPoint
 10
-71.30864
 20
57.232327
 30
0.0
  0
LINE
  5
3EB
100
AcDbEntity
  8
0
  6
CONTINUOUS
 62
     7
100
AcDbLine
 10
-128.00286
 20
104.73233
 30
0.0
 11
-128.00286
 21
100.23233
 31
0.0
  0
LINE
  5
3EC
100
AcDbEntity
  8
0
  6
CONTINUOUS
 62
     7
100
AcDbLine
 10
-128.00286
 20
49.232327
 30
0.0
 11
-128.00286
 21
44.732327
 31
0.0
  0
LINE
  5
3ED
100
AcDbEntity
  8
0
  6
CENTER
 62
     7
100
AcDbLine
 10
-94.999159
 20
74.732327
 30
0.0
 11
-140.30864
 21
74.732327
 31
0.0
  0
LINE
  5
3EE
100
AcDbEntity
  8
0
  6
CONTINUOUS
 62
     7
100
AcDbLine
 10
-106.80864
 20
49.232327
 30
0.0
 11
-106.80864
 21
100.23233
 31
0.0
  0
LINE
  5
3EF
100
AcDbEntity
  8
0
  6
CONTINUOUS
 62
     7
100
AcDbLine
 10
-64.30864
 20
100.23233
 30
0.0
 11
-106.80864
 21
100.23233
 31
0.0
  0
LINE
  5
3F0
100
AcDbEntity
  8
0
  6
CONTINUOUS
 62
     7
100
AcDbLine
 10
-64.30864
 20
49.232327
 30
0.0
 11
-106.80864
 21
49.232327
 31
0.0
  0
LINE
  5
3F1
100
AcDbEntity
  8
0
  6
CONTINUOUS
 62
     7
100
AcDbLine
 10
-127.99916
 20
100.23233
 30
0.0
 11
-132.30864
 21
100.23233
 31
0.0
  0
LINE
  5
3F2
100
AcDbEntity
  8
0
  6
CONTINUOUS
 62
     7
100
AcDbLine
 10
-127.99916
 20
49.232327
 30
0.0
 11
-132.30864
 21
49.232327
 31
0.0
  0
LINE
  5
3F3
100
AcDbEntity
  8
0
  6
CENTER
 62
     7
100
AcDbLine
 10
-133.30864
 20
37.732327
 30
0.0
 11
-133.30864
 21
111.73233
 31
0.0
  0
LINE
  5
3F4
100
AcDbEntity
  8
0
  6
CENTER
 62
     7
100
AcDbLine
 10
-107.30864
 20
37.732327
 30
0.0
 11
-107.30864
 21
111.73233
 31
0.0
  0
LINE
  5
3F5
100
AcDbEntity
  8
0
  6
CONTINUOUS
 62
     7
100
AcDbLine
 10
-96.30864
 20
44.732327
 30
0.0
 11
-127.99916
 21
44.732327
 31
0.0
  0
LINE
  5
3F6
100
AcDbEntity
  8
0
  6
CONTINUOUS
 62
     7
100
AcDbLine
 10
-96.30864
 20
104.73233
 30
0.0
 11
-127.99916
 21
104.73233
 31
0.0
  0
LINE
  5
3F7
100
AcDbEntity
  8
0
  6
CONTINUOUS
 62
     7
100
AcDbLine
 10
-93.30864
 20
86.232327
 30
0.0
 11
-67.30864
 21
86.232327
 31
0.0
  0
LINE
  5
3F8
100
AcDbEntity
  8
0
  6
CENTER
 62
     7
100
AcDbLine
 10
-84.408639
 20
57.232327
 30
0.0
 11
-94.20864
 21
57.232327
 31
0.0
  0
LINE
  5
3F9
100
AcDbEntity
  8
0
  6
CENTER
 62
     7
100
AcDbLine
 10
-84.408639
 20
92.232327
 30
0.0
 11
-94.20864
 21
92.232327
 31
0.0
  0
LINE
  5
3FA
100
AcDbEntity
  8
0
  6
CONTINUOUS
 62
     7
100
AcDbLine
 10
-64.30864
 20
100.23233
 30
0.0
 11
-64.30864
 21
89.232327
 31
0.0
  0
LINE
  5
3FB
100
AcDbEntity
  8
0
  6
CONTINUOUS
 62
     7
100
AcDbLine
 10
-106.80864
 20
98.232327
 30
0.0
 11
-96.30864
 21
98.232327
 31
0.0
  0
LINE
  5
3FC
100
AcDbEntity
  8
0
  6
CENTER
 62
     7
100
AcDbLine
 10
-66.40864
 20
92.232327
 30
0.0
 11
-76.208639
 21
92.232327
 31
0.0
  0
LINE
  5
3FD
100
AcDbEntity
  8
0
  6
CENTER
 62
     7
100
AcDbLine
 10
-71.30864
 20
97.132328
 30
0.0
 11
-71.30864
 21
87.332327
 31
0.0
  0
LINE
  5
3FE
100
AcDbEntity
  8
0
  6
CONTINUOUS
 62
     7
100
AcDbLine
 10
-96.30864
 20
104.73233
 30
0.0
 11
-96.30864
 21
89.232327
 31
0.0
  0
LINE
  5
3FF
100
AcDbEntity
  8
0
  6
CENTER
 62
     7
100
AcDbLine
 10
-89.30864
 20
97.132328
 30
0.0
 11
-89.30864
 21
87.332327
 31
0.0
  0
LINE
  5
400
100
AcDbEntity
  8
0
  6
CONTINUOUS
 62
     7
100
AcDbLine
 10
-64.30864
 20
49.232327
 30
0.0
 11
-64.30864
 21
60.232327
 31
0.0
  0
LINE
  5
401
100
AcDbEntity
  8
0
  6
CONTINUOUS
 62
     7
100
AcDbLine
 10
-106.80864
 20
51.232327
 30
0.0
 11
-96.30864
 21
51.232327
 31
0.0
  0
LINE
  5
402
100
AcDbEntity
  8
0
  6
CENTER
 62
     7
100
AcDbLine
 10
-66.40864
 20
57.232327
 30
0.0
 11
-76.208639
 21
57.232327
 31
0.0
  0
LINE
  5
403
100
AcDbEntity
  8
0
  6
CENTER
 62
     7
100
AcDbLine
 10
-71.30864
 20
52.332326
 30
0.0
 11
-71.30864
 21
62.132327
 31
0.0
  0
LINE
  5
404
100
AcDbEntity
  8
0
  6
CONTINUOUS
 62
     7
100
AcDbLine
 10
-96.30864
 20
44.732327
 30
0.0
 11
-96.30864
 21
60.232327
 31
0.0
  0
LINE
  5
405
100
AcDbEntity
  8
0
  6
CENTER
 62
     7
100
AcDbLine
 10
-89.30864
 20
52.332326
 30
0.0
 11
-89.30864
 21
62.132327
 31
0.0
  0
LINE
  5
406
100
AcDbEntity
  8
0
  6
CONTINUOUS
 62
     7
100
AcDbLine
 10
-93.30864
 20
63.232327
 30
0.0
 11
-67.30864
 21
63.232327
 31
0.0
  0
CIRCLE
  5
407
100
AcDbEntity
  8
0
  6
CONTINUOUS
 62
     7
100
AcDbCircle
 10
-89.30864
 20
92.232327
 30
0.0
 40
2.9
  0
ARC
  5
408
100
AcDbEntity
  8
0
  6
CONTINUOUS
 62
     7
100
AcDbCircle
 10
-93.30864
 20
89.232327
 30
0.0
 40
3.0
100
AcDbArc
 50
179.99999
 51
270.0
  0
ARC
  5
409
100
AcDbEntity
  8
0
  6
CONTINUOUS
 62
     7
100
AcDbCircle
 10
-67.30864
 20
89.232327
 30
0.0
 40
3.0
100
AcDbArc
 50
270.0
 51
0.0
  0
CIRCLE
  5
40A
100
AcDbEntity
  8
0
  6
CONTINUOUS
 62
     7
100
AcDbCircle
 10
-71.30864
 20
92.232327
 30
0.0
 40
2.9
  0
CIRCLE
  5
40B
100
AcDbEntity
  8
0
  6
CONTINUOUS
 62
     7
100
AcDbCircle
 10
-89.30864
 20
57.232327
 30
0.0
 40
2.9
  0
ARC
  5
40C
100
AcDbEntity
  8
0
  6
CONTINUOUS
 62
     7
100
AcDbCircle
 10
-93.30864
 20
60.232327
 30
0.0
 40
3.0
100
AcDbArc
 50
90.000003
 51
180.00001
  0
ARC
  5
40D
100
AcDbEntity
  8
0
  6
CONTINUOUS
 62
     7
100
AcDbCircle
 10
-67.30864
 20
60.232327
 30
0.0
 40
3.0
100
AcDbArc
 50
0.0
 51
90.000003
  0
CIRCLE
  5
40E
100
AcDbEntity
  8
0
  6
CONTINUOUS
 62
     7
100
AcDbCircle
 10
-71.30864
 20
57.232327
 30
0.0
 40
2.9
  0
POINT
  5
40F
100
AcDbEntity
  8
0
  6
CONTINUOUS
 62
     7
100
AcDbPoint
 10
-89.30864
 20
-10.267673
 30
0.0
  0
POINT
  5
410
100
AcDbEntity
  8
0
  6
CONTINUOUS
 62
     7
100
AcDbPoint
 10
-71.30864
 20
-10.267673
 30
0.0
  0
LINE
  5
411
100
AcDbEntity
  8
0
  6
CENTER
 62
     7
100
AcDbLine
 10
-71.30864
 20
-7.267674
 30
0.0
 11
-71.30864
 21
-15.267673
 31
0.0
  0
LINE
  5
412
100
AcDbEntity
  8
0
  6
CENTER
 62
     7
100
AcDbLine
 10
-89.30864
 20
-7.267674
 30
0.0
 11
-89.30864
 21
-15.267673
 31
0.0
  0
LINE
  5
413
100
AcDbEntity
  8
0
  6
DASHED
 62
     7
100
AcDbLine
 10
-96.30864
 20
-10.267673
 30
0.0
 11
-96.30864
 21
-12.267673
 31
0.0
  0
LINE
  5
414
100
AcDbEntity
  8
0
  6
CONTINUOUS
 62
     7
100
AcDbLine
 10
-64.30864
 20
-10.267673
 30
0.0
 11
-64.30864
 21
-12.267673
 31
0.0
  0
LINE
  5
415
100
AcDbEntity
  8
0
  6
CONTINUOUS
 62
     7
100
AcDbLine
 10
-103.55208
 20
-31.606352
 30
0.0
 11
-70.691544
 21
-19.666471
 31
0.0
  0
LINE
  5
416
100
AcDbEntity
  8
0
  6
DASHED
 62
     7
100
AcDbLine
 10
-96.30864
 20
-12.267673
 30
0.0
 11
-64.30864
 21
-12.267673
 31
0.0
  0
LINE
  5
417
100
AcDbEntity
  8
0
  6
CONTINUOUS
 62
     7
100
AcDbLine
 10
-127.8957
 20
-10.797487
 30
0.0
 11
-125.91658
 21
-12.458162
 31
0.0
  0
LINE
  5
418
100
AcDbEntity
  8
0
  6
CENTER
 62
     7
100
AcDbLine
 10
-127.30864
 20
-21.267673
 30
0.0
 11
-139.30864
 21
-21.267673
 31
0.0
  0
LINE
  5
419
100
AcDbEntity
  8
0
  6
CENTER
 62
     7
100
AcDbLine
 10
-133.30864
 20
-27.267673
 30
0.0
 11
-133.30864
 21
-15.267673
 31
0.0
  0
LINE
  5
41A
100
AcDbEntity
  8
0
  6
CONTINUOUS
 62
     7
100
AcDbLine
 10
-130.80864
 20
-24.390173
 30
0.0
 11
-130.80864
 21
-18.145175
 31
0.0
  0
LINE
  5
41B
100
AcDbEntity
  8
0
  6
CONTINUOUS
 62
     7
100
AcDbLine
 10
-127.70286
 20
-10.267673
 30
0.0
 11
-101.30864
 21
-10.267673
 31
0.0
  0
LINE
  5
41C
100
AcDbEntity
  8
0
  6
CONTINUOUS
 62
     7
100
AcDbLine
 10
-131.90864
 20
-32.267673
 30
0.0
 11
-107.30864
 21
-32.267673
 31
0.0
  0
LINE
  5
41D
100
AcDbEntity
  8
0
  6
CENTER
 62
     7
100
AcDbLine
 10
-101.30864
 20
-21.267673
 30
0.0
 11
-113.30864
 21
-21.267673
 31
0.0
  0
LINE
  5
41E
100
AcDbEntity
  8
0
  6
CENTER
 62
     7
100
AcDbLine
 10
-107.30864
 20
-27.267673
 30
0.0
 11
-107.30864
 21
-15.267673
 31
0.0
  0
ARC
  5
41F
100
AcDbEntity
  8
0
  6
CONTINUOUS
 62
     7
100
AcDbCircle
 10
-74.106599
 20
-10.267673
 30
0.0
 40
10.0
100
AcDbArc
 50
289.96862
 51
348.46304
  0
CIRCLE
  5
420
100
AcDbEntity
  8
0
  6
CONTINUOUS
 62
     7
100
AcDbCircle
 10
-107.30864
 20
-21.267673
 30
0.0
 40
4.0
  0
ARC
  5
421
100
AcDbEntity
  8
0
  6
CONTINUOUS
 62
     7
100
AcDbCircle
 10
-98.80864
 20
-10.267673
 30
0.0
 40
2.5
100
AcDbArc
 50
179.99999
 51
0.00001
  0
ARC
  5
422
100
AcDbEntity
  8
0
  6
CONTINUOUS
 62
     7
100
AcDbCircle
 10
-127.70286
 20
-10.567674
 30
0.0
 40
0.3
100
AcDbArc
 50
90.000003
 51
230.00001
  0
ARC
  5
423
100
AcDbEntity
  8
0
  6
CONTINUOUS
 62
     7
100
AcDbCircle
 10
-133.30864
 20
-21.267673
 30
0.0
 40
11.5
100
AcDbArc
 50
298.95503
 51
50.0
  0
CIRCLE
  5
424
100
AcDbEntity
  8
0
  6
CONTINUOUS
 62
     7
100
AcDbCircle
 10
-133.30864
 20
-21.267673
 30
0.0
 40
4.0
  0
ARC
  5
425
100
AcDbEntity
  8
0
  6
CONTINUOUS
 62
     7
100
AcDbCircle
 10
-107.30864
 20
-21.267673
 30
0.0
 40
11.0
100
AcDbArc
 50
270.0
 51
90.000003
  0
ARC
  5
426
100
AcDbEntity
  8
0
  6
CONTINUOUS
 62
     7
100
AcDbCircle
 10
-127.49916
 20
-31.767673
 30
0.0
 40
0.5
100
AcDbArc
 50
118.95503
 51
270.0
  0
POLYLINE
  5
427
100
AcDbEntity
  8
0
  6
CONTINUOUS
 62
     7
100
AcDb2dPolyline
 66
     1
 10
0.0
 20
0.0
 30
0.0
  0
VERTEX
  5
428
100
AcDbEntity
  8
0
  6
CONTINUOUS
 62
     7
100
AcDbVertex
100
AcDb2dVertex
 10
-96.303429
 20
-10.267673
 30
0.0
  0
VERTEX
  5
429
100
AcDbEntity
  8
0
  6
CONTINUOUS
 62
     7
100
AcDbVertex
100
AcDb2dVertex
 10
-64.30864
 20
-10.267673
 30
0.0
  0
SEQEND
  5
42A
100
AcDbEntity
  8
0
 62
     7
  0
POINT
  5
42B
100
AcDbEntity
  8
0
  6
CONTINUOUS
 62
     7
100
AcDbPoint
 10
-89.30864
 20
-99.76767
 30
0.0
  0
POINT
  5
42C
100
AcDbEntity
  8
0
  6
CONTINUOUS
 62
     7
100
AcDbPoint
 10
-71.30864
 20
-99.76767
 30
0.0
  0
LINE
  5
42D
100
AcDbEntity
  8
0
  6
CONTINUOUS
 62
     7
100
AcDbLine
 10
-116.30864
 20
-145.66767
 30
0.0
 11
-123.30864
 21
-145.66767
 31
0.0
  0
LINE
  5
42E
100
AcDbEntity
  8
0
  6
CONTINUOUS
 62
     7
100
AcDbLine
 10
-123.30864
 20
-145.66767
 30
0.0
 11
-123.30864
 21
-138.26767
 31
0.0
  0
LINE
  5
42F
100
AcDbEntity
  8
0
  6
CENTER
 62
     7
100
AcDbLine
 10
-94.999159
 20
-117.26767
 30
0.0
 11
-140.30864
 21
-117.26767
 31
0.0
  0
LINE
  5
430
100
AcDbEntity
  8
0
  6
CONTINUOUS
 62
     7
100
AcDbLine
 10
-64.30864
 20
-91.76767
 30
0.0
 11
-106.30864
 21
-91.76767
 31
0.0
  0
LINE
  5
431
100
AcDbEntity
  8
0
  6
CONTINUOUS
 62
     7
100
AcDbLine
 10
-106.30864
 20
-138.26767
 30
0.0
 11
-116.30864
 21
-138.26767
 31
0.0
  0
LINE
  5
432
100
AcDbEntity
  8
0
  6
CONTINUOUS
 62
     7
100
AcDbLine
 10
-106.30864
 20
-96.26767
 30
0.0
 11
-116.30864
 21
-96.26767
 31
0.0
  0
LINE
  5
433
100
AcDbEntity
  8
0
  6
CONTINUOUS
 62
     7
100
AcDbLine
 10
-116.30864
 20
-88.86767
 30
0.0
 11
-123.30864
 21
-88.86767
 31
0.0
  0
LINE
  5
434
100
AcDbEntity
  8
0
  6
CONTINUOUS
 62
     7
100
AcDbLine
 10
-116.30864
 20
-96.26767
 30
0.0
 11
-116.30864
 21
-88.86767
 31
0.0
  0
LINE
  5
435
100
AcDbEntity
  8
0
  6
CONTINUOUS
 62
     7
100
AcDbLine
 10
-123.30864
 20
-96.26767
 30
0.0
 11
-123.30864
 21
-88.86767
 31
0.0
  0
LINE
  5
436
100
AcDbEntity
  8
0
  6
CONTINUOUS
 62
     7
100
AcDbLine
 10
-64.30864
 20
-142.76767
 30
0.0
 11
-106.30864
 21
-142.76767
 31
0.0
  0
LINE
  5
437
100
AcDbEntity
  8
0
  6
CONTINUOUS
 62
     7
100
AcDbLine
 10
-127.99916
 20
-91.76767
 30
0.0
 11
-132.30864
 21
-91.76767
 31
0.0
  0
LINE
  5
438
100
AcDbEntity
  8
0
  6
CONTINUOUS
 62
     7
100
AcDbLine
 10
-116.30864
 20
-145.66767
 30
0.0
 11
-116.30864
 21
-138.26767
 31
0.0
  0
LINE
  5
439
100
AcDbEntity
  8
0
  6
CONTINUOUS
 62
     7
100
AcDbLine
 10
-123.30864
 20
-138.26767
 30
0.0
 11
-131.90864
 21
-138.26767
 31
0.0
  0
LINE
  5
43A
100
AcDbEntity
  8
0
  6
CONTINUOUS
 62
     7
100
AcDbLine
 10
-123.30864
 20
-96.26767
 30
0.0
 11
-131.90864
 21
-96.26767
 31
0.0
  0
LINE
  5
43B
100
AcDbEntity
  8
0
  6
CONTINUOUS
 62
     7
100
AcDbLine
 10
-127.99916
 20
-142.76767
 30
0.0
 11
-132.30864
 21
-142.76767
 31
0.0
  0
LINE
  5
43C
100
AcDbEntity
  8
0
  6
CENTER
 62
     7
100
AcDbLine
 10
-133.30864
 20
-154.26767
 30
0.0
 11
-133.30864
 21
-80.26767
 31
0.0
  0
LINE
  5
43D
100
AcDbEntity
  8
0
  6
CENTER
 62
     7
100
AcDbLine
 10
-107.30864
 20
-154.26767
 30
0.0
 11
-107.30864
 21
-80.26767
 31
0.0
  0
LINE
  5
43E
100
AcDbEntity
  8
0
  6
CONTINUOUS
 62
     7
100
AcDbLine
 10
-96.30864
 20
-147.26767
 30
0.0
 11
-127.99916
 21
-147.26767
 31
0.0
  0
LINE
  5
43F
100
AcDbEntity
  8
0
  6
CONTINUOUS
 62
     7
100
AcDbLine
 10
-96.30864
 20
-87.26767
 30
0.0
 11
-127.99916
 21
-87.26767
 31
0.0
  0
LINE
  5
440
100
AcDbEntity
  8
0
  6
CONTINUOUS
 62
     7
100
AcDbLine
 10
-131.90864
 20
-138.26767
 30
0.0
 11
-131.90864
 21
-96.26767
 31
0.0
  0
LINE
  5
441
100
AcDbEntity
  8
0
  6
CONTINUOUS
 62
     7
100
AcDbLine
 10
-116.30864
 20
-145.46767
 30
0.0
 11
-123.30864
 21
-145.46767
 31
0.0
  0
LINE
  5
442
100
AcDbEntity
  8
0
  6
CONTINUOUS
 62
     7
100
AcDbLine
 10
-116.30864
 20
-89.06767
 30
0.0
 11
-123.30864
 21
-89.06767
 31
0.0
  0
LINE
  5
443
100
AcDbEntity
  8
0
  6
CENTER
 62
     7
100
AcDbLine
 10
-114.30864
 20
-142.26767
 30
0.0
 11
-125.30864
 21
-142.26767
 31
0.0
  0
LINE
  5
444
100
AcDbEntity
  8
0
  6
CONTINUOUS
 62
     7
100
AcDbLine
 10
-127.99916
 20
-147.26767
 30
0.0
 11
-127.99916
 21
-142.76767
 31
0.0
  0
LINE
  5
445
100
AcDbEntity
  8
0
  6
CONTINUOUS
 62
     7
100
AcDbLine
 10
-127.99916
 20
-91.76767
 30
0.0
 11
-127.99916
 21
-87.26767
 31
0.0
  0
LINE
  5
446
100
AcDbEntity
  8
0
  6
CONTINUOUS
 62
     7
100
AcDbLine
 10
-106.30864
 20
-142.76767
 30
0.0
 11
-106.30864
 21
-91.76767
 31
0.0
  0
LINE
  5
447
100
AcDbEntity
  8
0
  6
CONTINUOUS
 62
     7
100
AcDbLine
 10
-64.30864
 20
-142.76767
 30
0.0
 11
-64.30864
 21
-131.76767
 31
0.0
  0
LINE
  5
448
100
AcDbEntity
  8
0
  6
CENTER
 62
     7
100
AcDbLine
 10
-66.40864
 20
-134.76767
 30
0.0
 11
-76.208639
 21
-134.76767
 31
0.0
  0
LINE
  5
449
100
AcDbEntity
  8
0
  6
CENTER
 62
     7
100
AcDbLine
 10
-66.40864
 20
-99.76767
 30
0.0
 11
-76.208639
 21
-99.76767
 31
0.0
  0
LINE
  5
44A
100
AcDbEntity
  8
0
  6
CONTINUOUS
 62
     7
100
AcDbLine
 10
-106.30864
 20
-93.76767
 30
0.0
 11
-64.30864
 21
-93.76767
 31
0.0
  0
LINE
  5
44B
100
AcDbEntity
  8
0
  6
CONTINUOUS
 62
     7
100
AcDbLine
 10
-64.30864
 20
-91.76767
 30
0.0
 11
-64.30864
 21
-102.76767
 31
0.0
  0
LINE
  5
44C
100
AcDbEntity
  8
0
  6
CENTER
 62
     7
100
AcDbLine
 10
-84.408639
 20
-99.76767
 30
0.0
 11
-94.20864
 21
-99.76767
 31
0.0
  0
LINE
  5
44D
100
AcDbEntity
  8
0
  6
CONTINUOUS
 62
     7
100
AcDbLine
 10
-93.30864
 20
-105.76767
 30
0.0
 11
-67.30864
 21
-105.76767
 31
0.0
  0
LINE
  5
44E
100
AcDbEntity
  8
0
  6
CONTINUOUS
 62
     7
100
AcDbLine
 10
-106.30864
 20
-140.76767
 30
0.0
 11
-64.30864
 21
-140.76767
 31
0.0
  0
LINE
  5
44F
100
AcDbEntity
  8
0
  6
CENTER
 62
     7
100
AcDbLine
 10
-71.30864
 20
-94.86767
 30
0.0
 11
-71.30864
 21
-104.66767
 31
0.0
  0
LINE
  5
450
100
AcDbEntity
  8
0
  6
CONTINUOUS
 62
     7
100
AcDbLine
 10
-96.30864
 20
-87.26767
 30
0.0
 11
-96.30864
 21
-91.76767
 31
0.0
  0
LINE
  5
451
100
AcDbEntity
  8
0
  6
CENTER
 62
     7
100
AcDbLine
 10
-89.30864
 20
-94.86767
 30
0.0
 11
-89.30864
 21
-104.66767
 31
0.0
  0
LINE
  5
452
100
AcDbEntity
  8
0
  6
CENTER
 62
     7
100
AcDbLine
 10
-84.408639
 20
-134.76767
 30
0.0
 11
-94.20864
 21
-134.76767
 31
0.0
  0
LINE
  5
453
100
AcDbEntity
  8
0
  6
CONTINUOUS
 62
     7
100
AcDbLine
 10
-93.30864
 20
-128.76767
 30
0.0
 11
-67.30864
 21
-128.76767
 31
0.0
  0
LINE
  5
454
100
AcDbEntity
  8
0
  6
CENTER
 62
     7
100
AcDbLine
 10
-71.30864
 20
-139.66767
 30
0.0
 11
-71.30864
 21
-129.86767
 31
0.0
  0
LINE
  5
455
100
AcDbEntity
  8
0
  6
CONTINUOUS
 62
     7
100
AcDbLine
 10
-96.30864
 20
-147.26767
 30
0.0
 11
-96.30864
 21
-142.76767
 31
0.0
  0
LINE
  5
456
100
AcDbEntity
  8
0
  6
CENTER
 62
     7
100
AcDbLine
 10
-89.30864
 20
-139.66767
 30
0.0
 11
-89.30864
 21
-129.86767
 31
0.0
  0
LINE
  5
457
100
AcDbEntity
  8
0
  6
CENTER
 62
     7
100
AcDbLine
 10
-114.30864
 20
-92.26767
 30
0.0
 11
-125.30864
 21
-92.26767
 31
0.0
  0
LINE
  5
458
100
AcDbEntity
  8
0
  6
CONTINUOUS
 62
     7
100
AcDbLine
 10
-96.30864
 20
-93.76767
 30
0.0
 11
-96.30864
 21
-102.76767
 31
0.0
  0
LINE
  5
459
100
AcDbEntity
  8
0
  6
CONTINUOUS
 62
     7
100
AcDbLine
 10
-96.30864
 20
-140.76767
 30
0.0
 11
-96.30864
 21
-131.76767
 31
0.0
  0
CIRCLE
  5
45A
100
AcDbEntity
  8
0
  6
CONTINUOUS
 62
     7
100
AcDbCircle
 10
-89.30864
 20
-99.76767
 30
0.0
 40
2.9
  0
CIRCLE
  5
45B
100
AcDbEntity
  8
0
  6
CONTINUOUS
 62
     7
100
AcDbCircle
 10
-89.30864
 20
-134.76767
 30
0.0
 40
2.9
  0
ARC
  5
45C
100
AcDbEntity
  8
0
  6
CONTINUOUS
 62
     7
100
AcDbCircle
 10
-93.30864
 20
-102.76767
 30
0.0
 40
3.0
100
AcDbArc
 50
179.99999
 51
270.0
  0
ARC
  5
45D
100
AcDbEntity
  8
0
  6
CONTINUOUS
 62
     7
100
AcDbCircle
 10
-67.30864
 20
-102.76767
 30
0.0
 40
3.0
100
AcDbArc
 50
270.0
 51
0.0
  0
CIRCLE
  5
45E
100
AcDbEntity
  8
0
  6
CONTINUOUS
 62
     7
100
AcDbCircle
 10
-71.30864
 20
-99.76767
 30
0.0
 40
2.9
  0
ARC
  5
45F
100
AcDbEntity
  8
0
  6
CONTINUOUS
 62
     7
100
AcDbCircle
 10
-93.30864
 20
-131.76767
 30
0.0
 40
3.0
100
AcDbArc
 50
90.000003
 51
180.00001
  0
ARC
  5
460
100
AcDbEntity
  8
0
  6
CONTINUOUS
 62
     7
100
AcDbCircle
 10
-67.30864
 20
-131.76767
 30
0.0
 40
3.0
100
AcDbArc
 50
0.0
 51
90.000003
  0
CIRCLE
  5
461
100
AcDbEntity
  8
0
  6
CONTINUOUS
 62
     7
100
AcDbCircle
 10
-71.30864
 20
-134.76767
 30
0.0
 40
2.9
  0
POINT
  5
462
100
AcDbEntity
  8
0
  6
CONTINUOUS
 62
     7
100
AcDbPoint
 10
-7.308639
 20
-10.267673
 30
0.0
  0
POINT
  5
463
100
AcDbEntity
  8
0
  6
CONTINUOUS
 62
     7
100
AcDbPoint
 10
27.691361
 20
-10.267673
 30
0.0
  0
LINE
  5
464
100
AcDbEntity
  8
0
  6
CENTER
 62
     7
100
AcDbLine
 10
47.191361
 20
-21.267673
 30
0.0
 11
-26.808639
 21
-21.267673
 31
0.0
  0
LINE
  5
465
100
AcDbEntity
  8
0
  6
CONTINUOUS
 62
     7
100
AcDbLine
 10
33.691361
 20
-12.267673
 30
0.0
 11
33.691361
 21
-32.267673
 31
0.0
  0
LINE
  5
466
100
AcDbEntity
  8
0
  6
CONTINUOUS
 62
     7
100
AcDbLine
 10
40.191361
 20
-10.267673
 30
0.0
 11
-19.808639
 21
-10.267673
 31
0.0
  0
LINE
  5
467
100
AcDbEntity
  8
0
  6
CONTINUOUS
 62
     7
100
AcDbLine
 10
31.191361
 20
-30.467674
 30
0.0
 11
-10.808639
 21
-30.467674
 31
0.0
  0
LINE
  5
468
100
AcDbEntity
  8
0
  6
CONTINUOUS
 62
     7
100
AcDbLine
 10
31.191361
 20
-15.267673
 30
0.0
 11
-10.808639
 21
-15.267673
 31
0.0
  0
LINE
  5
469
100
AcDbEntity
  8
0
  6
CONTINUOUS
 62
     7
100
AcDbLine
 10
31.191361
 20
-31.967674
 30
0.0
 11
-10.808639
 21
-31.967674
 31
0.0
  0
LINE
  5
46A
100
AcDbEntity
  8
0
  6
CONTINUOUS
 62
     7
100
AcDbLine
 10
31.191361
 20
-28.267673
 30
0.0
 11
-10.808639
 21
-28.267673
 31
0.0
  0
LINE
  5
46B
100
AcDbEntity
  8
0
  6
CONTINUOUS
 62
     7
100
AcDbLine
 10
-19.808639
 20
-32.267673
 30
0.0
 11
-19.808639
 21
-10.267673
 31
0.0
  0
LINE
  5
46C
100
AcDbEntity
  8
0
  6
CENTER
 62
     7
100
AcDbLine
 10
10.191361
 20
-39.267673
 30
0.0
 11
10.191361
 21
-3.267674
 31
0.0
  0
LINE
  5
46D
100
AcDbEntity
  8
0
  6
CONTINUOUS
 62
     7
100
AcDbLine
 10
40.191361
 20
-32.267673
 30
0.0
 11
40.191361
 21
-10.267673
 31
0.0
  0
LINE
  5
46E
100
AcDbEntity
  8
0
  6
CONTINUOUS
 62
     7
100
AcDbLine
 10
-10.808639
 20
-32.267673
 30
0.0
 11
-10.808639
 21
-12.267673
 31
0.0
  0
LINE
  5
46F
100
AcDbEntity
  8
0
  6
CONTINUOUS
 62
     7
100
AcDbLine
 10
31.191361
 20
-32.267673
 30
0.0
 11
31.191361
 21
-12.267673
 31
0.0
  0
LINE
  5
470
100
AcDbEntity
  8
0
  6
CONTINUOUS
 62
     7
100
AcDbLine
 10
-13.308639
 20
-12.267673
 30
0.0
 11
-13.308639
 21
-32.267673
 31
0.0
  0
LINE
  5
471
100
AcDbEntity
  8
0
  6
CONTINUOUS
 62
     7
100
AcDbLine
 10
-15.308639
 20
-10.267673
 30
0.0
 11
-15.308639
 21
-32.267673
 31
0.0
  0
LINE
  5
472
100
AcDbEntity
  8
0
  6
CENTER
 62
     7
100
AcDbLine
 10
27.691361
 20
-7.267674
 30
0.0
 11
27.691361
 21
-15.267673
 31
0.0
  0
LINE
  5
473
100
AcDbEntity
  8
0
  6
CONTINUOUS
 62
     7
100
AcDbLine
 10
-1.308639
 20
-12.267673
 30
0.0
 11
-13.308639
 21
-12.267673
 31
0.0
  0
LINE
  5
474
100
AcDbEntity
  8
0
  6
CONTINUOUS
 62
     7
100
AcDbLine
 10
-10.808639
 20
-32.267673
 30
0.0
 11
-19.808639
 21
-32.267673
 31
0.0
  0
LINE
  5
475
100
AcDbEntity
  8
0
  6
CENTER
 62
     7
100
AcDbLine
 10
-7.308639
 20
-7.267674
 30
0.0
 11
-7.308639
 21
-15.267673
 31
0.0
  0
LINE
  5
476
100
AcDbEntity
  8
0
  6
CONTINUOUS
 62
     7
100
AcDbLine
 10
-1.308639
 20
-10.267673
 30
0.0
 11
-1.308639
 21
-12.267673
 31
0.0
  0
LINE
  5
477
100
AcDbEntity
  8
0
  6
CONTINUOUS
 62
     7
100
AcDbLine
 10
21.691361
 20
-12.267673
 30
0.0
 11
33.691361
 21
-12.267673
 31
0.0
  0
LINE
  5
478
100
AcDbEntity
  8
0
  6
CONTINUOUS
 62
     7
100
AcDbLine
 10
35.691361
 20
-10.267673
 30
0.0
 11
35.691361
 21
-32.267673
 31
0.0
  0
LINE
  5
479
100
AcDbEntity
  8
0
  6
CONTINUOUS
 62
     7
100
AcDbLine
 10
21.691361
 20
-10.267673
 30
0.0
 11
21.691361
 21
-12.267673
 31
0.0
  0
LINE
  5
47A
100
AcDbEntity
  8
0
  6
CONTINUOUS
 62
     7
100
AcDbLine
 10
31.191361
 20
-32.267673
 30
0.0
 11
40.191361
 21
-32.267673
 31
0.0
  0
POINT
  5
47B
100
AcDbEntity
  8
0
  6
CONTINUOUS
 62
     7
100
AcDbPoint
 10
140.69136
 20
43.232327
 30
0.0
  0
POINT
  5
47C
100
AcDbEntity
  8
0
  6
CONTINUOUS
 62
     7
100
AcDbPoint
 10
158.69136
 20
43.232327
 30
0.0
  0
LINE
  5
47D
100
AcDbEntity
  8
0
  6
CONTINUOUS
 62
     7
100
AcDbLine
 10
101.99714
 20
104.73233
 30
0.0
 11
101.99714
 21
100.23233
 31
0.0
  0
LINE
  5
47E
100
AcDbEntity
  8
0
  6
CONTINUOUS
 62
     7
100
AcDbLine
 10
101.99714
 20
49.232327
 30
0.0
 11
101.99714
 21
44.732327
 31
0.0
  0
LINE
  5
47F
100
AcDbEntity
  8
0
  6
CENTER
 62
     7
100
AcDbLine
 10
135.00084
 20
74.732327
 30
0.0
 11
89.69136
 21
74.732327
 31
0.0
  0
LINE
  5
480
100
AcDbEntity
  8
0
  6
CONTINUOUS
 62
     7
100
AcDbLine
 10
123.19136
 20
49.232327
 30
0.0
 11
123.19136
 21
100.23233
 31
0.0
  0
LINE
  5
481
100
AcDbEntity
  8
0
  6
CONTINUOUS
 62
     7
100
AcDbLine
 10
165.69136
 20
98.232327
 30
0.0
 11
123.19136
 21
98.232327
 31
0.0
  0
LINE
  5
482
100
AcDbEntity
  8
0
  6
CENTER
 62
     7
100
AcDbLine
 10
145.59136
 20
43.232327
 30
0.0
 11
135.79136
 21
43.232327
 31
0.0
  0
LINE
  5
483
100
AcDbEntity
  8
0
  6
CONTINUOUS
 62
     7
100
AcDbLine
 10
102.00084
 20
100.23233
 30
0.0
 11
97.69136
 21
100.23233
 31
0.0
  0
LINE
  5
484
100
AcDbEntity
  8
0
  6
CONTINUOUS
 62
     7
100
AcDbLine
 10
102.00084
 20
49.232327
 30
0.0
 11
97.69136
 21
49.232327
 31
0.0
  0
LINE
  5
485
100
AcDbEntity
  8
0
  6
CENTER
 62
     7
100
AcDbLine
 10
96.69136
 20
37.732327
 30
0.0
 11
96.69136
 21
111.73233
 31
0.0
  0
LINE
  5
486
100
AcDbEntity
  8
0
  6
CENTER
 62
     7
100
AcDbLine
 10
122.69136
 20
37.732327
 30
0.0
 11
122.69136
 21
111.73233
 31
0.0
  0
LINE
  5
487
100
AcDbEntity
  8
0
  6
CONTINUOUS
 62
     7
100
AcDbLine
 10
133.69136
 20
44.732327
 30
0.0
 11
102.00084
 21
44.732327
 31
0.0
  0
LINE
  5
488
100
AcDbEntity
  8
0
  6
CONTINUOUS
 62
     7
100
AcDbLine
 10
133.69136
 20
104.73233
 30
0.0
 11
102.00084
 21
104.73233
 31
0.0
  0
LINE
  5
489
100
AcDbEntity
  8
0
  6
CONTINUOUS
 62
     7
100
AcDbLine
 10
136.69136
 20
112.23233
 30
0.0
 11
162.69136
 21
112.23233
 31
0.0
  0
LINE
  5
48A
100
AcDbEntity
  8
0
  6
CENTER
 62
     7
100
AcDbLine
 10
145.59136
 20
106.23233
 30
0.0
 11
135.79136
 21
106.23233
 31
0.0
  0
LINE
  5
48B
100
AcDbEntity
  8
0
  6
CONTINUOUS
 62
     7
100
AcDbLine
 10
165.69136
 20
51.232327
 30
0.0
 11
123.19136
 21
51.232327
 31
0.0
  0
LINE
  5
48C
100
AcDbEntity
  8
0
  6
CONTINUOUS
 62
     7
100
AcDbLine
 10
165.69136
 20
98.232327
 30
0.0
 11
165.69136
 21
109.23233
 31
0.0
  0
LINE
  5
48D
100
AcDbEntity
  8
0
  6
CONTINUOUS
 62
     7
100
AcDbLine
 10
123.19136
 20
100.23233
 30
0.0
 11
165.69136
 21
100.23233
 31
0.0
  0
LINE
  5
48E
100
AcDbEntity
  8
0
  6
CENTER
 62
     7
100
AcDbLine
 10
163.59136
 20
106.23233
 30
0.0
 11
153.79136
 21
106.23233
 31
0.0
  0
LINE
  5
48F
100
AcDbEntity
  8
0
  6
CENTER
 62
     7
100
AcDbLine
 10
158.69136
 20
101.33232
 30
0.0
 11
158.69136
 21
111.13233
 31
0.0
  0
LINE
  5
490
100
AcDbEntity
  8
0
  6
CONTINUOUS
 62
     7
100
AcDbLine
 10
133.69136
 20
100.23233
 30
0.0
 11
133.69136
 21
109.23233
 31
0.0
  0
LINE
  5
491
100
AcDbEntity
  8
0
  6
CONTINUOUS
 62
     7
100
AcDbLine
 10
136.69136
 20
37.232327
 30
0.0
 11
162.69136
 21
37.232327
 31
0.0
  0
LINE
  5
492
100
AcDbEntity
  8
0
  6
CENTER
 62
     7
100
AcDbLine
 10
140.69136
 20
101.33232
 30
0.0
 11
140.69136
 21
111.13233
 31
0.0
  0
LINE
  5
493
100
AcDbEntity
  8
0
  6
CONTINUOUS
 62
     7
100
AcDbLine
 10
123.19136
 20
49.232327
 30
0.0
 11
165.69136
 21
49.232327
 31
0.0
  0
LINE
  5
494
100
AcDbEntity
  8
0
  6
CONTINUOUS
 62
     7
100
AcDbLine
 10
165.69136
 20
51.232327
 30
0.0
 11
165.69136
 21
40.232327
 31
0.0
  0
LINE
  5
495
100
AcDbEntity
  8
0
  6
CENTER
 62
     7
100
AcDbLine
 10
140.69136
 20
48.132327
 30
0.0
 11
140.69136
 21
38.332326
 31
0.0
  0
LINE
  5
496
100
AcDbEntity
  8
0
  6
CONTINUOUS
 62
     7
100
AcDbLine
 10
133.69136
 20
49.232327
 30
0.0
 11
133.69136
 21
40.232327
 31
0.0
  0
LINE
  5
497
100
AcDbEntity
  8
0
  6
CENTER
 62
     7
100
AcDbLine
 10
158.69136
 20
48.132327
 30
0.0
 11
158.69136
 21
38.332326
 31
0.0
  0
LINE
  5
498
100
AcDbEntity
  8
0
  6
CENTER
 62
     7
100
AcDbLine
 10
163.59136
 20
43.232327
 30
0.0
 11
153.79136
 21
43.232327
 31
0.0
  0
CIRCLE
  5
499
100
AcDbEntity
  8
0
  6
CONTINUOUS
 62
     7
100
AcDbCircle
 10
140.69136
 20
106.23233
 30
0.0
 40
2.9
  0
ARC
  5
49A
100
AcDbEntity
  8
0
  6
CONTINUOUS
 62
     7
100
AcDbCircle
 10
136.69136
 20
109.23233
 30
0.0
 40
3.0
100
AcDbArc
 50
90.000003
 51
180.00001
  0
ARC
  5
49B
100
AcDbEntity
  8
0
  6
CONTINUOUS
 62
     7
100
AcDbCircle
 10
162.69136
 20
109.23233
 30
0.0
 40
3.0
100
AcDbArc
 50
0.0
 51
90.000003
  0
CIRCLE
  5
49C
100
AcDbEntity
  8
0
  6
CONTINUOUS
 62
     7
100
AcDbCircle
 10
158.69136
 20
106.23233
 30
0.0
 40
2.9
  0
CIRCLE
  5
49D
100
AcDbEntity
  8
0
  6
CONTINUOUS
 62
     7
100
AcDbCircle
 10
158.69136
 20
43.232327
 30
0.0
 40
2.9
  0
CIRCLE
  5
49E
100
AcDbEntity
  8
0
  6
CONTINUOUS
 62
     7
100
AcDbCircle
 10
140.69136
 20
43.232327
 30
0.0
 40
2.9
  0
ARC
  5
49F
100
AcDbEntity
  8
0
  6
CONTINUOUS
 62
     7
100
AcDbCircle
 10
162.69136
 20
40.232327
 30
0.0
 40
3.0
100
AcDbArc
 50
270.0
 51
0.0
  0
ARC
  5
4A0
100
AcDbEntity
  8
0
  6
CONTINUOUS
 62
     7
100
AcDbCircle
 10
136.69136
 20
40.232327
 30
0.0
 40
3.0
100
AcDbArc
 50
179.99999
 51
270.0
  0
POINT
  5
4A1
100
AcDbEntity
  8
0
  6
CONTINUOUS
 62
     7
100
AcDbPoint
 10
140.69136
 20
-32.267673
 30
0.0
  0
POINT
  5
4A2
100
AcDbEntity
  8
0
  6
CONTINUOUS
 62
     7
100
AcDbPoint
 10
158.69136
 20
-32.267673
 30
0.0
  0
LINE
  5
4A3
100
AcDbEntity
  8
0
  6
CENTER
 62
     7
100
AcDbLine
 10
122.69136
 20
-27.267673
 30
0.0
 11
122.69136
 21
-15.267673
 31
0.0
  0
LINE
  5
4A4
100
AcDbEntity
  8
0
  6
CENTER
 62
     7
100
AcDbLine
 10
128.69136
 20
-21.267673
 30
0.0
 11
116.69136
 21
-21.267673
 31
0.0
  0
LINE
  5
4A5
100
AcDbEntity
  8
0
  6
CONTINUOUS
 62
     7
100
AcDbLine
 10
98.091362
 20
-32.267673
 30
0.0
 11
128.69136
 21
-32.267673
 31
0.0
  0
LINE
  5
4A6
100
AcDbEntity
  8
0
  6
CONTINUOUS
 62
     7
100
AcDbLine
 10
102.29714
 20
-10.267673
 30
0.0
 11
122.69136
 21
-10.267673
 31
0.0
  0
LINE
  5
4A7
100
AcDbEntity
  8
0
  6
CONTINUOUS
 62
     7
100
AcDbLine
 10
99.19136
 20
-24.390172
 30
0.0
 11
99.19136
 21
-18.145174
 31
0.0
  0
LINE
  5
4A8
100
AcDbEntity
  8
0
  6
CENTER
 62
     7
100
AcDbLine
 10
96.69136
 20
-27.267673
 30
0.0
 11
96.69136
 21
-15.267673
 31
0.0
  0
LINE
  5
4A9
100
AcDbEntity
  8
0
  6
CENTER
 62
     7
100
AcDbLine
 10
102.69136
 20
-21.267673
 30
0.0
 11
90.69136
 21
-21.267673
 31
0.0
  0
LINE
  5
4AA
100
AcDbEntity
  8
0
  6
CONTINUOUS
 62
     7
100
AcDbLine
 10
102.1043
 20
-10.797485
 30
0.0
 11
104.08342
 21
-12.458162
 31
0.0
  0
LINE
  5
4AB
100
AcDbEntity
  8
0
  6
CONTINUOUS
 62
     7
100
AcDbLine
 10
133.69136
 20
-30.267673
 30
0.0
 11
165.69136
 21
-30.267673
 31
0.0
  0
LINE
  5
4AC
100
AcDbEntity
  8
0
  6
CONTINUOUS
 62
     7
100
AcDbLine
 10
126.44792
 20
-10.928995
 30
0.0
 11
159.30846
 21
-22.868876
 31
0.0
  0
LINE
  5
4AD
100
AcDbEntity
  8
0
  6
CONTINUOUS
 62
     7
100
AcDbLine
 10
165.69136
 20
-32.267673
 30
0.0
 11
165.69136
 21
-30.267673
 31
0.0
  0
LINE
  5
4AE
100
AcDbEntity
  8
0
  6
CONTINUOUS
 62
     7
100
AcDbLine
 10
133.69136
 20
-32.267673
 30
0.0
 11
133.69136
 21
-30.267673
 31
0.0
  0
LINE
  5
4AF
100
AcDbEntity
  8
0
  6
CENTER
 62
     7
100
AcDbLine
 10
140.69136
 20
-35.267673
 30
0.0
 11
140.69136
 21
-27.267673
 31
0.0
  0
LINE
  5
4B0
100
AcDbEntity
  8
0
  6
CENTER
 62
     7
100
AcDbLine
 10
158.69136
 20
-35.267673
 30
0.0
 11
158.69136
 21
-27.267673
 31
0.0
  0
ARC
  5
4B1
100
AcDbEntity
  8
0
  6
CONTINUOUS
 62
     7
100
AcDbCircle
 10
102.50084
 20
-31.767673
 30
0.0
 40
0.5
100
AcDbArc
 50
118.95503
 51
270.0
  0
ARC
  5
4B2
100
AcDbEntity
  8
0
  6
CONTINUOUS
 62
     7
100
AcDbCircle
 10
122.69136
 20
-21.267673
 30
0.0
 40
11.0
100
AcDbArc
 50
270.0
 51
90.000003
  0
CIRCLE
  5
4B3
100
AcDbEntity
  8
0
  6
CONTINUOUS
 62
     7
100
AcDbCircle
 10
96.69136
 20
-21.267673
 30
0.0
 40
4.0
  0
ARC
  5
4B4
100
AcDbEntity
  8
0
  6
CONTINUOUS
 62
     7
100
AcDbCircle
 10
96.69136
 20
-21.267673
 30
0.0
 40
11.5
100
AcDbArc
 50
298.95503
 51
50.0
  0
ARC
  5
4B5
100
AcDbEntity
  8
0
  6
CONTINUOUS
 62
     7
100
AcDbCircle
 10
102.29714
 20
-10.567673
 30
0.0
 40
0.3
100
AcDbArc
 50
90.000003
 51
230.00001
  0
ARC
  5
4B6
100
AcDbEntity
  8
0
  6
CONTINUOUS
 62
     7
100
AcDbCircle
 10
131.19136
 20
-32.267673
 30
0.0
 40
2.5
100
AcDbArc
 50
0.0
 51
180.00001
  0
CIRCLE
  5
4B7
100
AcDbEntity
  8
0
  6
CONTINUOUS
 62
     7
100
AcDbCircle
 10
122.69136
 20
-21.267673
 30
0.0
 40
4.0
  0
ARC
  5
4B8
100
AcDbEntity
  8
0
  6
CONTINUOUS
 62
     7
100
AcDbCircle
 10
155.8934
 20
-32.267673
 30
0.0
 40
10.0
100
AcDbArc
 50
11.536959
 51
70.031378
  0
POLYLINE
  5
4B9
100
AcDbEntity
  8
0
  6
CONTINUOUS
 62
     7
100
AcDb2dPolyline
 66
     1
 10
0.0
 20
0.0
 30
0.0
  0
VERTEX
  5
4BA
100
AcDbEntity
  8
0
  6
CONTINUOUS
 62
     7
100
AcDbVertex
100
AcDb2dVertex
 10
133.69657
 20
-32.267673
 30
0.0
  0
VERTEX
  5
4BB
100
AcDbEntity
  8
0
  6
CONTINUOUS
 62
     7
100
AcDbVertex
100
AcDb2dVertex
 10
165.69136
 20
-32.267673
 30
0.0
  0
SEQEND
  5
4BC
100
AcDbEntity
  8
0
 62
     7
  0
POINT
  5
4BD
100
AcDbEntity
  8
0
  6
CONTINUOUS
 62
     7
100
AcDbPoint
 10
140.69136
 20
-85.76767
 30
0.0
  0
POINT
  5
4BE
100
AcDbEntity
  8
0
  6
CONTINUOUS
 62
     7
100
AcDbPoint
 10
158.69136
 20
-85.76767
 30
0.0
  0
LINE
  5
4BF
100
AcDbEntity
  8
0
  6
CENTER
 62
     7
100
AcDbLine
 10
115.69136
 20
-92.26767
 30
0.0
 11
104.69136
 21
-92.26767
 31
0.0
  0
LINE
  5
4C0
100
AcDbEntity
  8
0
  6
CONTINUOUS
 62
     7
100
AcDbLine
 10
113.69136
 20
-88.86767
 30
0.0
 11
106.69136
 21
-88.86767
 31
0.0
  0
LINE
  5
4C1
100
AcDbEntity
  8
0
  6
CONTINUOUS
 62
     7
100
AcDbLine
 10
123.69136
 20
-96.26767
 30
0.0
 11
113.69136
 21
-96.26767
 31
0.0
  0
LINE
  5
4C2
100
AcDbEntity
  8
0
  6
CONTINUOUS
 62
     7
100
AcDbLine
 10
123.69136
 20
-138.26767
 30
0.0
 11
113.69136
 21
-138.26767
 31
0.0
  0
LINE
  5
4C3
100
AcDbEntity
  8
0
  6
CONTINUOUS
 62
     7
100
AcDbLine
 10
165.69136
 20
-93.76767
 30
0.0
 11
123.69136
 21
-93.76767
 31
0.0
  0
LINE
  5
4C4
100
AcDbEntity
  8
0
  6
CENTER
 62
     7
100
AcDbLine
 10
135.00084
 20
-117.26767
 30
0.0
 11
89.69136
 21
-117.26767
 31
0.0
  0
LINE
  5
4C5
100
AcDbEntity
  8
0
  6
CONTINUOUS
 62
     7
100
AcDbLine
 10
106.69136
 20
-145.66767
 30
0.0
 11
106.69136
 21
-138.26767
 31
0.0
  0
LINE
  5
4C6
100
AcDbEntity
  8
0
  6
CONTINUOUS
 62
     7
100
AcDbLine
 10
113.69136
 20
-145.66767
 30
0.0
 11
106.69136
 21
-145.66767
 31
0.0
  0
LINE
  5
4C7
100
AcDbEntity
  8
0
  6
CONTINUOUS
 62
     7
100
AcDbLine
 10
113.69136
 20
-96.26767
 30
0.0
 11
113.69136
 21
-88.86767
 31
0.0
  0
LINE
  5
4C8
100
AcDbEntity
  8
0
  6
CONTINUOUS
 62
     7
100
AcDbLine
 10
106.69136
 20
-96.26767
 30
0.0
 11
106.69136
 21
-88.86767
 31
0.0
  0
LINE
  5
4C9
100
AcDbEntity
  8
0
  6
CONTINUOUS
 62
     7
100
AcDbLine
 10
165.69136
 20
-140.76767
 30
0.0
 11
165.69136
 21
-151.76767
 31
0.0
  0
LINE
  5
4CA
100
AcDbEntity
  8
0
  6
CONTINUOUS
 62
     7
100
AcDbLine
 10
102.00084
 20
-91.76767
 30
0.0
 11
97.69136
 21
-91.76767
 31
0.0
  0
LINE
  5
4CB
100
AcDbEntity
  8
0
  6
CONTINUOUS
 62
     7
100
AcDbLine
 10
113.69136
 20
-145.66767
 30
0.0
 11
113.69136
 21
-138.26767
 31
0.0
  0
LINE
  5
4CC
100
AcDbEntity
  8
0
  6
CONTINUOUS
 62
     7
100
AcDbLine
 10
106.69136
 20
-138.26767
 30
0.0
 11
98.091362
 21
-138.26767
 31
0.0
  0
LINE
  5
4CD
100
AcDbEntity
  8
0
  6
CONTINUOUS
 62
     7
100
AcDbLine
 10
106.69136
 20
-96.26767
 30
0.0
 11
98.091362
 21
-96.26767
 31
0.0
  0
LINE
  5
4CE
100
AcDbEntity
  8
0
  6
CONTINUOUS
 62
     7
100
AcDbLine
 10
102.00084
 20
-142.76767
 30
0.0
 11
97.69136
 21
-142.76767
 31
0.0
  0
LINE
  5
4CF
100
AcDbEntity
  8
0
  6
CENTER
 62
     7
100
AcDbLine
 10
96.69136
 20
-154.26767
 30
0.0
 11
96.69136
 21
-80.26767
 31
0.0
  0
LINE
  5
4D0
100
AcDbEntity
  8
0
  6
CENTER
 62
     7
100
AcDbLine
 10
122.69136
 20
-154.26767
 30
0.0
 11
122.69136
 21
-80.26767
 31
0.0
  0
LINE
  5
4D1
100
AcDbEntity
  8
0
  6
CONTINUOUS
 62
     7
100
AcDbLine
 10
133.69136
 20
-147.26767
 30
0.0
 11
102.00084
 21
-147.26767
 31
0.0
  0
LINE
  5
4D2
100
AcDbEntity
  8
0
  6
CONTINUOUS
 62
     7
100
AcDbLine
 10
133.69136
 20
-87.26767
 30
0.0
 11
102.00084
 21
-87.26767
 31
0.0
  0
LINE
  5
4D3
100
AcDbEntity
  8
0
  6
CONTINUOUS
 62
     7
100
AcDbLine
 10
98.091362
 20
-138.26767
 30
0.0
 11
98.091362
 21
-96.26767
 31
0.0
  0
LINE
  5
4D4
100
AcDbEntity
  8
0
  6
CONTINUOUS
 62
     7
100
AcDbLine
 10
113.69136
 20
-145.46767
 30
0.0
 11
106.69136
 21
-145.46767
 31
0.0
  0
LINE
  5
4D5
100
AcDbEntity
  8
0
  6
CONTINUOUS
 62
     7
100
AcDbLine
 10
113.69136
 20
-89.06767
 30
0.0
 11
106.69136
 21
-89.06767
 31
0.0
  0
LINE
  5
4D6
100
AcDbEntity
  8
0
  6
CENTER
 62
     7
100
AcDbLine
 10
115.69136
 20
-142.26767
 30
0.0
 11
104.69136
 21
-142.26767
 31
0.0
  0
LINE
  5
4D7
100
AcDbEntity
  8
0
  6
CONTINUOUS
 62
     7
100
AcDbLine
 10
102.00084
 20
-147.26767
 30
0.0
 11
102.00084
 21
-142.76767
 31
0.0
  0
LINE
  5
4D8
100
AcDbEntity
  8
0
  6
CONTINUOUS
 62
     7
100
AcDbLine
 10
102.00084
 20
-91.76767
 30
0.0
 11
102.00084
 21
-87.26767
 31
0.0
  0
LINE
  5
4D9
100
AcDbEntity
  8
0
  6
CONTINUOUS
 62
     7
100
AcDbLine
 10
123.69136
 20
-142.76767
 30
0.0
 11
123.69136
 21
-91.76767
 31
0.0
  0
LINE
  5
4DA
100
AcDbEntity
  8
0
  6
CENTER
 62
     7
100
AcDbLine
 10
145.59136
 20
-148.76767
 30
0.0
 11
135.79136
 21
-148.76767
 31
0.0
  0
LINE
  5
4DB
100
AcDbEntity
  8
0
  6
CENTER
 62
     7
100
AcDbLine
 10
163.59136
 20
-85.76767
 30
0.0
 11
153.79136
 21
-85.76767
 31
0.0
  0
LINE
  5
4DC
100
AcDbEntity
  8
0
  6
CONTINUOUS
 62
     7
100
AcDbLine
 10
123.69136
 20
-91.76767
 30
0.0
 11
133.69136
 21
-91.76767
 31
0.0
  0
LINE
  5
4DD
100
AcDbEntity
  8
0
  6
CONTINUOUS
 62
     7
100
AcDbLine
 10
165.69136
 20
-93.76767
 30
0.0
 11
165.69136
 21
-82.76767
 31
0.0
  0
LINE
  5
4DE
100
AcDbEntity
  8
0
  6
CENTER
 62
     7
100
AcDbLine
 10
145.59136
 20
-85.76767
 30
0.0
 11
135.79136
 21
-85.76767
 31
0.0
  0
LINE
  5
4DF
100
AcDbEntity
  8
0
  6
CONTINUOUS
 62
     7
100
AcDbLine
 10
136.69136
 20
-79.76767
 30
0.0
 11
162.69136
 21
-79.76767
 31
0.0
  0
LINE
  5
4E0
100
AcDbEntity
  8
0
  6
CONTINUOUS
 62
     7
100
AcDbLine
 10
165.69136
 20
-140.76767
 30
0.0
 11
123.69136
 21
-140.76767
 31
0.0
  0
LINE
  5
4E1
100
AcDbEntity
  8
0
  6
CENTER
 62
     7
100
AcDbLine
 10
158.69136
 20
-90.66767
 30
0.0
 11
158.69136
 21
-80.86767
 31
0.0
  0
LINE
  5
4E2
100
AcDbEntity
  8
0
  6
CONTINUOUS
 62
     7
100
AcDbLine
 10
133.69136
 20
-82.76767
 30
0.0
 11
133.69136
 21
-93.76767
 31
0.0
  0
LINE
  5
4E3
100
AcDbEntity
  8
0
  6
CENTER
 62
     7
100
AcDbLine
 10
140.69136
 20
-90.66767
 30
0.0
 11
140.69136
 21
-80.86767
 31
0.0
  0
LINE
  5
4E4
100
AcDbEntity
  8
0
  6
CENTER
 62
     7
100
AcDbLine
 10
158.69136
 20
-143.86767
 30
0.0
 11
158.69136
 21
-153.66767
 31
0.0
  0
LINE
  5
4E5
100
AcDbEntity
  8
0
  6
CONTINUOUS
 62
     7
100
AcDbLine
 10
133.69136
 20
-151.76767
 30
0.0
 11
133.69136
 21
-140.76767
 31
0.0
  0
LINE
  5
4E6
100
AcDbEntity
  8
0
  6
CONTINUOUS
 62
     7
100
AcDbLine
 10
123.69136
 20
-142.76767
 30
0.0
 11
133.69136
 21
-142.76767
 31
0.0
  0
LINE
  5
4E7
100
AcDbEntity
  8
0
  6
CONTINUOUS
 62
     7
100
AcDbLine
 10
136.69136
 20
-154.76767
 30
0.0
 11
162.69136
 21
-154.76767
 31
0.0
  0
LINE
  5
4E8
100
AcDbEntity
  8
0
  6
CENTER
 62
     7
100
AcDbLine
 10
140.69136
 20
-143.86767
 30
0.0
 11
140.69136
 21
-153.66767
 31
0.0
  0
LINE
  5
4E9
100
AcDbEntity
  8
0
  6
CENTER
 62
     7
100
AcDbLine
 10
163.59136
 20
-148.76767
 30
0.0
 11
153.79136
 21
-148.76767
 31
0.0
  0
ARC
  5
4EA
100
AcDbEntity
  8
0
  6
CONTINUOUS
 62
     7
100
AcDbCircle
 10
162.69136
 20
-151.76767
 30
0.0
 40
3.0
100
AcDbArc
 50
270.0
 51
0.0
  0
CIRCLE
  5
4EB
100
AcDbEntity
  8
0
  6
CONTINUOUS
 62
     7
100
AcDbCircle
 10
140.69136
 20
-85.76767
 30
0.0
 40
2.9
  0
CIRCLE
  5
4EC
100
AcDbEntity
  8
0
  6
CONTINUOUS
 62
     7
100
AcDbCircle
 10
158.69136
 20
-148.76767
 30
0.0
 40
2.9
  0
ARC
  5
4ED
100
AcDbEntity
  8
0
  6
CONTINUOUS
 62
     7
100
AcDbCircle
 10
136.69136
 20
-82.76767
 30
0.0
 40
3.0
100
AcDbArc
 50
90.000003
 51
180.00001
  0
ARC
  5
4EE
100
AcDbEntity
  8
0
  6
CONTINUOUS
 62
     7
100
AcDbCircle
 10
162.69136
 20
-82.76767
 30
0.0
 40
3.0
100
AcDbArc
 50
0.0
 51
90.000003
  0
CIRCLE
  5
4EF
100
AcDbEntity
  8
0
  6
CONTINUOUS
 62
     7
100
AcDbCircle
 10
158.69136
 20
-85.76767
 30
0.0
 40
2.9
  0
CIRCLE
  5
4F0
100
AcDbEntity
  8
0
  6
CONTINUOUS
 62
     7
100
AcDbCircle
 10
140.69136
 20
-148.76767
 30
0.0
 40
2.9
  0
ARC
  5
4F1
100
AcDbEntity
  8
0
  6
CONTINUOUS
 62
     7
100
AcDbCircle
 10
136.69136
 20
-151.76767
 30
0.0
 40
3.0
100
AcDbArc
 50
179.99999
 51
270.0
  0
POINT
  5
4F2
100
AcDbEntity
  8
0
  6
CONTINUOUS
 62
     7
100
AcDbPoint
 10
210.69136
 20
-32.267673
 30
0.0
  0
POINT
  5
4F3
100
AcDbEntity
  8
0
  6
CONTINUOUS
 62
     7
100
AcDbPoint
 10
273.69136
 20
-32.267673
 30
0.0
  0
LINE
  5
4F4
100
AcDbEntity
  8
0
  6
CENTER
 62
     7
100
AcDbLine
 10
279.19136
 20
-21.267673
 30
0.0
 11
205.19136
 21
-21.267673
 31
0.0
  0
LINE
  5
4F5
100
AcDbEntity
  8
0
  6
CONTINUOUS
 62
     7
100
AcDbLine
 10
263.19136
 20
-32.267673
 30
0.0
 11
279.69136
 21
-32.267673
 31
0.0
  0
LINE
  5
4F6
100
AcDbEntity
  8
0
  6
CONTINUOUS
 62
     7
100
AcDbLine
 10
272.19136
 20
-10.267673
 30
0.0
 11
212.19136
 21
-10.267673
 31
0.0
  0
LINE
  5
4F7
100
AcDbEntity
  8
0
  6
CONTINUOUS
 62
     7
100
AcDbLine
 10
263.19136
 20
-30.467674
 30
0.0
 11
221.19136
 21
-30.467674
 31
0.0
  0
LINE
  5
4F8
100
AcDbEntity
  8
0
  6
CONTINUOUS
 62
     7
100
AcDbLine
 10
263.19136
 20
-15.267673
 30
0.0
 11
221.19136
 21
-15.267673
 31
0.0
  0
LINE
  5
4F9
100
AcDbEntity
  8
0
  6
CONTINUOUS
 62
     7
100
AcDbLine
 10
263.19136
 20
-31.967673
 30
0.0
 11
221.19136
 21
-31.967673
 31
0.0
  0
LINE
  5
4FA
100
AcDbEntity
  8
0
  6
CONTINUOUS
 62
     7
100
AcDbLine
 10
263.19136
 20
-28.267673
 30
0.0
 11
221.19136
 21
-28.267673
 31
0.0
  0
LINE
  5
4FB
100
AcDbEntity
  8
0
  6
CONTINUOUS
 62
     7
100
AcDbLine
 10
212.19136
 20
-30.267673
 30
0.0
 11
212.19136
 21
-10.267673
 31
0.0
  0
LINE
  5
4FC
100
AcDbEntity
  8
0
  6
CENTER
 62
     7
100
AcDbLine
 10
242.19136
 20
-39.267673
 30
0.0
 11
242.19136
 21
-3.267674
 31
0.0
  0
LINE
  5
4FD
100
AcDbEntity
  8
0
  6
CONTINUOUS
 62
     7
100
AcDbLine
 10
272.19136
 20
-30.267673
 30
0.0
 11
272.19136
 21
-10.267673
 31
0.0
  0
LINE
  5
4FE
100
AcDbEntity
  8
0
  6
CONTINUOUS
 62
     7
100
AcDbLine
 10
221.19136
 20
-32.267673
 30
0.0
 11
221.19136
 21
-10.267673
 31
0.0
  0
LINE
  5
4FF
100
AcDbEntity
  8
0
  6
CONTINUOUS
 62
     7
100
AcDbLine
 10
263.19136
 20
-32.267673
 30
0.0
 11
263.19136
 21
-10.267673
 31
0.0
  0
LINE
  5
500
100
AcDbEntity
  8
0
  6
CONTINUOUS
 62
     7
100
AcDbLine
 10
216.69136
 20
-30.267673
 30
0.0
 11
216.69136
 21
-10.267673
 31
0.0
  0
LINE
  5
501
100
AcDbEntity
  8
0
  6
CONTINUOUS
 62
     7
100
AcDbLine
 10
218.69136
 20
-32.267673
 30
0.0
 11
218.69136
 21
-10.267673
 31
0.0
  0
LINE
  5
502
100
AcDbEntity
  8
0
  6
CONTINUOUS
 62
     7
100
AcDbLine
 10
279.69136
 20
-30.267673
 30
0.0
 11
267.69136
 21
-30.267673
 31
0.0
  0
LINE
  5
503
100
AcDbEntity
  8
0
  6
CONTINUOUS
 62
     7
100
AcDbLine
 10
204.69136
 20
-30.267673
 30
0.0
 11
216.69136
 21
-30.267673
 31
0.0
  0
LINE
  5
504
100
AcDbEntity
  8
0
  6
CONTINUOUS
 62
     7
100
AcDbLine
 10
221.19136
 20
-32.267673
 30
0.0
 11
204.69136
 21
-32.267673
 31
0.0
  0
LINE
  5
505
100
AcDbEntity
  8
0
  6
CENTER
 62
     7
100
AcDbLine
 10
210.69136
 20
-35.267673
 30
0.0
 11
210.69136
 21
-27.267673
 31
0.0
  0
LINE
  5
506
100
AcDbEntity
  8
0
  6
CONTINUOUS
 62
     7
100
AcDbLine
 10
204.69136
 20
-32.267673
 30
0.0
 11
204.69136
 21
-30.267673
 31
0.0
  0
LINE
  5
507
100
AcDbEntity
  8
0
  6
CONTINUOUS
 62
     7
100
AcDbLine
 10
265.69136
 20
-32.267673
 30
0.0
 11
265.69136
 21
-10.267673
 31
0.0
  0
LINE
  5
508
100
AcDbEntity
  8
0
  6
CENTER
 62
     7
100
AcDbLine
 10
273.69136
 20
-35.267673
 30
0.0
 11
273.69136
 21
-27.267673
 31
0.0
  0
LINE
  5
509
100
AcDbEntity
  8
0
  6
CONTINUOUS
 62
     7
100
AcDbLine
 10
267.69136
 20
-30.267673
 30
0.0
 11
267.69136
 21
-10.267673
 31
0.0
  0
LINE
  5
50A
100
AcDbEntity
  8
0
  6
CONTINUOUS
 62
     7
100
AcDbLine
 10
279.69136
 20
-32.267673
 30
0.0
 11
279.69136
 21
-30.267673
 31
0.0
  0
POINT
  5
50B
100
AcDbEntity
  8
0
  6
CONTINUOUS
 62
     7
100
AcDbPoint
 10
390.69138
 20
43.232327
 30
0.0
  0
POINT
  5
50C
100
AcDbEntity
  8
0
  6
CONTINUOUS
 62
     7
100
AcDbPoint
 10
408.69138
 20
43.232327
 30
0.0
  0
LINE
  5
50D
100
AcDbEntity
  8
0
  6
CONTINUOUS
 62
     7
100
AcDbLine
 10
351.99715
 20
104.73233
 30
0.0
 11
351.99715
 21
100.23233
 31
0.0
  0
LINE
  5
50E
100
AcDbEntity
  8
0
  6
CONTINUOUS
 62
     7
100
AcDbLine
 10
351.99715
 20
49.232327
 30
0.0
 11
351.99715
 21
44.732327
 31
0.0
  0
LINE
  5
50F
100
AcDbEntity
  8
0
  6
CENTER
 62
     7
100
AcDbLine
 10
385.00086
 20
74.732327
 30
0.0
 11
339.69138
 21
74.732327
 31
0.0
  0
LINE
  5
510
100
AcDbEntity
  8
0
  6
CONTINUOUS
 62
     7
100
AcDbLine
 10
373.19138
 20
49.232327
 30
0.0
 11
373.19138
 21
100.23233
 31
0.0
  0
LINE
  5
511
100
AcDbEntity
  8
0
  6
CONTINUOUS
 62
     7
100
AcDbLine
 10
415.69138
 20
98.232327
 30
0.0
 11
373.19138
 21
98.232327
 31
0.0
  0
LINE
  5
512
100
AcDbEntity
  8
0
  6
CENTER
 62
     7
100
AcDbLine
 10
395.59138
 20
43.232327
 30
0.0
 11
385.79138
 21
43.232327
 31
0.0
  0
LINE
  5
513
100
AcDbEntity
  8
0
  6
CONTINUOUS
 62
     7
100
AcDbLine
 10
352.00085
 20
100.23233
 30
0.0
 11
347.69138
 21
100.23233
 31
0.0
  0
LINE
  5
514
100
AcDbEntity
  8
0
  6
CONTINUOUS
 62
     7
100
AcDbLine
 10
352.00085
 20
49.232327
 30
0.0
 11
347.69138
 21
49.232327
 31
0.0
  0
LINE
  5
515
100
AcDbEntity
  8
0
  6
CENTER
 62
     7
100
AcDbLine
 10
346.69138
 20
37.732327
 30
0.0
 11
346.69138
 21
111.73233
 31
0.0
  0
LINE
  5
516
100
AcDbEntity
  8
0
  6
CENTER
 62
     7
100
AcDbLine
 10
372.69138
 20
37.732327
 30
0.0
 11
372.69138
 21
111.73233
 31
0.0
  0
LINE
  5
517
100
AcDbEntity
  8
0
  6
CONTINUOUS
 62
     7
100
AcDbLine
 10
383.69138
 20
44.732327
 30
0.0
 11
352.00085
 21
44.732327
 31
0.0
  0
LINE
  5
518
100
AcDbEntity
  8
0
  6
CONTINUOUS
 62
     7
100
AcDbLine
 10
383.69138
 20
104.73233
 30
0.0
 11
352.00085
 21
104.73233
 31
0.0
  0
LINE
  5
519
100
AcDbEntity
  8
0
  6
CONTINUOUS
 62
     7
100
AcDbLine
 10
386.69138
 20
112.23233
 30
0.0
 11
412.69138
 21
112.23233
 31
0.0
  0
LINE
  5
51A
100
AcDbEntity
  8
0
  6
CENTER
 62
     7
100
AcDbLine
 10
395.59138
 20
106.23233
 30
0.0
 11
385.79138
 21
106.23233
 31
0.0
  0
LINE
  5
51B
100
AcDbEntity
  8
0
  6
CONTINUOUS
 62
     7
100
AcDbLine
 10
415.69138
 20
51.232327
 30
0.0
 11
373.19138
 21
51.232327
 31
0.0
  0
LINE
  5
51C
100
AcDbEntity
  8
0
  6
CONTINUOUS
 62
     7
100
AcDbLine
 10
415.69138
 20
98.232327
 30
0.0
 11
415.69138
 21
109.23233
 31
0.0
  0
LINE
  5
51D
100
AcDbEntity
  8
0
  6
CONTINUOUS
 62
     7
100
AcDbLine
 10
373.19138
 20
100.23233
 30
0.0
 11
383.69138
 21
100.23233
 31
0.0
  0
LINE
  5
51E
100
AcDbEntity
  8
0
  6
CENTER
 62
     7
100
AcDbLine
 10
413.59138
 20
106.23233
 30
0.0
 11
403.79138
 21
106.23233
 31
0.0
  0
LINE
  5
51F
100
AcDbEntity
  8
0
  6
CENTER
 62
     7
100
AcDbLine
 10
408.69138
 20
101.33232
 30
0.0
 11
408.69138
 21
111.13233
 31
0.0
  0
LINE
  5
520
100
AcDbEntity
  8
0
  6
CONTINUOUS
 62
     7
100
AcDbLine
 10
383.69138
 20
98.232327
 30
0.0
 11
383.69138
 21
109.23233
 31
0.0
  0
LINE
  5
521
100
AcDbEntity
  8
0
  6
CONTINUOUS
 62
     7
100
AcDbLine
 10
386.69138
 20
37.232327
 30
0.0
 11
412.69138
 21
37.232327
 31
0.0
  0
LINE
  5
522
100
AcDbEntity
  8
0
  6
CENTER
 62
     7
100
AcDbLine
 10
390.69138
 20
101.33232
 30
0.0
 11
390.69138
 21
111.13233
 31
0.0
  0
LINE
  5
523
100
AcDbEntity
  8
0
  6
CONTINUOUS
 62
     7
100
AcDbLine
 10
373.19138
 20
49.232327
 30
0.0
 11
383.69138
 21
49.232327
 31
0.0
  0
LINE
  5
524
100
AcDbEntity
  8
0
  6
CONTINUOUS
 62
     7
100
AcDbLine
 10
415.69138
 20
51.232327
 30
0.0
 11
415.69138
 21
40.232327
 31
0.0
  0
LINE
  5
525
100
AcDbEntity
  8
0
  6
CENTER
 62
     7
100
AcDbLine
 10
390.69138
 20
48.132327
 30
0.0
 11
390.69138
 21
38.332326
 31
0.0
  0
LINE
  5
526
100
AcDbEntity
  8
0
  6
CONTINUOUS
 62
     7
100
AcDbLine
 10
383.69138
 20
51.232327
 30
0.0
 11
383.69138
 21
40.232327
 31
0.0
  0
LINE
  5
527
100
AcDbEntity
  8
0
  6
CENTER
 62
     7
100
AcDbLine
 10
408.69138
 20
48.132327
 30
0.0
 11
408.69138
 21
38.332326
 31
0.0
  0
LINE
  5
528
100
AcDbEntity
  8
0
  6
CENTER
 62
     7
100
AcDbLine
 10
413.59138
 20
43.232327
 30
0.0
 11
403.79138
 21
43.232327
 31
0.0
  0
CIRCLE
  5
529
100
AcDbEntity
  8
0
  6
CONTINUOUS
 62
     7
100
AcDbCircle
 10
390.69138
 20
106.23233
 30
0.0
 40
2.9
  0
ARC
  5
52A
100
AcDbEntity
  8
0
  6
CONTINUOUS
 62
     7
100
AcDbCircle
 10
386.69138
 20
109.23233
 30
0.0
 40
3.0
100
AcDbArc
 50
90.000003
 51
180.00001
  0
ARC
  5
52B
100
AcDbEntity
  8
0
  6
CONTINUOUS
 62
     7
100
AcDbCircle
 10
412.69138
 20
109.23233
 30
0.0
 40
3.0
100
AcDbArc
 50
0.0
 51
90.000003
  0
CIRCLE
  5
52C
100
AcDbEntity
  8
0
  6
CONTINUOUS
 62
     7
100
AcDbCircle
 10
408.69138
 20
106.23233
 30
0.0
 40
2.9
  0
CIRCLE
  5
52D
100
AcDbEntity
  8
0
  6
CONTINUOUS
 62
     7
100
AcDbCircle
 10
408.69138
 20
43.232327
 30
0.0
 40
2.9
  0
CIRCLE
  5
52E
100
AcDbEntity
  8
0
  6
CONTINUOUS
 62
     7
100
AcDbCircle
 10
390.69138
 20
43.232327
 30
0.0
 40
2.9
  0
ARC
  5
52F
100
AcDbEntity
  8
0
  6
CONTINUOUS
 62
     7
100
AcDbCircle
 10
412.69138
 20
40.232327
 30
0.0
 40
3.0
100
AcDbArc
 50
270.0
 51
0.0
  0
ARC
  5
530
100
AcDbEntity
  8
0
  6
CONTINUOUS
 62
     7
100
AcDbCircle
 10
386.69138
 20
40.232327
 30
0.0
 40
3.0
100
AcDbArc
 50
179.99999
 51
270.0
  0
POINT
  5
531
100
AcDbEntity
  8
0
  6
CONTINUOUS
 62
     7
100
AcDbPoint
 10
390.69138
 20
-10.267673
 30
0.0
  0
POINT
  5
532
100
AcDbEntity
  8
0
  6
CONTINUOUS
 62
     7
100
AcDbPoint
 10
408.69138
 20
-10.267673
 30
0.0
  0
LINE
  5
533
100
AcDbEntity
  8
0
  6
CENTER
 62
     7
100
AcDbLine
 10
372.69138
 20
-27.267673
 30
0.0
 11
372.69138
 21
-15.267673
 31
0.0
  0
LINE
  5
534
100
AcDbEntity
  8
0
  6
CENTER
 62
     7
100
AcDbLine
 10
378.69138
 20
-21.267673
 30
0.0
 11
366.69138
 21
-21.267673
 31
0.0
  0
LINE
  5
535
100
AcDbEntity
  8
0
  6
CONTINUOUS
 62
     7
100
AcDbLine
 10
348.09138
 20
-32.267673
 30
0.0
 11
372.69138
 21
-32.267673
 31
0.0
  0
LINE
  5
536
100
AcDbEntity
  8
0
  6
CONTINUOUS
 62
     7
100
AcDbLine
 10
352.29715
 20
-10.267673
 30
0.0
 11
378.69138
 21
-10.267673
 31
0.0
  0
LINE
  5
537
100
AcDbEntity
  8
0
  6
CONTINUOUS
 62
     7
100
AcDbLine
 10
349.19138
 20
-24.390173
 30
0.0
 11
349.19138
 21
-18.145175
 31
0.0
  0
LINE
  5
538
100
AcDbEntity
  8
0
  6
CENTER
 62
     7
100
AcDbLine
 10
346.69138
 20
-27.267673
 30
0.0
 11
346.69138
 21
-15.267673
 31
0.0
  0
LINE
  5
539
100
AcDbEntity
  8
0
  6
CENTER
 62
     7
100
AcDbLine
 10
352.69138
 20
-21.267673
 30
0.0
 11
340.69138
 21
-21.267673
 31
0.0
  0
LINE
  5
53A
100
AcDbEntity
  8
0
  6
CONTINUOUS
 62
     7
100
AcDbLine
 10
352.10432
 20
-10.797487
 30
0.0
 11
354.08343
 21
-12.458162
 31
0.0
  0
LINE
  5
53B
100
AcDbEntity
  8
0
  6
CONTINUOUS
 62
     7
100
AcDbLine
 10
383.69138
 20
-12.267673
 30
0.0
 11
415.69138
 21
-12.267673
 31
0.0
  0
LINE
  5
53C
100
AcDbEntity
  8
0
  6
CONTINUOUS
 62
     7
100
AcDbLine
 10
376.44794
 20
-31.606352
 30
0.0
 11
409.30847
 21
-19.666471
 31
0.0
  0
LINE
  5
53D
100
AcDbEntity
  8
0
  6
CONTINUOUS
 62
     7
100
AcDbLine
 10
415.69138
 20
-10.267673
 30
0.0
 11
415.69138
 21
-12.267673
 31
0.0
  0
LINE
  5
53E
100
AcDbEntity
  8
0
  6
CONTINUOUS
 62
     7
100
AcDbLine
 10
383.69138
 20
-10.267673
 30
0.0
 11
383.69138
 21
-12.267673
 31
0.0
  0
LINE
  5
53F
100
AcDbEntity
  8
0
  6
CENTER
 62
     7
100
AcDbLine
 10
390.69138
 20
-7.267674
 30
0.0
 11
390.69138
 21
-15.267673
 31
0.0
  0
LINE
  5
540
100
AcDbEntity
  8
0
  6
CENTER
 62
     7
100
AcDbLine
 10
408.69138
 20
-7.267674
 30
0.0
 11
408.69138
 21
-15.267673
 31
0.0
  0
ARC
  5
541
100
AcDbEntity
  8
0
  6
CONTINUOUS
 62
     7
100
AcDbCircle
 10
352.50085
 20
-31.767673
 30
0.0
 40
0.5
100
AcDbArc
 50
118.95503
 51
270.0
  0
ARC
  5
542
100
AcDbEntity
  8
0
  6
CONTINUOUS
 62
     7
100
AcDbCircle
 10
372.69138
 20
-21.267673
 30
0.0
 40
11.0
100
AcDbArc
 50
270.0
 51
90.000003
  0
CIRCLE
  5
543
100
AcDbEntity
  8
0
  6
CONTINUOUS
 62
     7
100
AcDbCircle
 10
346.69138
 20
-21.267673
 30
0.0
 40
4.0
  0
ARC
  5
544
100
AcDbEntity
  8
0
  6
CONTINUOUS
 62
     7
100
AcDbCircle
 10
346.69138
 20
-21.267673
 30
0.0
 40
11.5
100
AcDbArc
 50
298.95503
 51
50.0
  0
ARC
  5
545
100
AcDbEntity
  8
0
  6
CONTINUOUS
 62
     7
100
AcDbCircle
 10
352.29715
 20
-10.567674
 30
0.0
 40
0.3
100
AcDbArc
 50
90.000003
 51
230.00001
  0
ARC
  5
546
100
AcDbEntity
  8
0
  6
CONTINUOUS
 62
     7
100
AcDbCircle
 10
381.19138
 20
-10.267673
 30
0.0
 40
2.5
100
AcDbArc
 50
179.99999
 51
0.00001
  0
CIRCLE
  5
547
100
AcDbEntity
  8
0
  6
CONTINUOUS
 62
     7
100
AcDbCircle
 10
372.69138
 20
-21.267673
 30
0.0
 40
4.0
  0
ARC
  5
548
100
AcDbEntity
  8
0
  6
CONTINUOUS
 62
     7
100
AcDbCircle
 10
405.89342
 20
-10.267673
 30
0.0
 40
10.0
100
AcDbArc
 50
289.96862
 51
348.46304
  0
POLYLINE
  5
549
100
AcDbEntity
  8
0
  6
CONTINUOUS
 62
     7
100
AcDb2dPolyline
 66
     1
 10
0.0
 20
0.0
 30
0.0
  0
VERTEX
  5
54A
100
AcDbEntity
  8
0
  6
CONTINUOUS
 62
     7
100
AcDbVertex
100
AcDb2dVertex
 10
383.69659
 20
-10.267673
 30
0.0
  0
VERTEX
  5
54B
100
AcDbEntity
  8
0
  6
CONTINUOUS
 62
     7
100
AcDbVertex
100
AcDb2dVertex
 10
415.69138
 20
-10.267673
 30
0.0
  0
SEQEND
  5
54C
100
AcDbEntity
  8
0
 62
     7
  0
POINT
  5
54D
100
AcDbEntity
  8
0
  6
CONTINUOUS
 62
     7
100
AcDbPoint
 10
390.69138
 20
-85.76767
 30
0.0
  0
POINT
  5
54E
100
AcDbEntity
  8
0
  6
CONTINUOUS
 62
     7
100
AcDbPoint
 10
408.69138
 20
-85.76767
 30
0.0
  0
LINE
  5
54F
100
AcDbEntity
  8
0
  6
CONTINUOUS
 62
     7
100
AcDbLine
 10
363.69138
 20
-88.86767
 30
0.0
 11
356.69138
 21
-88.86767
 31
0.0
  0
LINE
  5
550
100
AcDbEntity
  8
0
  6
CONTINUOUS
 62
     7
100
AcDbLine
 10
373.69138
 20
-96.26767
 30
0.0
 11
363.69138
 21
-96.26767
 31
0.0
  0
LINE
  5
551
100
AcDbEntity
  8
0
  6
CENTER
 62
     7
100
AcDbLine
 10
385.00086
 20
-117.26767
 30
0.0
 11
339.69138
 21
-117.26767
 31
0.0
  0
LINE
  5
552
100
AcDbEntity
  8
0
  6
CONTINUOUS
 62
     7
100
AcDbLine
 10
373.69138
 20
-138.26767
 30
0.0
 11
363.69138
 21
-138.26767
 31
0.0
  0
LINE
  5
553
100
AcDbEntity
  8
0
  6
CONTINUOUS
 62
     7
100
AcDbLine
 10
415.69138
 20
-93.76767
 30
0.0
 11
373.69138
 21
-93.76767
 31
0.0
  0
LINE
  5
554
100
AcDbEntity
  8
0
  6
CONTINUOUS
 62
     7
100
AcDbLine
 10
356.69138
 20
-145.66767
 30
0.0
 11
356.69138
 21
-138.26767
 31
0.0
  0
LINE
  5
555
100
AcDbEntity
  8
0
  6
CONTINUOUS
 62
     7
100
AcDbLine
 10
363.69138
 20
-145.66767
 30
0.0
 11
356.69138
 21
-145.66767
 31
0.0
  0
LINE
  5
556
100
AcDbEntity
  8
0
  6
CONTINUOUS
 62
     7
100
AcDbLine
 10
363.69138
 20
-96.26767
 30
0.0
 11
363.69138
 21
-88.86767
 31
0.0
  0
LINE
  5
557
100
AcDbEntity
  8
0
  6
CONTINUOUS
 62
     7
100
AcDbLine
 10
356.69138
 20
-96.26767
 30
0.0
 11
356.69138
 21
-88.86767
 31
0.0
  0
LINE
  5
558
100
AcDbEntity
  8
0
  6
CONTINUOUS
 62
     7
100
AcDbLine
 10
415.69138
 20
-140.76767
 30
0.0
 11
415.69138
 21
-151.76767
 31
0.0
  0
LINE
  5
559
100
AcDbEntity
  8
0
  6
CONTINUOUS
 62
     7
100
AcDbLine
 10
352.00085
 20
-91.76767
 30
0.0
 11
347.69138
 21
-91.76767
 31
0.0
  0
LINE
  5
55A
100
AcDbEntity
  8
0
  6
CONTINUOUS
 62
     7
100
AcDbLine
 10
363.69138
 20
-145.66767
 30
0.0
 11
363.69138
 21
-138.26767
 31
0.0
  0
LINE
  5
55B
100
AcDbEntity
  8
0
  6
CONTINUOUS
 62
     7
100
AcDbLine
 10
356.69138
 20
-138.26767
 30
0.0
 11
348.09138
 21
-138.26767
 31
0.0
  0
LINE
  5
55C
100
AcDbEntity
  8
0
  6
CONTINUOUS
 62
     7
100
AcDbLine
 10
356.69138
 20
-96.26767
 30
0.0
 11
348.09138
 21
-96.26767
 31
0.0
  0
LINE
  5
55D
100
AcDbEntity
  8
0
  6
CONTINUOUS
 62
     7
100
AcDbLine
 10
352.00085
 20
-142.76767
 30
0.0
 11
347.69138
 21
-142.76767
 31
0.0
  0
LINE
  5
55E
100
AcDbEntity
  8
0
  6
CENTER
 62
     7
100
AcDbLine
 10
346.69138
 20
-154.26767
 30
0.0
 11
346.69138
 21
-80.26767
 31
0.0
  0
LINE
  5
55F
100
AcDbEntity
  8
0
  6
CENTER
 62
     7
100
AcDbLine
 10
372.69138
 20
-154.26767
 30
0.0
 11
372.69138
 21
-80.26767
 31
0.0
  0
LINE
  5
560
100
AcDbEntity
  8
0
  6
CONTINUOUS
 62
     7
100
AcDbLine
 10
383.69138
 20
-147.26767
 30
0.0
 11
352.00085
 21
-147.26767
 31
0.0
  0
LINE
  5
561
100
AcDbEntity
  8
0
  6
CONTINUOUS
 62
     7
100
AcDbLine
 10
383.69138
 20
-87.26767
 30
0.0
 11
352.00085
 21
-87.26767
 31
0.0
  0
LINE
  5
562
100
AcDbEntity
  8
0
  6
CONTINUOUS
 62
     7
100
AcDbLine
 10
348.09138
 20
-138.26767
 30
0.0
 11
348.09138
 21
-96.26767
 31
0.0
  0
LINE
  5
563
100
AcDbEntity
  8
0
  6
CONTINUOUS
 62
     7
100
AcDbLine
 10
363.69138
 20
-145.46767
 30
0.0
 11
356.69138
 21
-145.46767
 31
0.0
  0
LINE
  5
564
100
AcDbEntity
  8
0
  6
CONTINUOUS
 62
     7
100
AcDbLine
 10
363.69138
 20
-89.06767
 30
0.0
 11
356.69138
 21
-89.06767
 31
0.0
  0
LINE
  5
565
100
AcDbEntity
  8
0
  6
CONTINUOUS
 62
     7
100
AcDbLine
 10
352.00085
 20
-147.26767
 30
0.0
 11
352.00085
 21
-142.76767
 31
0.0
  0
LINE
  5
566
100
AcDbEntity
  8
0
  6
CONTINUOUS
 62
     7
100
AcDbLine
 10
352.00085
 20
-91.76767
 30
0.0
 11
352.00085
 21
-87.26767
 31
0.0
  0
LINE
  5
567
100
AcDbEntity
  8
0
  6
CONTINUOUS
 62
     7
100
AcDbLine
 10
373.69138
 20
-142.76767
 30
0.0
 11
373.69138
 21
-91.76767
 31
0.0
  0
LINE
  5
568
100
AcDbEntity
  8
0
  6
CENTER
 62
     7
100
AcDbLine
 10
395.59138
 20
-148.76767
 30
0.0
 11
385.79138
 21
-148.76767
 31
0.0
  0
LINE
  5
569
100
AcDbEntity
  8
0
  6
CENTER
 62
     7
100
AcDbLine
 10
413.59138
 20
-85.76767
 30
0.0
 11
403.79138
 21
-85.76767
 31
0.0
  0
LINE
  5
56A
100
AcDbEntity
  8
0
  6
CONTINUOUS
 62
     7
100
AcDbLine
 10
373.69138
 20
-91.76767
 30
0.0
 11
415.69138
 21
-91.76767
 31
0.0
  0
LINE
  5
56B
100
AcDbEntity
  8
0
  6
CONTINUOUS
 62
     7
100
AcDbLine
 10
415.69138
 20
-93.76767
 30
0.0
 11
415.69138
 21
-82.76767
 31
0.0
  0
LINE
  5
56C
100
AcDbEntity
  8
0
  6
CENTER
 62
     7
100
AcDbLine
 10
395.59138
 20
-85.76767
 30
0.0
 11
385.79138
 21
-85.76767
 31
0.0
  0
LINE
  5
56D
100
AcDbEntity
  8
0
  6
CONTINUOUS
 62
     7
100
AcDbLine
 10
386.69138
 20
-79.76767
 30
0.0
 11
412.69138
 21
-79.76767
 31
0.0
  0
LINE
  5
56E
100
AcDbEntity
  8
0
  6
CONTINUOUS
 62
     7
100
AcDbLine
 10
415.69138
 20
-140.76767
 30
0.0
 11
373.69138
 21
-140.76767
 31
0.0
  0
LINE
  5
56F
100
AcDbEntity
  8
0
  6
CENTER
 62
     7
100
AcDbLine
 10
408.69138
 20
-90.66767
 30
0.0
 11
408.69138
 21
-80.86767
 31
0.0
  0
LINE
  5
570
100
AcDbEntity
  8
0
  6
CONTINUOUS
 62
     7
100
AcDbLine
 10
383.69138
 20
-82.76767
 30
0.0
 11
383.69138
 21
-91.76767
 31
0.0
  0
LINE
  5
571
100
AcDbEntity
  8
0
  6
CENTER
 62
     7
100
AcDbLine
 10
390.69138
 20
-90.66767
 30
0.0
 11
390.69138
 21
-80.86767
 31
0.0
  0
LINE
  5
572
100
AcDbEntity
  8
0
  6
CENTER
 62
     7
100
AcDbLine
 10
408.69138
 20
-143.86767
 30
0.0
 11
408.69138
 21
-153.66767
 31
0.0
  0
LINE
  5
573
100
AcDbEntity
  8
0
  6
CONTINUOUS
 62
     7
100
AcDbLine
 10
383.69138
 20
-151.76767
 30
0.0
 11
383.69138
 21
-142.76767
 31
0.0
  0
LINE
  5
574
100
AcDbEntity
  8
0
  6
CONTINUOUS
 62
     7
100
AcDbLine
 10
373.69138
 20
-142.76767
 30
0.0
 11
415.69138
 21
-142.76767
 31
0.0
  0
LINE
  5
575
100
AcDbEntity
  8
0
  6
CONTINUOUS
 62
     7
100
AcDbLine
 10
386.69138
 20
-154.76767
 30
0.0
 11
412.69138
 21
-154.76767
 31
0.0
  0
LINE
  5
576
100
AcDbEntity
  8
0
  6
CENTER
 62
     7
100
AcDbLine
 10
390.69138
 20
-143.86767
 30
0.0
 11
390.69138
 21
-153.66767
 31
0.0
  0
LINE
  5
577
100
AcDbEntity
  8
0
  6
CENTER
 62
     7
100
AcDbLine
 10
413.59138
 20
-148.76767
 30
0.0
 11
403.79138
 21
-148.76767
 31
0.0
  0
LINE
  5
578
100
AcDbEntity
  8
0
  6
CENTER
 62
     7
100
AcDbLine
 10
365.69138
 20
-92.26767
 30
0.0
 11
354.69138
 21
-92.26767
 31
0.0
  0
LINE
  5
579
100
AcDbEntity
  8
0
  6
CENTER
 62
     7
100
AcDbLine
 10
365.69138
 20
-142.26767
 30
0.0
 11
354.69138
 21
-142.26767
 31
0.0
  0
ARC
  5
57A
100
AcDbEntity
  8
0
  6
CONTINUOUS
 62
     7
100
AcDbCircle
 10
412.69138
 20
-151.76767
 30
0.0
 40
3.0
100
AcDbArc
 50
270.0
 51
0.0
  0
CIRCLE
  5
57B
100
AcDbEntity
  8
0
  6
CONTINUOUS
 62
     7
100
AcDbCircle
 10
390.69138
 20
-85.76767
 30
0.0
 40
2.9
  0
CIRCLE
  5
57C
100
AcDbEntity
  8
0
  6
CONTINUOUS
 62
     7
100
AcDbCircle
 10
408.69138
 20
-148.76767
 30
0.0
 40
2.9
  0
ARC
  5
57D
100
AcDbEntity
  8
0
  6
CONTINUOUS
 62
     7
100
AcDbCircle
 10
386.69138
 20
-82.76767
 30
0.0
 40
3.0
100
AcDbArc
 50
90.000003
 51
180.00001
  0
ARC
  5
57E
100
AcDbEntity
  8
0
  6
CONTINUOUS
 62
     7
100
AcDbCircle
 10
412.69138
 20
-82.76767
 30
0.0
 40
3.0
100
AcDbArc
 50
0.0
 51
90.000003
  0
CIRCLE
  5
57F
100
AcDbEntity
  8
0
  6
CONTINUOUS
 62
     7
100
AcDbCircle
 10
408.69138
 20
-85.76767
 30
0.0
 40
2.9
  0
CIRCLE
  5
580
100
AcDbEntity
  8
0
  6
CONTINUOUS
 62
     7
100
AcDbCircle
 10
390.69138
 20
-148.76767
 30
0.0
 40
2.9
  0
ARC
  5
581
100
AcDbEntity
  8
0
  6
CONTINUOUS
 62
     7
100
AcDbCircle
 10
386.69138
 20
-151.76767
 30
0.0
 40
3.0
100
AcDbArc
 50
179.99999
 51
270.0
  0
POINT
  5
582
100
AcDbEntity
  8
0
  6
CONTINUOUS
 62
     7
100
AcDbPoint
 10
460.69138
 20
-10.267673
 30
0.0
  0
POINT
  5
583
100
AcDbEntity
  8
0
  6
CONTINUOUS
 62
     7
100
AcDbPoint
 10
523.69138
 20
-10.267673
 30
0.0
  0
LINE
  5
584
100
AcDbEntity
  8
0
  6
CENTER
 62
     7
100
AcDbLine
 10
529.19138
 20
-21.267673
 30
0.0
 11
455.19138
 21
-21.267673
 31
0.0
  0
LINE
  5
585
100
AcDbEntity
  8
0
  6
CONTINUOUS
 62
     7
100
AcDbLine
 10
513.19138
 20
-32.267673
 30
0.0
 11
522.19138
 21
-32.267673
 31
0.0
  0
LINE
  5
586
100
AcDbEntity
  8
0
  6
CONTINUOUS
 62
     7
100
AcDbLine
 10
529.69138
 20
-10.267673
 30
0.0
 11
454.69138
 21
-10.267673
 31
0.0
  0
LINE
  5
587
100
AcDbEntity
  8
0
  6
CONTINUOUS
 62
     7
100
AcDbLine
 10
513.19138
 20
-30.467674
 30
0.0
 11
471.19138
 21
-30.467674
 31
0.0
  0
LINE
  5
588
100
AcDbEntity
  8
0
  6
CONTINUOUS
 62
     7
100
AcDbLine
 10
513.19138
 20
-15.267673
 30
0.0
 11
471.19138
 21
-15.267673
 31
0.0
  0
LINE
  5
589
100
AcDbEntity
  8
0
  6
CONTINUOUS
 62
     7
100
AcDbLine
 10
513.19138
 20
-31.967674
 30
0.0
 11
471.19138
 21
-31.967674
 31
0.0
  0
LINE
  5
58A
100
AcDbEntity
  8
0
  6
CONTINUOUS
 62
     7
100
AcDbLine
 10
513.19138
 20
-28.267673
 30
0.0
 11
471.19138
 21
-28.267673
 31
0.0
  0
LINE
  5
58B
100
AcDbEntity
  8
0
  6
CONTINUOUS
 62
     7
100
AcDbLine
 10
462.19138
 20
-32.267673
 30
0.0
 11
462.19138
 21
-12.267673
 31
0.0
  0
LINE
  5
58C
100
AcDbEntity
  8
0
  6
CENTER
 62
     7
100
AcDbLine
 10
492.19138
 20
-39.267673
 30
0.0
 11
492.19138
 21
-3.267674
 31
0.0
  0
LINE
  5
58D
100
AcDbEntity
  8
0
  6
CONTINUOUS
 62
     7
100
AcDbLine
 10
522.19138
 20
-32.267673
 30
0.0
 11
522.19138
 21
-12.267673
 31
0.0
  0
LINE
  5
58E
100
AcDbEntity
  8
0
  6
CONTINUOUS
 62
     7
100
AcDbLine
 10
471.19138
 20
-32.267673
 30
0.0
 11
471.19138
 21
-10.267673
 31
0.0
  0
LINE
  5
58F
100
AcDbEntity
  8
0
  6
CONTINUOUS
 62
     7
100
AcDbLine
 10
513.19138
 20
-32.267673
 30
0.0
 11
513.19138
 21
-10.267673
 31
0.0
  0
LINE
  5
590
100
AcDbEntity
  8
0
  6
CONTINUOUS
 62
     7
100
AcDbLine
 10
466.69138
 20
-12.267673
 30
0.0
 11
466.69138
 21
-32.267673
 31
0.0
  0
LINE
  5
591
100
AcDbEntity
  8
0
  6
CONTINUOUS
 62
     7
100
AcDbLine
 10
468.69138
 20
-10.267673
 30
0.0
 11
468.69138
 21
-32.267673
 31
0.0
  0
LINE
  5
592
100
AcDbEntity
  8
0
  6
CONTINUOUS
 62
     7
100
AcDbLine
 10
529.69138
 20
-12.267673
 30
0.0
 11
517.69138
 21
-12.267673
 31
0.0
  0
LINE
  5
593
100
AcDbEntity
  8
0
  6
CONTINUOUS
 62
     7
100
AcDbLine
 10
454.69138
 20
-12.267673
 30
0.0
 11
466.69138
 21
-12.267673
 31
0.0
  0
LINE
  5
594
100
AcDbEntity
  8
0
  6
CONTINUOUS
 62
     7
100
AcDbLine
 10
471.19138
 20
-32.267673
 30
0.0
 11
462.19138
 21
-32.267673
 31
0.0
  0
LINE
  5
595
100
AcDbEntity
  8
0
  6
CENTER
 62
     7
100
AcDbLine
 10
460.69138
 20
-7.267674
 30
0.0
 11
460.69138
 21
-15.267673
 31
0.0
  0
LINE
  5
596
100
AcDbEntity
  8
0
  6
CONTINUOUS
 62
     7
100
AcDbLine
 10
454.69138
 20
-10.267673
 30
0.0
 11
454.69138
 21
-12.267673
 31
0.0
  0
LINE
  5
597
100
AcDbEntity
  8
0
  6
CONTINUOUS
 62
     7
100
AcDbLine
 10
515.69138
 20
-10.267673
 30
0.0
 11
515.69138
 21
-32.267673
 31
0.0
  0
LINE
  5
598
100
AcDbEntity
  8
0
  6
CENTER
 62
     7
100
AcDbLine
 10
523.69138
 20
-7.267674
 30
0.0
 11
523.69138
 21
-15.267673
 31
0.0
  0
LINE
  5
599
100
AcDbEntity
  8
0
  6
CONTINUOUS
 62
     7
100
AcDbLine
 10
517.69138
 20
-12.267673
 30
0.0
 11
517.69138
 21
-32.267673
 31
0.0
  0
LINE
  5
59A
100
AcDbEntity
  8
0
  6
CONTINUOUS
 62
     7
100
AcDbLine
 10
529.69138
 20
-10.267673
 30
0.0
 11
529.69138
 21
-12.267673
 31
0.0
  0
POINT
  5
59B
100
AcDbEntity
  8
0
  6
CONTINUOUS
 62
     7
100
AcDbPoint
 10
-443.30862
 20
-389.26767
 30
0.0
  0
POINT
  5
59C
100
AcDbEntity
  8
0
  6
CONTINUOUS
 62
     7
100
AcDbPoint
 10
-406.30862
 20
-389.26767
 30
0.0
  0
LINE
  5
59D
100
AcDbEntity
  8
0
  6
CONTINUOUS
 62
     7
100
AcDbLine
 10
-414.90862
 20
-438.06596
 30
0.0
 11
-414.90862
 21
-437.91118
 31
0.0
  0
LINE
  5
59E
100
AcDbEntity
  8
0
  6
CENTER
 62
     7
100
AcDbLine
 10
-443.30862
 20
-445.26767
 30
0.0
 11
-443.30862
 21
-333.26767
 31
0.0
  0
LINE
  5
59F
100
AcDbEntity
  8
0
  6
CONTINUOUS
 62
     7
100
AcDbLine
 10
-422.30862
 20
-438.26767
 30
0.0
 11
-422.30862
 21
-438.06596
 31
0.0
  0
LINE
  5
5A0
100
AcDbEntity
  8
0
  6
CONTINUOUS
 62
     7
100
AcDbLine
 10
-464.30862
 20
-438.26767
 30
0.0
 11
-464.30862
 21
-438.06596
 31
0.0
  0
LINE
  5
5A1
100
AcDbEntity
  8
0
  6
CONTINUOUS
 62
     7
100
AcDbLine
 10
-417.80862
 20
-438.26767
 30
0.0
 11
-417.80862
 21
-438.24154
 31
0.0
  0
LINE
  5
5A2
100
AcDbEntity
  8
0
  6
CONTINUOUS
 62
     7
100
AcDbLine
 10
-464.30862
 20
-423.92635
 30
0.0
 11
-422.30862
 21
-423.92635
 31
0.0
  0
LINE
  5
5A3
100
AcDbEntity
  8
0
  6
CONTINUOUS
 62
     7
100
AcDbLine
 10
-471.70862
 20
-438.06596
 30
0.0
 11
-471.70862
 21
-437.91118
 31
0.0
  0
LINE
  5
5A4
100
AcDbEntity
  8
0
  6
CONTINUOUS
 62
     7
100
AcDbLine
 10
-471.70862
 20
-350.8108
 30
0.0
 11
-464.30862
 21
-350.8108
 31
0.0
  0
LINE
  5
5A5
100
AcDbEntity
  8
0
  6
CONTINUOUS
 62
     7
100
AcDbLine
 10
-464.30862
 20
-343.01448
 30
0.0
 11
-422.30862
 21
-343.01448
 31
0.0
  0
LINE
  5
5A6
100
AcDbEntity
  8
0
  6
CONTINUOUS
 62
     7
100
AcDbLine
 10
-468.80862
 20
-438.26767
 30
0.0
 11
-468.80862
 21
-438.24154
 31
0.0
  0
LINE
  5
5A7
100
AcDbEntity
  8
0
  6
CONTINUOUS
 62
     7
100
AcDbLine
 10
-417.80862
 20
-398.01991
 30
0.0
 11
-417.80862
 21
-386.45975
 31
0.0
  0
LINE
  5
5A8
100
AcDbEntity
  8
0
  6
CONTINUOUS
 62
     7
100
AcDbLine
 10
-473.30862
 20
-425.88014
 30
0.0
 11
-468.80862
 21
-425.88014
 31
0.0
  0
LINE
  5
5A9
100
AcDbEntity
  8
0
  6
CONTINUOUS
 62
     7
100
AcDbLine
 10
-464.30862
 20
-402.42742
 30
0.0
 11
-464.30862
 21
-377.04755
 31
0.0
  0
LINE
  5
5AA
100
AcDbEntity
  8
0
  6
CONTINUOUS
 62
     7
100
AcDbLine
 10
-422.30862
 20
-402.42742
 30
0.0
 11
-422.30862
 21
-377.04755
 31
0.0
  0
LINE
  5
5AB
100
AcDbEntity
  8
0
  6
CONTINUOUS
 62
     7
100
AcDbLine
 10
-468.80862
 20
-398.01991
 30
0.0
 11
-468.80862
 21
-386.45975
 31
0.0
  0
LINE
  5
5AC
100
AcDbEntity
  8
0
  6
CENTER
 62
     7
100
AcDbLine
 10
-480.30862
 20
-389.26767
 30
0.0
 11
-406.30862
 21
-389.26767
 31
0.0
  0
LINE
  5
5AD
100
AcDbEntity
  8
0
  6
CONTINUOUS
 62
     7
100
AcDbLine
 10
-473.30862
 20
-438.26767
 30
0.0
 11
-473.30862
 21
-340.26767
 31
0.0
  0
LINE
  5
5AE
100
AcDbEntity
  8
0
  6
CONTINUOUS
 62
     7
100
AcDbLine
 10
-413.30862
 20
-438.26767
 30
0.0
 11
-413.30862
 21
-340.26767
 31
0.0
  0
LINE
  5
5AF
100
AcDbEntity
  8
0
  6
CONTINUOUS
 62
     7
100
AcDbLine
 10
-471.70862
 20
-347.31245
 30
0.0
 11
-464.30862
 21
-347.31245
 31
0.0
  0
LINE
  5
5B0
100
AcDbEntity
  8
0
  6
CONTINUOUS
 62
     7
100
AcDbLine
 10
-471.50863
 20
-438.06596
 30
0.0
 11
-471.50863
 21
-437.91118
 31
0.0
  0
LINE
  5
5B1
100
AcDbEntity
  8
0
  6
CONTINUOUS
 62
     7
100
AcDbLine
 10
-415.10862
 20
-438.06596
 30
0.0
 11
-415.10862
 21
-437.91118
 31
0.0
  0
LINE
  5
5B2
100
AcDbEntity
  8
0
  6
CONTINUOUS
 62
     7
100
AcDbLine
 10
-468.80862
 20
-355.8479
 30
0.0
 11
-417.80862
 21
-355.8479
 31
0.0
  0
LINE
  5
5B3
100
AcDbEntity
  8
0
  6
CONTINUOUS
 62
     7
100
AcDbLine
 10
-471.70862
 20
-428.22427
 30
0.0
 11
-464.30862
 21
-428.22427
 31
0.0
  0
LINE
  5
5B4
100
AcDbEntity
  8
0
  6
CONTINUOUS
 62
     7
100
AcDbLine
 10
-471.70862
 20
-431.72258
 30
0.0
 11
-464.30862
 21
-431.72258
 31
0.0
  0
LINE
  5
5B5
100
AcDbEntity
  8
0
  6
CONTINUOUS
 62
     7
100
AcDbLine
 10
-473.30862
 20
-344.9683
 30
0.0
 11
-468.80862
 21
-344.9683
 31
0.0
  0
LINE
  5
5B6
100
AcDbEntity
  8
0
  6
CONTINUOUS
 62
     7
100
AcDbLine
 10
-468.80862
 20
-340.91293
 30
0.0
 11
-417.80862
 21
-340.91293
 31
0.0
  0
LINE
  5
5B7
100
AcDbEntity
  8
0
  6
CONTINUOUS
 62
     7
100
AcDbLine
 10
-468.80862
 20
-438.24154
 30
0.0
 11
-417.80862
 21
-438.24154
 31
0.0
  0
LINE
  5
5B8
100
AcDbEntity
  8
0
  6
CENTER
 62
     7
100
AcDbLine
 10
-480.30862
 20
-413.69887
 30
0.0
 11
-406.30862
 21
-413.69887
 31
0.0
  0
LINE
  5
5B9
100
AcDbEntity
  8
0
  6
CONTINUOUS
 62
     7
100
AcDbLine
 10
-468.80862
 20
-418.38611
 30
0.0
 11
-417.80862
 21
-418.38611
 31
0.0
  0
LINE
  5
5BA
100
AcDbEntity
  8
0
  6
CENTER
 62
     7
100
AcDbLine
 10
-480.30862
 20
-426.69275
 30
0.0
 11
-406.30862
 21
-426.69275
 31
0.0
  0
LINE
  5
5BB
100
AcDbEntity
  8
0
  6
CONTINUOUS
 62
     7
100
AcDbLine
 10
-471.70862
 20
-409.00506
 30
0.0
 11
-464.30862
 21
-409.00506
 31
0.0
  0
LINE
  5
5BC
100
AcDbEntity
  8
0
  6
CENTER
 62
     7
100
AcDbLine
 10
-480.30862
 20
-427.26767
 30
0.0
 11
-406.30862
 21
-427.26767
 31
0.0
  0
LINE
  5
5BD
100
AcDbEntity
  8
0
  6
CONTINUOUS
 62
     7
100
AcDbLine
 10
-471.70862
 20
-402.42742
 30
0.0
 11
-464.30862
 21
-402.42742
 31
0.0
  0
LINE
  5
5BE
100
AcDbEntity
  8
0
  6
CENTER
 62
     7
100
AcDbLine
 10
-480.30862
 20
-364.83647
 30
0.0
 11
-406.30862
 21
-364.83647
 31
0.0
  0
LINE
  5
5BF
100
AcDbEntity
  8
0
  6
CONTINUOUS
 62
     7
100
AcDbLine
 10
-473.30862
 20
-398.01991
 30
0.0
 11
-468.80862
 21
-398.01991
 31
0.0
  0
LINE
  5
5C0
100
AcDbEntity
  8
0
  6
CENTER
 62
     7
100
AcDbLine
 10
-480.30862
 20
-351.84259
 30
0.0
 11
-406.30862
 21
-351.84259
 31
0.0
  0
LINE
  5
5C1
100
AcDbEntity
  8
0
  6
CONTINUOUS
 62
     7
100
AcDbLine
 10
-464.30862
 20
-394.34632
 30
0.0
 11
-422.30862
 21
-394.34632
 31
0.0
  0
LINE
  5
5C2
100
AcDbEntity
  8
0
  6
CONTINUOUS
 62
     7
100
AcDbLine
 10
-471.70862
 20
-438.06596
 30
0.0
 11
-464.30862
 21
-438.06596
 31
0.0
  0
LINE
  5
5C3
100
AcDbEntity
  8
0
  6
CONTINUOUS
 62
     7
100
AcDbLine
 10
-471.70862
 20
-437.91118
 30
0.0
 11
-464.30862
 21
-437.91118
 31
0.0
  0
LINE
  5
5C4
100
AcDbEntity
  8
0
  6
CONTINUOUS
 62
     7
100
AcDbLine
 10
-417.80862
 20
-398.01991
 30
0.0
 11
-413.30862
 21
-398.01991
 31
0.0
  0
LINE
  5
5C5
100
AcDbEntity
  8
0
  6
CONTINUOUS
 62
     7
100
AcDbLine
 10
-422.30862
 20
-402.42742
 30
0.0
 11
-414.90862
 21
-402.42742
 31
0.0
  0
LINE
  5
5C6
100
AcDbEntity
  8
0
  6
CONTINUOUS
 62
     7
100
AcDbLine
 10
-422.30862
 20
-409.00506
 30
0.0
 11
-414.90862
 21
-409.00506
 31
0.0
  0
LINE
  5
5C7
100
AcDbEntity
  8
0
  6
CONTINUOUS
 62
     7
100
AcDbLine
 10
-464.30862
 20
-362.38883
 30
0.0
 11
-422.30862
 21
-362.38883
 31
0.0
  0
LINE
  5
5C8
100
AcDbEntity
  8
0
  6
CONTINUOUS
 62
     7
100
AcDbLine
 10
-473.30862
 20
-366.06242
 30
0.0
 11
-468.80862
 21
-366.06242
 31
0.0
  0
LINE
  5
5C9
100
AcDbEntity
  8
0
  6
CONTINUOUS
 62
     7
100
AcDbLine
 10
-471.70862
 20
-370.46992
 30
0.0
 11
-464.30862
 21
-370.46992
 31
0.0
  0
LINE
  5
5CA
100
AcDbEntity
  8
0
  6
CONTINUOUS
 62
     7
100
AcDbLine
 10
-471.70862
 20
-377.04755
 30
0.0
 11
-464.30862
 21
-377.04755
 31
0.0
  0
LINE
  5
5CB
100
AcDbEntity
  8
0
  6
CONTINUOUS
 62
     7
100
AcDbLine
 10
-468.80862
 20
-386.45975
 30
0.0
 11
-417.80862
 21
-386.45975
 31
0.0
  0
LINE
  5
5CC
100
AcDbEntity
  8
0
  6
CONTINUOUS
 62
     7
100
AcDbLine
 10
-473.30862
 20
-437.80746
 30
0.0
 11
-468.80862
 21
-437.80746
 31
0.0
  0
LINE
  5
5CD
100
AcDbEntity
  8
0
  6
CONTINUOUS
 62
     7
100
AcDbLine
 10
-464.30862
 20
-437.72102
 30
0.0
 11
-422.30862
 21
-437.72102
 31
0.0
  0
LINE
  5
5CE
100
AcDbEntity
  8
0
  6
CONTINUOUS
 62
     7
100
AcDbLine
 10
-468.80862
 20
-436.68071
 30
0.0
 11
-417.80862
 21
-436.68071
 31
0.0
  0
LINE
  5
5CF
100
AcDbEntity
  8
0
  6
CONTINUOUS
 62
     7
100
AcDbLine
 10
-471.70862
 20
-340.64627
 30
0.0
 11
-464.30862
 21
-340.64627
 31
0.0
  0
LINE
  5
5D0
100
AcDbEntity
  8
0
  6
CONTINUOUS
 62
     7
100
AcDbLine
 10
-471.70862
 20
-340.49148
 30
0.0
 11
-464.30862
 21
-340.49148
 31
0.0
  0
LINE
  5
5D1
100
AcDbEntity
  8
0
  6
CONTINUOUS
 62
     7
100
AcDbLine
 10
-473.30862
 20
-340.38776
 30
0.0
 11
-468.80862
 21
-340.38776
 31
0.0
  0
LINE
  5
5D2
100
AcDbEntity
  8
0
  6
CONTINUOUS
 62
     7
100
AcDbLine
 10
-464.30862
 20
-340.30132
 30
0.0
 11
-422.30862
 21
-340.30132
 31
0.0
  0
LINE
  5
5D3
100
AcDbEntity
  8
0
  6
CONTINUOUS
 62
     7
100
AcDbLine
 10
-473.30862
 20
-340.26767
 30
0.0
 11
-413.30862
 21
-340.26767
 31
0.0
  0
LINE
  5
5D4
100
AcDbEntity
  8
0
  6
CONTINUOUS
 62
     7
100
AcDbLine
 10
-417.80862
 20
-425.88014
 30
0.0
 11
-417.80862
 21
-418.38611
 31
0.0
  0
LINE
  5
5D5
100
AcDbEntity
  8
0
  6
CONTINUOUS
 62
     7
100
AcDbLine
 10
-417.80862
 20
-425.88014
 30
0.0
 11
-413.30862
 21
-425.88014
 31
0.0
  0
LINE
  5
5D6
100
AcDbEntity
  8
0
  6
CONTINUOUS
 62
     7
100
AcDbLine
 10
-422.30862
 20
-438.06596
 30
0.0
 11
-414.90862
 21
-438.06596
 31
0.0
  0
LINE
  5
5D7
100
AcDbEntity
  8
0
  6
CONTINUOUS
 62
     7
100
AcDbLine
 10
-422.30862
 20
-437.91118
 30
0.0
 11
-414.90862
 21
-437.91118
 31
0.0
  0
LINE
  5
5D8
100
AcDbEntity
  8
0
  6
CONTINUOUS
 62
     7
100
AcDbLine
 10
-422.30862
 20
-428.22427
 30
0.0
 11
-414.90862
 21
-428.22427
 31
0.0
  0
LINE
  5
5D9
100
AcDbEntity
  8
0
  6
CONTINUOUS
 62
     7
100
AcDbLine
 10
-422.30862
 20
-431.72258
 30
0.0
 11
-414.90862
 21
-431.72258
 31
0.0
  0
LINE
  5
5DA
100
AcDbEntity
  8
0
  6
CONTINUOUS
 62
     7
100
AcDbLine
 10
-415.10862
 20
-409.00506
 30
0.0
 11
-415.10862
 21
-402.42742
 31
0.0
  0
LINE
  5
5DB
100
AcDbEntity
  8
0
  6
CONTINUOUS
 62
     7
100
AcDbLine
 10
-414.90862
 20
-409.00506
 30
0.0
 11
-414.90862
 21
-402.42742
 31
0.0
  0
LINE
  5
5DC
100
AcDbEntity
  8
0
  6
CONTINUOUS
 62
     7
100
AcDbLine
 10
-422.30862
 20
-428.22427
 30
0.0
 11
-422.30862
 21
-409.00506
 31
0.0
  0
LINE
  5
5DD
100
AcDbEntity
  8
0
  6
CONTINUOUS
 62
     7
100
AcDbLine
 10
-417.80862
 20
-437.80746
 30
0.0
 11
-413.30862
 21
-437.80746
 31
0.0
  0
LINE
  5
5DE
100
AcDbEntity
  8
0
  6
CONTINUOUS
 62
     7
100
AcDbLine
 10
-473.30862
 20
-438.26767
 30
0.0
 11
-413.30862
 21
-438.26767
 31
0.0
  0
LINE
  5
5DF
100
AcDbEntity
  8
0
  6
CONTINUOUS
 62
     7
100
AcDbLine
 10
-422.30862
 20
-437.91118
 30
0.0
 11
-422.30862
 21
-431.72258
 31
0.0
  0
LINE
  5
5E0
100
AcDbEntity
  8
0
  6
CONTINUOUS
 62
     7
100
AcDbLine
 10
-417.80862
 20
-437.80746
 30
0.0
 11
-417.80862
 21
-436.68071
 31
0.0
  0
LINE
  5
5E1
100
AcDbEntity
  8
0
  6
CONTINUOUS
 62
     7
100
AcDbLine
 10
-415.10862
 20
-431.72258
 30
0.0
 11
-415.10862
 21
-428.22427
 31
0.0
  0
LINE
  5
5E2
100
AcDbEntity
  8
0
  6
CONTINUOUS
 62
     7
100
AcDbLine
 10
-414.90862
 20
-431.72258
 30
0.0
 11
-414.90862
 21
-428.22427
 31
0.0
  0
LINE
  5
5E3
100
AcDbEntity
  8
0
  6
CONTINUOUS
 62
     7
100
AcDbLine
 10
-422.30862
 20
-350.8108
 30
0.0
 11
-414.90862
 21
-350.8108
 31
0.0
  0
LINE
  5
5E4
100
AcDbEntity
  8
0
  6
CONTINUOUS
 62
     7
100
AcDbLine
 10
-414.90862
 20
-377.04755
 30
0.0
 11
-414.90862
 21
-370.46992
 31
0.0
  0
LINE
  5
5E5
100
AcDbEntity
  8
0
  6
CONTINUOUS
 62
     7
100
AcDbLine
 10
-415.10862
 20
-377.04755
 30
0.0
 11
-415.10862
 21
-370.46992
 31
0.0
  0
LINE
  5
5E6
100
AcDbEntity
  8
0
  6
CONTINUOUS
 62
     7
100
AcDbLine
 10
-417.80862
 20
-366.06242
 30
0.0
 11
-417.80862
 21
-355.8479
 31
0.0
  0
LINE
  5
5E7
100
AcDbEntity
  8
0
  6
CONTINUOUS
 62
     7
100
AcDbLine
 10
-471.50863
 20
-431.72258
 30
0.0
 11
-471.50863
 21
-428.22427
 31
0.0
  0
LINE
  5
5E8
100
AcDbEntity
  8
0
  6
CONTINUOUS
 62
     7
100
AcDbLine
 10
-471.70862
 20
-431.72258
 30
0.0
 11
-471.70862
 21
-428.22427
 31
0.0
  0
LINE
  5
5E9
100
AcDbEntity
  8
0
  6
CONTINUOUS
 62
     7
100
AcDbLine
 10
-422.30862
 20
-370.46992
 30
0.0
 11
-422.30862
 21
-350.8108
 31
0.0
  0
LINE
  5
5EA
100
AcDbEntity
  8
0
  6
CONTINUOUS
 62
     7
100
AcDbLine
 10
-464.30862
 20
-437.91118
 30
0.0
 11
-464.30862
 21
-431.72258
 31
0.0
  0
LINE
  5
5EB
100
AcDbEntity
  8
0
  6
CONTINUOUS
 62
     7
100
AcDbLine
 10
-468.80862
 20
-425.88014
 30
0.0
 11
-468.80862
 21
-418.38611
 31
0.0
  0
LINE
  5
5EC
100
AcDbEntity
  8
0
  6
CONTINUOUS
 62
     7
100
AcDbLine
 10
-417.80862
 20
-366.06242
 30
0.0
 11
-413.30862
 21
-366.06242
 31
0.0
  0
LINE
  5
5ED
100
AcDbEntity
  8
0
  6
CONTINUOUS
 62
     7
100
AcDbLine
 10
-464.30862
 20
-428.22427
 30
0.0
 11
-464.30862
 21
-409.00506
 31
0.0
  0
LINE
  5
5EE
100
AcDbEntity
  8
0
  6
CONTINUOUS
 62
     7
100
AcDbLine
 10
-468.80862
 20
-437.80746
 30
0.0
 11
-468.80862
 21
-436.68071
 31
0.0
  0
LINE
  5
5EF
100
AcDbEntity
  8
0
  6
CONTINUOUS
 62
     7
100
AcDbLine
 10
-422.30862
 20
-377.04755
 30
0.0
 11
-414.90862
 21
-377.04755
 31
0.0
  0
LINE
  5
5F0
100
AcDbEntity
  8
0
  6
CONTINUOUS
 62
     7
100
AcDbLine
 10
-422.30862
 20
-370.46992
 30
0.0
 11
-414.90862
 21
-370.46992
 31
0.0
  0
LINE
  5
5F1
100
AcDbEntity
  8
0
  6
CONTINUOUS
 62
     7
100
AcDbLine
 10
-471.70862
 20
-409.00506
 30
0.0
 11
-471.70862
 21
-402.42742
 31
0.0
  0
LINE
  5
5F2
100
AcDbEntity
  8
0
  6
CONTINUOUS
 62
     7
100
AcDbLine
 10
-471.50863
 20
-409.00506
 30
0.0
 11
-471.50863
 21
-402.42742
 31
0.0
  0
LINE
  5
5F3
100
AcDbEntity
  8
0
  6
CONTINUOUS
 62
     7
100
AcDbLine
 10
-422.30862
 20
-347.31245
 30
0.0
 11
-414.90862
 21
-347.31245
 31
0.0
  0
LINE
  5
5F4
100
AcDbEntity
  8
0
  6
CONTINUOUS
 62
     7
100
AcDbLine
 10
-417.80862
 20
-344.9683
 30
0.0
 11
-413.30862
 21
-344.9683
 31
0.0
  0
LINE
  5
5F5
100
AcDbEntity
  8
0
  6
CONTINUOUS
 62
     7
100
AcDbLine
 10
-417.80862
 20
-344.9683
 30
0.0
 11
-417.80862
 21
-340.91293
 31
0.0
  0
LINE
  5
5F6
100
AcDbEntity
  8
0
  6
CONTINUOUS
 62
     7
100
AcDbLine
 10
-415.10862
 20
-350.8108
 30
0.0
 11
-415.10862
 21
-347.31245
 31
0.0
  0
LINE
  5
5F7
100
AcDbEntity
  8
0
  6
CONTINUOUS
 62
     7
100
AcDbLine
 10
-414.90862
 20
-350.8108
 30
0.0
 11
-414.90862
 21
-347.31245
 31
0.0
  0
LINE
  5
5F8
100
AcDbEntity
  8
0
  6
CONTINUOUS
 62
     7
100
AcDbLine
 10
-422.30862
 20
-347.31245
 30
0.0
 11
-422.30862
 21
-340.64627
 31
0.0
  0
LINE
  5
5F9
100
AcDbEntity
  8
0
  6
CONTINUOUS
 62
     7
100
AcDbLine
 10
-422.30862
 20
-340.64627
 30
0.0
 11
-414.90862
 21
-340.64627
 31
0.0
  0
LINE
  5
5FA
100
AcDbEntity
  8
0
  6
CONTINUOUS
 62
     7
100
AcDbLine
 10
-422.30862
 20
-340.49148
 30
0.0
 11
-414.90862
 21
-340.49148
 31
0.0
  0
LINE
  5
5FB
100
AcDbEntity
  8
0
  6
CONTINUOUS
 62
     7
100
AcDbLine
 10
-415.10862
 20
-340.64627
 30
0.0
 11
-415.10862
 21
-340.49148
 31
0.0
  0
LINE
  5
5FC
100
AcDbEntity
  8
0
  6
CONTINUOUS
 62
     7
100
AcDbLine
 10
-414.90862
 20
-340.64627
 30
0.0
 11
-414.90862
 21
-340.49148
 31
0.0
  0
LINE
  5
5FD
100
AcDbEntity
  8
0
  6
CONTINUOUS
 62
     7
100
AcDbLine
 10
-417.80862
 20
-340.38776
 30
0.0
 11
-413.30862
 21
-340.38776
 31
0.0
  0
LINE
  5
5FE
100
AcDbEntity
  8
0
  6
CONTINUOUS
 62
     7
100
AcDbLine
 10
-417.80862
 20
-340.38776
 30
0.0
 11
-417.80862
 21
-340.26767
 31
0.0
  0
LINE
  5
5FF
100
AcDbEntity
  8
0
  6
CONTINUOUS
 62
     7
100
AcDbLine
 10
-471.70862
 20
-340.64627
 30
0.0
 11
-471.70862
 21
-340.49148
 31
0.0
  0
LINE
  5
600
100
AcDbEntity
  8
0
  6
CONTINUOUS
 62
     7
100
AcDbLine
 10
-471.50863
 20
-340.64627
 30
0.0
 11
-471.50863
 21
-340.49148
 31
0.0
  0
LINE
  5
601
100
AcDbEntity
  8
0
  6
CONTINUOUS
 62
     7
100
AcDbLine
 10
-464.30862
 20
-347.31245
 30
0.0
 11
-464.30862
 21
-340.64627
 31
0.0
  0
LINE
  5
602
100
AcDbEntity
  8
0
  6
CONTINUOUS
 62
     7
100
AcDbLine
 10
-468.80862
 20
-344.9683
 30
0.0
 11
-468.80862
 21
-340.91293
 31
0.0
  0
LINE
  5
603
100
AcDbEntity
  8
0
  6
CONTINUOUS
 62
     7
100
AcDbLine
 10
-471.50863
 20
-377.04755
 30
0.0
 11
-471.50863
 21
-370.46992
 31
0.0
  0
LINE
  5
604
100
AcDbEntity
  8
0
  6
CONTINUOUS
 62
     7
100
AcDbLine
 10
-471.70862
 20
-377.04755
 30
0.0
 11
-471.70862
 21
-370.46992
 31
0.0
  0
LINE
  5
605
100
AcDbEntity
  8
0
  6
CONTINUOUS
 62
     7
100
AcDbLine
 10
-468.80862
 20
-366.06242
 30
0.0
 11
-468.80862
 21
-355.8479
 31
0.0
  0
LINE
  5
606
100
AcDbEntity
  8
0
  6
CONTINUOUS
 62
     7
100
AcDbLine
 10
-464.30862
 20
-370.46992
 30
0.0
 11
-464.30862
 21
-350.8108
 31
0.0
  0
LINE
  5
607
100
AcDbEntity
  8
0
  6
CONTINUOUS
 62
     7
100
AcDbLine
 10
-471.70862
 20
-350.8108
 30
0.0
 11
-471.70862
 21
-347.31245
 31
0.0
  0
LINE
  5
608
100
AcDbEntity
  8
0
  6
CONTINUOUS
 62
     7
100
AcDbLine
 10
-471.50863
 20
-350.8108
 30
0.0
 11
-471.50863
 21
-347.31245
 31
0.0
  0
LINE
  5
609
100
AcDbEntity
  8
0
  6
CONTINUOUS
 62
     7
100
AcDbLine
 10
-468.80862
 20
-340.38776
 30
0.0
 11
-468.80862
 21
-340.26767
 31
0.0
  0
LINE
  5
60A
100
AcDbEntity
  8
0
  6
CONTINUOUS
 62
     7
100
AcDbLine
 10
-422.30862
 20
-340.49148
 30
0.0
 11
-422.30862
 21
-340.26767
 31
0.0
  0
LINE
  5
60B
100
AcDbEntity
  8
0
  6
CONTINUOUS
 62
     7
100
AcDbLine
 10
-464.30862
 20
-340.49148
 30
0.0
 11
-464.30862
 21
-340.26767
 31
0.0
  0
POINT
  5
60C
100
AcDbEntity
  8
0
  6
CONTINUOUS
 62
     7
100
AcDbPoint
 10
-267.30862
 20
-261.26767
 30
0.0
  0
POINT
  5
60D
100
AcDbEntity
  8
0
  6
CONTINUOUS
 62
     7
100
AcDbPoint
 10
-249.30862
 20
-261.26767
 30
0.0
  0
LINE
  5
60E
100
AcDbEntity
  8
0
  6
CENTER
 62
     7
100
AcDbLine
 10
-368.7172
 20
-261.26767
 30
0.0
 11
-249.30862
 21
-261.26767
 31
0.0
  0
LINE
  5
60F
100
AcDbEntity
  8
0
  6
CONTINUOUS
 62
     7
100
AcDbLine
 10
-277.30862
 20
-232.86767
 30
0.0
 11
-277.30862
 21
-240.26767
 31
0.0
  0
LINE
  5
610
100
AcDbEntity
  8
0
  6
CONTINUOUS
 62
     7
100
AcDbLine
 10
-284.30862
 20
-282.26767
 30
0.0
 11
-284.30862
 21
-289.66767
 31
0.0
  0
LINE
  5
611
100
AcDbEntity
  8
0
  6
CONTINUOUS
 62
     7
100
AcDbLine
 10
-277.30862
 20
-282.26767
 30
0.0
 11
-277.30862
 21
-289.66767
 31
0.0
  0
LINE
  5
612
100
AcDbEntity
  8
0
  6
CONTINUOUS
 62
     7
100
AcDbLine
 10
-272.6181
 20
-286.76767
 30
0.0
 11
-268.30862
 21
-286.76767
 31
0.0
  0
LINE
  5
613
100
AcDbEntity
  8
0
  6
CONTINUOUS
 62
     7
100
AcDbLine
 10
-284.30862
 20
-232.86767
 30
0.0
 11
-284.30862
 21
-240.26767
 31
0.0
  0
LINE
  5
614
100
AcDbEntity
  8
0
  6
CONTINUOUS
 62
     7
100
AcDbLine
 10
-361.7172
 20
-240.26767
 30
0.0
 11
-357.97453
 21
-240.26767
 31
0.0
  0
LINE
  5
615
100
AcDbEntity
  8
0
  6
CONTINUOUS
 62
     7
100
AcDbLine
 10
-277.30862
 20
-282.26767
 30
0.0
 11
-268.70862
 21
-282.26767
 31
0.0
  0
LINE
  5
616
100
AcDbEntity
  8
0
  6
CONTINUOUS
 62
     7
100
AcDbLine
 10
-272.6181
 20
-235.76767
 30
0.0
 11
-268.30862
 21
-235.76767
 31
0.0
  0
LINE
  5
617
100
AcDbEntity
  8
0
  6
CENTER
 62
     7
100
AcDbLine
 10
-267.30862
 20
-224.26767
 30
0.0
 11
-267.30862
 21
-298.26767
 31
0.0
  0
LINE
  5
618
100
AcDbEntity
  8
0
  6
CENTER
 62
     7
100
AcDbLine
 10
-293.30862
 20
-224.26767
 30
0.0
 11
-293.30862
 21
-298.26767
 31
0.0
  0
LINE
  5
619
100
AcDbEntity
  8
0
  6
CONTINUOUS
 62
     7
100
AcDbLine
 10
-361.7172
 20
-231.26767
 30
0.0
 11
-272.6181
 21
-231.26767
 31
0.0
  0
LINE
  5
61A
100
AcDbEntity
  8
0
  6
CONTINUOUS
 62
     7
100
AcDbLine
 10
-361.7172
 20
-291.26767
 30
0.0
 11
-272.6181
 21
-291.26767
 31
0.0
  0
LINE
  5
61B
100
AcDbEntity
  8
0
  6
CONTINUOUS
 62
     7
100
AcDbLine
 10
-268.70862
 20
-240.26767
 30
0.0
 11
-268.70862
 21
-282.26767
 31
0.0
  0
LINE
  5
61C
100
AcDbEntity
  8
0
  6
CENTER
 62
     7
100
AcDbLine
 10
-287.30862
 20
-285.86767
 30
0.0
 11
-274.30862
 21
-285.86767
 31
0.0
  0
LINE
  5
61D
100
AcDbEntity
  8
0
  6
CENTER
 62
     7
100
AcDbLine
 10
-287.30862
 20
-236.66767
 30
0.0
 11
-274.30862
 21
-236.66767
 31
0.0
  0
LINE
  5
61E
100
AcDbEntity
  8
0
  6
CONTINUOUS
 62
     7
100
AcDbLine
 10
-272.6181
 20
-231.26767
 30
0.0
 11
-272.6181
 21
-235.76767
 31
0.0
  0
LINE
  5
61F
100
AcDbEntity
  8
0
  6
CONTINUOUS
 62
     7
100
AcDbLine
 10
-272.6181
 20
-286.76767
 30
0.0
 11
-272.6181
 21
-291.26767
 31
0.0
  0
LINE
  5
620
100
AcDbEntity
  8
0
  6
CONTINUOUS
 62
     7
100
AcDbLine
 10
-294.30862
 20
-235.76767
 30
0.0
 11
-294.30862
 21
-286.76767
 31
0.0
  0
LINE
  5
621
100
AcDbEntity
  8
0
  6
CONTINUOUS
 62
     7
100
AcDbLine
 10
-298.86003
 20
-231.26767
 30
0.0
 11
-298.86003
 21
-235.76767
 31
0.0
  0
LINE
  5
622
100
AcDbEntity
  8
0
  6
CONTINUOUS
 62
     7
100
AcDbLine
 10
-298.86003
 20
-286.76767
 30
0.0
 11
-298.86003
 21
-291.26767
 31
0.0
  0
LINE
  5
623
100
AcDbEntity
  8
0
  6
CONTINUOUS
 62
     7
100
AcDbLine
 10
-333.46129
 20
-282.26767
 30
0.0
 11
-333.46129
 21
-289.66767
 31
0.0
  0
LINE
  5
624
100
AcDbEntity
  8
0
  6
CONTINUOUS
 62
     7
100
AcDbLine
 10
-357.97453
 20
-232.86767
 30
0.0
 11
-355.57979
 21
-232.86767
 31
0.0
  0
LINE
  5
625
100
AcDbEntity
  8
0
  6
CONTINUOUS
 62
     7
100
AcDbLine
 10
-357.97453
 20
-233.06767
 30
0.0
 11
-355.57979
 21
-233.06767
 31
0.0
  0
LINE
  5
626
100
AcDbEntity
  8
0
  6
CONTINUOUS
 62
     7
100
AcDbLine
 10
-361.7172
 20
-286.76767
 30
0.0
 11
-361.35278
 21
-286.76767
 31
0.0
  0
LINE
  5
627
100
AcDbEntity
  8
0
  6
CONTINUOUS
 62
     7
100
AcDbLine
 10
-361.7172
 20
-231.26767
 30
0.0
 11
-361.7172
 21
-240.26767
 31
0.0
  0
LINE
  5
628
100
AcDbEntity
  8
0
  6
CONTINUOUS
 62
     7
100
AcDbLine
 10
-361.35278
 20
-235.76767
 30
0.0
 11
-361.35278
 21
-286.76767
 31
0.0
  0
LINE
  5
629
100
AcDbEntity
  8
0
  6
CONTINUOUS
 62
     7
100
AcDbLine
 10
-357.97453
 20
-232.86767
 30
0.0
 11
-357.97453
 21
-240.26767
 31
0.0
  0
LINE
  5
62A
100
AcDbEntity
  8
0
  6
CONTINUOUS
 62
     7
100
AcDbLine
 10
-355.57979
 20
-232.86767
 30
0.0
 11
-355.57979
 21
-240.26767
 31
0.0
  0
LINE
  5
62B
100
AcDbEntity
  8
0
  6
CONTINUOUS
 62
     7
100
AcDbLine
 10
-353.97514
 20
-231.26767
 30
0.0
 11
-353.97514
 21
-235.76767
 31
0.0
  0
LINE
  5
62C
100
AcDbEntity
  8
0
  6
CONTINUOUS
 62
     7
100
AcDbLine
 10
-361.7172
 20
-235.76767
 30
0.0
 11
-361.35278
 21
-235.76767
 31
0.0
  0
LINE
  5
62D
100
AcDbEntity
  8
0
  6
CONTINUOUS
 62
     7
100
AcDbLine
 10
-352.63769
 20
-240.26767
 30
0.0
 11
-352.63769
 21
-282.26767
 31
0.0
  0
LINE
  5
62E
100
AcDbEntity
  8
0
  6
CONTINUOUS
 62
     7
100
AcDbLine
 10
-348.16327
 20
-235.76767
 30
0.0
 11
-348.16327
 21
-286.76767
 31
0.0
  0
LINE
  5
62F
100
AcDbEntity
  8
0
  6
CONTINUOUS
 62
     7
100
AcDbLine
 10
-357.97453
 20
-289.66767
 30
0.0
 11
-355.57979
 21
-289.66767
 31
0.0
  0
LINE
  5
630
100
AcDbEntity
  8
0
  6
CONTINUOUS
 62
     7
100
AcDbLine
 10
-339.52442
 20
-232.86767
 30
0.0
 11
-339.52442
 21
-240.26767
 31
0.0
  0
LINE
  5
631
100
AcDbEntity
  8
0
  6
CONTINUOUS
 62
     7
100
AcDbLine
 10
-333.46129
 20
-232.86767
 30
0.0
 11
-333.46129
 21
-240.26767
 31
0.0
  0
LINE
  5
632
100
AcDbEntity
  8
0
  6
CONTINUOUS
 62
     7
100
AcDbLine
 10
-329.39854
 20
-231.26767
 30
0.0
 11
-329.39854
 21
-235.76767
 31
0.0
  0
LINE
  5
633
100
AcDbEntity
  8
0
  6
CONTINUOUS
 62
     7
100
AcDbLine
 10
-326.0123
 20
-240.26767
 30
0.0
 11
-326.0123
 21
-282.26767
 31
0.0
  0
LINE
  5
634
100
AcDbEntity
  8
0
  6
CONTINUOUS
 62
     7
100
AcDbLine
 10
-320.54425
 20
-235.76767
 30
0.0
 11
-320.54425
 21
-286.76767
 31
0.0
  0
LINE
  5
635
100
AcDbEntity
  8
0
  6
CONTINUOUS
 62
     7
100
AcDbLine
 10
-310.5477
 20
-232.86767
 30
0.0
 11
-310.5477
 21
-240.26767
 31
0.0
  0
LINE
  5
636
100
AcDbEntity
  8
0
  6
CONTINUOUS
 62
     7
100
AcDbLine
 10
-357.97453
 20
-289.46767
 30
0.0
 11
-355.57979
 21
-289.46767
 31
0.0
  0
LINE
  5
637
100
AcDbEntity
  8
0
  6
CONTINUOUS
 62
     7
100
AcDbLine
 10
-361.7172
 20
-282.26767
 30
0.0
 11
-357.97453
 21
-282.26767
 31
0.0
  0
LINE
  5
638
100
AcDbEntity
  8
0
  6
CONTINUOUS
 62
     7
100
AcDbLine
 10
-303.54941
 20
-232.86767
 30
0.0
 11
-303.54941
 21
-240.26767
 31
0.0
  0
LINE
  5
639
100
AcDbEntity
  8
0
  6
CONTINUOUS
 62
     7
100
AcDbLine
 10
-339.52442
 20
-282.26767
 30
0.0
 11
-339.52442
 21
-289.66767
 31
0.0
  0
LINE
  5
63A
100
AcDbEntity
  8
0
  6
CONTINUOUS
 62
     7
100
AcDbLine
 10
-294.95152
 20
-240.26767
 30
0.0
 11
-294.95152
 21
-282.26767
 31
0.0
  0
LINE
  5
63B
100
AcDbEntity
  8
0
  6
CONTINUOUS
 62
     7
100
AcDbLine
 10
-298.86003
 20
-235.76767
 30
0.0
 11
-294.30862
 21
-235.76767
 31
0.0
  0
LINE
  5
63C
100
AcDbEntity
  8
0
  6
CONTINUOUS
 62
     7
100
AcDbLine
 10
-303.54941
 20
-282.26767
 30
0.0
 11
-303.54941
 21
-289.66767
 31
0.0
  0
LINE
  5
63D
100
AcDbEntity
  8
0
  6
CONTINUOUS
 62
     7
100
AcDbLine
 10
-284.30862
 20
-233.06767
 30
0.0
 11
-277.30862
 21
-233.06767
 31
0.0
  0
LINE
  5
63E
100
AcDbEntity
  8
0
  6
CONTINUOUS
 62
     7
100
AcDbLine
 10
-284.30862
 20
-232.86767
 30
0.0
 11
-277.30862
 21
-232.86767
 31
0.0
  0
LINE
  5
63F
100
AcDbEntity
  8
0
  6
CONTINUOUS
 62
     7
100
AcDbLine
 10
-310.5477
 20
-282.26767
 30
0.0
 11
-310.5477
 21
-289.66767
 31
0.0
  0
LINE
  5
640
100
AcDbEntity
  8
0
  6
CONTINUOUS
 62
     7
100
AcDbLine
 10
-329.39854
 20
-235.76767
 30
0.0
 11
-320.54425
 21
-235.76767
 31
0.0
  0
LINE
  5
641
100
AcDbEntity
  8
0
  6
CONTINUOUS
 62
     7
100
AcDbLine
 10
-329.39854
 20
-286.76767
 30
0.0
 11
-329.39854
 21
-291.26767
 31
0.0
  0
LINE
  5
642
100
AcDbEntity
  8
0
  6
CONTINUOUS
 62
     7
100
AcDbLine
 10
-353.97514
 20
-235.76767
 30
0.0
 11
-348.16327
 21
-235.76767
 31
0.0
  0
LINE
  5
643
100
AcDbEntity
  8
0
  6
CONTINUOUS
 62
     7
100
AcDbLine
 10
-310.5477
 20
-233.06767
 30
0.0
 11
-303.54941
 21
-233.06767
 31
0.0
  0
LINE
  5
644
100
AcDbEntity
  8
0
  6
CONTINUOUS
 62
     7
100
AcDbLine
 10
-310.5477
 20
-232.86767
 30
0.0
 11
-303.54941
 21
-232.86767
 31
0.0
  0
LINE
  5
645
100
AcDbEntity
  8
0
  6
CONTINUOUS
 62
     7
100
AcDbLine
 10
-303.54941
 20
-240.26767
 30
0.0
 11
-268.70862
 21
-240.26767
 31
0.0
  0
LINE
  5
646
100
AcDbEntity
  8
0
  6
CONTINUOUS
 62
     7
100
AcDbLine
 10
-333.46129
 20
-240.26767
 30
0.0
 11
-310.5477
 21
-240.26767
 31
0.0
  0
LINE
  5
647
100
AcDbEntity
  8
0
  6
CONTINUOUS
 62
     7
100
AcDbLine
 10
-355.57979
 20
-240.26767
 30
0.0
 11
-339.52442
 21
-240.26767
 31
0.0
  0
LINE
  5
648
100
AcDbEntity
  8
0
  6
CONTINUOUS
 62
     7
100
AcDbLine
 10
-353.97514
 20
-286.76767
 30
0.0
 11
-353.97514
 21
-291.26767
 31
0.0
  0
LINE
  5
649
100
AcDbEntity
  8
0
  6
CONTINUOUS
 62
     7
100
AcDbLine
 10
-355.57979
 20
-282.26767
 30
0.0
 11
-355.57979
 21
-289.66767
 31
0.0
  0
LINE
  5
64A
100
AcDbEntity
  8
0
  6
CONTINUOUS
 62
     7
100
AcDbLine
 10
-357.97453
 20
-282.26767
 30
0.0
 11
-357.97453
 21
-289.66767
 31
0.0
  0
LINE
  5
64B
100
AcDbEntity
  8
0
  6
CONTINUOUS
 62
     7
100
AcDbLine
 10
-339.52442
 20
-232.86767
 30
0.0
 11
-333.46129
 21
-232.86767
 31
0.0
  0
LINE
  5
64C
100
AcDbEntity
  8
0
  6
CONTINUOUS
 62
     7
100
AcDbLine
 10
-339.52442
 20
-233.06767
 30
0.0
 11
-333.46129
 21
-233.06767
 31
0.0
  0
LINE
  5
64D
100
AcDbEntity
  8
0
  6
CONTINUOUS
 62
     7
100
AcDbLine
 10
-361.7172
 20
-282.26767
 30
0.0
 11
-361.7172
 21
-291.26767
 31
0.0
  0
LINE
  5
64E
100
AcDbEntity
  8
0
  6
CONTINUOUS
 62
     7
100
AcDbLine
 10
-284.30862
 20
-289.66767
 30
0.0
 11
-277.30862
 21
-289.66767
 31
0.0
  0
LINE
  5
64F
100
AcDbEntity
  8
0
  6
CONTINUOUS
 62
     7
100
AcDbLine
 10
-284.30862
 20
-289.46767
 30
0.0
 11
-277.30862
 21
-289.46767
 31
0.0
  0
LINE
  5
650
100
AcDbEntity
  8
0
  6
CONTINUOUS
 62
     7
100
AcDbLine
 10
-329.39854
 20
-286.76767
 30
0.0
 11
-320.54425
 21
-286.76767
 31
0.0
  0
LINE
  5
651
100
AcDbEntity
  8
0
  6
CONTINUOUS
 62
     7
100
AcDbLine
 10
-303.54941
 20
-282.26767
 30
0.0
 11
-284.30862
 21
-282.26767
 31
0.0
  0
LINE
  5
652
100
AcDbEntity
  8
0
  6
CONTINUOUS
 62
     7
100
AcDbLine
 10
-298.86003
 20
-286.76767
 30
0.0
 11
-294.30862
 21
-286.76767
 31
0.0
  0
LINE
  5
653
100
AcDbEntity
  8
0
  6
CONTINUOUS
 62
     7
100
AcDbLine
 10
-310.5477
 20
-289.46767
 30
0.0
 11
-303.54941
 21
-289.46767
 31
0.0
  0
LINE
  5
654
100
AcDbEntity
  8
0
  6
CONTINUOUS
 62
     7
100
AcDbLine
 10
-310.5477
 20
-289.66767
 30
0.0
 11
-303.54941
 21
-289.66767
 31
0.0
  0
LINE
  5
655
100
AcDbEntity
  8
0
  6
CONTINUOUS
 62
     7
100
AcDbLine
 10
-333.46129
 20
-282.26767
 30
0.0
 11
-310.5477
 21
-282.26767
 31
0.0
  0
LINE
  5
656
100
AcDbEntity
  8
0
  6
CONTINUOUS
 62
     7
100
AcDbLine
 10
-339.52442
 20
-289.66767
 30
0.0
 11
-333.46129
 21
-289.66767
 31
0.0
  0
LINE
  5
657
100
AcDbEntity
  8
0
  6
CONTINUOUS
 62
     7
100
AcDbLine
 10
-339.52442
 20
-289.46767
 30
0.0
 11
-333.46129
 21
-289.46767
 31
0.0
  0
LINE
  5
658
100
AcDbEntity
  8
0
  6
CONTINUOUS
 62
     7
100
AcDbLine
 10
-353.97514
 20
-286.76767
 30
0.0
 11
-348.16327
 21
-286.76767
 31
0.0
  0
LINE
  5
659
100
AcDbEntity
  8
0
  6
CONTINUOUS
 62
     7
100
AcDbLine
 10
-355.57979
 20
-282.26767
 30
0.0
 11
-339.52442
 21
-282.26767
 31
0.0
  0
LINE
  5
65A
100
AcDbEntity
  8
0
  6
CENTER
 62
     7
100
AcDbLine
 10
-319.30227
 20
-224.26767
 30
0.0
 11
-319.30227
 21
-298.26767
 31
0.0
  0
LINE
  5
65B
100
AcDbEntity
  8
0
  6
CENTER
 62
     7
100
AcDbLine
 10
-341.82246
 20
-224.26767
 30
0.0
 11
-341.82246
 21
-298.26767
 31
0.0
  0
LINE
  5
65C
100
AcDbEntity
  8
0
  6
CENTER
 62
     7
100
AcDbLine
 10
-350.71719
 20
-224.26767
 30
0.0
 11
-350.71719
 21
-298.26767
 31
0.0
  0
POINT
  5
65D
100
AcDbEntity
  8
0
  6
CONTINUOUS
 62
     7
100
AcDbPoint
 10
-267.30862
 20
-351.26767
 30
0.0
  0
POINT
  5
65E
100
AcDbEntity
  8
0
  6
CONTINUOUS
 62
     7
100
AcDbPoint
 10
-249.30862
 20
-351.26767
 30
0.0
  0
LINE
  5
65F
100
AcDbEntity
  8
0
  6
CENTER
 62
     7
100
AcDbLine
 10
-368.7172
 20
-389.26767
 30
0.0
 11
-249.30862
 21
-389.26767
 31
0.0
  0
LINE
  5
660
100
AcDbEntity
  8
0
  6
CONTINUOUS
 62
     7
100
AcDbLine
 10
-338.46316
 20
-390.77209
 30
0.0
 11
-331.48624
 21
-409.93578
 31
0.0
  0
LINE
  5
661
100
AcDbEntity
  8
0
  6
CENTER
 62
     7
100
AcDbLine
 10
-312.7172
 20
-333.26767
 30
0.0
 11
-312.7172
 21
-445.26767
 31
0.0
  0
LINE
  5
662
100
AcDbEntity
  8
0
  6
CENTER
 62
     7
100
AcDbLine
 10
-312.7172
 20
-351.26767
 30
0.0
 11
-249.30862
 21
-351.26767
 31
0.0
  0
LINE
  5
663
100
AcDbEntity
  8
0
  6
CENTER
 62
     7
100
AcDbLine
 10
-293.30862
 20
-345.26767
 30
0.0
 11
-293.30862
 21
-357.26767
 31
0.0
  0
LINE
  5
664
100
AcDbEntity
  8
0
  6
CENTER
 62
     7
100
AcDbLine
 10
-312.7172
 20
-427.26767
 30
0.0
 11
-249.30862
 21
-427.26767
 31
0.0
  0
LINE
  5
665
100
AcDbEntity
  8
0
  6
CONTINUOUS
 62
     7
100
AcDbLine
 10
-319.5454
 20
-437.69006
 30
0.0
 11
-293.55185
 21
-438.26496
 31
0.0
  0
LINE
  5
666
100
AcDbEntity
  8
0
  6
CONTINUOUS
 62
     7
100
AcDbLine
 10
-331.4696
 20
-406.97259
 30
0.0
 11
-313.80483
 21
-417.16477
 31
0.0
  0
LINE
  5
667
100
AcDbEntity
  8
0
  6
CENTER
 62
     7
100
AcDbLine
 10
-267.30862
 20
-433.26767
 30
0.0
 11
-267.30862
 21
-421.26767
 31
0.0
  0
LINE
  5
668
100
AcDbEntity
  8
0
  6
CONTINUOUS
 62
     7
100
AcDbLine
 10
-290.80862
 20
-430.39017
 30
0.0
 11
-290.80862
 21
-424.14517
 31
0.0
  0
LINE
  5
669
100
AcDbEntity
  8
0
  6
CONTINUOUS
 62
     7
100
AcDbLine
 10
-323.02819
 20
-350.38741
 30
0.0
 11
-319.90716
 21
-355.79659
 31
0.0
  0
LINE
  5
66A
100
AcDbEntity
  8
0
  6
CONTINUOUS
 62
     7
100
AcDbLine
 10
-352.16389
 20
-361.08747
 30
0.0
 11
-361.05348
 21
-385.50451
 31
0.0
  0
LINE
  5
66B
100
AcDbEntity
  8
0
  6
CONTINUOUS
 62
     7
100
AcDbLine
 10
-318.66037
 20
-364.17193
 30
0.0
 11
-336.32506
 21
-374.36423
 31
0.0
  0
LINE
  5
66C
100
AcDbEntity
  8
0
  6
CONTINUOUS
 62
     7
100
AcDbLine
 10
-268.70862
 20
-340.26767
 30
0.0
 11
-293.30862
 21
-340.26767
 31
0.0
  0
LINE
  5
66D
100
AcDbEntity
  8
0
  6
CONTINUOUS
 62
     7
100
AcDbLine
 10
-272.9144
 20
-362.26767
 30
0.0
 11
-293.30862
 21
-362.26767
 31
0.0
  0
LINE
  5
66E
100
AcDbEntity
  8
0
  6
CONTINUOUS
 62
     7
100
AcDbLine
 10
-269.80862
 20
-348.14517
 30
0.0
 11
-269.80862
 21
-354.39017
 31
0.0
  0
LINE
  5
66F
100
AcDbEntity
  8
0
  6
CENTER
 62
     7
100
AcDbLine
 10
-267.30862
 20
-345.26767
 30
0.0
 11
-267.30862
 21
-357.26767
 31
0.0
  0
LINE
  5
670
100
AcDbEntity
  8
0
  6
CONTINUOUS
 62
     7
100
AcDbLine
 10
-272.72157
 20
-361.73786
 30
0.0
 11
-274.70068
 21
-360.07718
 31
0.0
  0
LINE
  5
671
100
AcDbEntity
  8
0
  6
CONTINUOUS
 62
     7
100
AcDbLine
 10
-345.61182
 20
-366.1174
 30
0.0
 11
-339.74363
 21
-368.25385
 31
0.0
  0
LINE
  5
672
100
AcDbEntity
  8
0
  6
CONTINUOUS
 62
     7
100
AcDbLine
 10
-293.43026
 20
-340.26767
 30
0.0
 11
-319.5455
 21
-340.84528
 31
0.0
  0
LINE
  5
673
100
AcDbEntity
  8
0
  6
CONTINUOUS
 62
     7
100
AcDbLine
 10
-298.6698
 20
-362.38894
 30
0.0
 11
-319.05904
 21
-362.8399
 31
0.0
  0
LINE
  5
674
100
AcDbEntity
  8
0
  6
CONTINUOUS
 62
     7
100
AcDbLine
 10
-295.87706
 20
-348.20121
 30
0.0
 11
-295.73897
 21
-354.44469
 31
0.0
  0
LINE
  5
675
100
AcDbEntity
  8
0
  6
CONTINUOUS
 62
     7
100
AcDbLine
 10
-324.79967
 20
-342.31481
 30
0.0
 11
-347.31987
 21
-355.30867
 31
0.0
  0
LINE
  5
676
100
AcDbEntity
  8
0
  6
CONTINUOUS
 62
     7
100
AcDbLine
 10
-298.48872
 20
-361.85499
 30
0.0
 11
-300.50408
 21
-360.23848
 31
0.0
  0
LINE
  5
677
100
AcDbEntity
  8
0
  6
CONTINUOUS
 62
     7
100
AcDbLine
 10
-361.05051
 20
-393.03897
 30
0.0
 11
-352.15883
 21
-417.46203
 31
0.0
  0
LINE
  5
678
100
AcDbEntity
  8
0
  6
CONTINUOUS
 62
     7
100
AcDbLine
 10
-318.75813
 20
-363.61665
 30
0.0
 11
-321.3023
 21
-363.16733
 31
0.0
  0
LINE
  5
679
100
AcDbEntity
  8
0
  6
CONTINUOUS
 62
     7
100
AcDbLine
 10
-333.40395
 20
-373.86716
 30
0.0
 11
-340.38092
 21
-393.03083
 31
0.0
  0
LINE
  5
67A
100
AcDbEntity
  8
0
  6
CONTINUOUS
 62
     7
100
AcDbLine
 10
-347.28683
 20
-423.24571
 30
0.0
 11
-324.79951
 21
-436.2204
 31
0.0
  0
LINE
  5
67B
100
AcDbEntity
  8
0
  6
CONTINUOUS
 62
     7
100
AcDbLine
 10
-333.83582
 20
-373.50471
 30
0.0
 11
-336.07336
 21
-374.79628
 31
0.0
  0
LINE
  5
67C
100
AcDbEntity
  8
0
  6
CONTINUOUS
 62
     7
100
AcDbLine
 10
-352.79604
 20
-392.68504
 30
0.0
 11
-346.92784
 21
-390.54861
 31
0.0
  0
LINE
  5
67D
100
AcDbEntity
  8
0
  6
CONTINUOUS
 62
     7
100
AcDbLine
 10
-339.02697
 20
-390.77214
 30
0.0
 11
-339.91039
 21
-393.19996
 31
0.0
  0
LINE
  5
67E
100
AcDbEntity
  8
0
  6
CONTINUOUS
 62
     7
100
AcDbLine
 10
-341.21754
 20
-417.65287
 30
0.0
 11
-338.09655
 21
-412.24366
 31
0.0
  0
LINE
  5
67F
100
AcDbEntity
  8
0
  6
CONTINUOUS
 62
     7
100
AcDbLine
 10
-287.70285
 20
-416.26767
 30
0.0
 11
-267.30862
 21
-416.26767
 31
0.0
  0
LINE
  5
680
100
AcDbEntity
  8
0
  6
CONTINUOUS
 62
     7
100
AcDbLine
 10
-331.9014
 20
-407.33512
 30
0.0
 11
-331.0171
 21
-409.76263
 31
0.0
  0
LINE
  5
681
100
AcDbEntity
  8
0
  6
CONTINUOUS
 62
     7
100
AcDbLine
 10
-313.45463
 20
-415.81939
 30
0.0
 11
-293.0654
 21
-416.27034
 31
0.0
  0
LINE
  5
682
100
AcDbEntity
  8
0
  6
CONTINUOUS
 62
     7
100
AcDbLine
 10
-316.87192
 20
-429.86977
 30
0.0
 11
-316.73383
 21
-423.6263
 31
0.0
  0
LINE
  5
683
100
AcDbEntity
  8
0
  6
CONTINUOUS
 62
     7
100
AcDbLine
 10
-293.30862
 20
-438.26767
 30
0.0
 11
-267.30862
 21
-438.26767
 31
0.0
  0
LINE
  5
684
100
AcDbEntity
  8
0
  6
CONTINUOUS
 62
     7
100
AcDbLine
 10
-313.65913
 20
-416.34481
 30
0.0
 11
-311.71722
 21
-418.04884
 31
0.0
  0
LINE
  5
685
100
AcDbEntity
  8
0
  6
CENTER
 62
     7
100
AcDbLine
 10
-293.30862
 20
-433.26767
 30
0.0
 11
-293.30862
 21
-421.26767
 31
0.0
  0
LINE
  5
686
100
AcDbEntity
  8
0
  6
CONTINUOUS
 62
     7
100
AcDbLine
 10
-287.89568
 20
-416.79749
 30
0.0
 11
-285.91657
 21
-418.45816
 31
0.0
  0
LINE
  5
687
100
AcDbEntity
  8
0
  6
CENTER
 62
     7
100
AcDbLine
 10
-335.82246
 20
-364.83647
 30
0.0
 11
-347.82246
 21
-364.83647
 31
0.0
  0
LINE
  5
688
100
AcDbEntity
  8
0
  6
CENTER
 62
     7
100
AcDbLine
 10
-319.30227
 20
-345.84259
 30
0.0
 11
-319.30227
 21
-357.84259
 31
0.0
  0
LINE
  5
689
100
AcDbEntity
  8
0
  6
CENTER
 62
     7
100
AcDbLine
 10
-313.30227
 20
-351.84259
 30
0.0
 11
-325.30227
 21
-351.84259
 31
0.0
  0
LINE
  5
68A
100
AcDbEntity
  8
0
  6
CENTER
 62
     7
100
AcDbLine
 10
-341.82246
 20
-358.83647
 30
0.0
 11
-341.82246
 21
-370.83647
 31
0.0
  0
LINE
  5
68B
100
AcDbEntity
  8
0
  6
CENTER
 62
     7
100
AcDbLine
 10
-350.71719
 20
-383.26767
 30
0.0
 11
-350.71719
 21
-395.26767
 31
0.0
  0
LINE
  5
68C
100
AcDbEntity
  8
0
  6
CENTER
 62
     7
100
AcDbLine
 10
-335.82246
 20
-413.69887
 30
0.0
 11
-347.82246
 21
-413.69887
 31
0.0
  0
LINE
  5
68D
100
AcDbEntity
  8
0
  6
CENTER
 62
     7
100
AcDbLine
 10
-341.82246
 20
-407.69887
 30
0.0
 11
-341.82246
 21
-419.69888
 31
0.0
  0
LINE
  5
68E
100
AcDbEntity
  8
0
  6
CENTER
 62
     7
100
AcDbLine
 10
-313.30227
 20
-426.69275
 30
0.0
 11
-325.30227
 21
-426.69275
 31
0.0
  0
LINE
  5
68F
100
AcDbEntity
  8
0
  6
CENTER
 62
     7
100
AcDbLine
 10
-319.30227
 20
-420.69275
 30
0.0
 11
-319.30227
 21
-432.69275
 31
0.0
  0
ARC
  5
690
100
AcDbEntity
  8
0
  6
CENTER
 62
     7
100
AcDbCircle
 10
-312.7172
 20
-389.26767
 30
0.0
 40
38.0
100
AcDbArc
 50
90.000003
 51
270.0
  0
ARC
  5
691
100
AcDbEntity
  8
0
  6
CONTINUOUS
 62
     7
100
AcDbCircle
 10
-319.30217
 20
-426.69258
 30
0.0
 40
11.0
100
AcDbArc
 50
240.01601
 51
60.015998
  0
ARC
  5
692
100
AcDbEntity
  8
0
  6
CONTINUOUS
 62
     7
100
AcDbCircle
 10
-267.30862
 20
-427.26767
 30
0.0
 40
11.0
100
AcDbArc
 50
270.0
 51
90.000003
  0
ARC
  5
693
100
AcDbEntity
  8
0
  6
CONTINUOUS
 62
     7
100
AcDbCircle
 10
-341.82254
 20
-413.6989
 30
0.0
 40
11.0
100
AcDbArc
 50
200.005
 51
20.005001
  0
ARC
  5
694
100
AcDbEntity
  8
0
  6
CONTINUOUS
 62
     7
100
AcDbCircle
 10
-273.1181
 20
-340.76767
 30
0.0
 40
0.5
100
AcDbArc
 50
298.95503
 51
90.000003
  0
ARC
  5
695
100
AcDbEntity
  8
0
  6
CONTINUOUS
 62
     7
100
AcDbCircle
 10
-287.49915
 20
-437.76767
 30
0.0
 40
0.5
100
AcDbArc
 50
118.95503
 51
270.0
  0
ARC
  5
696
100
AcDbEntity
  8
0
  6
CONTINUOUS
 62
     7
100
AcDbCircle
 10
-293.30862
 20
-351.26767
 30
0.0
 40
11.0
100
AcDbArc
 50
90.000003
 51
270.0
  0
ARC
  5
697
100
AcDbEntity
  8
0
  6
CONTINUOUS
 62
     7
100
AcDbCircle
 10
-341.82246
 20
-364.83646
 30
0.0
 40
11.0
100
AcDbArc
 50
119.9844
 51
299.98439
  0
CIRCLE
  5
698
100
AcDbEntity
  8
0
  6
CONTINUOUS
 62
     7
100
AcDbCircle
 10
-267.30862
 20
-351.26767
 30
0.0
 40
4.0
  0
ARC
  5
699
100
AcDbEntity
  8
0
  6
CONTINUOUS
 62
     7
100
AcDbCircle
 10
-267.30862
 20
-351.26767
 30
0.0
 40
11.5
100
AcDbArc
 50
118.95503
 51
230.00001
  0
ARC
  5
69A
100
AcDbEntity
  8
0
  6
CONTINUOUS
 62
     7
100
AcDbCircle
 10
-272.9144
 20
-361.96767
 30
0.0
 40
0.3
100
AcDbArc
 50
270.0
 51
50.0
  0
ARC
  5
69B
100
AcDbEntity
  8
0
  6
CONTINUOUS
 62
     7
100
AcDbCircle
 10
-299.34886
 20
-340.8987
 30
0.0
 40
0.5
100
AcDbArc
 50
300.22206
 51
91.267037
  0
ARC
  5
69C
100
AcDbEntity
  8
0
  6
CONTINUOUS
 62
     7
100
AcDbCircle
 10
-329.58173
 20
-345.65126
 30
0.0
 40
0.5
100
AcDbArc
 50
328.93942
 51
119.9844
  0
ARC
  5
69D
100
AcDbEntity
  8
0
  6
CONTINUOUS
 62
     7
100
AcDbCircle
 10
-319.30227
 20
-351.84259
 30
0.0
 40
11.0
100
AcDbArc
 50
91.267037
 51
271.26703
  0
ARC
  5
69E
100
AcDbEntity
  8
0
  6
CONTINUOUS
 62
     7
100
AcDbCircle
 10
-350.7172
 20
-389.26767
 30
0.0
 40
11.0
100
AcDbArc
 50
159.9948
 51
339.9948
  0
CIRCLE
  5
69F
100
AcDbEntity
  8
0
  6
CONTINUOUS
 62
     7
100
AcDbCircle
 10
-293.30862
 20
-351.26767
 30
0.0
 40
4.0
  0
ARC
  5
6A0
100
AcDbEntity
  8
0
  6
CONTINUOUS
 62
     7
100
AcDbCircle
 10
-293.30862
 20
-351.26767
 30
0.0
 40
11.5
100
AcDbArc
 50
120.22207
 51
231.26704
  0
ARC
  5
6A1
100
AcDbEntity
  8
0
  6
CONTINUOUS
 62
     7
100
AcDbCircle
 10
-298.67643
 20
-362.08901
 30
0.0
 40
0.3
100
AcDbArc
 50
271.26704
 51
51.267041
  0
ARC
  5
6A2
100
AcDbEntity
  8
0
  6
CONTINUOUS
 62
     7
100
AcDbCircle
 10
-353.67636
 20
-366.7033
 30
0.0
 40
0.5
100
AcDbArc
 50
8.949824
 51
159.9948
  0
CIRCLE
  5
6A3
100
AcDbEntity
  8
0
  6
CONTINUOUS
 62
     7
100
AcDbCircle
 10
-319.30227
 20
-351.84259
 30
0.0
 40
4.0
  0
ARC
  5
6A4
100
AcDbEntity
  8
0
  6
CONTINUOUS
 62
     7
100
AcDbCircle
 10
-319.30227
 20
-351.84259
 30
0.0
 40
11.5
100
AcDbArc
 50
148.93942
 51
259.9844
  0
ARC
  5
6A5
100
AcDbEntity
  8
0
  6
CONTINUOUS
 62
     7
100
AcDbCircle
 10
-318.8103
 20
-363.91208
 30
0.0
 40
0.3
100
AcDbArc
 50
299.9844
 51
79.984398
  0
ARC
  5
6A6
100
AcDbEntity
  8
0
  6
CONTINUOUS
 62
     7
100
AcDbCircle
 10
-358.59622
 20
-398.31869
 30
0.0
 40
0.5
100
AcDbArc
 50
48.960025
 51
200.005
  0
CIRCLE
  5
6A7
100
AcDbEntity
  8
0
  6
CONTINUOUS
 62
     7
100
AcDbCircle
 10
-341.82246
 20
-364.83647
 30
0.0
 40
4.0
  0
ARC
  5
6A8
100
AcDbEntity
  8
0
  6
CONTINUOUS
 62
     7
100
AcDbCircle
 10
-341.82246
 20
-364.83647
 30
0.0
 40
11.5
100
AcDbArc
 50
188.94982
 51
299.9948
  0
ARC
  5
6A9
100
AcDbEntity
  8
0
  6
CONTINUOUS
 62
     7
100
AcDbCircle
 10
-333.68584
 20
-373.76453
 30
0.0
 40
0.3
100
AcDbArc
 50
339.9948
 51
119.9948
  0
ARC
  5
6AA
100
AcDbEntity
  8
0
  6
CONTINUOUS
 62
     7
100
AcDbCircle
 10
-293.30862
 20
-427.26765
 30
0.0
 40
11.0
100
AcDbArc
 50
268.733
 51
88.733002
  0
ARC
  5
6AB
100
AcDbEntity
  8
0
  6
CONTINUOUS
 62
     7
100
AcDbCircle
 10
-342.03796
 20
-425.69694
 30
0.0
 40
0.5
100
AcDbArc
 50
88.971028
 51
240.01599
  0
CIRCLE
  5
6AC
100
AcDbEntity
  8
0
  6
CONTINUOUS
 62
     7
100
AcDbCircle
 10
-350.71719
 20
-389.26767
 30
0.0
 40
4.0
  0
ARC
  5
6AD
100
AcDbEntity
  8
0
  6
CONTINUOUS
 62
     7
100
AcDbCircle
 10
-350.71719
 20
-389.26767
 30
0.0
 40
11.5
100
AcDbArc
 50
228.96002
 51
340.005
  0
ARC
  5
6AE
100
AcDbEntity
  8
0
  6
CONTINUOUS
 62
     7
100
AcDbCircle
 10
-338.74506
 20
-390.87472
 30
0.0
 40
0.3
100
AcDbArc
 50
20.005001
 51
160.005
  0
ARC
  5
6AF
100
AcDbEntity
  8
0
  6
CONTINUOUS
 62
     7
100
AcDbCircle
 10
-313.72638
 20
-437.31864
 30
0.0
 40
0.5
100
AcDbArc
 50
117.68803
 51
268.733
  0
CIRCLE
  5
6B0
100
AcDbEntity
  8
0
  6
CONTINUOUS
 62
     7
100
AcDbCircle
 10
-341.82246
 20
-413.69887
 30
0.0
 40
4.0
  0
ARC
  5
6B1
100
AcDbEntity
  8
0
  6
CONTINUOUS
 62
     7
100
AcDbCircle
 10
-341.82246
 20
-413.69887
 30
0.0
 40
11.5
100
AcDbArc
 50
268.97102
 51
20.016001
  0
ARC
  5
6B2
100
AcDbEntity
  8
0
  6
CONTINUOUS
 62
     7
100
AcDbCircle
 10
-331.61952
 20
-407.23244
 30
0.0
 40
0.3
100
AcDbArc
 50
60.015998
 51
200.016
  0
CIRCLE
  5
6B3
100
AcDbEntity
  8
0
  6
CONTINUOUS
 62
     7
100
AcDbCircle
 10
-319.30227
 20
-426.69275
 30
0.0
 40
4.0
  0
ARC
  5
6B4
100
AcDbEntity
  8
0
  6
CONTINUOUS
 62
     7
100
AcDbCircle
 10
-319.30227
 20
-426.69275
 30
0.0
 40
11.5
100
AcDbArc
 50
297.68803
 51
48.733
  0
ARC
  5
6B5
100
AcDbEntity
  8
0
  6
CONTINUOUS
 62
     7
100
AcDbCircle
 10
-313.46127
 20
-416.11932
 30
0.0
 40
0.3
100
AcDbArc
 50
88.733002
 51
228.73299
  0
CIRCLE
  5
6B6
100
AcDbEntity
  8
0
  6
CONTINUOUS
 62
     7
100
AcDbCircle
 10
-293.30862
 20
-427.26767
 30
0.0
 40
4.0
  0
ARC
  5
6B7
100
AcDbEntity
  8
0
  6
CONTINUOUS
 62
     7
100
AcDbCircle
 10
-293.30862
 20
-427.26767
 30
0.0
 40
11.5
100
AcDbArc
 50
298.95503
 51
50.0
  0
ARC
  5
6B8
100
AcDbEntity
  8
0
  6
CONTINUOUS
 62
     7
100
AcDbCircle
 10
-287.70285
 20
-416.56767
 30
0.0
 40
0.3
100
AcDbArc
 50
90.000003
 51
230.00001
  0
POINT
  5
6B9
100
AcDbEntity
  8
0
  6
CONTINUOUS
 62
     7
100
AcDbPoint
 10
-267.30862
 20
-517.2677
 30
0.0
  0
POINT
  5
6BA
100
AcDbEntity
  8
0
  6
CONTINUOUS
 62
     7
100
AcDbPoint
 10
-249.30862
 20
-517.2677
 30
0.0
  0
LINE
  5
6BB
100
AcDbEntity
  8
0
  6
CONTINUOUS
 62
     7
100
AcDbLine
 10
-266.30862
 20
-496.2677
 30
0.0
 11
-276.30862
 21
-496.2677
 31
0.0
  0
LINE
  5
6BC
100
AcDbEntity
  8
0
  6
CENTER
 62
     7
100
AcDbLine
 10
-249.30862
 20
-517.2677
 30
0.0
 11
-368.7172
 21
-517.2677
 31
0.0
  0
LINE
  5
6BD
100
AcDbEntity
  8
0
  6
CONTINUOUS
 62
     7
100
AcDbLine
 10
-261.99914
 20
-491.7677
 30
0.0
 11
-266.30862
 21
-491.7677
 31
0.0
  0
LINE
  5
6BE
100
AcDbEntity
  8
0
  6
CONTINUOUS
 62
     7
100
AcDbLine
 10
-266.30862
 20
-538.2677
 30
0.0
 11
-276.30862
 21
-538.2677
 31
0.0
  0
LINE
  5
6BF
100
AcDbEntity
  8
0
  6
CONTINUOUS
 62
     7
100
AcDbLine
 10
-276.30862
 20
-545.6677
 30
0.0
 11
-283.30862
 21
-545.6677
 31
0.0
  0
LINE
  5
6C0
100
AcDbEntity
  8
0
  6
CONTINUOUS
 62
     7
100
AcDbLine
 10
-276.30862
 20
-496.2677
 30
0.0
 11
-276.30862
 21
-488.8677
 31
0.0
  0
LINE
  5
6C1
100
AcDbEntity
  8
0
  6
CONTINUOUS
 62
     7
100
AcDbLine
 10
-283.30862
 20
-496.2677
 30
0.0
 11
-283.30862
 21
-488.8677
 31
0.0
  0
LINE
  5
6C2
100
AcDbEntity
  8
0
  6
CONTINUOUS
 62
     7
100
AcDbLine
 10
-261.99914
 20
-542.7677
 30
0.0
 11
-266.30862
 21
-542.7677
 31
0.0
  0
LINE
  5
6C3
100
AcDbEntity
  8
0
  6
CONTINUOUS
 62
     7
100
AcDbLine
 10
-287.99915
 20
-491.7677
 30
0.0
 11
-292.55109
 21
-491.7677
 31
0.0
  0
LINE
  5
6C4
100
AcDbEntity
  8
0
  6
CONTINUOUS
 62
     7
100
AcDbLine
 10
-276.30862
 20
-545.6677
 30
0.0
 11
-276.30862
 21
-538.2677
 31
0.0
  0
LINE
  5
6C5
100
AcDbEntity
  8
0
  6
CONTINUOUS
 62
     7
100
AcDbLine
 10
-283.30862
 20
-545.6677
 30
0.0
 11
-283.30862
 21
-538.2677
 31
0.0
  0
LINE
  5
6C6
100
AcDbEntity
  8
0
  6
CONTINUOUS
 62
     7
100
AcDbLine
 10
-283.30862
 20
-538.2677
 30
0.0
 11
-302.54965
 21
-538.2677
 31
0.0
  0
LINE
  5
6C7
100
AcDbEntity
  8
0
  6
CONTINUOUS
 62
     7
100
AcDbLine
 10
-283.30862
 20
-496.2677
 30
0.0
 11
-302.54965
 21
-496.2677
 31
0.0
  0
LINE
  5
6C8
100
AcDbEntity
  8
0
  6
CONTINUOUS
 62
     7
100
AcDbLine
 10
-287.99915
 20
-542.7677
 30
0.0
 11
-292.55109
 21
-542.7677
 31
0.0
  0
LINE
  5
6C9
100
AcDbEntity
  8
0
  6
CENTER
 62
     7
100
AcDbLine
 10
-293.30862
 20
-554.2677
 30
0.0
 11
-293.30862
 21
-480.2677
 31
0.0
  0
LINE
  5
6CA
100
AcDbEntity
  8
0
  6
CENTER
 62
     7
100
AcDbLine
 10
-267.30862
 20
-554.2677
 30
0.0
 11
-267.30862
 21
-480.2677
 31
0.0
  0
LINE
  5
6CB
100
AcDbEntity
  8
0
  6
CONTINUOUS
 62
     7
100
AcDbLine
 10
-261.99914
 20
-547.2677
 30
0.0
 11
-361.7172
 21
-547.2677
 31
0.0
  0
LINE
  5
6CC
100
AcDbEntity
  8
0
  6
CONTINUOUS
 62
     7
100
AcDbLine
 10
-261.99914
 20
-487.2677
 30
0.0
 11
-361.7172
 21
-487.2677
 31
0.0
  0
LINE
  5
6CD
100
AcDbEntity
  8
0
  6
CONTINUOUS
 62
     7
100
AcDbLine
 10
-291.90862
 20
-538.2677
 30
0.0
 11
-291.90862
 21
-496.2677
 31
0.0
  0
LINE
  5
6CE
100
AcDbEntity
  8
0
  6
CONTINUOUS
 62
     7
100
AcDbLine
 10
-276.30862
 20
-545.4677
 30
0.0
 11
-283.30862
 21
-545.4677
 31
0.0
  0
LINE
  5
6CF
100
AcDbEntity
  8
0
  6
CONTINUOUS
 62
     7
100
AcDbLine
 10
-276.30862
 20
-489.0677
 30
0.0
 11
-283.30862
 21
-489.0677
 31
0.0
  0
LINE
  5
6D0
100
AcDbEntity
  8
0
  6
CENTER
 62
     7
100
AcDbLine
 10
-273.30862
 20
-492.6677
 30
0.0
 11
-286.30862
 21
-492.6677
 31
0.0
  0
LINE
  5
6D1
100
AcDbEntity
  8
0
  6
CENTER
 62
     7
100
AcDbLine
 10
-273.30862
 20
-541.8677
 30
0.0
 11
-286.30862
 21
-541.8677
 31
0.0
  0
LINE
  5
6D2
100
AcDbEntity
  8
0
  6
CONTINUOUS
 62
     7
100
AcDbLine
 10
-287.99915
 20
-547.2677
 30
0.0
 11
-287.99915
 21
-542.7677
 31
0.0
  0
LINE
  5
6D3
100
AcDbEntity
  8
0
  6
CONTINUOUS
 62
     7
100
AcDbLine
 10
-287.99915
 20
-491.7677
 30
0.0
 11
-287.99915
 21
-487.2677
 31
0.0
  0
LINE
  5
6D4
100
AcDbEntity
  8
0
  6
CONTINUOUS
 62
     7
100
AcDbLine
 10
-266.30862
 20
-542.7677
 30
0.0
 11
-266.30862
 21
-491.7677
 31
0.0
  0
LINE
  5
6D5
100
AcDbEntity
  8
0
  6
CONTINUOUS
 62
     7
100
AcDbLine
 10
-276.30862
 20
-488.8677
 30
0.0
 11
-283.30862
 21
-488.8677
 31
0.0
  0
LINE
  5
6D6
100
AcDbEntity
  8
0
  6
CONTINUOUS
 62
     7
100
AcDbLine
 10
-314.23732
 20
-487.2677
 30
0.0
 11
-314.23732
 21
-491.7677
 31
0.0
  0
LINE
  5
6D7
100
AcDbEntity
  8
0
  6
CENTER
 62
     7
100
AcDbLine
 10
-319.30227
 20
-554.2677
 30
0.0
 11
-319.30227
 21
-480.2677
 31
0.0
  0
LINE
  5
6D8
100
AcDbEntity
  8
0
  6
CONTINUOUS
 62
     7
100
AcDbLine
 10
-309.54794
 20
-488.8677
 30
0.0
 11
-309.54794
 21
-496.2677
 31
0.0
  0
LINE
  5
6D9
100
AcDbEntity
  8
0
  6
CENTER
 62
     7
100
AcDbLine
 10
-341.82246
 20
-554.2677
 30
0.0
 11
-341.82246
 21
-480.2677
 31
0.0
  0
LINE
  5
6DA
100
AcDbEntity
  8
0
  6
CONTINUOUS
 62
     7
100
AcDbLine
 10
-292.55109
 20
-491.7677
 30
0.0
 11
-292.55109
 21
-542.7677
 31
0.0
  0
LINE
  5
6DB
100
AcDbEntity
  8
0
  6
CENTER
 62
     7
100
AcDbLine
 10
-350.71719
 20
-554.2677
 30
0.0
 11
-350.71719
 21
-480.2677
 31
0.0
  0
LINE
  5
6DC
100
AcDbEntity
  8
0
  6
CONTINUOUS
 62
     7
100
AcDbLine
 10
-302.54965
 20
-488.8677
 30
0.0
 11
-302.54965
 21
-496.2677
 31
0.0
  0
LINE
  5
6DD
100
AcDbEntity
  8
0
  6
CONTINUOUS
 62
     7
100
AcDbLine
 10
-318.14584
 20
-496.2677
 30
0.0
 11
-318.14584
 21
-538.2677
 31
0.0
  0
LINE
  5
6DE
100
AcDbEntity
  8
0
  6
CONTINUOUS
 62
     7
100
AcDbLine
 10
-323.91058
 20
-491.7677
 30
0.0
 11
-323.91058
 21
-542.7677
 31
0.0
  0
LINE
  5
6DF
100
AcDbEntity
  8
0
  6
CONTINUOUS
 62
     7
100
AcDbLine
 10
-332.59499
 20
-488.8677
 30
0.0
 11
-332.59499
 21
-496.2677
 31
0.0
  0
LINE
  5
6E0
100
AcDbEntity
  8
0
  6
CONTINUOUS
 62
     7
100
AcDbLine
 10
-338.65815
 20
-488.8677
 30
0.0
 11
-338.65815
 21
-496.2677
 31
0.0
  0
LINE
  5
6E1
100
AcDbEntity
  8
0
  6
CONTINUOUS
 62
     7
100
AcDbLine
 10
-342.72092
 20
-487.2677
 30
0.0
 11
-342.72092
 21
-491.7677
 31
0.0
  0
LINE
  5
6E2
100
AcDbEntity
  8
0
  6
CONTINUOUS
 62
     7
100
AcDbLine
 10
-346.10717
 20
-496.2677
 30
0.0
 11
-346.10717
 21
-538.2677
 31
0.0
  0
LINE
  5
6E3
100
AcDbEntity
  8
0
  6
CONTINUOUS
 62
     7
100
AcDbLine
 10
-351.77393
 20
-491.7677
 30
0.0
 11
-351.77393
 21
-542.7677
 31
0.0
  0
LINE
  5
6E4
100
AcDbEntity
  8
0
  6
CONTINUOUS
 62
     7
100
AcDbLine
 10
-355.23775
 20
-488.8677
 30
0.0
 11
-355.23775
 21
-496.2677
 31
0.0
  0
LINE
  5
6E5
100
AcDbEntity
  8
0
  6
CONTINUOUS
 62
     7
100
AcDbLine
 10
-357.63247
 20
-488.8677
 30
0.0
 11
-357.63247
 21
-496.2677
 31
0.0
  0
LINE
  5
6E6
100
AcDbEntity
  8
0
  6
CONTINUOUS
 62
     7
100
AcDbLine
 10
-359.23711
 20
-487.2677
 30
0.0
 11
-359.23711
 21
-491.7677
 31
0.0
  0
LINE
  5
6E7
100
AcDbEntity
  8
0
  6
CONTINUOUS
 62
     7
100
AcDbLine
 10
-360.57455
 20
-496.2677
 30
0.0
 11
-360.57455
 21
-538.2677
 31
0.0
  0
LINE
  5
6E8
100
AcDbEntity
  8
0
  6
CONTINUOUS
 62
     7
100
AcDbLine
 10
-361.7172
 20
-487.2677
 30
0.0
 11
-361.7172
 21
-547.2677
 31
0.0
  0
LINE
  5
6E9
100
AcDbEntity
  8
0
  6
CONTINUOUS
 62
     7
100
AcDbLine
 10
-338.65815
 20
-496.2677
 30
0.0
 11
-355.23775
 21
-496.2677
 31
0.0
  0
LINE
  5
6EA
100
AcDbEntity
  8
0
  6
CONTINUOUS
 62
     7
100
AcDbLine
 10
-314.23732
 20
-542.7677
 30
0.0
 11
-314.23732
 21
-547.2677
 31
0.0
  0
LINE
  5
6EB
100
AcDbEntity
  8
0
  6
CONTINUOUS
 62
     7
100
AcDbLine
 10
-302.54965
 20
-538.2677
 30
0.0
 11
-302.54965
 21
-545.6677
 31
0.0
  0
LINE
  5
6EC
100
AcDbEntity
  8
0
  6
CONTINUOUS
 62
     7
100
AcDbLine
 10
-309.54794
 20
-538.2677
 30
0.0
 11
-309.54794
 21
-545.6677
 31
0.0
  0
LINE
  5
6ED
100
AcDbEntity
  8
0
  6
CONTINUOUS
 62
     7
100
AcDbLine
 10
-342.72092
 20
-491.7677
 30
0.0
 11
-351.77393
 21
-491.7677
 31
0.0
  0
LINE
  5
6EE
100
AcDbEntity
  8
0
  6
CONTINUOUS
 62
     7
100
AcDbLine
 10
-314.23732
 20
-491.7677
 30
0.0
 11
-323.91058
 21
-491.7677
 31
0.0
  0
LINE
  5
6EF
100
AcDbEntity
  8
0
  6
CONTINUOUS
 62
     7
100
AcDbLine
 10
-309.54794
 20
-496.2677
 30
0.0
 11
-332.59499
 21
-496.2677
 31
0.0
  0
LINE
  5
6F0
100
AcDbEntity
  8
0
  6
CONTINUOUS
 62
     7
100
AcDbLine
 10
-357.63247
 20
-496.2677
 30
0.0
 11
-361.7172
 21
-496.2677
 31
0.0
  0
LINE
  5
6F1
100
AcDbEntity
  8
0
  6
CONTINUOUS
 62
     7
100
AcDbLine
 10
-302.54965
 20
-489.0677
 30
0.0
 11
-309.54794
 21
-489.0677
 31
0.0
  0
LINE
  5
6F2
100
AcDbEntity
  8
0
  6
CONTINUOUS
 62
     7
100
AcDbLine
 10
-302.54965
 20
-488.8677
 30
0.0
 11
-309.54794
 21
-488.8677
 31
0.0
  0
LINE
  5
6F3
100
AcDbEntity
  8
0
  6
CONTINUOUS
 62
     7
100
AcDbLine
 10
-359.23711
 20
-491.7677
 30
0.0
 11
-361.7172
 21
-491.7677
 31
0.0
  0
LINE
  5
6F4
100
AcDbEntity
  8
0
  6
CONTINUOUS
 62
     7
100
AcDbLine
 10
-332.59499
 20
-538.2677
 30
0.0
 11
-332.59499
 21
-545.6677
 31
0.0
  0
LINE
  5
6F5
100
AcDbEntity
  8
0
  6
CONTINUOUS
 62
     7
100
AcDbLine
 10
-338.65815
 20
-538.2677
 30
0.0
 11
-338.65815
 21
-545.6677
 31
0.0
  0
LINE
  5
6F6
100
AcDbEntity
  8
0
  6
CONTINUOUS
 62
     7
100
AcDbLine
 10
-332.59499
 20
-489.0677
 30
0.0
 11
-338.65815
 21
-489.0677
 31
0.0
  0
LINE
  5
6F7
100
AcDbEntity
  8
0
  6
CONTINUOUS
 62
     7
100
AcDbLine
 10
-332.59499
 20
-488.8677
 30
0.0
 11
-338.65815
 21
-488.8677
 31
0.0
  0
LINE
  5
6F8
100
AcDbEntity
  8
0
  6
CONTINUOUS
 62
     7
100
AcDbLine
 10
-342.72092
 20
-542.7677
 30
0.0
 11
-342.72092
 21
-547.2677
 31
0.0
  0
LINE
  5
6F9
100
AcDbEntity
  8
0
  6
CONTINUOUS
 62
     7
100
AcDbLine
 10
-355.23775
 20
-538.2677
 30
0.0
 11
-355.23775
 21
-545.6677
 31
0.0
  0
LINE
  5
6FA
100
AcDbEntity
  8
0
  6
CONTINUOUS
 62
     7
100
AcDbLine
 10
-357.63247
 20
-538.2677
 30
0.0
 11
-357.63247
 21
-545.6677
 31
0.0
  0
LINE
  5
6FB
100
AcDbEntity
  8
0
  6
CONTINUOUS
 62
     7
100
AcDbLine
 10
-355.23775
 20
-489.0677
 30
0.0
 11
-357.63247
 21
-489.0677
 31
0.0
  0
LINE
  5
6FC
100
AcDbEntity
  8
0
  6
CONTINUOUS
 62
     7
100
AcDbLine
 10
-355.23775
 20
-488.8677
 30
0.0
 11
-357.63247
 21
-488.8677
 31
0.0
  0
LINE
  5
6FD
100
AcDbEntity
  8
0
  6
CONTINUOUS
 62
     7
100
AcDbLine
 10
-359.23711
 20
-542.7677
 30
0.0
 11
-359.23711
 21
-547.2677
 31
0.0
  0
LINE
  5
6FE
100
AcDbEntity
  8
0
  6
CONTINUOUS
 62
     7
100
AcDbLine
 10
-338.65815
 20
-538.2677
 30
0.0
 11
-355.23775
 21
-538.2677
 31
0.0
  0
LINE
  5
6FF
100
AcDbEntity
  8
0
  6
CONTINUOUS
 62
     7
100
AcDbLine
 10
-342.72092
 20
-542.7677
 30
0.0
 11
-351.77393
 21
-542.7677
 31
0.0
  0
LINE
  5
700
100
AcDbEntity
  8
0
  6
CONTINUOUS
 62
     7
100
AcDbLine
 10
-309.54794
 20
-538.2677
 30
0.0
 11
-332.59499
 21
-538.2677
 31
0.0
  0
LINE
  5
701
100
AcDbEntity
  8
0
  6
CONTINUOUS
 62
     7
100
AcDbLine
 10
-314.23732
 20
-542.7677
 30
0.0
 11
-323.91058
 21
-542.7677
 31
0.0
  0
LINE
  5
702
100
AcDbEntity
  8
0
  6
CONTINUOUS
 62
     7
100
AcDbLine
 10
-302.54965
 20
-545.6677
 30
0.0
 11
-309.54794
 21
-545.6677
 31
0.0
  0
LINE
  5
703
100
AcDbEntity
  8
0
  6
CONTINUOUS
 62
     7
100
AcDbLine
 10
-302.54965
 20
-545.4677
 30
0.0
 11
-309.54794
 21
-545.4677
 31
0.0
  0
LINE
  5
704
100
AcDbEntity
  8
0
  6
CONTINUOUS
 62
     7
100
AcDbLine
 10
-332.59499
 20
-545.4677
 30
0.0
 11
-338.65815
 21
-545.4677
 31
0.0
  0
LINE
  5
705
100
AcDbEntity
  8
0
  6
CONTINUOUS
 62
     7
100
AcDbLine
 10
-332.59499
 20
-545.6677
 30
0.0
 11
-338.65815
 21
-545.6677
 31
0.0
  0
LINE
  5
706
100
AcDbEntity
  8
0
  6
CONTINUOUS
 62
     7
100
AcDbLine
 10
-355.23775
 20
-545.4677
 30
0.0
 11
-357.63247
 21
-545.4677
 31
0.0
  0
LINE
  5
707
100
AcDbEntity
  8
0
  6
CONTINUOUS
 62
     7
100
AcDbLine
 10
-355.23775
 20
-545.6677
 30
0.0
 11
-357.63247
 21
-545.6677
 31
0.0
  0
LINE
  5
708
100
AcDbEntity
  8
0
  6
CONTINUOUS
 62
     7
100
AcDbLine
 10
-359.23711
 20
-542.7677
 30
0.0
 11
-361.7172
 21
-542.7677
 31
0.0
  0
LINE
  5
709
100
AcDbEntity
  8
0
  6
CONTINUOUS
 62
     7
100
AcDbLine
 10
-357.63247
 20
-538.2677
 30
0.0
 11
-361.7172
 21
-538.2677
 31
0.0
  0
POINT
  5
70A
100
AcDbEntity
  8
0
  6
CONTINUOUS
 62
     7
100
AcDbPoint
 10
-128.30864
 20
-389.26767
 30
0.0
  0
POINT
  5
70B
100
AcDbEntity
  8
0
  6
CONTINUOUS
 62
     7
100
AcDbPoint
 10
-91.30864
 20
-389.26767
 30
0.0
  0
LINE
  5
70C
100
AcDbEntity
  8
0
  6
CONTINUOUS
 62
     7
100
AcDbLine
 10
-102.80864
 20
-450.26767
 30
0.0
 11
-102.80864
 21
-450.1189
 31
0.0
  0
LINE
  5
70D
100
AcDbEntity
  8
0
  6
CENTER
 62
     7
100
AcDbLine
 10
-128.30864
 20
-460.26767
 30
0.0
 11
-128.30864
 21
-318.26767
 31
0.0
  0
LINE
  5
70E
100
AcDbEntity
  8
0
  6
CONTINUOUS
 62
     7
100
AcDbLine
 10
-107.30864
 20
-450.26767
 30
0.0
 11
-107.30864
 21
-447.63333
 31
0.0
  0
LINE
  5
70F
100
AcDbEntity
  8
0
  6
CONTINUOUS
 62
     7
100
AcDbLine
 10
-149.30864
 20
-450.26767
 30
0.0
 11
-149.30864
 21
-447.63333
 31
0.0
  0
LINE
  5
710
100
AcDbEntity
  8
0
  6
CENTER
 62
     7
100
AcDbLine
 10
-165.30864
 20
-439.26767
 30
0.0
 11
-91.30864
 21
-439.26767
 31
0.0
  0
LINE
  5
711
100
AcDbEntity
  8
0
  6
CENTER
 62
     7
100
AcDbLine
 10
-165.30864
 20
-432.6907
 30
0.0
 11
-91.30864
 21
-432.6907
 31
0.0
  0
LINE
  5
712
100
AcDbEntity
  8
0
  6
CONTINUOUS
 62
     7
100
AcDbLine
 10
-100.10864
 20
-408.54301
 30
0.0
 11
-100.10864
 21
-401.78375
 31
0.0
  0
LINE
  5
713
100
AcDbEntity
  8
0
  6
CONTINUOUS
 62
     7
100
AcDbLine
 10
-99.90864
 20
-447.63333
 30
0.0
 11
-99.90864
 21
-445.86258
 31
0.0
  0
LINE
  5
714
100
AcDbEntity
  8
0
  6
CONTINUOUS
 62
     7
100
AcDbLine
 10
-102.80864
 20
-329.96852
 30
0.0
 11
-98.30864
 21
-329.96852
 31
0.0
  0
LINE
  5
715
100
AcDbEntity
  8
0
  6
CONTINUOUS
 62
     7
100
AcDbLine
 10
-100.10864
 20
-377.71718
 30
0.0
 11
-100.10864
 21
-370.95792
 31
0.0
  0
LINE
  5
716
100
AcDbEntity
  8
0
  6
CONTINUOUS
 62
     7
100
AcDbLine
 10
-153.80864
 20
-450.26767
 30
0.0
 11
-153.80864
 21
-450.1189
 31
0.0
  0
LINE
  5
717
100
AcDbEntity
  8
0
  6
CONTINUOUS
 62
     7
100
AcDbLine
 10
-156.70864
 20
-447.63333
 30
0.0
 11
-156.70864
 21
-445.86258
 31
0.0
  0
LINE
  5
718
100
AcDbEntity
  8
0
  6
CONTINUOUS
 62
     7
100
AcDbLine
 10
-102.80864
 20
-397.25453
 30
0.0
 11
-102.80864
 21
-387.38511
 31
0.0
  0
LINE
  5
719
100
AcDbEntity
  8
0
  6
CONTINUOUS
 62
     7
100
AcDbLine
 10
-102.80864
 20
-425.9207
 30
0.0
 11
-98.30864
 21
-425.9207
 31
0.0
  0
LINE
  5
71A
100
AcDbEntity
  8
0
  6
CONTINUOUS
 62
     7
100
AcDbLine
 10
-149.30864
 20
-401.78375
 30
0.0
 11
-149.30864
 21
-377.71718
 31
0.0
  0
LINE
  5
71B
100
AcDbEntity
  8
0
  6
CONTINUOUS
 62
     7
100
AcDbLine
 10
-107.30864
 20
-401.78375
 30
0.0
 11
-107.30864
 21
-377.71718
 31
0.0
  0
LINE
  5
71C
100
AcDbEntity
  8
0
  6
CONTINUOUS
 62
     7
100
AcDbLine
 10
-153.80864
 20
-397.25453
 30
0.0
 11
-153.80864
 21
-387.38511
 31
0.0
  0
LINE
  5
71D
100
AcDbEntity
  8
0
  6
CENTER
 62
     7
100
AcDbLine
 10
-165.30864
 20
-389.26767
 30
0.0
 11
-91.30864
 21
-389.26767
 31
0.0
  0
LINE
  5
71E
100
AcDbEntity
  8
0
  6
CENTER
 62
     7
100
AcDbLine
 10
-165.30864
 20
-414.37349
 30
0.0
 11
-91.30864
 21
-414.37349
 31
0.0
  0
LINE
  5
71F
100
AcDbEntity
  8
0
  6
CONTINUOUS
 62
     7
100
AcDbLine
 10
-158.30864
 20
-450.26767
 30
0.0
 11
-158.30864
 21
-328.26767
 31
0.0
  0
LINE
  5
720
100
AcDbEntity
  8
0
  6
CONTINUOUS
 62
     7
100
AcDbLine
 10
-98.30864
 20
-450.26767
 30
0.0
 11
-98.30864
 21
-328.26767
 31
0.0
  0
LINE
  5
721
100
AcDbEntity
  8
0
  6
CONTINUOUS
 62
     7
100
AcDbLine
 10
-107.30864
 20
-345.08306
 30
0.0
 11
-107.30864
 21
-332.92577
 31
0.0
  0
LINE
  5
722
100
AcDbEntity
  8
0
  6
CONTINUOUS
 62
     7
100
AcDbLine
 10
-156.50864
 20
-447.63333
 30
0.0
 11
-156.50864
 21
-445.86258
 31
0.0
  0
LINE
  5
723
100
AcDbEntity
  8
0
  6
CONTINUOUS
 62
     7
100
AcDbLine
 10
-100.10864
 20
-447.63333
 30
0.0
 11
-100.10864
 21
-445.86258
 31
0.0
  0
LINE
  5
724
100
AcDbEntity
  8
0
  6
CONTINUOUS
 62
     7
100
AcDbLine
 10
-149.30864
 20
-423.16644
 30
0.0
 11
-107.30864
 21
-423.16644
 31
0.0
  0
LINE
  5
725
100
AcDbEntity
  8
0
  6
CONTINUOUS
 62
     7
100
AcDbLine
 10
-153.80864
 20
-418.18726
 30
0.0
 11
-102.80864
 21
-418.18726
 31
0.0
  0
LINE
  5
726
100
AcDbEntity
  8
0
  6
CONTINUOUS
 62
     7
100
AcDbLine
 10
-149.30864
 20
-429.22523
 30
0.0
 11
-149.30864
 21
-408.54301
 31
0.0
  0
LINE
  5
727
100
AcDbEntity
  8
0
  6
CONTINUOUS
 62
     7
100
AcDbLine
 10
-99.90864
 20
-377.71718
 30
0.0
 11
-99.90864
 21
-370.95792
 31
0.0
  0
LINE
  5
728
100
AcDbEntity
  8
0
  6
CONTINUOUS
 62
     7
100
AcDbLine
 10
-107.30864
 20
-370.95792
 30
0.0
 11
-107.30864
 21
-350.01461
 31
0.0
  0
LINE
  5
729
100
AcDbEntity
  8
0
  6
CONTINUOUS
 62
     7
100
AcDbLine
 10
-156.70864
 20
-408.54301
 30
0.0
 11
-149.30864
 21
-408.54301
 31
0.0
  0
LINE
  5
72A
100
AcDbEntity
  8
0
  6
CONTINUOUS
 62
     7
100
AcDbLine
 10
-156.70864
 20
-401.78375
 30
0.0
 11
-149.30864
 21
-401.78375
 31
0.0
  0
LINE
  5
72B
100
AcDbEntity
  8
0
  6
CENTER
 62
     7
100
AcDbLine
 10
-165.30864
 20
-364.16185
 30
0.0
 11
-91.30864
 21
-364.16185
 31
0.0
  0
LINE
  5
72C
100
AcDbEntity
  8
0
  6
CONTINUOUS
 62
     7
100
AcDbLine
 10
-158.30864
 20
-397.25453
 30
0.0
 11
-153.80864
 21
-397.25453
 31
0.0
  0
LINE
  5
72D
100
AcDbEntity
  8
0
  6
CENTER
 62
     7
100
AcDbLine
 10
-165.30864
 20
-345.84464
 30
0.0
 11
-91.30864
 21
-345.84464
 31
0.0
  0
LINE
  5
72E
100
AcDbEntity
  8
0
  6
CONTINUOUS
 62
     7
100
AcDbLine
 10
-149.30864
 20
-393.47951
 30
0.0
 11
-107.30864
 21
-393.47951
 31
0.0
  0
LINE
  5
72F
100
AcDbEntity
  8
0
  6
CONTINUOUS
 62
     7
100
AcDbLine
 10
-158.30864
 20
-425.9207
 30
0.0
 11
-153.80864
 21
-425.9207
 31
0.0
  0
LINE
  5
730
100
AcDbEntity
  8
0
  6
CONTINUOUS
 62
     7
100
AcDbLine
 10
-156.70864
 20
-429.22523
 30
0.0
 11
-149.30864
 21
-429.22523
 31
0.0
  0
LINE
  5
731
100
AcDbEntity
  8
0
  6
CONTINUOUS
 62
     7
100
AcDbLine
 10
-156.70864
 20
-434.1568
 30
0.0
 11
-149.30864
 21
-434.1568
 31
0.0
  0
LINE
  5
732
100
AcDbEntity
  8
0
  6
CONTINUOUS
 62
     7
100
AcDbLine
 10
-153.80864
 20
-441.16958
 30
0.0
 11
-102.80864
 21
-441.16958
 31
0.0
  0
LINE
  5
733
100
AcDbEntity
  8
0
  6
CONTINUOUS
 62
     7
100
AcDbLine
 10
-149.30864
 20
-443.68708
 30
0.0
 11
-107.30864
 21
-443.68708
 31
0.0
  0
LINE
  5
734
100
AcDbEntity
  8
0
  6
CONTINUOUS
 62
     7
100
AcDbLine
 10
-158.30864
 20
-444.67604
 30
0.0
 11
-153.80864
 21
-444.67604
 31
0.0
  0
LINE
  5
735
100
AcDbEntity
  8
0
  6
CONTINUOUS
 62
     7
100
AcDbLine
 10
-156.70864
 20
-445.86258
 30
0.0
 11
-149.30864
 21
-445.86258
 31
0.0
  0
LINE
  5
736
100
AcDbEntity
  8
0
  6
CONTINUOUS
 62
     7
100
AcDbLine
 10
-156.70864
 20
-447.63333
 30
0.0
 11
-149.30864
 21
-447.63333
 31
0.0
  0
LINE
  5
737
100
AcDbEntity
  8
0
  6
CONTINUOUS
 62
     7
100
AcDbLine
 10
-153.80864
 20
-450.1189
 30
0.0
 11
-102.80864
 21
-450.1189
 31
0.0
  0
LINE
  5
738
100
AcDbEntity
  8
0
  6
CONTINUOUS
 62
     7
100
AcDbLine
 10
-153.80864
 20
-387.38511
 30
0.0
 11
-102.80864
 21
-387.38511
 31
0.0
  0
LINE
  5
739
100
AcDbEntity
  8
0
  6
CONTINUOUS
 62
     7
100
AcDbLine
 10
-156.70864
 20
-377.71718
 30
0.0
 11
-149.30864
 21
-377.71718
 31
0.0
  0
LINE
  5
73A
100
AcDbEntity
  8
0
  6
CONTINUOUS
 62
     7
100
AcDbLine
 10
-156.70864
 20
-370.95792
 30
0.0
 11
-149.30864
 21
-370.95792
 31
0.0
  0
LINE
  5
73B
100
AcDbEntity
  8
0
  6
CONTINUOUS
 62
     7
100
AcDbLine
 10
-158.30864
 20
-366.42871
 30
0.0
 11
-153.80864
 21
-366.42871
 31
0.0
  0
LINE
  5
73C
100
AcDbEntity
  8
0
  6
CONTINUOUS
 62
     7
100
AcDbLine
 10
-149.30864
 20
-362.65369
 30
0.0
 11
-107.30864
 21
-362.65369
 31
0.0
  0
LINE
  5
73D
100
AcDbEntity
  8
0
  6
CONTINUOUS
 62
     7
100
AcDbLine
 10
-153.80864
 20
-357.09202
 30
0.0
 11
-102.80864
 21
-357.09202
 31
0.0
  0
LINE
  5
73E
100
AcDbEntity
  8
0
  6
CONTINUOUS
 62
     7
100
AcDbLine
 10
-156.70864
 20
-350.01461
 30
0.0
 11
-149.30864
 21
-350.01461
 31
0.0
  0
LINE
  5
73F
100
AcDbEntity
  8
0
  6
CONTINUOUS
 62
     7
100
AcDbLine
 10
-156.70864
 20
-345.08306
 30
0.0
 11
-149.30864
 21
-345.08306
 31
0.0
  0
LINE
  5
740
100
AcDbEntity
  8
0
  6
CONTINUOUS
 62
     7
100
AcDbLine
 10
-158.30864
 20
-341.77855
 30
0.0
 11
-153.80864
 21
-341.77855
 31
0.0
  0
LINE
  5
741
100
AcDbEntity
  8
0
  6
CONTINUOUS
 62
     7
100
AcDbLine
 10
-149.30864
 20
-339.02429
 30
0.0
 11
-107.30864
 21
-339.02429
 31
0.0
  0
LINE
  5
742
100
AcDbEntity
  8
0
  6
CONTINUOUS
 62
     7
100
AcDbLine
 10
-153.80864
 20
-335.49944
 30
0.0
 11
-102.80864
 21
-335.49944
 31
0.0
  0
LINE
  5
743
100
AcDbEntity
  8
0
  6
CONTINUOUS
 62
     7
100
AcDbLine
 10
-156.70864
 20
-332.92577
 30
0.0
 11
-149.30864
 21
-332.92577
 31
0.0
  0
LINE
  5
744
100
AcDbEntity
  8
0
  6
CONTINUOUS
 62
     7
100
AcDbLine
 10
-156.70864
 20
-331.15504
 30
0.0
 11
-149.30864
 21
-331.15504
 31
0.0
  0
LINE
  5
745
100
AcDbEntity
  8
0
  6
CONTINUOUS
 62
     7
100
AcDbLine
 10
-158.30864
 20
-329.96852
 30
0.0
 11
-153.80864
 21
-329.96852
 31
0.0
  0
LINE
  5
746
100
AcDbEntity
  8
0
  6
CONTINUOUS
 62
     7
100
AcDbLine
 10
-149.30864
 20
-328.97957
 30
0.0
 11
-107.30864
 21
-328.97957
 31
0.0
  0
LINE
  5
747
100
AcDbEntity
  8
0
  6
CONTINUOUS
 62
     7
100
AcDbLine
 10
-158.30864
 20
-328.26767
 30
0.0
 11
-98.30864
 21
-328.26767
 31
0.0
  0
LINE
  5
748
100
AcDbEntity
  8
0
  6
CONTINUOUS
 62
     7
100
AcDbLine
 10
-107.30864
 20
-445.86258
 30
0.0
 11
-99.90864
 21
-445.86258
 31
0.0
  0
LINE
  5
749
100
AcDbEntity
  8
0
  6
CONTINUOUS
 62
     7
100
AcDbLine
 10
-107.30864
 20
-429.22523
 30
0.0
 11
-107.30864
 21
-408.54301
 31
0.0
  0
LINE
  5
74A
100
AcDbEntity
  8
0
  6
CONTINUOUS
 62
     7
100
AcDbLine
 10
-102.80864
 20
-425.9207
 30
0.0
 11
-102.80864
 21
-418.18726
 31
0.0
  0
LINE
  5
74B
100
AcDbEntity
  8
0
  6
CONTINUOUS
 62
     7
100
AcDbLine
 10
-102.80864
 20
-397.25453
 30
0.0
 11
-98.30864
 21
-397.25453
 31
0.0
  0
LINE
  5
74C
100
AcDbEntity
  8
0
  6
CONTINUOUS
 62
     7
100
AcDbLine
 10
-107.30864
 20
-401.78375
 30
0.0
 11
-99.90864
 21
-401.78375
 31
0.0
  0
LINE
  5
74D
100
AcDbEntity
  8
0
  6
CONTINUOUS
 62
     7
100
AcDbLine
 10
-107.30864
 20
-408.54301
 30
0.0
 11
-99.90864
 21
-408.54301
 31
0.0
  0
LINE
  5
74E
100
AcDbEntity
  8
0
  6
CONTINUOUS
 62
     7
100
AcDbLine
 10
-107.30864
 20
-429.22523
 30
0.0
 11
-99.90864
 21
-429.22523
 31
0.0
  0
LINE
  5
74F
100
AcDbEntity
  8
0
  6
CONTINUOUS
 62
     7
100
AcDbLine
 10
-107.30864
 20
-434.1568
 30
0.0
 11
-99.90864
 21
-434.1568
 31
0.0
  0
LINE
  5
750
100
AcDbEntity
  8
0
  6
CONTINUOUS
 62
     7
100
AcDbLine
 10
-99.90864
 20
-408.54301
 30
0.0
 11
-99.90864
 21
-401.78375
 31
0.0
  0
LINE
  5
751
100
AcDbEntity
  8
0
  6
CONTINUOUS
 62
     7
100
AcDbLine
 10
-107.30864
 20
-447.63333
 30
0.0
 11
-99.90864
 21
-447.63333
 31
0.0
  0
LINE
  5
752
100
AcDbEntity
  8
0
  6
CONTINUOUS
 62
     7
100
AcDbLine
 10
-107.30864
 20
-332.92577
 30
0.0
 11
-99.90864
 21
-332.92577
 31
0.0
  0
LINE
  5
753
100
AcDbEntity
  8
0
  6
CONTINUOUS
 62
     7
100
AcDbLine
 10
-102.80864
 20
-366.42871
 30
0.0
 11
-102.80864
 21
-357.09202
 31
0.0
  0
LINE
  5
754
100
AcDbEntity
  8
0
  6
CONTINUOUS
 62
     7
100
AcDbLine
 10
-102.80864
 20
-444.67604
 30
0.0
 11
-98.30864
 21
-444.67604
 31
0.0
  0
LINE
  5
755
100
AcDbEntity
  8
0
  6
CONTINUOUS
 62
     7
100
AcDbLine
 10
-107.30864
 20
-445.86258
 30
0.0
 11
-107.30864
 21
-434.1568
 31
0.0
  0
LINE
  5
756
100
AcDbEntity
  8
0
  6
CONTINUOUS
 62
     7
100
AcDbLine
 10
-153.80864
 20
-329.96852
 30
0.0
 11
-153.80864
 21
-328.26767
 31
0.0
  0
LINE
  5
757
100
AcDbEntity
  8
0
  6
CONTINUOUS
 62
     7
100
AcDbLine
 10
-107.30864
 20
-345.08306
 30
0.0
 11
-99.90864
 21
-345.08306
 31
0.0
  0
LINE
  5
758
100
AcDbEntity
  8
0
  6
CONTINUOUS
 62
     7
100
AcDbLine
 10
-102.80864
 20
-444.67604
 30
0.0
 11
-102.80864
 21
-441.16958
 31
0.0
  0
LINE
  5
759
100
AcDbEntity
  8
0
  6
CONTINUOUS
 62
     7
100
AcDbLine
 10
-153.80864
 20
-425.9207
 30
0.0
 11
-153.80864
 21
-418.18726
 31
0.0
  0
LINE
  5
75A
100
AcDbEntity
  8
0
  6
CONTINUOUS
 62
     7
100
AcDbLine
 10
-100.10864
 20
-434.1568
 30
0.0
 11
-100.10864
 21
-429.22523
 31
0.0
  0
LINE
  5
75B
100
AcDbEntity
  8
0
  6
CONTINUOUS
 62
     7
100
AcDbLine
 10
-99.90864
 20
-434.1568
 30
0.0
 11
-99.90864
 21
-429.22523
 31
0.0
  0
LINE
  5
75C
100
AcDbEntity
  8
0
  6
CONTINUOUS
 62
     7
100
AcDbLine
 10
-158.30864
 20
-450.26767
 30
0.0
 11
-98.30864
 21
-450.26767
 31
0.0
  0
LINE
  5
75D
100
AcDbEntity
  8
0
  6
CONTINUOUS
 62
     7
100
AcDbLine
 10
-107.30864
 20
-350.01461
 30
0.0
 11
-99.90864
 21
-350.01461
 31
0.0
  0
LINE
  5
75E
100
AcDbEntity
  8
0
  6
CONTINUOUS
 62
     7
100
AcDbLine
 10
-107.30864
 20
-370.95792
 30
0.0
 11
-99.90864
 21
-370.95792
 31
0.0
  0
LINE
  5
75F
100
AcDbEntity
  8
0
  6
CONTINUOUS
 62
     7
100
AcDbLine
 10
-149.30864
 20
-445.86258
 30
0.0
 11
-149.30864
 21
-434.1568
 31
0.0
  0
LINE
  5
760
100
AcDbEntity
  8
0
  6
CONTINUOUS
 62
     7
100
AcDbLine
 10
-156.70864
 20
-408.54301
 30
0.0
 11
-156.70864
 21
-401.78375
 31
0.0
  0
LINE
  5
761
100
AcDbEntity
  8
0
  6
CONTINUOUS
 62
     7
100
AcDbLine
 10
-156.50864
 20
-408.54301
 30
0.0
 11
-156.50864
 21
-401.78375
 31
0.0
  0
LINE
  5
762
100
AcDbEntity
  8
0
  6
CONTINUOUS
 62
     7
100
AcDbLine
 10
-102.80864
 20
-366.42871
 30
0.0
 11
-98.30864
 21
-366.42871
 31
0.0
  0
LINE
  5
763
100
AcDbEntity
  8
0
  6
CONTINUOUS
 62
     7
100
AcDbLine
 10
-153.80864
 20
-366.42871
 30
0.0
 11
-153.80864
 21
-357.09202
 31
0.0
  0
LINE
  5
764
100
AcDbEntity
  8
0
  6
CONTINUOUS
 62
     7
100
AcDbLine
 10
-107.30864
 20
-377.71718
 30
0.0
 11
-99.90864
 21
-377.71718
 31
0.0
  0
LINE
  5
765
100
AcDbEntity
  8
0
  6
CONTINUOUS
 62
     7
100
AcDbLine
 10
-153.80864
 20
-444.67604
 30
0.0
 11
-153.80864
 21
-441.16958
 31
0.0
  0
LINE
  5
766
100
AcDbEntity
  8
0
  6
CONTINUOUS
 62
     7
100
AcDbLine
 10
-156.50864
 20
-434.1568
 30
0.0
 11
-156.50864
 21
-429.22523
 31
0.0
  0
LINE
  5
767
100
AcDbEntity
  8
0
  6
CONTINUOUS
 62
     7
100
AcDbLine
 10
-156.70864
 20
-434.1568
 30
0.0
 11
-156.70864
 21
-429.22523
 31
0.0
  0
LINE
  5
768
100
AcDbEntity
  8
0
  6
CONTINUOUS
 62
     7
100
AcDbLine
 10
-102.80864
 20
-341.77855
 30
0.0
 11
-98.30864
 21
-341.77855
 31
0.0
  0
LINE
  5
769
100
AcDbEntity
  8
0
  6
CONTINUOUS
 62
     7
100
AcDbLine
 10
-156.70864
 20
-350.01461
 30
0.0
 11
-156.70864
 21
-345.08306
 31
0.0
  0
LINE
  5
76A
100
AcDbEntity
  8
0
  6
CONTINUOUS
 62
     7
100
AcDbLine
 10
-156.50864
 20
-350.01461
 30
0.0
 11
-156.50864
 21
-345.08306
 31
0.0
  0
LINE
  5
76B
100
AcDbEntity
  8
0
  6
CONTINUOUS
 62
     7
100
AcDbLine
 10
-149.30864
 20
-370.95792
 30
0.0
 11
-149.30864
 21
-350.01461
 31
0.0
  0
LINE
  5
76C
100
AcDbEntity
  8
0
  6
CONTINUOUS
 62
     7
100
AcDbLine
 10
-107.30864
 20
-331.15504
 30
0.0
 11
-99.90864
 21
-331.15504
 31
0.0
  0
LINE
  5
76D
100
AcDbEntity
  8
0
  6
CONTINUOUS
 62
     7
100
AcDbLine
 10
-100.10864
 20
-350.01461
 30
0.0
 11
-100.10864
 21
-345.08306
 31
0.0
  0
LINE
  5
76E
100
AcDbEntity
  8
0
  6
CONTINUOUS
 62
     7
100
AcDbLine
 10
-99.90864
 20
-350.01461
 30
0.0
 11
-99.90864
 21
-345.08306
 31
0.0
  0
LINE
  5
76F
100
AcDbEntity
  8
0
  6
CONTINUOUS
 62
     7
100
AcDbLine
 10
-102.80864
 20
-341.77855
 30
0.0
 11
-102.80864
 21
-335.49944
 31
0.0
  0
LINE
  5
770
100
AcDbEntity
  8
0
  6
CONTINUOUS
 62
     7
100
AcDbLine
 10
-100.10864
 20
-332.92577
 30
0.0
 11
-100.10864
 21
-331.15504
 31
0.0
  0
LINE
  5
771
100
AcDbEntity
  8
0
  6
CONTINUOUS
 62
     7
100
AcDbLine
 10
-99.90864
 20
-332.92577
 30
0.0
 11
-99.90864
 21
-331.15504
 31
0.0
  0
LINE
  5
772
100
AcDbEntity
  8
0
  6
CONTINUOUS
 62
     7
100
AcDbLine
 10
-149.30864
 20
-345.08306
 30
0.0
 11
-149.30864
 21
-332.92577
 31
0.0
  0
LINE
  5
773
100
AcDbEntity
  8
0
  6
CONTINUOUS
 62
     7
100
AcDbLine
 10
-153.80864
 20
-341.77855
 30
0.0
 11
-153.80864
 21
-335.49944
 31
0.0
  0
LINE
  5
774
100
AcDbEntity
  8
0
  6
CONTINUOUS
 62
     7
100
AcDbLine
 10
-107.30864
 20
-331.15504
 30
0.0
 11
-107.30864
 21
-328.26767
 31
0.0
  0
LINE
  5
775
100
AcDbEntity
  8
0
  6
CONTINUOUS
 62
     7
100
AcDbLine
 10
-102.80864
 20
-329.96852
 30
0.0
 11
-102.80864
 21
-328.26767
 31
0.0
  0
LINE
  5
776
100
AcDbEntity
  8
0
  6
CONTINUOUS
 62
     7
100
AcDbLine
 10
-156.70864
 20
-332.92577
 30
0.0
 11
-156.70864
 21
-331.15504
 31
0.0
  0
LINE
  5
777
100
AcDbEntity
  8
0
  6
CONTINUOUS
 62
     7
100
AcDbLine
 10
-156.50864
 20
-377.71718
 30
0.0
 11
-156.50864
 21
-370.95792
 31
0.0
  0
LINE
  5
778
100
AcDbEntity
  8
0
  6
CONTINUOUS
 62
     7
100
AcDbLine
 10
-156.70864
 20
-377.71718
 30
0.0
 11
-156.70864
 21
-370.95792
 31
0.0
  0
LINE
  5
779
100
AcDbEntity
  8
0
  6
CONTINUOUS
 62
     7
100
AcDbLine
 10
-156.50864
 20
-332.92577
 30
0.0
 11
-156.50864
 21
-331.15504
 31
0.0
  0
LINE
  5
77A
100
AcDbEntity
  8
0
  6
CONTINUOUS
 62
     7
100
AcDbLine
 10
-149.30864
 20
-331.15504
 30
0.0
 11
-149.30864
 21
-328.26767
 31
0.0
  0
POINT
  5
77B
100
AcDbEntity
  8
0
  6
CONTINUOUS
 62
     7
100
AcDbPoint
 10
78.69136
 20
-261.26767
 30
0.0
  0
POINT
  5
77C
100
AcDbEntity
  8
0
  6
CONTINUOUS
 62
     7
100
AcDbPoint
 10
99.69136
 20
-261.26767
 30
0.0
  0
LINE
  5
77D
100
AcDbEntity
  8
0
  6
CONTINUOUS
 62
     7
100
AcDbLine
 10
40.234024
 20
-232.86767
 30
0.0
 11
40.234024
 21
-240.26767
 31
0.0
  0
LINE
  5
77E
100
AcDbEntity
  8
0
  6
CENTER
 62
     7
100
AcDbLine
 10
27.536968
 20
-224.26767
 30
0.0
 11
27.536968
 21
-298.26767
 31
0.0
  0
LINE
  5
77F
100
AcDbEntity
  8
0
  6
CONTINUOUS
 62
     7
100
AcDbLine
 10
68.69136
 20
-232.86767
 30
0.0
 11
68.69136
 21
-240.26767
 31
0.0
  0
LINE
  5
780
100
AcDbEntity
  8
0
  6
CONTINUOUS
 62
     7
100
AcDbLine
 10
-5.956833
 20
-232.86767
 30
0.0
 11
-4.136826
 21
-232.86767
 31
0.0
  0
LINE
  5
781
100
AcDbEntity
  8
0
  6
CONTINUOUS
 62
     7
100
AcDbLine
 10
-8.675148
 20
-286.76767
 30
0.0
 11
-8.512855
 21
-286.76767
 31
0.0
  0
LINE
  5
782
100
AcDbEntity
  8
0
  6
CONTINUOUS
 62
     7
100
AcDbLine
 10
-8.675148
 20
-240.26767
 30
0.0
 11
-5.956833
 21
-240.26767
 31
0.0
  0
LINE
  5
783
100
AcDbEntity
  8
0
  6
CONTINUOUS
 62
     7
100
AcDbLine
 10
-8.675148
 20
-282.26767
 30
0.0
 11
-5.956833
 21
-282.26767
 31
0.0
  0
LINE
  5
784
100
AcDbEntity
  8
0
  6
CENTER
 62
     7
100
AcDbLine
 10
-18.675148
 20
-261.26767
 30
0.0
 11
99.69136
 21
-261.26767
 31
0.0
  0
LINE
  5
785
100
AcDbEntity
  8
0
  6
CONTINUOUS
 62
     7
100
AcDbLine
 10
-5.956833
 20
-289.66767
 30
0.0
 11
-4.136826
 21
-289.66767
 31
0.0
  0
LINE
  5
786
100
AcDbEntity
  8
0
  6
CONTINUOUS
 62
     7
100
AcDbLine
 10
61.69136
 20
-282.26767
 30
0.0
 11
61.69136
 21
-289.66767
 31
0.0
  0
LINE
  5
787
100
AcDbEntity
  8
0
  6
CONTINUOUS
 62
     7
100
AcDbLine
 10
68.69136
 20
-282.26767
 30
0.0
 11
68.69136
 21
-289.66767
 31
0.0
  0
LINE
  5
788
100
AcDbEntity
  8
0
  6
CONTINUOUS
 62
     7
100
AcDbLine
 10
-8.675148
 20
-235.76767
 30
0.0
 11
-8.512855
 21
-235.76767
 31
0.0
  0
LINE
  5
789
100
AcDbEntity
  8
0
  6
CONTINUOUS
 62
     7
100
AcDbLine
 10
73.381886
 20
-286.76767
 30
0.0
 11
77.69136
 21
-286.76767
 31
0.0
  0
LINE
  5
78A
100
AcDbEntity
  8
0
  6
CONTINUOUS
 62
     7
100
AcDbLine
 10
61.69136
 20
-232.86767
 30
0.0
 11
61.69136
 21
-240.26767
 31
0.0
  0
LINE
  5
78B
100
AcDbEntity
  8
0
  6
CONTINUOUS
 62
     7
100
AcDbLine
 10
68.69136
 20
-240.26767
 30
0.0
 11
77.29136
 21
-240.26767
 31
0.0
  0
LINE
  5
78C
100
AcDbEntity
  8
0
  6
CONTINUOUS
 62
     7
100
AcDbLine
 10
68.69136
 20
-282.26767
 30
0.0
 11
77.29136
 21
-282.26767
 31
0.0
  0
LINE
  5
78D
100
AcDbEntity
  8
0
  6
CONTINUOUS
 62
     7
100
AcDbLine
 10
73.381886
 20
-235.76767
 30
0.0
 11
77.69136
 21
-235.76767
 31
0.0
  0
LINE
  5
78E
100
AcDbEntity
  8
0
  6
CENTER
 62
     7
100
AcDbLine
 10
78.69136
 20
-224.26767
 30
0.0
 11
78.69136
 21
-298.26767
 31
0.0
  0
LINE
  5
78F
100
AcDbEntity
  8
0
  6
CENTER
 62
     7
100
AcDbLine
 10
52.69136
 20
-224.26767
 30
0.0
 11
52.69136
 21
-298.26767
 31
0.0
  0
LINE
  5
790
100
AcDbEntity
  8
0
  6
CONTINUOUS
 62
     7
100
AcDbLine
 10
-8.675148
 20
-231.26767
 30
0.0
 11
73.381886
 21
-231.26767
 31
0.0
  0
LINE
  5
791
100
AcDbEntity
  8
0
  6
CONTINUOUS
 62
     7
100
AcDbLine
 10
-8.675148
 20
-291.26767
 30
0.0
 11
73.381886
 21
-291.26767
 31
0.0
  0
LINE
  5
792
100
AcDbEntity
  8
0
  6
CONTINUOUS
 62
     7
100
AcDbLine
 10
77.29136
 20
-240.26767
 30
0.0
 11
77.29136
 21
-282.26767
 31
0.0
  0
LINE
  5
793
100
AcDbEntity
  8
0
  6
CONTINUOUS
 62
     7
100
AcDbLine
 10
-5.956833
 20
-233.06767
 30
0.0
 11
-4.136826
 21
-233.06767
 31
0.0
  0
LINE
  5
794
100
AcDbEntity
  8
0
  6
CONTINUOUS
 62
     7
100
AcDbLine
 10
-5.956833
 20
-289.46767
 30
0.0
 11
-4.136826
 21
-289.46767
 31
0.0
  0
LINE
  5
795
100
AcDbEntity
  8
0
  6
CENTER
 62
     7
100
AcDbLine
 10
58.69136
 20
-285.86767
 30
0.0
 11
71.69136
 21
-285.86767
 31
0.0
  0
LINE
  5
796
100
AcDbEntity
  8
0
  6
CENTER
 62
     7
100
AcDbLine
 10
58.69136
 20
-236.66767
 30
0.0
 11
71.69136
 21
-236.66767
 31
0.0
  0
LINE
  5
797
100
AcDbEntity
  8
0
  6
CONTINUOUS
 62
     7
100
AcDbLine
 10
73.381886
 20
-231.26767
 30
0.0
 11
73.381886
 21
-235.76767
 31
0.0
  0
LINE
  5
798
100
AcDbEntity
  8
0
  6
CONTINUOUS
 62
     7
100
AcDbLine
 10
73.381886
 20
-286.76767
 30
0.0
 11
73.381886
 21
-291.26767
 31
0.0
  0
LINE
  5
799
100
AcDbEntity
  8
0
  6
CONTINUOUS
 62
     7
100
AcDbLine
 10
51.69136
 20
-235.76767
 30
0.0
 11
51.69136
 21
-286.76767
 31
0.0
  0
LINE
  5
79A
100
AcDbEntity
  8
0
  6
CENTER
 62
     7
100
AcDbLine
 10
9.084869
 20
-224.26767
 30
0.0
 11
9.084869
 21
-298.26767
 31
0.0
  0
LINE
  5
79B
100
AcDbEntity
  8
0
  6
CONTINUOUS
 62
     7
100
AcDbLine
 10
33.461689
 20
-232.86767
 30
0.0
 11
33.461689
 21
-240.26767
 31
0.0
  0
LINE
  5
79C
100
AcDbEntity
  8
0
  6
CONTINUOUS
 62
     7
100
AcDbLine
 10
44.771996
 20
-231.26767
 30
0.0
 11
44.771996
 21
-235.76767
 31
0.0
  0
LINE
  5
79D
100
AcDbEntity
  8
0
  6
CENTER
 62
     7
100
AcDbLine
 10
2.324867
 20
-224.26767
 30
0.0
 11
2.324867
 21
-298.26767
 31
0.0
  0
LINE
  5
79E
100
AcDbEntity
  8
0
  6
CONTINUOUS
 62
     7
100
AcDbLine
 10
48.554321
 20
-240.26767
 30
0.0
 11
48.554321
 21
-282.26767
 31
0.0
  0
LINE
  5
79F
100
AcDbEntity
  8
0
  6
CONTINUOUS
 62
     7
100
AcDbLine
 10
23.798447
 20
-235.76767
 30
0.0
 11
23.798447
 21
-286.76767
 31
0.0
  0
LINE
  5
7A0
100
AcDbEntity
  8
0
  6
CONTINUOUS
 62
     7
100
AcDbLine
 10
18.793804
 20
-240.26767
 30
0.0
 11
18.793804
 21
-282.26767
 31
0.0
  0
LINE
  5
7A1
100
AcDbEntity
  8
0
  6
CONTINUOUS
 62
     7
100
AcDbLine
 10
16.019268
 20
-231.26767
 30
0.0
 11
16.019268
 21
-235.76767
 31
0.0
  0
LINE
  5
7A2
100
AcDbEntity
  8
0
  6
CONTINUOUS
 62
     7
100
AcDbLine
 10
12.690422
 20
-232.86767
 30
0.0
 11
12.690422
 21
-240.26767
 31
0.0
  0
LINE
  5
7A3
100
AcDbEntity
  8
0
  6
CONTINUOUS
 62
     7
100
AcDbLine
 10
7.722542
 20
-232.86767
 30
0.0
 11
7.722542
 21
-240.26767
 31
0.0
  0
LINE
  5
7A4
100
AcDbEntity
  8
0
  6
CONTINUOUS
 62
     7
100
AcDbLine
 10
0.657677
 20
-235.76767
 30
0.0
 11
0.657677
 21
-286.76767
 31
0.0
  0
LINE
  5
7A5
100
AcDbEntity
  8
0
  6
CONTINUOUS
 62
     7
100
AcDbLine
 10
-1.900826
 20
-240.26767
 30
0.0
 11
-1.900826
 21
-282.26767
 31
0.0
  0
LINE
  5
7A6
100
AcDbEntity
  8
0
  6
CONTINUOUS
 62
     7
100
AcDbLine
 10
-2.91729
 20
-231.26767
 30
0.0
 11
-2.91729
 21
-235.76767
 31
0.0
  0
LINE
  5
7A7
100
AcDbEntity
  8
0
  6
CONTINUOUS
 62
     7
100
AcDbLine
 10
-4.136826
 20
-232.86767
 30
0.0
 11
-4.136826
 21
-240.26767
 31
0.0
  0
LINE
  5
7A8
100
AcDbEntity
  8
0
  6
CONTINUOUS
 62
     7
100
AcDbLine
 10
-5.956833
 20
-232.86767
 30
0.0
 11
-5.956833
 21
-240.26767
 31
0.0
  0
LINE
  5
7A9
100
AcDbEntity
  8
0
  6
CONTINUOUS
 62
     7
100
AcDbLine
 10
-8.512855
 20
-235.76767
 30
0.0
 11
-8.512855
 21
-286.76767
 31
0.0
  0
LINE
  5
7AA
100
AcDbEntity
  8
0
  6
CONTINUOUS
 62
     7
100
AcDbLine
 10
-8.675148
 20
-231.26767
 30
0.0
 11
-8.675148
 21
-240.26767
 31
0.0
  0
LINE
  5
7AB
100
AcDbEntity
  8
0
  6
CONTINUOUS
 62
     7
100
AcDbLine
 10
40.234024
 20
-240.26767
 30
0.0
 11
61.69136
 21
-240.26767
 31
0.0
  0
LINE
  5
7AC
100
AcDbEntity
  8
0
  6
CONTINUOUS
 62
     7
100
AcDbLine
 10
44.771996
 20
-235.76767
 30
0.0
 11
51.69136
 21
-235.76767
 31
0.0
  0
LINE
  5
7AD
100
AcDbEntity
  8
0
  6
CONTINUOUS
 62
     7
100
AcDbLine
 10
12.690422
 20
-240.26767
 30
0.0
 11
33.461689
 21
-240.26767
 31
0.0
  0
LINE
  5
7AE
100
AcDbEntity
  8
0
  6
CONTINUOUS
 62
     7
100
AcDbLine
 10
44.771996
 20
-286.76767
 30
0.0
 11
44.771996
 21
-291.26767
 31
0.0
  0
LINE
  5
7AF
100
AcDbEntity
  8
0
  6
CONTINUOUS
 62
     7
100
AcDbLine
 10
33.461689
 20
-232.86767
 30
0.0
 11
40.234024
 21
-232.86767
 31
0.0
  0
LINE
  5
7B0
100
AcDbEntity
  8
0
  6
CONTINUOUS
 62
     7
100
AcDbLine
 10
33.461689
 20
-233.06767
 30
0.0
 11
40.234024
 21
-233.06767
 31
0.0
  0
LINE
  5
7B1
100
AcDbEntity
  8
0
  6
CONTINUOUS
 62
     7
100
AcDbLine
 10
7.722542
 20
-289.46767
 30
0.0
 11
12.690422
 21
-289.46767
 31
0.0
  0
LINE
  5
7B2
100
AcDbEntity
  8
0
  6
CONTINUOUS
 62
     7
100
AcDbLine
 10
40.234024
 20
-282.26767
 30
0.0
 11
40.234024
 21
-289.66767
 31
0.0
  0
LINE
  5
7B3
100
AcDbEntity
  8
0
  6
CONTINUOUS
 62
     7
100
AcDbLine
 10
33.461689
 20
-282.26767
 30
0.0
 11
33.461689
 21
-289.66767
 31
0.0
  0
LINE
  5
7B4
100
AcDbEntity
  8
0
  6
CONTINUOUS
 62
     7
100
AcDbLine
 10
61.69136
 20
-232.86767
 30
0.0
 11
68.69136
 21
-232.86767
 31
0.0
  0
LINE
  5
7B5
100
AcDbEntity
  8
0
  6
CONTINUOUS
 62
     7
100
AcDbLine
 10
61.69136
 20
-233.06767
 30
0.0
 11
68.69136
 21
-233.06767
 31
0.0
  0
LINE
  5
7B6
100
AcDbEntity
  8
0
  6
CONTINUOUS
 62
     7
100
AcDbLine
 10
16.019268
 20
-286.76767
 30
0.0
 11
16.019268
 21
-291.26767
 31
0.0
  0
LINE
  5
7B7
100
AcDbEntity
  8
0
  6
CONTINUOUS
 62
     7
100
AcDbLine
 10
16.019268
 20
-235.76767
 30
0.0
 11
23.798447
 21
-235.76767
 31
0.0
  0
LINE
  5
7B8
100
AcDbEntity
  8
0
  6
CONTINUOUS
 62
     7
100
AcDbLine
 10
12.690422
 20
-282.26767
 30
0.0
 11
12.690422
 21
-289.66767
 31
0.0
  0
LINE
  5
7B9
100
AcDbEntity
  8
0
  6
CONTINUOUS
 62
     7
100
AcDbLine
 10
7.722542
 20
-282.26767
 30
0.0
 11
7.722542
 21
-289.66767
 31
0.0
  0
LINE
  5
7BA
100
AcDbEntity
  8
0
  6
CONTINUOUS
 62
     7
100
AcDbLine
 10
7.722542
 20
-233.06767
 30
0.0
 11
12.690422
 21
-233.06767
 31
0.0
  0
LINE
  5
7BB
100
AcDbEntity
  8
0
  6
CONTINUOUS
 62
     7
100
AcDbLine
 10
7.722542
 20
-232.86767
 30
0.0
 11
12.690422
 21
-232.86767
 31
0.0
  0
LINE
  5
7BC
100
AcDbEntity
  8
0
  6
CONTINUOUS
 62
     7
100
AcDbLine
 10
-2.91729
 20
-286.76767
 30
0.0
 11
-2.91729
 21
-291.26767
 31
0.0
  0
LINE
  5
7BD
100
AcDbEntity
  8
0
  6
CONTINUOUS
 62
     7
100
AcDbLine
 10
-4.136826
 20
-240.26767
 30
0.0
 11
7.722542
 21
-240.26767
 31
0.0
  0
LINE
  5
7BE
100
AcDbEntity
  8
0
  6
CONTINUOUS
 62
     7
100
AcDbLine
 10
-2.91729
 20
-235.76767
 30
0.0
 11
0.657677
 21
-235.76767
 31
0.0
  0
LINE
  5
7BF
100
AcDbEntity
  8
0
  6
CONTINUOUS
 62
     7
100
AcDbLine
 10
-4.136826
 20
-282.26767
 30
0.0
 11
-4.136826
 21
-289.66767
 31
0.0
  0
LINE
  5
7C0
100
AcDbEntity
  8
0
  6
CONTINUOUS
 62
     7
100
AcDbLine
 10
-5.956833
 20
-282.26767
 30
0.0
 11
-5.956833
 21
-289.66767
 31
0.0
  0
LINE
  5
7C1
100
AcDbEntity
  8
0
  6
CONTINUOUS
 62
     7
100
AcDbLine
 10
7.722542
 20
-289.66767
 30
0.0
 11
12.690422
 21
-289.66767
 31
0.0
  0
LINE
  5
7C2
100
AcDbEntity
  8
0
  6
CONTINUOUS
 62
     7
100
AcDbLine
 10
-8.675148
 20
-282.26767
 30
0.0
 11
-8.675148
 21
-291.26767
 31
0.0
  0
LINE
  5
7C3
100
AcDbEntity
  8
0
  6
CONTINUOUS
 62
     7
100
AcDbLine
 10
16.019268
 20
-286.76767
 30
0.0
 11
23.798447
 21
-286.76767
 31
0.0
  0
LINE
  5
7C4
100
AcDbEntity
  8
0
  6
CONTINUOUS
 62
     7
100
AcDbLine
 10
33.461689
 20
-289.66767
 30
0.0
 11
40.234024
 21
-289.66767
 31
0.0
  0
LINE
  5
7C5
100
AcDbEntity
  8
0
  6
CONTINUOUS
 62
     7
100
AcDbLine
 10
33.461689
 20
-289.46767
 30
0.0
 11
40.234024
 21
-289.46767
 31
0.0
  0
LINE
  5
7C6
100
AcDbEntity
  8
0
  6
CONTINUOUS
 62
     7
100
AcDbLine
 10
44.771996
 20
-286.76767
 30
0.0
 11
51.69136
 21
-286.76767
 31
0.0
  0
LINE
  5
7C7
100
AcDbEntity
  8
0
  6
CONTINUOUS
 62
     7
100
AcDbLine
 10
40.234024
 20
-282.26767
 30
0.0
 11
61.69136
 21
-282.26767
 31
0.0
  0
LINE
  5
7C8
100
AcDbEntity
  8
0
  6
CONTINUOUS
 62
     7
100
AcDbLine
 10
12.690422
 20
-282.26767
 30
0.0
 11
33.461689
 21
-282.26767
 31
0.0
  0
LINE
  5
7C9
100
AcDbEntity
  8
0
  6
CONTINUOUS
 62
     7
100
AcDbLine
 10
-2.91729
 20
-286.76767
 30
0.0
 11
0.657677
 21
-286.76767
 31
0.0
  0
LINE
  5
7CA
100
AcDbEntity
  8
0
  6
CONTINUOUS
 62
     7
100
AcDbLine
 10
-4.136826
 20
-282.26767
 30
0.0
 11
7.722542
 21
-282.26767
 31
0.0
  0
LINE
  5
7CB
100
AcDbEntity
  8
0
  6
CONTINUOUS
 62
     7
100
AcDbLine
 10
61.69136
 20
-289.46767
 30
0.0
 11
68.69136
 21
-289.46767
 31
0.0
  0
LINE
  5
7CC
100
AcDbEntity
  8
0
  6
CONTINUOUS
 62
     7
100
AcDbLine
 10
61.69136
 20
-289.66767
 30
0.0
 11
68.69136
 21
-289.66767
 31
0.0
  0
POINT
  5
7CD
100
AcDbEntity
  8
0
  6
CONTINUOUS
 62
     7
100
AcDbPoint
 10
78.69136
 20
-339.26767
 30
0.0
  0
POINT
  5
7CE
100
AcDbEntity
  8
0
  6
CONTINUOUS
 62
     7
100
AcDbPoint
 10
99.69136
 20
-339.26767
 30
0.0
  0
LINE
  5
7CF
100
AcDbEntity
  8
0
  6
CENTER
 62
     7
100
AcDbLine
 10
78.69136
 20
-445.26767
 30
0.0
 11
78.69136
 21
-433.26767
 31
0.0
  0
LINE
  5
7D0
100
AcDbEntity
  8
0
  6
CENTER
 62
     7
100
AcDbLine
 10
84.69136
 20
-439.26767
 30
0.0
 11
72.69136
 21
-439.26767
 31
0.0
  0
LINE
  5
7D1
100
AcDbEntity
  8
0
  6
CONTINUOUS
 62
     7
100
AcDbLine
 10
52.740023
 20
-450.26767
 30
0.0
 11
78.69136
 21
-450.26767
 31
0.0
  0
LINE
  5
7D2
100
AcDbEntity
  8
0
  6
CONTINUOUS
 62
     7
100
AcDbLine
 10
58.297138
 20
-428.26767
 30
0.0
 11
78.69136
 21
-428.26767
 31
0.0
  0
LINE
  5
7D3
100
AcDbEntity
  8
0
  6
CONTINUOUS
 62
     7
100
AcDbLine
 10
55.19136
 20
-442.39017
 30
0.0
 11
55.19136
 21
-436.14517
 31
0.0
  0
LINE
  5
7D4
100
AcDbEntity
  8
0
  6
CENTER
 62
     7
100
AcDbLine
 10
52.69136
 20
-445.26767
 30
0.0
 11
52.69136
 21
-433.26767
 31
0.0
  0
LINE
  5
7D5
100
AcDbEntity
  8
0
  6
CENTER
 62
     7
100
AcDbLine
 10
58.69136
 20
-439.26767
 30
0.0
 11
46.69136
 21
-439.26767
 31
0.0
  0
LINE
  5
7D6
100
AcDbEntity
  8
0
  6
CONTINUOUS
 62
     7
100
AcDbLine
 10
58.104298
 20
-428.79749
 30
0.0
 11
60.083414
 21
-430.45816
 31
0.0
  0
LINE
  5
7D7
100
AcDbEntity
  8
0
  6
CENTER
 62
     7
100
AcDbLine
 10
52.324871
 20
-318.26767
 30
0.0
 11
52.324871
 21
-460.26767
 31
0.0
  0
LINE
  5
7D8
100
AcDbEntity
  8
0
  6
CENTER
 62
     7
100
AcDbLine
 10
-18.675148
 20
-389.26767
 30
0.0
 11
99.69136
 21
-389.26767
 31
0.0
  0
LINE
  5
7D9
100
AcDbEntity
  8
0
  6
CONTINUOUS
 62
     7
100
AcDbLine
 10
14.40406
 20
-391.82067
 30
0.0
 11
19.706539
 21
-411.51351
 31
0.0
  0
LINE
  5
7DA
100
AcDbEntity
  8
0
  6
CENTER
 62
     7
100
AcDbLine
 10
52.324871
 20
-339.26767
 30
0.0
 11
99.69136
 21
-339.26767
 31
0.0
  0
LINE
  5
7DB
100
AcDbEntity
  8
0
  6
CONTINUOUS
 62
     7
100
AcDbLine
 10
-1.534004
 20
-361.29138
 30
0.0
 11
-8.296837
 21
-386.40766
 31
0.0
  0
LINE
  5
7DC
100
AcDbEntity
  8
0
  6
CENTER
 62
     7
100
AcDbLine
 10
52.324871
 20
-439.26767
 30
0.0
 11
99.69136
 21
-439.26767
 31
0.0
  0
LINE
  5
7DD
100
AcDbEntity
  8
0
  6
CONTINUOUS
 62
     7
100
AcDbLine
 10
20.812874
 20
-410.51619
 30
0.0
 11
35.286526
 21
-424.88413
 31
0.0
  0
LINE
  5
7DE
100
AcDbEntity
  8
0
  6
CONTINUOUS
 62
     7
100
AcDbLine
 10
24.7155
 20
-443.32278
 30
0.0
 11
49.908724
 21
-449.91001
 31
0.0
  0
LINE
  5
7DF
100
AcDbEntity
  8
0
  6
CENTER
 62
     7
100
AcDbLine
 10
33.536968
 20
-345.84464
 30
0.0
 11
21.536968
 21
-345.84464
 31
0.0
  0
LINE
  5
7E0
100
AcDbEntity
  8
0
  6
CENTER
 62
     7
100
AcDbLine
 10
9.084869
 20
-358.16185
 30
0.0
 11
9.084869
 21
-370.16185
 31
0.0
  0
LINE
  5
7E1
100
AcDbEntity
  8
0
  6
CENTER
 62
     7
100
AcDbLine
 10
52.69136
 20
-333.26767
 30
0.0
 11
52.69136
 21
-345.26767
 31
0.0
  0
LINE
  5
7E2
100
AcDbEntity
  8
0
  6
CONTINUOUS
 62
     7
100
AcDbLine
 10
77.29136
 20
-328.26767
 30
0.0
 11
52.69136
 21
-328.26767
 31
0.0
  0
LINE
  5
7E3
100
AcDbEntity
  8
0
  6
CONTINUOUS
 62
     7
100
AcDbLine
 10
73.085583
 20
-350.26767
 30
0.0
 11
52.69136
 21
-350.26767
 31
0.0
  0
LINE
  5
7E4
100
AcDbEntity
  8
0
  6
CONTINUOUS
 62
     7
100
AcDbLine
 10
76.19136
 20
-336.14517
 30
0.0
 11
76.19136
 21
-342.39017
 31
0.0
  0
LINE
  5
7E5
100
AcDbEntity
  8
0
  6
CENTER
 62
     7
100
AcDbLine
 10
78.69136
 20
-333.26767
 30
0.0
 11
78.69136
 21
-345.26767
 31
0.0
  0
LINE
  5
7E6
100
AcDbEntity
  8
0
  6
CONTINUOUS
 62
     7
100
AcDbLine
 10
73.278419
 20
-349.73786
 30
0.0
 11
71.299303
 21
-348.07718
 31
0.0
  0
LINE
  5
7E7
100
AcDbEntity
  8
0
  6
CONTINUOUS
 62
     7
100
AcDbLine
 10
19.787373
 20
-338.03798
 30
0.0
 11
1.335281
 21
-356.35518
 31
0.0
  0
LINE
  5
7E8
100
AcDbEntity
  8
0
  6
CONTINUOUS
 62
     7
100
AcDbLine
 10
18.249058
 20
-372.43484
 30
0.0
 11
12.946548
 21
-392.12767
 31
0.0
  0
LINE
  5
7E9
100
AcDbEntity
  8
0
  6
CONTINUOUS
 62
     7
100
AcDbLine
 10
49.908789
 20
-328.62543
 30
0.0
 11
24.754402
 21
-335.20242
 31
0.0
  0
LINE
  5
7EA
100
AcDbEntity
  8
0
  6
CONTINUOUS
 62
     7
100
AcDbLine
 10
50.050474
 20
-351.32795
 30
0.0
 11
30.319542
 21
-356.4869
 31
0.0
  0
LINE
  5
7EB
100
AcDbEntity
  8
0
  6
CONTINUOUS
 62
     7
100
AcDbLine
 10
49.482798
 20
-336.87913
 30
0.0
 11
51.06254
 21
-342.92102
 31
0.0
  0
LINE
  5
7EC
100
AcDbEntity
  8
0
  6
CONTINUOUS
 62
     7
100
AcDbLine
 10
50.103016
 20
-350.76659
 30
0.0
 11
47.768183
 21
-349.66057
 31
0.0
  0
LINE
  5
7ED
100
AcDbEntity
  8
0
  6
CONTINUOUS
 62
     7
100
AcDbLine
 10
31.308155
 20
-357.60061
 30
0.0
 11
16.834454
 21
-371.9685
 31
0.0
  0
LINE
  5
7EE
100
AcDbEntity
  8
0
  6
CONTINUOUS
 62
     7
100
AcDbLine
 10
23.562901
 20
-345.38988
 30
0.0
 11
27.962551
 21
-349.82193
 31
0.0
  0
LINE
  5
7EF
100
AcDbEntity
  8
0
  6
CONTINUOUS
 62
     7
100
AcDbLine
 10
31.071754
 20
-357.08875
 30
0.0
 11
28.497223
 21
-357.30448
 31
0.0
  0
LINE
  5
7F0
100
AcDbEntity
  8
0
  6
CONTINUOUS
 62
     7
100
AcDbLine
 10
5.419762
 20
-365.76401
 30
0.0
 11
11.449982
 21
-367.38772
 31
0.0
  0
LINE
  5
7F1
100
AcDbEntity
  8
0
  6
CONTINUOUS
 62
     7
100
AcDbLine
 10
35.743027
 20
-423.46654
 30
0.0
 11
55.47394
 21
-428.62555
 31
0.0
  0
LINE
  5
7F2
100
AcDbEntity
  8
0
  6
CONTINUOUS
 62
     7
100
AcDbLine
 10
-8.29213
 20
-392.14511
 30
0.0
 11
-1.536858
 21
-417.23349
 31
0.0
  0
LINE
  5
7F3
100
AcDbEntity
  8
0
  6
CONTINUOUS
 62
     7
100
AcDbLine
 10
17.787601
 20
-372.11088
 30
0.0
 11
15.669472
 21
-373.59016
 31
0.0
  0
LINE
  5
7F4
100
AcDbEntity
  8
0
  6
CONTINUOUS
 62
     7
100
AcDbLine
 10
-0.040245
 20
-392.49354
 30
0.0
 11
5.989983
 21
-390.86984
 31
0.0
  0
LINE
  5
7F5
100
AcDbEntity
  8
0
  6
CONTINUOUS
 62
     7
100
AcDbLine
 10
1.351692
 20
-422.19643
 30
0.0
 11
19.7873
 21
-440.4974
 31
0.0
  0
LINE
  5
7F6
100
AcDbEntity
  8
0
  6
CENTER
 62
     7
100
AcDbLine
 10
15.084869
 20
-414.3735
 30
0.0
 11
3.084869
 21
-414.3735
 31
0.0
  0
LINE
  5
7F7
100
AcDbEntity
  8
0
  6
CONTINUOUS
 62
     7
100
AcDbLine
 10
13.842339
 20
-391.77221
 30
0.0
 11
12.753342
 21
-394.11504
 31
0.0
  0
LINE
  5
7F8
100
AcDbEntity
  8
0
  6
CONTINUOUS
 62
     7
100
AcDbLine
 10
8.659279
 20
-418.35078
 30
0.0
 11
13.058937
 21
-413.91875
 31
0.0
  0
LINE
  5
7F9
100
AcDbEntity
  8
0
  6
CENTER
 62
     7
100
AcDbLine
 10
27.536968
 20
-339.84464
 30
0.0
 11
27.536968
 21
-351.84464
 31
0.0
  0
LINE
  5
7FA
100
AcDbEntity
  8
0
  6
CONTINUOUS
 62
     7
100
AcDbLine
 10
20.302761
 20
-410.75635
 30
0.0
 11
20.537365
 21
-413.32922
 31
0.0
  0
LINE
  5
7FB
100
AcDbEntity
  8
0
  6
CONTINUOUS
 62
     7
100
AcDbLine
 10
29.165775
 20
-436.34406
 30
0.0
 11
30.745537
 21
-430.30218
 31
0.0
  0
LINE
  5
7FC
100
AcDbEntity
  8
0
  6
CENTER
 62
     7
100
AcDbLine
 10
2.324867
 20
-383.26767
 30
0.0
 11
2.324867
 21
-395.26767
 31
0.0
  0
LINE
  5
7FD
100
AcDbEntity
  8
0
  6
CENTER
 62
     7
100
AcDbLine
 10
15.084869
 20
-364.16185
 30
0.0
 11
3.084869
 21
-364.16185
 31
0.0
  0
LINE
  5
7FE
100
AcDbEntity
  8
0
  6
CONTINUOUS
 62
     7
100
AcDbLine
 10
35.422443
 20
-423.93034
 30
0.0
 11
36.917099
 21
-426.03764
 31
0.0
  0
LINE
  5
7FF
100
AcDbEntity
  8
0
  6
CENTER
 62
     7
100
AcDbLine
 10
9.084869
 20
-408.3735
 30
0.0
 11
9.084869
 21
-420.3735
 31
0.0
  0
LINE
  5
800
100
AcDbEntity
  8
0
  6
CENTER
 62
     7
100
AcDbLine
 10
33.536968
 20
-432.6907
 30
0.0
 11
21.536968
 21
-432.6907
 31
0.0
  0
LINE
  5
801
100
AcDbEntity
  8
0
  6
CENTER
 62
     7
100
AcDbLine
 10
27.536968
 20
-426.6907
 30
0.0
 11
27.536968
 21
-438.6907
 31
0.0
  0
ARC
  5
802
100
AcDbEntity
  8
0
  6
CONTINUOUS
 62
     7
100
AcDbCircle
 10
58.500835
 20
-449.76767
 30
0.0
 40
0.5
100
AcDbArc
 50
118.95503
 51
270.0
  0
ARC
  5
803
100
AcDbEntity
  8
0
  6
CONTINUOUS
 62
     7
100
AcDbCircle
 10
78.69136
 20
-439.26767
 30
0.0
 40
11.0
100
AcDbArc
 50
270.0
 51
90.000003
  0
CIRCLE
  5
804
100
AcDbEntity
  8
0
  6
CONTINUOUS
 62
     7
100
AcDbCircle
 10
52.69136
 20
-439.26767
 30
0.0
 40
4.0
  0
ARC
  5
805
100
AcDbEntity
  8
0
  6
CONTINUOUS
 62
     7
100
AcDbCircle
 10
52.69136
 20
-439.26767
 30
0.0
 40
11.5
100
AcDbArc
 50
298.95503
 51
50.0
  0
ARC
  5
806
100
AcDbEntity
  8
0
  6
CONTINUOUS
 62
     7
100
AcDbCircle
 10
58.297138
 20
-428.56767
 30
0.0
 40
0.3
100
AcDbArc
 50
90.000003
 51
230.00001
  0
ARC
  5
807
100
AcDbEntity
  8
0
  6
CENTER
 62
     7
100
AcDbCircle
 10
52.324871
 20
-389.26767
 30
0.0
 40
50.0
100
AcDbArc
 50
90.000003
 51
270.0
  0
ARC
  5
808
100
AcDbEntity
  8
0
  6
CONTINUOUS
 62
     7
100
AcDbCircle
 10
-6.303566
 20
-397.60734
 30
0.0
 40
0.5
100
AcDbArc
 50
44.025026
 51
195.07
  0
ARC
  5
809
100
AcDbEntity
  8
0
  6
CONTINUOUS
 62
     7
100
AcDbCircle
 10
30.501366
 20
-444.31879
 30
0.0
 40
0.5
100
AcDbArc
 50
104.30202
 51
255.347
  0
ARC
  5
80A
100
AcDbEntity
  8
0
  6
CONTINUOUS
 62
     7
100
AcDbCircle
 10
9.084846
 20
-414.3735
 30
0.0
 40
11.0
100
AcDbArc
 50
195.07
 51
15.07
  0
ARC
  5
80B
100
AcDbEntity
  8
0
  6
CONTINUOUS
 62
     7
100
AcDbCircle
 10
27.536907
 20
-432.69077
 30
0.0
 40
11.0
100
AcDbArc
 50
225.21
 51
45.209999
  0
ARC
  5
80C
100
AcDbEntity
  8
0
  6
CONTINUOUS
 62
     7
100
AcDbCircle
 10
44.414738
 20
-330.57874
 30
0.0
 40
0.5
100
AcDbArc
 50
313.60783
 51
104.6528
  0
ARC
  5
80D
100
AcDbEntity
  8
0
  6
CONTINUOUS
 62
     7
100
AcDbCircle
 10
52.69136
 20
-339.26767
 30
0.0
 40
11.0
100
AcDbArc
 50
90.000003
 51
270.0
  0
CIRCLE
  5
80E
100
AcDbEntity
  8
0
  6
CONTINUOUS
 62
     7
100
AcDbCircle
 10
78.69136
 20
-339.26767
 30
0.0
 40
4.0
  0
ARC
  5
80F
100
AcDbEntity
  8
0
  6
CONTINUOUS
 62
     7
100
AcDbCircle
 10
78.69136
 20
-339.26767
 30
0.0
 40
11.5
100
AcDbArc
 50
118.95503
 51
230.00001
  0
ARC
  5
810
100
AcDbEntity
  8
0
  6
CONTINUOUS
 62
     7
100
AcDbCircle
 10
73.085583
 20
-349.96767
 30
0.0
 40
0.3
100
AcDbArc
 50
270.0
 51
50.0
  0
ARC
  5
811
100
AcDbEntity
  8
0
  6
CONTINUOUS
 62
     7
100
AcDbCircle
 10
16.016674
 20
-342.48565
 30
0.0
 40
0.5
100
AcDbArc
 50
343.74482
 51
134.78979
  0
ARC
  5
812
100
AcDbEntity
  8
0
  6
CONTINUOUS
 62
     7
100
AcDbCircle
 10
27.536972
 20
-345.84466
 30
0.0
 40
11.0
100
AcDbArc
 50
104.6528
 51
284.65281
  0
ARC
  5
813
100
AcDbEntity
  8
0
  6
CONTINUOUS
 62
     7
100
AcDbCircle
 10
2.324852
 20
-389.26767
 30
0.0
 40
11.0
100
AcDbArc
 50
164.9299
 51
344.92991
  0
ARC
  5
814
100
AcDbEntity
  8
0
  6
CONTINUOUS
 62
     7
100
AcDbCircle
 10
9.084869
 20
-364.16184
 30
0.0
 40
11.0
100
AcDbArc
 50
134.78979
 51
314.78981
  0
CIRCLE
  5
815
100
AcDbEntity
  8
0
  6
CONTINUOUS
 62
     7
100
AcDbCircle
 10
52.69136
 20
-339.26767
 30
0.0
 40
4.0
  0
ARC
  5
816
100
AcDbEntity
  8
0
  6
CONTINUOUS
 62
     7
100
AcDbCircle
 10
52.69136
 20
-339.26767
 30
0.0
 40
11.5
100
AcDbArc
 50
133.60783
 51
244.65281
  0
ARC
  5
817
100
AcDbEntity
  8
0
  6
CONTINUOUS
 62
     7
100
AcDbCircle
 10
72.881886
 20
-328.76767
 30
0.0
 40
0.5
100
AcDbArc
 50
298.95503
 51
90.000003
  0
ARC
  5
818
100
AcDbEntity
  8
0
  6
CONTINUOUS
 62
     7
100
AcDbCircle
 10
49.974585
 20
-351.03771
 30
0.0
 40
0.3
100
AcDbArc
 50
284.6528
 51
64.652802
  0
ARC
  5
819
100
AcDbEntity
  8
0
  6
CONTINUOUS
 62
     7
100
AcDbCircle
 10
5.810463
 20
-425.91811
 30
0.0
 40
0.5
100
AcDbArc
 50
74.165022
 51
225.21
  0
ARC
  5
81A
100
AcDbEntity
  8
0
  6
CONTINUOUS
 62
     7
100
AcDbCircle
 10
-2.564484
 20
-367.04152
 30
0.0
 40
0.5
100
AcDbArc
 50
13.884924
 51
164.9299
  0
CIRCLE
  5
81B
100
AcDbEntity
  8
0
  6
CONTINUOUS
 62
     7
100
AcDbCircle
 10
27.536968
 20
-345.84464
 30
0.0
 40
4.0
  0
ARC
  5
81C
100
AcDbEntity
  8
0
  6
CONTINUOUS
 62
     7
100
AcDbCircle
 10
27.536968
 20
-345.84464
 30
0.0
 40
11.5
100
AcDbArc
 50
163.74482
 51
274.78979
  0
ARC
  5
81D
100
AcDbEntity
  8
0
  6
CONTINUOUS
 62
     7
100
AcDbCircle
 10
31.096802
 20
-357.3877
 30
0.0
 40
0.3
100
AcDbArc
 50
314.7898
 51
94.789802
  0
CIRCLE
  5
81E
100
AcDbEntity
  8
0
  6
CONTINUOUS
 62
     7
100
AcDbCircle
 10
9.084869
 20
-364.16185
 30
0.0
 40
4.0
  0
ARC
  5
81F
100
AcDbEntity
  8
0
  6
CONTINUOUS
 62
     7
100
AcDbCircle
 10
9.084869
 20
-364.16185
 30
0.0
 40
11.5
100
AcDbArc
 50
193.88492
 51
304.9299
  0
ARC
  5
820
100
AcDbEntity
  8
0
  6
CONTINUOUS
 62
     7
100
AcDbCircle
 10
17.959377
 20
-372.35684
 30
0.0
 40
0.3
100
AcDbArc
 50
344.9299
 51
124.9299
  0
CIRCLE
  5
821
100
AcDbEntity
  8
0
  6
CONTINUOUS
 62
     7
100
AcDbCircle
 10
2.324867
 20
-389.26767
 30
0.0
 40
4.0
  0
ARC
  5
822
100
AcDbEntity
  8
0
  6
CONTINUOUS
 62
     7
100
AcDbCircle
 10
2.324867
 20
-389.26767
 30
0.0
 40
11.5
100
AcDbArc
 50
224.02503
 51
335.07
  0
ARC
  5
823
100
AcDbEntity
  8
0
  6
CONTINUOUS
 62
     7
100
AcDbCircle
 10
14.11438
 20
-391.89867
 30
0.0
 40
0.3
100
AcDbArc
 50
15.07
 51
155.07001
  0
ARC
  5
824
100
AcDbEntity
  8
0
  6
CONTINUOUS
 62
     7
100
AcDbCircle
 10
52.691332
 20
-439.26778
 30
0.0
 40
11.0
100
AcDbArc
 50
255.347
 51
75.347
  0
CIRCLE
  5
825
100
AcDbEntity
  8
0
  6
CONTINUOUS
 62
     7
100
AcDbCircle
 10
9.084869
 20
-414.3735
 30
0.0
 40
4.0
  0
ARC
  5
826
100
AcDbEntity
  8
0
  6
CONTINUOUS
 62
     7
100
AcDbCircle
 10
9.084869
 20
-414.3735
 30
0.0
 40
11.5
100
AcDbArc
 50
254.16502
 51
5.21
  0
ARC
  5
827
100
AcDbEntity
  8
0
  6
CONTINUOUS
 62
     7
100
AcDbCircle
 10
20.601517
 20
-410.7291
 30
0.0
 40
0.3
100
AcDbArc
 50
45.209999
 51
185.21001
  0
CIRCLE
  5
828
100
AcDbEntity
  8
0
  6
CONTINUOUS
 62
     7
100
AcDbCircle
 10
27.536968
 20
-432.6907
 30
0.0
 40
4.0
  0
ARC
  5
829
100
AcDbEntity
  8
0
  6
CONTINUOUS
 62
     7
100
AcDbCircle
 10
27.536968
 20
-432.6907
 30
0.0
 40
11.5
100
AcDbArc
 50
284.30202
 51
35.347001
  0
ARC
  5
82A
100
AcDbEntity
  8
0
  6
CONTINUOUS
 62
     7
100
AcDbCircle
 10
35.667141
 20
-423.75677
 30
0.0
 40
0.3
100
AcDbArc
 50
75.347
 51
215.347
  0
POINT
  5
82B
100
AcDbEntity
  8
0
  6
CONTINUOUS
 62
     7
100
AcDbPoint
 10
78.69136
 20
-517.2677
 30
0.0
  0
POINT
  5
82C
100
AcDbEntity
  8
0
  6
CONTINUOUS
 62
     7
100
AcDbPoint
 10
99.69136
 20
-517.2677
 30
0.0
  0
LINE
  5
82D
100
AcDbEntity
  8
0
  6
CONTINUOUS
 62
     7
100
AcDbLine
 10
69.69136
 20
-488.8677
 30
0.0
 11
62.69136
 21
-488.8677
 31
0.0
  0
LINE
  5
82E
100
AcDbEntity
  8
0
  6
CONTINUOUS
 62
     7
100
AcDbLine
 10
58.000835
 20
-491.7677
 30
0.0
 11
50.887722
 21
-491.7677
 31
0.0
  0
LINE
  5
82F
100
AcDbEntity
  8
0
  6
CONTINUOUS
 62
     7
100
AcDbLine
 10
69.69136
 20
-545.6677
 30
0.0
 11
69.69136
 21
-538.2677
 31
0.0
  0
LINE
  5
830
100
AcDbEntity
  8
0
  6
CONTINUOUS
 62
     7
100
AcDbLine
 10
84.000841
 20
-542.7677
 30
0.0
 11
79.69136
 21
-542.7677
 31
0.0
  0
LINE
  5
831
100
AcDbEntity
  8
0
  6
CENTER
 62
     7
100
AcDbLine
 10
99.69136
 20
-517.2677
 30
0.0
 11
-18.675148
 21
-517.2677
 31
0.0
  0
LINE
  5
832
100
AcDbEntity
  8
0
  6
CONTINUOUS
 62
     7
100
AcDbLine
 10
79.69136
 20
-496.2677
 30
0.0
 11
69.69136
 21
-496.2677
 31
0.0
  0
LINE
  5
833
100
AcDbEntity
  8
0
  6
CONTINUOUS
 62
     7
100
AcDbLine
 10
62.69136
 20
-496.2677
 30
0.0
 11
62.69136
 21
-488.8677
 31
0.0
  0
LINE
  5
834
100
AcDbEntity
  8
0
  6
CONTINUOUS
 62
     7
100
AcDbLine
 10
69.69136
 20
-496.2677
 30
0.0
 11
69.69136
 21
-488.8677
 31
0.0
  0
LINE
  5
835
100
AcDbEntity
  8
0
  6
CONTINUOUS
 62
     7
100
AcDbLine
 10
84.000841
 20
-491.7677
 30
0.0
 11
79.69136
 21
-491.7677
 31
0.0
  0
LINE
  5
836
100
AcDbEntity
  8
0
  6
CONTINUOUS
 62
     7
100
AcDbLine
 10
69.69136
 20
-545.6677
 30
0.0
 11
62.69136
 21
-545.6677
 31
0.0
  0
LINE
  5
837
100
AcDbEntity
  8
0
  6
CONTINUOUS
 62
     7
100
AcDbLine
 10
62.69136
 20
-545.6677
 30
0.0
 11
62.69136
 21
-538.2677
 31
0.0
  0
LINE
  5
838
100
AcDbEntity
  8
0
  6
CENTER
 62
     7
100
AcDbLine
 10
27.536968
 20
-554.2677
 30
0.0
 11
27.536968
 21
-480.2677
 31
0.0
  0
LINE
  5
839
100
AcDbEntity
  8
0
  6
CONTINUOUS
 62
     7
100
AcDbLine
 10
79.69136
 20
-538.2677
 30
0.0
 11
69.69136
 21
-538.2677
 31
0.0
  0
LINE
  5
83A
100
AcDbEntity
  8
0
  6
CONTINUOUS
 62
     7
100
AcDbLine
 10
62.69136
 20
-538.2677
 30
0.0
 11
41.201443
 21
-538.2677
 31
0.0
  0
LINE
  5
83B
100
AcDbEntity
  8
0
  6
CONTINUOUS
 62
     7
100
AcDbLine
 10
62.69136
 20
-496.2677
 30
0.0
 11
41.201443
 21
-496.2677
 31
0.0
  0
LINE
  5
83C
100
AcDbEntity
  8
0
  6
CONTINUOUS
 62
     7
100
AcDbLine
 10
58.000835
 20
-542.7677
 30
0.0
 11
50.887722
 21
-542.7677
 31
0.0
  0
LINE
  5
83D
100
AcDbEntity
  8
0
  6
CENTER
 62
     7
100
AcDbLine
 10
52.69136
 20
-554.2677
 30
0.0
 11
52.69136
 21
-480.2677
 31
0.0
  0
LINE
  5
83E
100
AcDbEntity
  8
0
  6
CENTER
 62
     7
100
AcDbLine
 10
78.69136
 20
-554.2677
 30
0.0
 11
78.69136
 21
-480.2677
 31
0.0
  0
LINE
  5
83F
100
AcDbEntity
  8
0
  6
CONTINUOUS
 62
     7
100
AcDbLine
 10
84.000841
 20
-547.2677
 30
0.0
 11
-8.675148
 21
-547.2677
 31
0.0
  0
LINE
  5
840
100
AcDbEntity
  8
0
  6
CONTINUOUS
 62
     7
100
AcDbLine
 10
84.000841
 20
-487.2677
 30
0.0
 11
-8.675148
 21
-487.2677
 31
0.0
  0
LINE
  5
841
100
AcDbEntity
  8
0
  6
CONTINUOUS
 62
     7
100
AcDbLine
 10
54.09136
 20
-538.2677
 30
0.0
 11
54.09136
 21
-496.2677
 31
0.0
  0
LINE
  5
842
100
AcDbEntity
  8
0
  6
CONTINUOUS
 62
     7
100
AcDbLine
 10
69.69136
 20
-545.4677
 30
0.0
 11
62.69136
 21
-545.4677
 31
0.0
  0
LINE
  5
843
100
AcDbEntity
  8
0
  6
CONTINUOUS
 62
     7
100
AcDbLine
 10
69.69136
 20
-489.0677
 30
0.0
 11
62.69136
 21
-489.0677
 31
0.0
  0
LINE
  5
844
100
AcDbEntity
  8
0
  6
CENTER
 62
     7
100
AcDbLine
 10
72.69136
 20
-492.6677
 30
0.0
 11
59.69136
 21
-492.6677
 31
0.0
  0
LINE
  5
845
100
AcDbEntity
  8
0
  6
CENTER
 62
     7
100
AcDbLine
 10
72.69136
 20
-541.8677
 30
0.0
 11
59.69136
 21
-541.8677
 31
0.0
  0
LINE
  5
846
100
AcDbEntity
  8
0
  6
CONTINUOUS
 62
     7
100
AcDbLine
 10
58.000835
 20
-547.2677
 30
0.0
 11
58.000835
 21
-542.7677
 31
0.0
  0
LINE
  5
847
100
AcDbEntity
  8
0
  6
CONTINUOUS
 62
     7
100
AcDbLine
 10
58.000835
 20
-491.7677
 30
0.0
 11
58.000835
 21
-487.2677
 31
0.0
  0
LINE
  5
848
100
AcDbEntity
  8
0
  6
CONTINUOUS
 62
     7
100
AcDbLine
 10
79.69136
 20
-542.7677
 30
0.0
 11
79.69136
 21
-491.7677
 31
0.0
  0
LINE
  5
849
100
AcDbEntity
  8
0
  6
CENTER
 62
     7
100
AcDbLine
 10
9.084869
 20
-554.2677
 30
0.0
 11
9.084869
 21
-480.2677
 31
0.0
  0
LINE
  5
84A
100
AcDbEntity
  8
0
  6
CENTER
 62
     7
100
AcDbLine
 10
2.324867
 20
-554.2677
 30
0.0
 11
2.324867
 21
-480.2677
 31
0.0
  0
LINE
  5
84B
100
AcDbEntity
  8
0
  6
CONTINUOUS
 62
     7
100
AcDbLine
 10
41.201443
 20
-488.8677
 30
0.0
 11
41.201443
 21
-496.2677
 31
0.0
  0
LINE
  5
84C
100
AcDbEntity
  8
0
  6
CONTINUOUS
 62
     7
100
AcDbLine
 10
34.429115
 20
-488.8677
 30
0.0
 11
34.429115
 21
-496.2677
 31
0.0
  0
LINE
  5
84D
100
AcDbEntity
  8
0
  6
CONTINUOUS
 62
     7
100
AcDbLine
 10
29.891148
 20
-487.2677
 30
0.0
 11
29.891148
 21
-491.7677
 31
0.0
  0
LINE
  5
84E
100
AcDbEntity
  8
0
  6
CONTINUOUS
 62
     7
100
AcDbLine
 10
26.108826
 20
-496.2677
 30
0.0
 11
26.108826
 21
-538.2677
 31
0.0
  0
LINE
  5
84F
100
AcDbEntity
  8
0
  6
CONTINUOUS
 62
     7
100
AcDbLine
 10
20.529076
 20
-491.7677
 30
0.0
 11
20.529076
 21
-542.7677
 31
0.0
  0
LINE
  5
850
100
AcDbEntity
  8
0
  6
CONTINUOUS
 62
     7
100
AcDbLine
 10
13.400047
 20
-488.8677
 30
0.0
 11
13.400047
 21
-496.2677
 31
0.0
  0
LINE
  5
851
100
AcDbEntity
  8
0
  6
CONTINUOUS
 62
     7
100
AcDbLine
 10
8.432198
 20
-488.8677
 30
0.0
 11
8.432198
 21
-496.2677
 31
0.0
  0
LINE
  5
852
100
AcDbEntity
  8
0
  6
CONTINUOUS
 62
     7
100
AcDbLine
 10
5.103355
 20
-487.2677
 30
0.0
 11
5.103355
 21
-491.7677
 31
0.0
  0
LINE
  5
853
100
AcDbEntity
  8
0
  6
CONTINUOUS
 62
     7
100
AcDbLine
 10
2.328827
 20
-496.2677
 30
0.0
 11
2.328827
 21
-538.2677
 31
0.0
  0
LINE
  5
854
100
AcDbEntity
  8
0
  6
CONTINUOUS
 62
     7
100
AcDbLine
 10
-1.232872
 20
-491.7677
 30
0.0
 11
-1.232872
 21
-542.7677
 31
0.0
  0
LINE
  5
855
100
AcDbEntity
  8
0
  6
CONTINUOUS
 62
     7
100
AcDbLine
 10
-3.876846
 20
-488.8677
 30
0.0
 11
-3.876846
 21
-496.2677
 31
0.0
  0
LINE
  5
856
100
AcDbEntity
  8
0
  6
CONTINUOUS
 62
     7
100
AcDbLine
 10
-5.696838
 20
-488.8677
 30
0.0
 11
-5.696838
 21
-496.2677
 31
0.0
  0
LINE
  5
857
100
AcDbEntity
  8
0
  6
CONTINUOUS
 62
     7
100
AcDbLine
 10
-6.916367
 20
-487.2677
 30
0.0
 11
-6.916367
 21
-491.7677
 31
0.0
  0
LINE
  5
858
100
AcDbEntity
  8
0
  6
CONTINUOUS
 62
     7
100
AcDbLine
 10
-7.932831
 20
-496.2677
 30
0.0
 11
-7.932831
 21
-538.2677
 31
0.0
  0
LINE
  5
859
100
AcDbEntity
  8
0
  6
CONTINUOUS
 62
     7
100
AcDbLine
 10
-8.675148
 20
-487.2677
 30
0.0
 11
-8.675148
 21
-547.2677
 31
0.0
  0
LINE
  5
85A
100
AcDbEntity
  8
0
  6
CONTINUOUS
 62
     7
100
AcDbLine
 10
50.887722
 20
-491.7677
 30
0.0
 11
50.887722
 21
-542.7677
 31
0.0
  0
LINE
  5
85B
100
AcDbEntity
  8
0
  6
CONTINUOUS
 62
     7
100
AcDbLine
 10
5.103355
 20
-491.7677
 30
0.0
 11
-1.232872
 21
-491.7677
 31
0.0
  0
LINE
  5
85C
100
AcDbEntity
  8
0
  6
CONTINUOUS
 62
     7
100
AcDbLine
 10
29.891148
 20
-542.7677
 30
0.0
 11
29.891148
 21
-547.2677
 31
0.0
  0
LINE
  5
85D
100
AcDbEntity
  8
0
  6
CONTINUOUS
 62
     7
100
AcDbLine
 10
-3.876846
 20
-488.8677
 30
0.0
 11
-5.696838
 21
-488.8677
 31
0.0
  0
LINE
  5
85E
100
AcDbEntity
  8
0
  6
CONTINUOUS
 62
     7
100
AcDbLine
 10
41.201443
 20
-538.2677
 30
0.0
 11
41.201443
 21
-545.6677
 31
0.0
  0
LINE
  5
85F
100
AcDbEntity
  8
0
  6
CONTINUOUS
 62
     7
100
AcDbLine
 10
34.429115
 20
-538.2677
 30
0.0
 11
34.429115
 21
-545.6677
 31
0.0
  0
LINE
  5
860
100
AcDbEntity
  8
0
  6
CONTINUOUS
 62
     7
100
AcDbLine
 10
13.400047
 20
-489.0677
 30
0.0
 11
8.432198
 21
-489.0677
 31
0.0
  0
LINE
  5
861
100
AcDbEntity
  8
0
  6
CONTINUOUS
 62
     7
100
AcDbLine
 10
13.400047
 20
-488.8677
 30
0.0
 11
8.432198
 21
-488.8677
 31
0.0
  0
LINE
  5
862
100
AcDbEntity
  8
0
  6
CONTINUOUS
 62
     7
100
AcDbLine
 10
34.429115
 20
-496.2677
 30
0.0
 11
13.400047
 21
-496.2677
 31
0.0
  0
LINE
  5
863
100
AcDbEntity
  8
0
  6
CONTINUOUS
 62
     7
100
AcDbLine
 10
29.891148
 20
-491.7677
 30
0.0
 11
20.529076
 21
-491.7677
 31
0.0
  0
LINE
  5
864
100
AcDbEntity
  8
0
  6
CONTINUOUS
 62
     7
100
AcDbLine
 10
8.432198
 20
-496.2677
 30
0.0
 11
-3.876846
 21
-496.2677
 31
0.0
  0
LINE
  5
865
100
AcDbEntity
  8
0
  6
CONTINUOUS
 62
     7
100
AcDbLine
 10
41.201443
 20
-488.8677
 30
0.0
 11
34.429115
 21
-488.8677
 31
0.0
  0
LINE
  5
866
100
AcDbEntity
  8
0
  6
CONTINUOUS
 62
     7
100
AcDbLine
 10
41.201443
 20
-489.0677
 30
0.0
 11
34.429115
 21
-489.0677
 31
0.0
  0
LINE
  5
867
100
AcDbEntity
  8
0
  6
CONTINUOUS
 62
     7
100
AcDbLine
 10
13.400047
 20
-538.2677
 30
0.0
 11
13.400047
 21
-545.6677
 31
0.0
  0
LINE
  5
868
100
AcDbEntity
  8
0
  6
CONTINUOUS
 62
     7
100
AcDbLine
 10
8.432198
 20
-538.2677
 30
0.0
 11
8.432198
 21
-545.6677
 31
0.0
  0
LINE
  5
869
100
AcDbEntity
  8
0
  6
CONTINUOUS
 62
     7
100
AcDbLine
 10
5.103355
 20
-542.7677
 30
0.0
 11
5.103355
 21
-547.2677
 31
0.0
  0
LINE
  5
86A
100
AcDbEntity
  8
0
  6
CONTINUOUS
 62
     7
100
AcDbLine
 10
-3.876846
 20
-538.2677
 30
0.0
 11
-3.876846
 21
-545.6677
 31
0.0
  0
LINE
  5
86B
100
AcDbEntity
  8
0
  6
CONTINUOUS
 62
     7
100
AcDbLine
 10
-5.696838
 20
-538.2677
 30
0.0
 11
-5.696838
 21
-545.6677
 31
0.0
  0
LINE
  5
86C
100
AcDbEntity
  8
0
  6
CONTINUOUS
 62
     7
100
AcDbLine
 10
-3.876846
 20
-489.0677
 30
0.0
 11
-5.696838
 21
-489.0677
 31
0.0
  0
LINE
  5
86D
100
AcDbEntity
  8
0
  6
CONTINUOUS
 62
     7
100
AcDbLine
 10
5.103355
 20
-542.7677
 30
0.0
 11
-1.232872
 21
-542.7677
 31
0.0
  0
LINE
  5
86E
100
AcDbEntity
  8
0
  6
CONTINUOUS
 62
     7
100
AcDbLine
 10
29.891148
 20
-542.7677
 30
0.0
 11
20.529076
 21
-542.7677
 31
0.0
  0
LINE
  5
86F
100
AcDbEntity
  8
0
  6
CONTINUOUS
 62
     7
100
AcDbLine
 10
34.429115
 20
-538.2677
 30
0.0
 11
13.400047
 21
-538.2677
 31
0.0
  0
LINE
  5
870
100
AcDbEntity
  8
0
  6
CONTINUOUS
 62
     7
100
AcDbLine
 10
13.400047
 20
-545.4677
 30
0.0
 11
8.432198
 21
-545.4677
 31
0.0
  0
LINE
  5
871
100
AcDbEntity
  8
0
  6
CONTINUOUS
 62
     7
100
AcDbLine
 10
-6.916367
 20
-491.7677
 30
0.0
 11
-8.675148
 21
-491.7677
 31
0.0
  0
LINE
  5
872
100
AcDbEntity
  8
0
  6
CONTINUOUS
 62
     7
100
AcDbLine
 10
-5.696838
 20
-496.2677
 30
0.0
 11
-8.675148
 21
-496.2677
 31
0.0
  0
LINE
  5
873
100
AcDbEntity
  8
0
  6
CONTINUOUS
 62
     7
100
AcDbLine
 10
41.201443
 20
-545.4677
 30
0.0
 11
34.429115
 21
-545.4677
 31
0.0
  0
LINE
  5
874
100
AcDbEntity
  8
0
  6
CONTINUOUS
 62
     7
100
AcDbLine
 10
41.201443
 20
-545.6677
 30
0.0
 11
34.429115
 21
-545.6677
 31
0.0
  0
LINE
  5
875
100
AcDbEntity
  8
0
  6
CONTINUOUS
 62
     7
100
AcDbLine
 10
13.400047
 20
-545.6677
 30
0.0
 11
8.432198
 21
-545.6677
 31
0.0
  0
LINE
  5
876
100
AcDbEntity
  8
0
  6
CONTINUOUS
 62
     7
100
AcDbLine
 10
8.432198
 20
-538.2677
 30
0.0
 11
-3.876846
 21
-538.2677
 31
0.0
  0
LINE
  5
877
100
AcDbEntity
  8
0
  6
CONTINUOUS
 62
     7
100
AcDbLine
 10
-3.876846
 20
-545.6677
 30
0.0
 11
-5.696838
 21
-545.6677
 31
0.0
  0
LINE
  5
878
100
AcDbEntity
  8
0
  6
CONTINUOUS
 62
     7
100
AcDbLine
 10
-3.876846
 20
-545.4677
 30
0.0
 11
-5.696838
 21
-545.4677
 31
0.0
  0
LINE
  5
879
100
AcDbEntity
  8
0
  6
CONTINUOUS
 62
     7
100
AcDbLine
 10
-6.916367
 20
-542.7677
 30
0.0
 11
-8.675148
 21
-542.7677
 31
0.0
  0
LINE
  5
87A
100
AcDbEntity
  8
0
  6
CONTINUOUS
 62
     7
100
AcDbLine
 10
-5.696838
 20
-538.2677
 30
0.0
 11
-8.675148
 21
-538.2677
 31
0.0
  0
LINE
  5
87B
100
AcDbEntity
  8
0
  6
CONTINUOUS
 62
     7
100
AcDbLine
 10
-6.916367
 20
-542.7677
 30
0.0
 11
-6.916367
 21
-547.2677
 31
0.0
  0
POINT
  5
87C
100
AcDbEntity
  8
0
  6
CONTINUOUS
 62
     7
100
AcDbPoint
 10
218.69136
 20
-293.26767
 30
0.0
  0
POINT
  5
87D
100
AcDbEntity
  8
0
  6
CONTINUOUS
 62
     7
100
AcDbPoint
 10
236.69136
 20
-293.26767
 30
0.0
  0
LINE
  5
87E
100
AcDbEntity
  8
0
  6
CENTER
 62
     7
100
AcDbLine
 10
218.69136
 20
-256.26767
 30
0.0
 11
218.69136
 21
-330.26767
 31
0.0
  0
LINE
  5
87F
100
AcDbEntity
  8
0
  6
CONTINUOUS
 62
     4
100
AcDbLine
 10
229.39136
 20
-272.26767
 30
0.0
 11
229.39136
 21
-314.26767
 31
0.0
  0
LINE
  5
880
100
AcDbEntity
  8
0
  6
CONTINUOUS
 62
     4
100
AcDbLine
 10
225.69136
 20
-272.26767
 30
0.0
 11
225.69136
 21
-314.26767
 31
0.0
  0
LINE
  5
881
100
AcDbEntity
  8
0
  6
CONTINUOUS
 62
     7
100
AcDbLine
 10
229.69136
 20
-263.26767
 30
0.0
 11
229.69136
 21
-272.26767
 31
0.0
  0
LINE
  5
882
100
AcDbEntity
  8
0
  6
CONTINUOUS
 62
     7
100
AcDbLine
 10
207.69136
 20
-263.26767
 30
0.0
 11
207.69136
 21
-323.26767
 31
0.0
  0
LINE
  5
883
100
AcDbEntity
  8
0
  6
CONTINUOUS
 62
     7
100
AcDbLine
 10
212.69136
 20
-272.26767
 30
0.0
 11
212.69136
 21
-314.26767
 31
0.0
  0
LINE
  5
884
100
AcDbEntity
  8
0
  6
CONTINUOUS
 62
     7
100
AcDbLine
 10
208.19136
 20
-267.76767
 30
0.0
 11
208.19136
 21
-318.76767
 31
0.0
  0
LINE
  5
885
100
AcDbEntity
  8
0
  6
CONTINUOUS
 62
     7
100
AcDbLine
 10
229.69136
 20
-323.26767
 30
0.0
 11
207.69136
 21
-323.26767
 31
0.0
  0
LINE
  5
886
100
AcDbEntity
  8
0
  6
CENTER
 62
     7
100
AcDbLine
 10
236.69136
 20
-293.26767
 30
0.0
 11
200.69136
 21
-293.26767
 31
0.0
  0
LINE
  5
887
100
AcDbEntity
  8
0
  6
CENTER
 62
     7
100
AcDbLine
 10
226.19136
 20
-264.66767
 30
0.0
 11
226.19136
 21
-271.86767
 31
0.0
  0
LINE
  5
888
100
AcDbEntity
  8
0
  6
CONTINUOUS
 62
     7
100
AcDbLine
 10
229.69136
 20
-314.26767
 30
0.0
 11
208.19136
 21
-314.26767
 31
0.0
  0
LINE
  5
889
100
AcDbEntity
  8
0
  6
CONTINUOUS
 62
     7
100
AcDbLine
 10
229.69136
 20
-272.26767
 30
0.0
 11
208.19136
 21
-272.26767
 31
0.0
  0
LINE
  5
88A
100
AcDbEntity
  8
0
  6
CONTINUOUS
 62
     7
100
AcDbLine
 10
229.69136
 20
-318.76767
 30
0.0
 11
207.69136
 21
-318.76767
 31
0.0
  0
LINE
  5
88B
100
AcDbEntity
  8
0
  6
CONTINUOUS
 62
     7
100
AcDbLine
 10
229.69136
 20
-267.76767
 30
0.0
 11
207.69136
 21
-267.76767
 31
0.0
  0
LINE
  5
88C
100
AcDbEntity
  8
0
  6
CONTINUOUS
 62
     7
100
AcDbLine
 10
229.69136
 20
-314.26767
 30
0.0
 11
229.69136
 21
-323.26767
 31
0.0
  0
LINE
  5
88D
100
AcDbEntity
  8
0
  6
CENTER
 62
     7
100
AcDbLine
 10
279.79136
 20
-268.26767
 30
0.0
 11
272.59136
 21
-268.26767
 31
0.0
  0
LINE
  5
88E
100
AcDbEntity
  8
0
  6
CENTER
 62
     7
100
AcDbLine
 10
226.19136
 20
-321.86767
 30
0.0
 11
226.19136
 21
-314.66767
 31
0.0
  0
LINE
  5
88F
100
AcDbEntity
  8
0
  6
CENTER
 62
     7
100
AcDbLine
 10
276.19136
 20
-264.66767
 30
0.0
 11
276.19136
 21
-271.86767
 31
0.0
  0
LINE
  5
890
100
AcDbEntity
  8
0
  6
DASHED
 62
     4
100
AcDbLine
 10
270.89136
 20
-268.76767
 30
0.0
 11
231.49136
 21
-268.76767
 31
0.0
  0
LINE
  5
891
100
AcDbEntity
  8
0
  6
DASHED
 62
     4
100
AcDbLine
 10
271.39136
 20
-268.26767
 30
0.0
 11
274.59135
 21
-268.26767
 31
0.0
  0
LINE
  5
892
100
AcDbEntity
  8
0
  6
DASHED
 62
     4
100
AcDbLine
 10
276.99136
 20
-269.65269
 30
0.0
 11
277.12337
 21
-271.17567
 31
0.0
  0
LINE
  5
893
100
AcDbEntity
  8
0
  6
DASHED
 62
     4
100
AcDbLine
 10
277.22336
 20
-271.26767
 30
0.0
 11
277.53436
 21
-271.26767
 31
0.0
  0
LINE
  5
894
100
AcDbEntity
  8
0
  6
CENTER
 62
     7
100
AcDbLine
 10
229.79136
 20
-318.26767
 30
0.0
 11
222.59136
 21
-318.26767
 31
0.0
  0
LINE
  5
895
100
AcDbEntity
  8
0
  6
DASHED
 62
     4
100
AcDbLine
 10
278.51637
 20
-270.38068
 30
0.0
 11
279.39137
 21
-268.26767
 31
0.0
  0
LINE
  5
896
100
AcDbEntity
  8
0
  6
CONTINUOUS
 62
     7
100
AcDbLine
 10
207.69136
 20
-263.26767
 30
0.0
 11
229.69136
 21
-263.26767
 31
0.0
  0
LINE
  5
897
100
AcDbEntity
  8
0
  6
DASHED
 62
     4
100
AcDbLine
 10
226.19136
 20
-265.06767
 30
0.0
 11
276.19136
 21
-265.06767
 31
0.0
  0
LINE
  5
898
100
AcDbEntity
  8
0
  6
CENTER
 62
     7
100
AcDbLine
 10
251.19136
 20
-263.26767
 30
0.0
 11
251.19136
 21
-272.26767
 31
0.0
  0
LINE
  5
899
100
AcDbEntity
  8
0
  6
DASHED
 62
     4
100
AcDbLine
 10
230.99136
 20
-268.26767
 30
0.0
 11
227.79137
 21
-268.26767
 31
0.0
  0
LINE
  5
89A
100
AcDbEntity
  8
0
  6
DASHED
 62
     4
100
AcDbLine
 10
225.39136
 20
-269.65269
 30
0.0
 11
225.25935
 21
-271.17567
 31
0.0
  0
LINE
  5
89B
100
AcDbEntity
  8
0
  6
DASHED
 62
     4
100
AcDbLine
 10
225.15936
 20
-271.26767
 30
0.0
 11
224.84836
 21
-271.26767
 31
0.0
  0
LINE
  5
89C
100
AcDbEntity
  8
0
  6
CENTER
 62
     7
100
AcDbLine
 10
229.79136
 20
-268.26767
 30
0.0
 11
222.59136
 21
-268.26767
 31
0.0
  0
LINE
  5
89D
100
AcDbEntity
  8
0
  6
DASHED
 62
     4
100
AcDbLine
 10
223.86636
 20
-270.38068
 30
0.0
 11
222.99135
 21
-268.26767
 31
0.0
  0
ARC
  5
89E
100
AcDbEntity
  8
0
  6
DASHED
 62
     4
100
AcDbCircle
 10
276.19136
 20
-268.26767
 30
0.0
 40
3.2
100
AcDbArc
 50
359.9997
 51
89.998992
  0
ARC
  5
89F
100
AcDbEntity
  8
0
  6
DASHED
 62
     4
100
AcDbCircle
 10
277.57635
 20
-269.06766
 30
0.0
 40
0.4
100
AcDbArc
 50
232.81499
 51
67.183004
  0
ARC
  5
8A0
100
AcDbEntity
  8
0
  6
DASHED
 62
     4
100
AcDbCircle
 10
276.19136
 20
-268.26767
 30
0.0
 40
1.6
100
AcDbArc
 50
344.3624
 51
180.00001
  0
ARC
  5
8A1
100
AcDbEntity
  8
0
  6
DASHED
 62
     4
100
AcDbCircle
 10
270.89136
 20
-268.26767
 30
0.0
 40
0.5
100
AcDbArc
 50
270.0
 51
0.000003
  0
ARC
  5
8A2
100
AcDbEntity
  8
0
  6
DASHED
 62
     4
100
AcDbCircle
 10
276.19136
 20
-268.26767
 30
0.0
 40
1.6
100
AcDbArc
 50
300.0009
 51
315.6401
  0
ARC
  5
8A3
100
AcDbEntity
  8
0
  6
CONTINUOUS
 62
     4
100
AcDbCircle
 10
277.22336
 20
-271.16766
 30
0.0
 40
0.1
100
AcDbArc
 50
184.98601
 51
270.00174
  0
ARC
  5
8A4
100
AcDbEntity
  8
0
  6
DASHED
 62
     4
100
AcDbCircle
 10
276.97536
 20
-269.66165
 30
0.0
 40
1.7
100
AcDbArc
 50
289.1678
 51
334.9555
  0
ARC
  5
8A5
100
AcDbEntity
  8
0
  6
DASHED
 62
     4
100
AcDbCircle
 10
226.19136
 20
-268.26767
 30
0.0
 40
3.2
100
AcDbArc
 50
90.001007
 51
180.00029
  0
ARC
  5
8A6
100
AcDbEntity
  8
0
  6
DASHED
 62
     4
100
AcDbCircle
 10
224.80637
 20
-269.06766
 30
0.0
 40
0.4
100
AcDbArc
 50
112.81699
 51
307.185
  0
ARC
  5
8A7
100
AcDbEntity
  8
0
  6
DASHED
 62
     4
100
AcDbCircle
 10
226.19136
 20
-268.26767
 30
0.0
 40
1.6
100
AcDbArc
 50
0.0
 51
195.6376
  0
ARC
  5
8A8
100
AcDbEntity
  8
0
  6
DASHED
 62
     4
100
AcDbCircle
 10
231.49136
 20
-268.26767
 30
0.0
 40
0.5
100
AcDbArc
 50
179.99999
 51
270.0
  0
ARC
  5
8A9
100
AcDbEntity
  8
0
  6
DASHED
 62
     4
100
AcDbCircle
 10
226.19136
 20
-268.26767
 30
0.0
 40
1.6
100
AcDbArc
 50
224.3599
 51
239.9991
  0
ARC
  5
8AA
100
AcDbEntity
  8
0
  6
CONTINUOUS
 62
     4
100
AcDbCircle
 10
225.15936
 20
-271.16766
 30
0.0
 40
0.1
100
AcDbArc
 50
269.99826
 51
355.014
  0
ARC
  5
8AB
100
AcDbEntity
  8
0
  6
DASHED
 62
     4
100
AcDbCircle
 10
225.40736
 20
-269.66165
 30
0.0
 40
1.7
100
AcDbArc
 50
205.0445
 51
250.8322
  0
POINT
  5
8AC
100
AcDbEntity
  8
0
  6
CONTINUOUS
 62
     7
100
AcDbPoint
 10
378.69138
 20
-293.26767
 30
0.0
  0
POINT
  5
8AD
100
AcDbEntity
  8
0
  6
CONTINUOUS
 62
     7
100
AcDbPoint
 10
395.69138
 20
-293.26767
 30
0.0
  0
LINE
  5
8AE
100
AcDbEntity
  8
0
  6
CONTINUOUS
 62
     7
100
AcDbLine
 10
341.69138
 20
-318.76767
 30
0.0
 11
351.69138
 21
-318.76767
 31
0.0
  0
LINE
  5
8AF
100
AcDbEntity
  8
0
  6
CONTINUOUS
 62
     4
100
AcDbLine
 10
351.69138
 20
-314.26767
 30
0.0
 11
361.74137
 21
-314.26767
 31
0.0
  0
LINE
  5
8B0
100
AcDbEntity
  8
0
  6
CONTINUOUS
 62
     7
100
AcDbLine
 10
368.69138
 20
-264.86767
 30
0.0
 11
368.69138
 21
-272.26767
 31
0.0
  0
LINE
  5
8B1
100
AcDbEntity
  8
0
  6
CENTER
 62
     7
100
AcDbLine
 10
334.69138
 20
-293.26767
 30
0.0
 11
395.69138
 21
-293.26767
 31
0.0
  0
LINE
  5
8B2
100
AcDbEntity
  8
0
  6
CONTINUOUS
 62
     7
100
AcDbLine
 10
361.69138
 20
-321.66767
 30
0.0
 11
368.69138
 21
-321.66767
 31
0.0
  0
LINE
  5
8B3
100
AcDbEntity
  8
0
  6
CONTINUOUS
 62
     7
100
AcDbLine
 10
361.69138
 20
-264.86767
 30
0.0
 11
368.69138
 21
-264.86767
 31
0.0
  0
LINE
  5
8B4
100
AcDbEntity
  8
0
  6
CONTINUOUS
 62
     7
100
AcDbLine
 10
361.69138
 20
-314.26767
 30
0.0
 11
361.69138
 21
-321.66767
 31
0.0
  0
LINE
  5
8B5
100
AcDbEntity
  8
0
  6
CONTINUOUS
 62
     7
100
AcDbLine
 10
368.69138
 20
-314.26767
 30
0.0
 11
368.69138
 21
-321.66767
 31
0.0
  0
LINE
  5
8B6
100
AcDbEntity
  8
0
  6
CONTINUOUS
 62
     7
100
AcDbLine
 10
341.69138
 20
-267.76767
 30
0.0
 11
351.69138
 21
-267.76767
 31
0.0
  0
LINE
  5
8B7
100
AcDbEntity
  8
0
  6
CONTINUOUS
 62
     7
100
AcDbLine
 10
361.69138
 20
-264.86767
 30
0.0
 11
361.69138
 21
-272.26767
 31
0.0
  0
LINE
  5
8B8
100
AcDbEntity
  8
0
  6
CONTINUOUS
 62
     7
100
AcDbLine
 10
368.64138
 20
-272.26767
 30
0.0
 11
388.69138
 21
-272.26767
 31
0.0
  0
LINE
  5
8B9
100
AcDbEntity
  8
0
  6
CONTINUOUS
 62
     7
100
AcDbLine
 10
368.64138
 20
-314.26767
 30
0.0
 11
388.69138
 21
-314.26767
 31
0.0
  0
LINE
  5
8BA
100
AcDbEntity
  8
0
  6
CENTER
 62
     7
100
AcDbLine
 10
378.69138
 20
-256.26767
 30
0.0
 11
378.69138
 21
-330.26767
 31
0.0
  0
LINE
  5
8BB
100
AcDbEntity
  8
0
  6
CENTER
 62
     7
100
AcDbLine
 10
352.69138
 20
-256.26767
 30
0.0
 11
352.69138
 21
-330.26767
 31
0.0
  0
LINE
  5
8BC
100
AcDbEntity
  8
0
  6
CONTINUOUS
 62
     7
100
AcDbLine
 10
341.69138
 20
-263.26767
 30
0.0
 11
373.3819
 21
-263.26767
 31
0.0
  0
LINE
  5
8BD
100
AcDbEntity
  8
0
  6
CONTINUOUS
 62
     7
100
AcDbLine
 10
341.69138
 20
-323.26767
 30
0.0
 11
373.3819
 21
-323.26767
 31
0.0
  0
LINE
  5
8BE
100
AcDbEntity
  8
0
  6
CONTINUOUS
 62
     4
100
AcDbLine
 10
377.29138
 20
-272.26767
 30
0.0
 11
377.29138
 21
-314.26767
 31
0.0
  0
LINE
  5
8BF
100
AcDbEntity
  8
0
  6
CONTINUOUS
 62
     4
100
AcDbLine
 10
361.74137
 20
-265.06767
 30
0.0
 11
368.64138
 21
-265.06767
 31
0.0
  0
LINE
  5
8C0
100
AcDbEntity
  8
0
  6
CONTINUOUS
 62
     4
100
AcDbLine
 10
361.74137
 20
-321.46767
 30
0.0
 11
368.64138
 21
-321.46767
 31
0.0
  0
LINE
  5
8C1
100
AcDbEntity
  8
0
  6
CENTER
 62
     7
100
AcDbLine
 10
359.69138
 20
-318.26767
 30
0.0
 11
370.69138
 21
-318.26767
 31
0.0
  0
LINE
  5
8C2
100
AcDbEntity
  8
0
  6
CENTER
 62
     7
100
AcDbLine
 10
359.69138
 20
-268.26767
 30
0.0
 11
370.69138
 21
-268.26767
 31
0.0
  0
LINE
  5
8C3
100
AcDbEntity
  8
0
  6
CONTINUOUS
 62
     7
100
AcDbLine
 10
373.3819
 20
-263.26767
 30
0.0
 11
373.3819
 21
-267.96767
 31
0.0
  0
LINE
  5
8C4
100
AcDbEntity
  8
0
  6
CONTINUOUS
 62
     7
100
AcDbLine
 10
373.3819
 20
-318.56767
 30
0.0
 11
373.3819
 21
-323.26767
 31
0.0
  0
LINE
  5
8C5
100
AcDbEntity
  8
0
  6
CONTINUOUS
 62
     7
100
AcDbLine
 10
351.69138
 20
-267.76767
 30
0.0
 11
351.69138
 21
-272.26767
 31
0.0
  0
LINE
  5
8C6
100
AcDbEntity
  8
0
  6
CONTINUOUS
 62
     7
100
AcDbLine
 10
341.69138
 20
-263.26767
 30
0.0
 11
341.69138
 21
-267.76767
 31
0.0
  0
LINE
  5
8C7
100
AcDbEntity
  8
0
  6
CONTINUOUS
 62
     7
100
AcDbLine
 10
388.69138
 20
-314.26767
 30
0.0
 11
388.69138
 21
-318.56767
 31
0.0
  0
LINE
  5
8C8
100
AcDbEntity
  8
0
  6
CONTINUOUS
 62
     7
100
AcDbLine
 10
341.69138
 20
-318.76767
 30
0.0
 11
341.69138
 21
-323.26767
 31
0.0
  0
LINE
  5
8C9
100
AcDbEntity
  8
0
  6
CONTINUOUS
 62
     7
100
AcDbLine
 10
388.69138
 20
-267.96767
 30
0.0
 11
388.69138
 21
-272.26767
 31
0.0
  0
LINE
  5
8CA
100
AcDbEntity
  8
0
  6
CONTINUOUS
 62
     4
100
AcDbLine
 10
385.69138
 20
-272.26767
 30
0.0
 11
385.69138
 21
-314.26767
 31
0.0
  0
LINE
  5
8CB
100
AcDbEntity
  8
0
  6
CONTINUOUS
 62
     4
100
AcDbLine
 10
361.74137
 20
-265.06767
 30
0.0
 11
361.74137
 21
-272.26767
 31
0.0
  0
LINE
  5
8CC
100
AcDbEntity
  8
0
  6
CONTINUOUS
 62
     4
100
AcDbLine
 10
368.64138
 20
-265.06767
 30
0.0
 11
368.64138
 21
-272.26767
 31
0.0
  0
LINE
  5
8CD
100
AcDbEntity
  8
0
  6
CONTINUOUS
 62
     4
100
AcDbLine
 10
368.64138
 20
-314.26767
 30
0.0
 11
368.64138
 21
-321.46767
 31
0.0
  0
LINE
  5
8CE
100
AcDbEntity
  8
0
  6
CONTINUOUS
 62
     7
100
AcDbLine
 10
351.69138
 20
-314.26767
 30
0.0
 11
361.74137
 21
-314.26767
 31
0.0
  0
LINE
  5
8CF
100
AcDbEntity
  8
0
  6
CONTINUOUS
 62
     4
100
AcDbLine
 10
368.64138
 20
-272.26767
 30
0.0
 11
385.69138
 21
-272.26767
 31
0.0
  0
LINE
  5
8D0
100
AcDbEntity
  8
0
  6
CONTINUOUS
 62
     7
100
AcDbLine
 10
351.69138
 20
-272.26767
 30
0.0
 11
361.74137
 21
-272.26767
 31
0.0
  0
LINE
  5
8D1
100
AcDbEntity
  8
0
  6
CONTINUOUS
 62
     4
100
AcDbLine
 10
361.74137
 20
-314.26767
 30
0.0
 11
361.74137
 21
-321.46767
 31
0.0
  0
LINE
  5
8D2
100
AcDbEntity
  8
0
  6
CONTINUOUS
 62
     4
100
AcDbLine
 10
351.69138
 20
-272.26767
 30
0.0
 11
361.74137
 21
-272.26767
 31
0.0
  0
LINE
  5
8D3
100
AcDbEntity
  8
0
  6
CONTINUOUS
 62
     7
100
AcDbLine
 10
351.69138
 20
-314.26767
 30
0.0
 11
351.69138
 21
-318.76767
 31
0.0
  0
LINE
  5
8D4
100
AcDbEntity
  8
0
  6
CONTINUOUS
 62
     4
100
AcDbLine
 10
351.69138
 20
-272.26767
 30
0.0
 11
351.69138
 21
-314.26767
 31
0.0
  0
LINE
  5
8D5
100
AcDbEntity
  8
0
  6
CONTINUOUS
 62
     7
100
AcDbLine
 10
374.69138
 20
-263.26767
 30
0.0
 11
376.19138
 21
-263.26767
 31
0.0
  0
LINE
  5
8D6
100
AcDbEntity
  8
0
  6
CONTINUOUS
 62
     7
100
AcDbLine
 10
374.69138
 20
-263.26767
 30
0.0
 11
374.69138
 21
-267.96767
 31
0.0
  0
LINE
  5
8D7
100
AcDbEntity
  8
0
  6
CONTINUOUS
 62
     7
100
AcDbLine
 10
382.69138
 20
-265.63348
 30
0.0
 11
382.69138
 21
-267.96767
 31
0.0
  0
LINE
  5
8D8
100
AcDbEntity
  8
0
  6
CONTINUOUS
 62
     7
100
AcDbLine
 10
382.69138
 20
-320.90186
 30
0.0
 11
382.69138
 21
-318.56767
 31
0.0
  0
LINE
  5
8D9
100
AcDbEntity
  8
0
  6
CONTINUOUS
 62
     7
100
AcDbLine
 10
374.69138
 20
-323.26767
 30
0.0
 11
374.69138
 21
-318.56767
 31
0.0
  0
LINE
  5
8DA
100
AcDbEntity
  8
0
  6
CONTINUOUS
 62
     7
100
AcDbLine
 10
374.69138
 20
-323.26767
 30
0.0
 11
376.19138
 21
-323.26767
 31
0.0
  0
LINE
  5
8DB
100
AcDbEntity
  8
0
  6
CONTINUOUS
 62
     7
100
AcDbLine
 10
373.3819
 20
-267.96767
 30
0.0
 11
388.69138
 21
-267.96767
 31
0.0
  0
LINE
  5
8DC
100
AcDbEntity
  8
0
  6
CONTINUOUS
 62
     7
100
AcDbLine
 10
373.3819
 20
-318.56767
 30
0.0
 11
388.69138
 21
-318.56767
 31
0.0
  0
LINE
  5
8DD
100
AcDbEntity
  8
0
  6
CONTINUOUS
 62
     4
100
AcDbLine
 10
368.64138
 20
-314.26767
 30
0.0
 11
385.69138
 21
-314.26767
 31
0.0
  0
LINE
  5
8DE
100
AcDbEntity
  8
0
  6
CONTINUOUS
 62
     7
100
AcDbLine
 10
376.19138
 20
-263.26767
 30
0.0
 11
382.69138
 21
-265.63348
 31
0.0
  0
LINE
  5
8DF
100
AcDbEntity
  8
0
  6
CONTINUOUS
 62
     7
100
AcDbLine
 10
376.19138
 20
-323.26767
 30
0.0
 11
382.69138
 21
-320.90186
 31
0.0
  0
POINT
  5
8E0
100
AcDbEntity
  8
0
  6
CONTINUOUS
 62
     7
100
AcDbPoint
 10
378.69138
 20
-389.26767
 30
0.0
  0
POINT
  5
8E1
100
AcDbEntity
  8
0
  6
CONTINUOUS
 62
     7
100
AcDbPoint
 10
384.69138
 20
-389.26767
 30
0.0
  0
LINE
  5
8E2
100
AcDbEntity
  8
0
  6
CENTER
 62
     7
100
AcDbLine
 10
352.69138
 20
-383.26767
 30
0.0
 11
352.69138
 21
-395.26767
 31
0.0
  0
LINE
  5
8E3
100
AcDbEntity
  8
0
  6
CENTER
 62
     7
100
AcDbLine
 10
346.69138
 20
-389.26767
 30
0.0
 11
358.69138
 21
-389.26767
 31
0.0
  0
LINE
  5
8E4
100
AcDbEntity
  8
0
  6
CONTINUOUS
 62
     7
100
AcDbLine
 10
377.29138
 20
-378.26767
 30
0.0
 11
352.69138
 21
-378.26767
 31
0.0
  0
LINE
  5
8E5
100
AcDbEntity
  8
0
  6
CONTINUOUS
 62
     7
100
AcDbLine
 10
373.0856
 20
-400.26767
 30
0.0
 11
352.69138
 21
-400.26767
 31
0.0
  0
LINE
  5
8E6
100
AcDbEntity
  8
0
  6
CONTINUOUS
 62
     7
100
AcDbLine
 10
370.56127
 20
-397.40102
 30
0.0
 11
371.18372
 21
-396.65922
 31
0.0
  0
LINE
  5
8E7
100
AcDbEntity
  8
0
  6
CENTER
 62
     7
100
AcDbLine
 10
378.69138
 20
-383.26767
 30
0.0
 11
378.69138
 21
-395.26767
 31
0.0
  0
LINE
  5
8E8
100
AcDbEntity
  8
0
  6
CENTER
 62
     7
100
AcDbLine
 10
372.69138
 20
-389.26767
 30
0.0
 11
384.69138
 21
-389.26767
 31
0.0
  0
LINE
  5
8E9
100
AcDbEntity
  8
0
  6
CONTINUOUS
 62
     7
100
AcDbLine
 10
373.27843
 20
-399.73786
 30
0.0
 11
371.29932
 21
-398.07718
 31
0.0
  0
LINE
  5
8EA
100
AcDbEntity
  8
0
  6
CONTINUOUS
 62
     7
100
AcDbLine
 10
377.57604
 20
-379.33006
 30
0.0
 11
377.29138
 21
-378.26767
 31
0.0
  0
LINE
  5
8EB
100
AcDbEntity
  8
0
  6
CONTINUOUS
 62
     7
100
AcDbLine
 10
376.19138
 20
-386.14517
 30
0.0
 11
376.19138
 21
-392.39017
 31
0.0
  0
ARC
  5
8EC
100
AcDbEntity
  8
0
  6
CONTINUOUS
 62
     7
100
AcDbCircle
 10
378.69138
 20
-389.26767
 30
0.0
 40
10.0
100
AcDbArc
 50
227.2706
 51
96.403708
  0
ARC
  5
8ED
100
AcDbEntity
  8
0
  6
CONTINUOUS
 62
     7
100
AcDbCircle
 10
372.8819
 20
-378.76767
 30
0.0
 40
0.5
100
AcDbArc
 50
298.95503
 51
90.000003
  0
ARC
  5
8EE
100
AcDbEntity
  8
0
  6
CONTINUOUS
 62
     7
100
AcDbCircle
 10
352.69138
 20
-389.26767
 30
0.0
 40
11.0
100
AcDbArc
 50
90.000003
 51
270.0
  0
CIRCLE
  5
8EF
100
AcDbEntity
  8
0
  6
CONTINUOUS
 62
     7
100
AcDbCircle
 10
378.69138
 20
-389.26767
 30
0.0
 40
4.0
  0
ARC
  5
8F0
100
AcDbEntity
  8
0
  6
CONTINUOUS
 62
     7
100
AcDbCircle
 10
378.69138
 20
-389.26767
 30
0.0
 40
11.5
100
AcDbArc
 50
118.95503
 51
230.00001
  0
ARC
  5
8F1
100
AcDbEntity
  8
0
  6
CONTINUOUS
 62
     7
100
AcDbCircle
 10
373.0856
 20
-399.96767
 30
0.0
 40
0.3
100
AcDbArc
 50
270.0
 51
50.0
  0
ARC
  5
8F2
100
AcDbEntity
  8
0
  6
CONTINUOUS
 62
     7
100
AcDbCircle
 10
371.56674
 20
-396.98062
 30
0.0
 40
0.5
100
AcDbArc
 50
47.270599
 51
140.0
  0
POINT
  5
8F3
100
AcDbEntity
  8
0
  6
CONTINUOUS
 62
     7
100
AcDbPoint
 10
378.69138
 20
-485.26767
 30
0.0
  0
POINT
  5
8F4
100
AcDbEntity
  8
0
  6
CONTINUOUS
 62
     7
100
AcDbPoint
 10
395.69138
 20
-485.26767
 30
0.0
  0
LINE
  5
8F5
100
AcDbEntity
  8
0
  6
CENTER
 62
     7
100
AcDbLine
 10
334.69138
 20
-485.26767
 30
0.0
 11
395.69138
 21
-485.26767
 31
0.0
  0
LINE
  5
8F6
100
AcDbEntity
  8
0
  6
CONTINUOUS
 62
     7
100
AcDbLine
 10
352.19138
 20
-459.76767
 30
0.0
 11
352.19138
 21
-510.76767
 31
0.0
  0
LINE
  5
8F7
100
AcDbEntity
  8
0
  6
CONTINUOUS
 62
     7
100
AcDbLine
 10
341.69138
 20
-510.76767
 30
0.0
 11
352.19138
 21
-510.76767
 31
0.0
  0
LINE
  5
8F8
100
AcDbEntity
  8
0
  6
CONTINUOUS
 62
     7
100
AcDbLine
 10
341.69138
 20
-459.76767
 30
0.0
 11
352.19138
 21
-459.76767
 31
0.0
  0
LINE
  5
8F9
100
AcDbEntity
  8
0
  6
CENTER
 62
     7
100
AcDbLine
 10
378.69138
 20
-448.26767
 30
0.0
 11
378.69138
 21
-522.26767
 31
0.0
  0
LINE
  5
8FA
100
AcDbEntity
  8
0
  6
CENTER
 62
     7
100
AcDbLine
 10
352.69138
 20
-448.26767
 30
0.0
 11
352.69138
 21
-522.26767
 31
0.0
  0
LINE
  5
8FB
100
AcDbEntity
  8
0
  6
CONTINUOUS
 62
     7
100
AcDbLine
 10
341.69138
 20
-455.26767
 30
0.0
 11
373.3819
 21
-455.26767
 31
0.0
  0
LINE
  5
8FC
100
AcDbEntity
  8
0
  6
CONTINUOUS
 62
     7
100
AcDbLine
 10
341.69138
 20
-515.26767
 30
0.0
 11
373.3819
 21
-515.26767
 31
0.0
  0
LINE
  5
8FD
100
AcDbEntity
  8
0
  6
CONTINUOUS
 62
     7
100
AcDbLine
 10
373.3856
 20
-510.56767
 30
0.0
 11
373.3856
 21
-515.26767
 31
0.0
  0
LINE
  5
8FE
100
AcDbEntity
  8
0
  6
CONTINUOUS
 62
     7
100
AcDbLine
 10
341.69138
 20
-455.26767
 30
0.0
 11
341.69138
 21
-459.76767
 31
0.0
  0
LINE
  5
8FF
100
AcDbEntity
  8
0
  6
CONTINUOUS
 62
     7
100
AcDbLine
 10
388.69138
 20
-459.96767
 30
0.0
 11
388.69138
 21
-464.26767
 31
0.0
  0
LINE
  5
900
100
AcDbEntity
  8
0
  6
CONTINUOUS
 62
     7
100
AcDbLine
 10
388.69138
 20
-506.26767
 30
0.0
 11
388.69138
 21
-510.56767
 31
0.0
  0
LINE
  5
901
100
AcDbEntity
  8
0
  6
CONTINUOUS
 62
     7
100
AcDbLine
 10
385.69138
 20
-464.26767
 30
0.0
 11
385.69138
 21
-506.26767
 31
0.0
  0
LINE
  5
902
100
AcDbEntity
  8
0
  6
CONTINUOUS
 62
     7
100
AcDbLine
 10
351.69138
 20
-459.76767
 30
0.0
 11
351.69138
 21
-510.76767
 31
0.0
  0
LINE
  5
903
100
AcDbEntity
  8
0
  6
CONTINUOUS
 62
     7
100
AcDbLine
 10
379.56293
 20
-464.26767
 30
0.0
 11
388.69138
 21
-464.26767
 31
0.0
  0
LINE
  5
904
100
AcDbEntity
  8
0
  6
CONTINUOUS
 62
     7
100
AcDbLine
 10
379.56293
 20
-464.26767
 30
0.0
 11
379.56293
 21
-506.26767
 31
0.0
  0
LINE
  5
905
100
AcDbEntity
  8
0
  6
CONTINUOUS
 62
     7
100
AcDbLine
 10
341.69138
 20
-510.76767
 30
0.0
 11
341.69138
 21
-515.26767
 31
0.0
  0
LINE
  5
906
100
AcDbEntity
  8
0
  6
CONTINUOUS
 62
     7
100
AcDbLine
 10
379.56293
 20
-506.26767
 30
0.0
 11
388.69138
 21
-506.26767
 31
0.0
  0
LINE
  5
907
100
AcDbEntity
  8
0
  6
CONTINUOUS
 62
     7
100
AcDbLine
 10
373.3819
 20
-459.96767
 30
0.0
 11
388.69138
 21
-459.96767
 31
0.0
  0
LINE
  5
908
100
AcDbEntity
  8
0
  6
CONTINUOUS
 62
     7
100
AcDbLine
 10
373.3819
 20
-510.56767
 30
0.0
 11
388.69138
 21
-510.56767
 31
0.0
  0
LINE
  5
909
100
AcDbEntity
  8
0
  6
CONTINUOUS
 62
     7
100
AcDbLine
 10
374.69138
 20
-515.26767
 30
0.0
 11
374.69138
 21
-510.56767
 31
0.0
  0
LINE
  5
90A
100
AcDbEntity
  8
0
  6
CONTINUOUS
 62
     7
100
AcDbLine
 10
382.69138
 20
-512.90186
 30
0.0
 11
382.69138
 21
-510.56767
 31
0.0
  0
LINE
  5
90B
100
AcDbEntity
  8
0
  6
CONTINUOUS
 62
     7
100
AcDbLine
 10
382.69138
 20
-457.63348
 30
0.0
 11
382.69138
 21
-459.96767
 31
0.0
  0
LINE
  5
90C
100
AcDbEntity
  8
0
  6
CONTINUOUS
 62
     7
100
AcDbLine
 10
374.69138
 20
-515.26767
 30
0.0
 11
376.19138
 21
-515.26767
 31
0.0
  0
LINE
  5
90D
100
AcDbEntity
  8
0
  6
CONTINUOUS
 62
     7
100
AcDbLine
 10
376.19138
 20
-515.26767
 30
0.0
 11
382.69138
 21
-512.90186
 31
0.0
  0
LINE
  5
90E
100
AcDbEntity
  8
0
  6
CONTINUOUS
 62
     7
100
AcDbLine
 10
374.69138
 20
-455.26767
 30
0.0
 11
374.69138
 21
-459.96767
 31
0.0
  0
LINE
  5
90F
100
AcDbEntity
  8
0
  6
CONTINUOUS
 62
     7
100
AcDbLine
 10
374.69138
 20
-455.26767
 30
0.0
 11
376.19138
 21
-455.26767
 31
0.0
  0
LINE
  5
910
100
AcDbEntity
  8
0
  6
CONTINUOUS
 62
     7
100
AcDbLine
 10
373.3856
 20
-455.26767
 30
0.0
 11
373.3856
 21
-459.96767
 31
0.0
  0
LINE
  5
911
100
AcDbEntity
  8
0
  6
CONTINUOUS
 62
     7
100
AcDbLine
 10
376.19138
 20
-455.26767
 30
0.0
 11
382.69138
 21
-457.63348
 31
0.0
  0
POINT
  5
912
100
AcDbEntity
  8
0
  6
CONTINUOUS
 62
     7
100
AcDbPoint
 10
506.69138
 20
-293.26767
 30
0.0
  0
POINT
  5
913
100
AcDbEntity
  8
0
  6
CONTINUOUS
 62
     7
100
AcDbPoint
 10
524.69138
 20
-293.26767
 30
0.0
  0
LINE
  5
914
100
AcDbEntity
  8
0
  6
CONTINUOUS
 62
     4
100
AcDbLine
 10
495.99138
 20
-272.26767
 30
0.0
 11
495.99138
 21
-314.26767
 31
0.0
  0
LINE
  5
915
100
AcDbEntity
  8
0
  6
CONTINUOUS
 62
     7
100
AcDbLine
 10
517.69138
 20
-263.26767
 30
0.0
 11
517.69138
 21
-323.26767
 31
0.0
  0
LINE
  5
916
100
AcDbEntity
  8
0
  6
CONTINUOUS
 62
     7
100
AcDbLine
 10
510.69138
 20
-263.26767
 30
0.0
 11
510.69138
 21
-267.96767
 31
0.0
  0
LINE
  5
917
100
AcDbEntity
  8
0
  6
CONTINUOUS
 62
     7
100
AcDbLine
 10
495.69138
 20
-263.26767
 30
0.0
 11
495.69138
 21
-272.26767
 31
0.0
  0
LINE
  5
918
100
AcDbEntity
  8
0
  6
CONTINUOUS
 62
     4
100
AcDbLine
 10
499.69138
 20
-272.26767
 30
0.0
 11
499.69138
 21
-314.26767
 31
0.0
  0
LINE
  5
919
100
AcDbEntity
  8
0
  6
CONTINUOUS
 62
     7
100
AcDbLine
 10
512.69138
 20
-272.26767
 30
0.0
 11
512.69138
 21
-314.26767
 31
0.0
  0
LINE
  5
91A
100
AcDbEntity
  8
0
  6
CONTINUOUS
 62
     7
100
AcDbLine
 10
517.19138
 20
-267.96767
 30
0.0
 11
517.19138
 21
-318.56767
 31
0.0
  0
LINE
  5
91B
100
AcDbEntity
  8
0
  6
CONTINUOUS
 62
     7
100
AcDbLine
 10
495.69138
 20
-323.26767
 30
0.0
 11
517.69138
 21
-323.26767
 31
0.0
  0
LINE
  5
91C
100
AcDbEntity
  8
0
  6
CENTER
 62
     7
100
AcDbLine
 10
488.69138
 20
-293.26767
 30
0.0
 11
524.69138
 21
-293.26767
 31
0.0
  0
LINE
  5
91D
100
AcDbEntity
  8
0
  6
CENTER
 62
     7
100
AcDbLine
 10
499.19138
 20
-264.66767
 30
0.0
 11
499.19138
 21
-271.86767
 31
0.0
  0
LINE
  5
91E
100
AcDbEntity
  8
0
  6
CONTINUOUS
 62
     7
100
AcDbLine
 10
495.69138
 20
-314.26767
 30
0.0
 11
517.19138
 21
-314.26767
 31
0.0
  0
LINE
  5
91F
100
AcDbEntity
  8
0
  6
CONTINUOUS
 62
     7
100
AcDbLine
 10
495.69138
 20
-272.26767
 30
0.0
 11
517.19138
 21
-272.26767
 31
0.0
  0
LINE
  5
920
100
AcDbEntity
  8
0
  6
CONTINUOUS
 62
     7
100
AcDbLine
 10
495.69138
 20
-314.26767
 30
0.0
 11
495.69138
 21
-323.26767
 31
0.0
  0
LINE
  5
921
100
AcDbEntity
  8
0
  6
CENTER
 62
     7
100
AcDbLine
 10
445.59138
 20
-318.26767
 30
0.0
 11
452.79137
 21
-318.26767
 31
0.0
  0
LINE
  5
922
100
AcDbEntity
  8
0
  6
CENTER
 62
     7
100
AcDbLine
 10
499.19138
 20
-321.86767
 30
0.0
 11
499.19138
 21
-314.66767
 31
0.0
  0
LINE
  5
923
100
AcDbEntity
  8
0
  6
CENTER
 62
     7
100
AcDbLine
 10
449.19138
 20
-321.86767
 30
0.0
 11
449.19138
 21
-314.66767
 31
0.0
  0
LINE
  5
924
100
AcDbEntity
  8
0
  6
DASHED
 62
     4
100
AcDbLine
 10
454.49138
 20
-317.76767
 30
0.0
 11
493.89137
 21
-317.76767
 31
0.0
  0
LINE
  5
925
100
AcDbEntity
  8
0
  6
DASHED
 62
     4
100
AcDbLine
 10
453.99138
 20
-318.26767
 30
0.0
 11
450.79138
 21
-318.26767
 31
0.0
  0
LINE
  5
926
100
AcDbEntity
  8
0
  6
DASHED
 62
     4
100
AcDbLine
 10
448.39137
 20
-316.88265
 30
0.0
 11
448.25937
 21
-315.35967
 31
0.0
  0
LINE
  5
927
100
AcDbEntity
  8
0
  6
DASHED
 62
     4
100
AcDbLine
 10
448.15938
 20
-315.26767
 30
0.0
 11
447.84837
 21
-315.26767
 31
0.0
  0
LINE
  5
928
100
AcDbEntity
  8
0
  6
CENTER
 62
     7
100
AcDbLine
 10
495.59138
 20
-318.26767
 30
0.0
 11
502.79138
 21
-318.26767
 31
0.0
  0
LINE
  5
929
100
AcDbEntity
  8
0
  6
DASHED
 62
     4
100
AcDbLine
 10
446.86637
 20
-316.15466
 30
0.0
 11
445.99137
 21
-318.26767
 31
0.0
  0
LINE
  5
92A
100
AcDbEntity
  8
0
  6
CONTINUOUS
 62
     7
100
AcDbLine
 10
517.69138
 20
-263.26767
 30
0.0
 11
495.69138
 21
-263.26767
 31
0.0
  0
LINE
  5
92B
100
AcDbEntity
  8
0
  6
DASHED
 62
     4
100
AcDbLine
 10
499.19138
 20
-321.46767
 30
0.0
 11
449.19138
 21
-321.46767
 31
0.0
  0
LINE
  5
92C
100
AcDbEntity
  8
0
  6
CENTER
 62
     7
100
AcDbLine
 10
474.19138
 20
-323.26767
 30
0.0
 11
474.19138
 21
-314.26767
 31
0.0
  0
LINE
  5
92D
100
AcDbEntity
  8
0
  6
DASHED
 62
     4
100
AcDbLine
 10
494.39137
 20
-318.26767
 30
0.0
 11
497.59137
 21
-318.26767
 31
0.0
  0
LINE
  5
92E
100
AcDbEntity
  8
0
  6
DASHED
 62
     4
100
AcDbLine
 10
499.99138
 20
-316.88265
 30
0.0
 11
500.12338
 21
-315.35967
 31
0.0
  0
LINE
  5
92F
100
AcDbEntity
  8
0
  6
DASHED
 62
     4
100
AcDbLine
 10
500.22337
 20
-315.26767
 30
0.0
 11
500.53438
 21
-315.26767
 31
0.0
  0
LINE
  5
930
100
AcDbEntity
  8
0
  6
CENTER
 62
     7
100
AcDbLine
 10
495.59138
 20
-268.26767
 30
0.0
 11
502.79138
 21
-268.26767
 31
0.0
  0
LINE
  5
931
100
AcDbEntity
  8
0
  6
DASHED
 62
     4
100
AcDbLine
 10
501.51638
 20
-316.15466
 30
0.0
 11
502.39138
 21
-318.26767
 31
0.0
  0
LINE
  5
932
100
AcDbEntity
  8
0
  6
CONTINUOUS
 62
     7
100
AcDbLine
 10
502.69138
 20
-263.26767
 30
0.0
 11
502.69138
 21
-267.96767
 31
0.0
  0
LINE
  5
933
100
AcDbEntity
  8
0
  6
CENTER
 62
     7
100
AcDbLine
 10
506.69138
 20
-256.26767
 30
0.0
 11
506.69138
 21
-330.26767
 31
0.0
  0
LINE
  5
934
100
AcDbEntity
  8
0
  6
CONTINUOUS
 62
     7
100
AcDbLine
 10
510.69138
 20
-323.26767
 30
0.0
 11
510.69138
 21
-318.56767
 31
0.0
  0
LINE
  5
935
100
AcDbEntity
  8
0
  6
CONTINUOUS
 62
     7
100
AcDbLine
 10
502.69138
 20
-323.26767
 30
0.0
 11
502.69138
 21
-318.56767
 31
0.0
  0
LINE
  5
936
100
AcDbEntity
  8
0
  6
CONTINUOUS
 62
     7
100
AcDbLine
 10
495.69138
 20
-318.56767
 30
0.0
 11
517.69138
 21
-318.56767
 31
0.0
  0
LINE
  5
937
100
AcDbEntity
  8
0
  6
CONTINUOUS
 62
     7
100
AcDbLine
 10
495.69138
 20
-267.96767
 30
0.0
 11
517.69138
 21
-267.96767
 31
0.0
  0
ARC
  5
938
100
AcDbEntity
  8
0
  6
DASHED
 62
     4
100
AcDbCircle
 10
449.19138
 20
-318.26767
 30
0.0
 40
3.2
100
AcDbArc
 50
179.9997
 51
269.99899
  0
ARC
  5
939
100
AcDbEntity
  8
0
  6
DASHED
 62
     4
100
AcDbCircle
 10
447.80638
 20
-317.46768
 30
0.0
 40
0.4
100
AcDbArc
 50
52.814998
 51
247.18302
  0
ARC
  5
93A
100
AcDbEntity
  8
0
  6
DASHED
 62
     4
100
AcDbCircle
 10
449.19138
 20
-318.26767
 30
0.0
 40
1.6
100
AcDbArc
 50
164.3624
 51
0.00001
  0
ARC
  5
93B
100
AcDbEntity
  8
0
  6
DASHED
 62
     4
100
AcDbCircle
 10
454.49138
 20
-318.26767
 30
0.0
 40
0.5
100
AcDbArc
 50
90.000003
 51
180.00001
  0
ARC
  5
93C
100
AcDbEntity
  8
0
  6
DASHED
 62
     4
100
AcDbCircle
 10
449.19138
 20
-318.26767
 30
0.0
 40
1.6
100
AcDbArc
 50
120.0009
 51
135.6401
  0
ARC
  5
93D
100
AcDbEntity
  8
0
  6
CONTINUOUS
 62
     4
100
AcDbCircle
 10
448.15938
 20
-315.36768
 30
0.0
 40
0.1
100
AcDbArc
 50
4.986001
 51
90.001737
  0
ARC
  5
93E
100
AcDbEntity
  8
0
  6
DASHED
 62
     4
100
AcDbCircle
 10
448.40738
 20
-316.87369
 30
0.0
 40
1.7
100
AcDbArc
 50
109.1678
 51
154.9555
  0
ARC
  5
93F
100
AcDbEntity
  8
0
  6
DASHED
 62
     4
100
AcDbCircle
 10
499.19138
 20
-318.26767
 30
0.0
 40
3.2
100
AcDbArc
 50
270.00101
 51
0.000298
  0
ARC
  5
940
100
AcDbEntity
  8
0
  6
DASHED
 62
     4
100
AcDbCircle
 10
500.57637
 20
-317.46768
 30
0.0
 40
0.4
100
AcDbArc
 50
292.817
 51
127.18501
  0
ARC
  5
941
100
AcDbEntity
  8
0
  6
DASHED
 62
     4
100
AcDbCircle
 10
499.19138
 20
-318.26767
 30
0.0
 40
1.6
100
AcDbArc
 50
180.00001
 51
15.637592
  0
ARC
  5
942
100
AcDbEntity
  8
0
  6
DASHED
 62
     4
100
AcDbCircle
 10
493.89137
 20
-318.26767
 30
0.0
 40
0.5
100
AcDbArc
 50
0.0
 51
90.000003
  0
ARC
  5
943
100
AcDbEntity
  8
0
  6
DASHED
 62
     4
100
AcDbCircle
 10
499.19138
 20
-318.26767
 30
0.0
 40
1.6
100
AcDbArc
 50
44.3599
 51
59.9991
  0
ARC
  5
944
100
AcDbEntity
  8
0
  6
CONTINUOUS
 62
     4
100
AcDbCircle
 10
500.22337
 20
-315.36768
 30
0.0
 40
0.1
100
AcDbArc
 50
89.998261
 51
175.01399
  0
ARC
  5
945
100
AcDbEntity
  8
0
  6
DASHED
 62
     4
100
AcDbCircle
 10
499.97537
 20
-316.87369
 30
0.0
 40
1.7
100
AcDbArc
 50
25.044499
 51
70.832197
  0
POLYLINE
  5
946
100
AcDbEntity
  8
0
  6
CONTINUOUS
 62
     7
100
AcDb2dPolyline
 66
     1
 10
0.0
 20
0.0
 30
0.0
  0
VERTEX
  5
947
100
AcDbEntity
  8
0
  6
CONTINUOUS
 62
     7
100
AcDbVertex
100
AcDb2dVertex
 10
510.69138
 20
-323.26767
 30
0.0
 42
0.107733
  0
VERTEX
  5
948
100
AcDbEntity
  8
0
  6
CONTINUOUS
 62
     7
100
AcDbVertex
100
AcDb2dVertex
 10
510.55416
 20
-322.65332
 30
0.0
 42
0.080189
  0
VERTEX
  5
949
100
AcDbEntity
  8
0
  6
CONTINUOUS
 62
     7
100
AcDbVertex
100
AcDb2dVertex
 10
510.19913
 20
-322.13066
 30
0.0
 42
0.055761
  0
VERTEX
  5
94A
100
AcDbEntity
  8
0
  6
CONTINUOUS
 62
     7
100
AcDbVertex
100
AcDb2dVertex
 10
509.71682
 20
-321.72007
 30
0.0
 42
0.040956
  0
VERTEX
  5
94B
100
AcDbEntity
  8
0
  6
CONTINUOUS
 62
     7
100
AcDbVertex
100
AcDb2dVertex
 10
509.16483
 20
-321.4084
 30
0.0
 42
0.032461
  0
VERTEX
  5
94C
100
AcDbEntity
  8
0
  6
CONTINUOUS
 62
     7
100
AcDbVertex
100
AcDb2dVertex
 10
508.57326
 20
-321.18005
 30
0.0
 42
0.0276
  0
VERTEX
  5
94D
100
AcDbEntity
  8
0
  6
CONTINUOUS
 62
     7
100
AcDbVertex
100
AcDb2dVertex
 10
507.95788
 20
-321.02358
 30
0.0
 42
0.024887
  0
VERTEX
  5
94E
100
AcDbEntity
  8
0
  6
CONTINUOUS
 62
     7
100
AcDbVertex
100
AcDb2dVertex
 10
507.32938
 20
-320.93215
 30
0.0
 42
0.023666
  0
VERTEX
  5
94F
100
AcDbEntity
  8
0
  6
CONTINUOUS
 62
     7
100
AcDbVertex
100
AcDb2dVertex
 10
506.69494
 20
-320.90186
 30
0.0
 42
0.023614
  0
VERTEX
  5
950
100
AcDbEntity
  8
0
  6
CONTINUOUS
 62
     7
100
AcDbVertex
100
AcDb2dVertex
 10
506.06167
 20
-320.93136
 30
0.0
 42
0.024836
  0
VERTEX
  5
951
100
AcDbEntity
  8
0
  6
CONTINUOUS
 62
     7
100
AcDbVertex
100
AcDb2dVertex
 10
505.43367
 20
-321.02185
 30
0.0
 42
0.027579
  0
VERTEX
  5
952
100
AcDbEntity
  8
0
  6
CONTINUOUS
 62
     7
100
AcDbVertex
100
AcDb2dVertex
 10
504.81741
 20
-321.17755
 30
0.0
 42
0.032474
  0
VERTEX
  5
953
100
AcDbEntity
  8
0
  6
CONTINUOUS
 62
     7
100
AcDbVertex
100
AcDb2dVertex
 10
504.22395
 20
-321.4056
 30
0.0
 42
0.040898
  0
VERTEX
  5
954
100
AcDbEntity
  8
0
  6
CONTINUOUS
 62
     7
100
AcDbVertex
100
AcDb2dVertex
 10
503.67079
 20
-321.71675
 30
0.0
 42
0.055658
  0
VERTEX
  5
955
100
AcDbEntity
  8
0
  6
CONTINUOUS
 62
     7
100
AcDbVertex
100
AcDb2dVertex
 10
503.18714
 20
-322.12687
 30
0.0
 42
0.080083
  0
VERTEX
  5
956
100
AcDbEntity
  8
0
  6
CONTINUOUS
 62
     7
100
AcDbVertex
100
AcDb2dVertex
 10
502.83038
 20
-322.64941
 30
0.0
 42
0.107885
  0
VERTEX
  5
957
100
AcDbEntity
  8
0
  6
CONTINUOUS
 62
     7
100
AcDbVertex
100
AcDb2dVertex
 10
502.69138
 20
-323.26489
 30
0.0
  0
SEQEND
  5
958
100
AcDbEntity
  8
0
 62
     7
  0
POLYLINE
  5
959
100
AcDbEntity
  8
0
  6
CONTINUOUS
 62
     7
100
AcDb2dPolyline
 66
     1
 10
0.0
 20
0.0
 30
0.0
  0
VERTEX
  5
95A
100
AcDbEntity
  8
0
  6
CONTINUOUS
 62
     7
100
AcDbVertex
100
AcDb2dVertex
 10
502.69138
 20
-263.26767
 30
0.0
 42
0.107733
  0
VERTEX
  5
95B
100
AcDbEntity
  8
0
  6
CONTINUOUS
 62
     7
100
AcDbVertex
100
AcDb2dVertex
 10
502.82859
 20
-263.88201
 30
0.0
 42
0.080189
  0
VERTEX
  5
95C
100
AcDbEntity
  8
0
  6
CONTINUOUS
 62
     7
100
AcDbVertex
100
AcDb2dVertex
 10
503.18362
 20
-264.40468
 30
0.0
 42
0.055761
  0
VERTEX
  5
95D
100
AcDbEntity
  8
0
  6
CONTINUOUS
 62
     7
100
AcDbVertex
100
AcDb2dVertex
 10
503.66593
 20
-264.81527
 30
0.0
 42
0.040956
  0
VERTEX
  5
95E
100
AcDbEntity
  8
0
  6
CONTINUOUS
 62
     7
100
AcDbVertex
100
AcDb2dVertex
 10
504.21793
 20
-265.12694
 30
0.0
 42
0.032461
  0
VERTEX
  5
95F
100
AcDbEntity
  8
0
  6
CONTINUOUS
 62
     7
100
AcDbVertex
100
AcDb2dVertex
 10
504.80949
 20
-265.35529
 30
0.0
 42
0.0276
  0
VERTEX
  5
960
100
AcDbEntity
  8
0
  6
CONTINUOUS
 62
     7
100
AcDbVertex
100
AcDb2dVertex
 10
505.42487
 20
-265.51176
 30
0.0
 42
0.024887
  0
VERTEX
  5
961
100
AcDbEntity
  8
0
  6
CONTINUOUS
 62
     7
100
AcDbVertex
100
AcDb2dVertex
 10
506.05337
 20
-265.60319
 30
0.0
 42
0.023666
  0
VERTEX
  5
962
100
AcDbEntity
  8
0
  6
CONTINUOUS
 62
     7
100
AcDbVertex
100
AcDb2dVertex
 10
506.68781
 20
-265.63348
 30
0.0
 42
0.023614
  0
VERTEX
  5
963
100
AcDbEntity
  8
0
  6
CONTINUOUS
 62
     7
100
AcDbVertex
100
AcDb2dVertex
 10
507.32108
 20
-265.60398
 30
0.0
 42
0.024836
  0
VERTEX
  5
964
100
AcDbEntity
  8
0
  6
CONTINUOUS
 62
     7
100
AcDbVertex
100
AcDb2dVertex
 10
507.94909
 20
-265.51349
 30
0.0
 42
0.027579
  0
VERTEX
  5
965
100
AcDbEntity
  8
0
  6
CONTINUOUS
 62
     7
100
AcDbVertex
100
AcDb2dVertex
 10
508.56534
 20
-265.35778
 30
0.0
 42
0.032474
  0
VERTEX
  5
966
100
AcDbEntity
  8
0
  6
CONTINUOUS
 62
     7
100
AcDbVertex
100
AcDb2dVertex
 10
509.1588
 20
-265.12974
 30
0.0
 42
0.040898
  0
VERTEX
  5
967
100
AcDbEntity
  8
0
  6
CONTINUOUS
 62
     7
100
AcDbVertex
100
AcDb2dVertex
 10
509.71196
 20
-264.81859
 30
0.0
 42
0.055658
  0
VERTEX
  5
968
100
AcDbEntity
  8
0
  6
CONTINUOUS
 62
     7
100
AcDbVertex
100
AcDb2dVertex
 10
510.19562
 20
-264.40847
 30
0.0
 42
0.080083
  0
VERTEX
  5
969
100
AcDbEntity
  8
0
  6
CONTINUOUS
 62
     7
100
AcDbVertex
100
AcDb2dVertex
 10
510.55237
 20
-263.88593
 30
0.0
 42
0.107885
  0
VERTEX
  5
96A
100
AcDbEntity
  8
0
  6
CONTINUOUS
 62
     7
100
AcDbVertex
100
AcDb2dVertex
 10
510.69137
 20
-263.27045
 30
0.0
  0
SEQEND
  5
96B
100
AcDbEntity
  8
0
 62
     7
  0
ENDSEC
  0
SECTION
  2
OBJECTS
  0
DICTIONARY
  5
C
100
AcDbDictionary
  3
ACAD_GROUP
350
D
  3
ACAD_MLINESTYLE
350
E
  0
DICTIONARY
  5
D
102
{ACAD_REACTORS
330
C
102
}
100
AcDbDictionary
  0
DICTIONARY
  5
E
102
{ACAD_REACTORS
330
C
102
}
100
AcDbDictionary
  3
STANDARD
350
1C
  0
MLINESTYLE
  5
1C
102
{ACAD_REACTORS
330
E
102
}
100
AcDbMlineStyle
  2
STANDARD
 70
     0
  3

 62
     0
 51
90.0
 52
90.0
 71
     2
 49
0.5
 62
   256
  6
BYLAYER
 49
-0.5
 62
   256
  6
BYLAYER
  0
ENDSEC
  0
EOF
