  0
SECTION
  2
HEADER
  9
$ACADVER
  1
AC1012
  9
$DWGCODEPAGE
  3
dos932
  9
$INSBASE
 10
0.0
 20
0.0
 30
0.0
  9
$EXTMIN
 10
-138.399994
 20
-94.800003
 30
0.0
  9
$EXTMAX
 10
138.350006
 20
94.5
 30
0.0
  9
$LIMMIN
 10
0.0
 20
0.0
  9
$LIMMAX
 10
12.0
 20
9.0
  9
$ORTHOMODE
 70
     0
  9
$REGENMODE
 70
     1
  9
$FILLMODE
 70
     1
  9
$QTEXTMODE
 70
     0
  9
$MIRRTEXT
 70
     1
  9
$DRAGMODE
 70
     2
  9
$LTSCALE
 40
1.0
  9
$OSMODE
 70
     0
  9
$ATTMODE
 70
     1
  9
$TEXTSIZE
 40
0.2
  9
$TRACEWID
 40
0.05
  9
$TEXTSTYLE
  7
STANDARD
  9
$CLAYER
  8
0
  9
$CELTYPE
  6
CONTINUOUS
  9
$CECOLOR
 62
   256
  9
$CELTSCALE
 40
1.0
  9
$DELOBJ
 70
     1
  9
$DISPSILH
 70
     0
  9
$DIMSCALE
 40
1.0
  9
$DIMASZ
 40
0.18
  9
$DIMEXO
 40
0.0625
  9
$DIMDLI
 40
0.38
  9
$DIMRND
 40
0.0
  9
$DIMDLE
 40
0.0
  9
$DIMEXE
 40
0.18
  9
$DIMTP
 40
0.0
  9
$DIMTM
 40
0.0
  9
$DIMTXT
 40
0.18
  9
$DIMCEN
 40
0.09
  9
$DIMTSZ
 40
0.0
  9
$DIMTOL
 70
     0
  9
$DIMLIM
 70
     0
  9
$DIMTIH
 70
     1
  9
$DIMTOH
 70
     1
  9
$DIMSE1
 70
     0
  9
$DIMSE2
 70
     0
  9
$DIMTAD
 70
     0
  9
$DIMZIN
 70
     0
  9
$DIMBLK
  1

  9
$DIMASO
 70
     1
  9
$DIMSHO
 70
     1
  9
$DIMPOST
  1

  9
$DIMAPOST
  1

  9
$DIMALT
 70
     0
  9
$DIMALTD
 70
     2
  9
$DIMALTF
 40
25.4
  9
$DIMLFAC
 40
1.0
  9
$DIMTOFL
 70
     0
  9
$DIMTVP
 40
0.0
  9
$DIMTIX
 70
     0
  9
$DIMSOXD
 70
     0
  9
$DIMSAH
 70
     0
  9
$DIMBLK1
  1

  9
$DIMBLK2
  1

  9
$DIMSTYLE
  2
STANDARD
  9
$DIMCLRD
 70
     0
  9
$DIMCLRE
 70
     0
  9
$DIMCLRT
 70
     0
  9
$DIMTFAC
 40
1.0
  9
$DIMGAP
 40
0.09
  9
$DIMJUST
 70
     0
  9
$DIMSD1
 70
     0
  9
$DIMSD2
 70
     0
  9
$DIMTOLJ
 70
     1
  9
$DIMTZIN
 70
     0
  9
$DIMALTZ
 70
     0
  9
$DIMALTTZ
 70
     0
  9
$DIMFIT
 70
     3
  9
$DIMUPT
 70
     0
  9
$DIMUNIT
 70
     2
  9
$DIMDEC
 70
     4
  9
$DIMTDEC
 70
     4
  9
$DIMALTU
 70
     2
  9
$DIMALTTD
 70
     2
  9
$DIMTXSTY
  7
STANDARD
  9
$DIMAUNIT
 70
     0
  9
$LUNITS
 70
     2
  9
$LUPREC
 70
     4
  9
$SKETCHINC
 40
0.1
  9
$FILLETRAD
 40
0.0
  9
$AUNITS
 70
     0
  9
$AUPREC
 70
     0
  9
$MENU
  1
.
  9
$ELEVATION
 40
0.0
  9
$PELEVATION
 40
0.0
  9
$THICKNESS
 40
0.0
  9
$LIMCHECK
 70
     0
  9
$BLIPMODE
 70
     1
  9
$CHAMFERA
 40
0.0
  9
$CHAMFERB
 40
0.0
  9
$CHAMFERC
 40
0.0
  9
$CHAMFERD
 40
0.0
  9
$SKPOLY
 70
     0
  9
$TDCREATE
 40
2452090.374088310
  9
$TDUPDATE
 40
2452090.374088310
  9
$TDINDWG
 40
0.0112813657
  9
$TDUSRTIMER
 40
0.0112813657
  9
$USRTIMER
 70
     1
  9
$ANGBASE
 50
0.0
  9
$ANGDIR
 70
     0
  9
$PDMODE
 70
     0
  9
$PDSIZE
 40
0.0
  9
$PLINEWID
 40
0.0
  9
$COORDS
 70
     1
  9
$SPLFRAME
 70
     0
  9
$SPLINETYPE
 70
     6
  9
$SPLINESEGS
 70
     8
  9
$ATTDIA
 70
     0
  9
$ATTREQ
 70
     1
  9
$HANDLING
 70
     1
  9
$HANDSEED
  5
2A6
  9
$SURFTAB1
 70
     6
  9
$SURFTAB2
 70
     6
  9
$SURFTYPE
 70
     6
  9
$SURFU
 70
     6
  9
$SURFV
 70
     6
  9
$UCSNAME
  2

  9
$UCSORG
 10
0.0
 20
0.0
 30
0.0
  9
$UCSXDIR
 10
1.0
 20
0.0
 30
0.0
  9
$UCSYDIR
 10
0.0
 20
1.0
 30
0.0
  9
$PUCSNAME
  2

  9
$PUCSORG
 10
0.0
 20
0.0
 30
0.0
  9
$PUCSXDIR
 10
1.0
 20
0.0
 30
0.0
  9
$PUCSYDIR
 10
0.0
 20
1.0
 30
0.0
  9
$USERI1
 70
     0
  9
$USERI2
 70
     0
  9
$USERI3
 70
     0
  9
$USERI4
 70
     0
  9
$USERI5
 70
     0
  9
$USERR1
 40
0.0
  9
$USERR2
 40
0.0
  9
$USERR3
 40
0.0
  9
$USERR4
 40
0.0
  9
$USERR5
 40
0.0
  9
$WORLDVIEW
 70
     1
  9
$SHADEDGE
 70
     3
  9
$SHADEDIF
 70
    70
  9
$TILEMODE
 70
     1
  9
$MAXACTVP
 70
    16
  9
$PINSBASE
 10
0.0
 20
0.0
 30
0.0
  9
$PLIMCHECK
 70
     0
  9
$PEXTMIN
 10
1.000000E+20
 20
1.000000E+20
 30
1.000000E+20
  9
$PEXTMAX
 10
-1.000000E+20
 20
-1.000000E+20
 30
-1.000000E+20
  9
$PLIMMIN
 10
0.0
 20
0.0
  9
$PLIMMAX
 10
12.0
 20
9.0
  9
$UNITMODE
 70
     0
  9
$VISRETAIN
 70
     0
  9
$PLINEGEN
 70
     0
  9
$PSLTSCALE
 70
     1
  9
$TREEDEPTH
 70
  3020
  9
$PICKSTYLE
 70
     1
  9
$CMLSTYLE
  2
STANDARD
  9
$CMLJUST
 70
     0
  9
$CMLSCALE
 40
1.0
  9
$SAVEIMAGES
 70
     0
  0
ENDSEC
  0
SECTION
  2
CLASSES
  0
ENDSEC
  0
SECTION
  2
TABLES
  0
TABLE
  2
VPORT
  5
8
100
AcDbSymbolTable
 70
     2
  0
VPORT
  5
2A5
100
AcDbSymbolTableRecord
100
AcDbViewportTableRecord
  2
*ACTIVE
 70
     0
 10
0.0
 20
0.0
 11
1.0
 21
1.0
 12
5.91378
 22
-3.164172
 13
0.0
 23
0.0
 14
1.0
 24
1.0
 15
0.0
 25
0.0
 16
0.0
 26
0.0
 36
1.0
 17
0.0
 27
0.0
 37
0.0
 40
210.855271
 41
1.820976
 42
50.0
 43
0.0
 44
0.0
 50
0.0
 51
0.0
 71
     0
 72
   100
 73
     1
 74
     1
 75
     0
 76
     0
 77
     0
 78
     0
  0
ENDTAB
  0
TABLE
  2
LTYPE
  5
5
100
AcDbSymbolTable
 70
    22
  0
LTYPE
  5
13
100
AcDbSymbolTableRecord
100
AcDbLinetypeTableRecord
  2
BYBLOCK
 70
     0
  3

 72
    65
 73
     0
 40
0.0
  0
LTYPE
  5
14
100
AcDbSymbolTableRecord
100
AcDbLinetypeTableRecord
  2
BYLAYER
 70
     0
  3

 72
    65
 73
     0
 40
0.0
  0
LTYPE
  5
15
100
AcDbSymbolTableRecord
100
AcDbLinetypeTableRecord
  2
CONTINUOUS
 70
    64
  3
Solid line
 72
    65
 73
     0
 40
0.0
  0
LTYPE
  5
1E
100
AcDbSymbolTableRecord
100
AcDbLinetypeTableRecord
  2
DASHED
 70
    64
  3
__ __ __ __ __ __ __ __ __ __ __ __ __ __ __
 72
    65
 73
     2
 40
3.5
 49
2.0
 74
     0
 49
-1.5
 74
     0
  0
LTYPE
  5
1F
100
AcDbSymbolTableRecord
100
AcDbLinetypeTableRecord
  2
CENTER
 70
    64
  3
____ _ ____ _ ____ _ ____ _ ____ _ ____ _ ____
 72
    65
 73
     4
 40
17.5
 49
13.0
 74
     0
 49
-1.5
 74
     0
 49
1.5
 74
     0
 49
-1.5
 74
     0
  0
LTYPE
  5
20
100
AcDbSymbolTableRecord
100
AcDbLinetypeTableRecord
  2
PHANTOM
 70
    64
  3
_____ _ _ _____ _ _ _____ _ _ _____ _ _ ____  
 72
    65
 73
     6
 40
15.5
 49
8.0
 74
     0
 49
-1.5
 74
     0
 49
1.5
 74
     0
 49
-1.5
 74
     0
 49
1.5
 74
     0
 49
-1.5
 74
     0
  0
LTYPE
  5
21
100
AcDbSymbolTableRecord
100
AcDbLinetypeTableRecord
  2
DASHED1
 70
    64
  3
__ __ __ __ __ __ __ __ __ __ __ __ __ __ __
 72
    65
 73
     2
 40
1.5
 49
1.0
 74
     0
 49
-0.5
 74
     0
  0
LTYPE
  5
22
100
AcDbSymbolTableRecord
100
AcDbLinetypeTableRecord
  2
DASHED2
 70
    64
  3
__ __ __ __ __ __ __ __ __ __ __ __ __ __ __
 72
    65
 73
     2
 40
3.5
 49
2.5
 74
     0
 49
-1.0
 74
     0
  0
LTYPE
  5
23
100
AcDbSymbolTableRecord
100
AcDbLinetypeTableRecord
  2
DASHED3
 70
    64
  3
__ __ __ __ __ __ __ __ __ __ __ __ __ __ __
 72
    65
 73
     2
 40
6.0
 49
4.0
 74
     0
 49
-2.0
 74
     0
  0
LTYPE
  5
24
100
AcDbSymbolTableRecord
100
AcDbLinetypeTableRecord
  2
DASHED4
 70
    64
  3
__ __ __ __ __ __ __ __ __ __ __ __ __ __ __
 72
    65
 73
     2
 40
12.0
 49
10.0
 74
     0
 49
-2.0
 74
     0
  0
LTYPE
  5
25
100
AcDbSymbolTableRecord
100
AcDbLinetypeTableRecord
  2
DASHED5
 70
    64
  3
__ __ __ __ __ __ __ __ __ __ __ __ __ __ __
 72
    65
 73
     2
 40
17.0
 49
15.0
 74
     0
 49
-2.0
 74
     0
  0
LTYPE
  5
26
100
AcDbSymbolTableRecord
100
AcDbLinetypeTableRecord
  2
DASHED6
 70
    64
  3
__ __ __ __ __ __ __ __ __ __ __ __ __ __ __
 72
    65
 73
     2
 40
29.0
 49
27.0
 74
     0
 49
-2.0
 74
     0
  0
LTYPE
  5
27
100
AcDbSymbolTableRecord
100
AcDbLinetypeTableRecord
  2
PHANTOM1
 70
    64
  3
_____ _ _ _____ _ _ _____ _ _ _____ _ _ ____  
 72
    65
 73
     6
 40
31.0
 49
25.0
 74
     0
 49
-1.5
 74
     0
 49
1.0
 74
     0
 49
-1.0
 74
     0
 49
1.0
 74
     0
 49
-1.5
 74
     0
  0
LTYPE
  5
28
100
AcDbSymbolTableRecord
100
AcDbLinetypeTableRecord
  2
PHANTOM2
 70
    64
  3
_____ _ _ _____ _ _ _____ _ _ _____ _ _ ____  
 72
    65
 73
     6
 40
36.0
 49
27.0
 74
     0
 49
-1.5
 74
     0
 49
2.5
 74
     0
 49
-1.0
 74
     0
 49
2.5
 74
     0
 49
-1.5
 74
     0
  0
LTYPE
  5
29
100
AcDbSymbolTableRecord
100
AcDbLinetypeTableRecord
  2
PHANTOM3
 70
    64
  3
_____ _ _ _____ _ _ _____ _ _ _____ _ _ ____  
 72
    65
 73
     6
 40
78.0
 49
64.0
 74
     0
 49
-2.0
 74
     0
 49
4.0
 74
     0
 49
-2.0
 74
     0
 49
4.0
 74
     0
 49
-2.0
 74
     0
  0
LTYPE
  5
2A
100
AcDbSymbolTableRecord
100
AcDbLinetypeTableRecord
  2
CENTER1
 70
    64
  3
____ _ ____ _ ____ _ ____ _ ____ _ ____ _ ____
 72
    65
 73
     4
 40
19.0
 49
14.0
 74
     0
 49
-1.0
 74
     0
 49
3.0
 74
     0
 49
-1.0
 74
     0
  0
LTYPE
  5
2B
100
AcDbSymbolTableRecord
100
AcDbLinetypeTableRecord
  2
CENTER2
 70
    64
  3
____ _ ____ _ ____ _ ____ _ ____ _ ____ _ ____
 72
    65
 73
     4
 40
28.5
 49
25.0
 74
     0
 49
-1.0
 74
     0
 49
1.5
 74
     0
 49
-1.0
 74
     0
  0
LTYPE
  5
2C
100
AcDbSymbolTableRecord
100
AcDbLinetypeTableRecord
  2
CENTER3
 70
    64
  3
____ _ ____ _ ____ _ ____ _ ____ _ ____ _ ____
 72
    65
 73
     4
 40
31.5
 49
27.0
 74
     0
 49
-1.0
 74
     0
 49
2.5
 74
     0
 49
-1.0
 74
     0
  0
LTYPE
  5
2D
100
AcDbSymbolTableRecord
100
AcDbLinetypeTableRecord
  2
CENTER4
 70
    64
  3
____ _ ____ _ ____ _ ____ _ ____ _ ____ _ ____
 72
    65
 73
     4
 40
50.0
 49
45.0
 74
     0
 49
-1.0
 74
     0
 49
3.0
 74
     0
 49
-1.0
 74
     0
  0
LTYPE
  5
2E
100
AcDbSymbolTableRecord
100
AcDbLinetypeTableRecord
  2
CENTER5
 70
    64
  3
____ _ ____ _ ____ _ ____ _ ____ _ ____ _ ____
 72
    65
 73
     4
 40
100.0
 49
92.0
 74
     0
 49
-2.0
 74
     0
 49
4.0
 74
     0
 49
-2.0
 74
     0
  0
LTYPE
  5
2F
100
AcDbSymbolTableRecord
100
AcDbLinetypeTableRecord
  2
SBK1
 70
    64
  3
______ _ _ _ ______ _ _ _ ______ _ _ _ _____  
 72
    65
 73
     8
 40
60.5
 49
45.0
 74
     0
 49
-2.0
 74
     0
 49
2.5
 74
     0
 49
-2.0
 74
     0
 49
2.5
 74
     0
 49
-2.0
 74
     0
 49
2.5
 74
     0
 49
-2.0
 74
     0
  0
LTYPE
  5
30
100
AcDbSymbolTableRecord
100
AcDbLinetypeTableRecord
  2
SBK2
 70
    64
  3
______ _ _ _ ______ _ _ _ ______ _ _ _ _____  
 72
    65
 73
     8
 40
84.0
 49
64.0
 74
     0
 49
-2.0
 74
     0
 49
4.0
 74
     0
 49
-2.0
 74
     0
 49
4.0
 74
     0
 49
-2.0
 74
     0
 49
4.0
 74
     0
 49
-2.0
 74
     0
  0
LTYPE
  5
31
100
AcDbSymbolTableRecord
100
AcDbLinetypeTableRecord
  2
STCH
 70
    64
  3
__ __ __ __ __ __ __ __ __ __ __ __ __ __ __
 72
    65
 73
     2
 40
3.0
 49
1.0
 74
     0
 49
-2.0
 74
     0
  0
LTYPE
  5
32
100
AcDbSymbolTableRecord
100
AcDbLinetypeTableRecord
  2
MTCH
 70
    64
  3
_____ _ _ _____ _ _ _____ _ _ _____ _ _ ____  
 72
    65
 73
     6
 40
80.0
 49
66.0
 74
     0
 49
-2.0
 74
     0
 49
4.0
 74
     0
 49
-2.0
 74
     0
 49
4.0
 74
     0
 49
-2.0
 74
     0
  0
ENDTAB
  0
TABLE
  2
LAYER
  5
2
100
AcDbSymbolTable
 70
     1
  0
LAYER
  5
F
100
AcDbSymbolTableRecord
100
AcDbLayerTableRecord
  2
0
 70
     0
 62
     7
  6
CONTINUOUS
  0
ENDTAB
  0
TABLE
  2
STYLE
  5
3
100
AcDbSymbolTable
 70
     1
  0
STYLE
  5
10
100
AcDbSymbolTableRecord
100
AcDbTextStyleTableRecord
  2
STANDARD
 70
     0
 40
0.0
 41
1.0
 50
0.0
 71
     0
 42
0.2
  3
txt
  4
BIGFONT
  0
ENDTAB
  0
TABLE
  2
VIEW
  5
6
100
AcDbSymbolTable
 70
     0
  0
ENDTAB
  0
TABLE
  2
UCS
  5
7
100
AcDbSymbolTable
 70
     0
  0
ENDTAB
  0
TABLE
  2
APPID
  5
9
100
AcDbSymbolTable
 70
     1
  0
APPID
  5
11
100
AcDbSymbolTableRecord
100
AcDbRegAppTableRecord
  2
ACAD
 70
     0
  0
ENDTAB
  0
TABLE
  2
DIMSTYLE
  5
A
100
AcDbSymbolTable
 70
     1
  0
DIMSTYLE
105
2A0
100
AcDbSymbolTableRecord
100
AcDbDimStyleTableRecord
  2
STANDARD
 70
     0
  3

  4

  5

  6

  7

 40
1.0
 41
0.18
 42
0.0625
 43
0.38
 44
0.18
 45
0.0
 46
0.0
 47
0.0
 48
0.0
140
0.18
141
0.09
142
0.0
143
25.4
144
1.0
145
0.0
146
1.0
147
0.09
 71
     0
 72
     0
 73
     1
 74
     1
 75
     0
 76
     0
 77
     0
 78
     0
170
     0
171
     2
172
     0
173
     0
174
     0
175
     0
176
     0
177
     0
178
     0
270
     2
271
     4
272
     4
273
     2
274
     2
340
10
275
     0
280
     0
281
     0
282
     0
283
     1
284
     0
285
     0
286
     0
287
     3
288
     0
  0
ENDTAB
  0
TABLE
  2
BLOCK_RECORD
  5
1
100
AcDbSymbolTable
 70
     0
  0
BLOCK_RECORD
  5
19
100
AcDbSymbolTableRecord
100
AcDbBlockTableRecord
  2
*MODEL_SPACE
  0
BLOCK_RECORD
  5
16
100
AcDbSymbolTableRecord
100
AcDbBlockTableRecord
  2
*PAPER_SPACE
  0
ENDTAB
  0
ENDSEC
  0
SECTION
  2
BLOCKS
  0
BLOCK
  5
1A
100
AcDbEntity
  8
0
100
AcDbBlockBegin
  2
*MODEL_SPACE
 70
     0
 10
0.0
 20
0.0
 30
0.0
  3
*MODEL_SPACE
  1

  0
ENDBLK
  5
1B
100
AcDbEntity
  8
0
100
AcDbBlockEnd
  0
BLOCK
  5
17
100
AcDbEntity
 67
     1
  8
0
100
AcDbBlockBegin
  2
*PAPER_SPACE
 70
     0
 10
0.0
 20
0.0
 30
0.0
  3
*PAPER_SPACE
  1

  0
ENDBLK
  5
18
100
AcDbEntity
 67
     1
  8
0
100
AcDbBlockEnd
  0
ENDSEC
  0
SECTION
  2
ENTITIES
  0
LINE
  5
34
100
AcDbEntity
  8
0
  6
DASHED
 62
     2
100
AcDbLine
 10
-64.809998
 20
6.09
 30
0.0
 11
-30.809999
 21
6.09
 31
0.0
  0
LINE
  5
35
100
AcDbEntity
  8
0
  6
DASHED
 62
     2
100
AcDbLine
 10
-52.310001
 20
1.59
 30
0.0
 11
-43.310001
 21
1.59
 31
0.0
  0
LINE
  5
36
100
AcDbEntity
  8
0
  6
DASHED
 62
     2
100
AcDbLine
 10
-52.310001
 20
5.59
 30
0.0
 11
-43.310001
 21
5.59
 31
0.0
  0
LINE
  5
37
100
AcDbEntity
  8
0
  6
DASHED
 62
     2
100
AcDbLine
 10
-27.809999
 20
43.09
 30
0.0
 11
-27.809999
 21
9.09
 31
0.0
  0
LINE
  5
38
100
AcDbEntity
  8
0
  6
DASHED
 62
     2
100
AcDbLine
 10
-67.809998
 20
43.09
 30
0.0
 11
-67.809998
 21
9.09
 31
0.0
  0
LINE
  5
39
100
AcDbEntity
  8
0
  6
DASHED
 62
     2
100
AcDbLine
 10
-64.809998
 20
46.09
 30
0.0
 11
-30.809999
 21
46.09
 31
0.0
  0
LINE
  5
3A
100
AcDbEntity
  8
0
  6
DASHED
 62
     2
100
AcDbLine
 10
-43.310001
 20
6.09
 30
0.0
 11
-43.310001
 21
5.59
 31
0.0
  0
LINE
  5
3B
100
AcDbEntity
  8
0
  6
DASHED
 62
     2
100
AcDbLine
 10
-52.310001
 20
6.09
 30
0.0
 11
-52.310001
 21
5.59
 31
0.0
  0
LINE
  5
3C
100
AcDbEntity
  8
0
  6
DASHED
 62
     2
100
AcDbLine
 10
-52.310001
 20
0.59
 30
0.0
 11
-43.310001
 21
0.59
 31
0.0
  0
LINE
  5
3D
100
AcDbEntity
  8
0
  6
DASHED
 62
     2
100
AcDbLine
 10
-52.310001
 20
1.59
 30
0.0
 11
-52.310001
 21
0.59
 31
0.0
  0
LINE
  5
3E
100
AcDbEntity
  8
0
  6
DASHED
 62
     2
100
AcDbLine
 10
-43.310001
 20
1.59
 30
0.0
 11
-43.310001
 21
0.59
 31
0.0
  0
LINE
  5
3F
100
AcDbEntity
  8
0
  6
DASHED
 62
     2
100
AcDbLine
 10
-43.509998
 20
5.59
 30
0.0
 11
-43.509998
 21
1.59
 31
0.0
  0
LINE
  5
40
100
AcDbEntity
  8
0
  6
DASHED
 62
     2
100
AcDbLine
 10
-52.110001
 20
5.59
 30
0.0
 11
-52.110001
 21
1.59
 31
0.0
  0
LINE
  5
41
100
AcDbEntity
  8
0
  6
DASHED
 62
     2
100
AcDbLine
 10
1.18
 20
45.09
 30
0.0
 11
1.18
 21
7.09
 31
0.0
  0
LINE
  5
42
100
AcDbEntity
  8
0
  6
DASHED
 62
     2
100
AcDbLine
 10
2.18
 20
6.09
 30
0.0
 11
23.18
 21
6.09
 31
0.0
  0
LINE
  5
43
100
AcDbEntity
  8
0
  6
DASHED
 62
     2
100
AcDbLine
 10
2.18
 20
46.09
 30
0.0
 11
23.18
 21
46.09
 31
0.0
  0
LINE
  5
44
100
AcDbEntity
  8
0
  6
DASHED
 62
     2
100
AcDbLine
 10
23.18
 20
46.09
 30
0.0
 11
30.719999
 21
45.43
 31
0.0
  0
LINE
  5
45
100
AcDbEntity
  8
0
  6
DASHED
 62
     2
100
AcDbLine
 10
23.179998
 20
6.09
 30
0.0
 11
30.720001
 21
6.75
 31
0.0
  0
LINE
  5
46
100
AcDbEntity
  8
0
  6
DASHED
 62
     2
100
AcDbLine
 10
31.18
 20
44.93
 30
0.0
 11
31.18
 21
7.25
 31
0.0
  0
LINE
  5
47
100
AcDbEntity
  8
0
  6
DASHED
 62
     2
100
AcDbLine
 10
14.18
 20
6.09
 30
0.0
 11
14.18
 21
5.59
 31
0.0
  0
LINE
  5
48
100
AcDbEntity
  8
0
  6
DASHED
 62
     2
100
AcDbLine
 10
31.18
 20
37.59
 30
0.0
 11
34.18
 21
35.859997
 31
0.0
  0
LINE
  5
49
100
AcDbEntity
  8
0
  6
DASHED
 62
     2
100
AcDbLine
 10
34.18
 20
35.860001
 30
0.0
 11
34.18
 21
16.32
 31
0.0
  0
LINE
  5
4A
100
AcDbEntity
  8
0
  6
DASHED
 62
     2
100
AcDbLine
 10
31.179998
 20
14.59
 30
0.0
 11
34.18
 21
16.320002
 31
0.0
  0
LINE
  5
4B
100
AcDbEntity
  8
0
  6
DASHED
 62
     2
100
AcDbLine
 10
44.18
 20
33.09
 30
0.0
 11
44.18
 21
19.09
 31
0.0
  0
LINE
  5
4C
100
AcDbEntity
  8
0
  6
DASHED
 62
     2
100
AcDbLine
 10
34.18
 20
34.18
 30
0.0
 11
43.549999
 21
34.18
 31
0.0
  0
LINE
  5
4D
100
AcDbEntity
  8
0
  6
DASHED
 62
     2
100
AcDbLine
 10
34.18
 20
30.129999
 30
0.0
 11
44.18
 21
30.129999
 31
0.0
  0
LINE
  5
4E
100
AcDbEntity
  8
0
  6
DASHED
 62
     2
100
AcDbLine
 10
34.18
 20
22.049999
 30
0.0
 11
44.18
 21
22.049999
 31
0.0
  0
LINE
  5
4F
100
AcDbEntity
  8
0
  6
DASHED
 62
     2
100
AcDbLine
 10
34.18
 20
18.01
 30
0.0
 11
43.549999
 21
18.01
 31
0.0
  0
LINE
  5
50
100
AcDbEntity
  8
0
  6
DASHED
 62
     2
100
AcDbLine
 10
10.58
 20
6.09
 30
0.0
 11
10.58
 21
5.59
 31
0.0
  0
LINE
  5
51
100
AcDbEntity
  8
0
  6
DASHED
 62
     2
100
AcDbLine
 10
17.780001
 20
6.09
 30
0.0
 11
17.780001
 21
0.59
 31
0.0
  0
LINE
  5
52
100
AcDbEntity
  8
0
  6
DASHED
 62
     2
100
AcDbLine
 10
10.28
 20
5.59
 30
0.0
 11
17.780001
 21
5.59
 31
0.0
  0
LINE
  5
53
100
AcDbEntity
  8
0
  6
DASHED
 62
     2
100
AcDbLine
 10
10.28
 20
1.59
 30
0.0
 11
17.780001
 21
1.59
 31
0.0
  0
LINE
  5
54
100
AcDbEntity
  8
0
  6
DASHED
 62
     2
100
AcDbLine
 10
10.58
 20
0.59
 30
0.0
 11
17.780001
 21
0.59
 31
0.0
  0
LINE
  5
55
100
AcDbEntity
  8
0
  6
DASHED
 62
     2
100
AcDbLine
 10
10.28
 20
5.59
 30
0.0
 11
10.28
 21
1.59
 31
0.0
  0
LINE
  5
56
100
AcDbEntity
  8
0
  6
DASHED
 62
     2
100
AcDbLine
 10
10.58
 20
1.59
 30
0.0
 11
10.58
 21
0.59
 31
0.0
  0
LINE
  5
57
100
AcDbEntity
  8
0
  6
DASHED
 62
     2
100
AcDbLine
 10
14.18
 20
1.59
 30
0.0
 11
14.18
 21
0.59
 31
0.0
  0
LINE
  5
58
100
AcDbEntity
  8
0
  6
DASHED
 62
     2
100
AcDbLine
 10
49.179996
 20
31.841856
 30
0.0
 11
46.18
 21
31.919998
 31
0.0
  0
LINE
  5
59
100
AcDbEntity
  8
0
  6
DASHED
 62
     2
100
AcDbLine
 10
49.18
 20
32.695
 30
0.0
 11
44.18
 21
32.829998
 31
0.0
  0
LINE
  5
5A
100
AcDbEntity
  8
0
  6
DASHED
 62
     2
100
AcDbLine
 10
49.179996
 20
20.341354
 30
0.0
 11
46.18
 21
20.26
 31
0.0
  0
LINE
  5
5B
100
AcDbEntity
  8
0
  6
DASHED
 62
     2
100
AcDbLine
 10
49.18
 20
19.485407
 30
0.0
 11
44.18
 21
19.35
 31
0.0
  0
LINE
  5
5C
100
AcDbEntity
  8
0
  6
DASHED
 62
     2
100
AcDbLine
 10
46.18
 20
32.779999
 30
0.0
 11
46.18
 21
19.41
 31
0.0
  0
LINE
  5
5D
100
AcDbEntity
  8
0
  6
DASHED
 62
     2
100
AcDbLine
 10
46.18
 20
31.92
 30
0.0
 11
44.619999
 21
32.82
 31
0.0
  0
LINE
  5
5E
100
AcDbEntity
  8
0
  6
DASHED
 62
     2
100
AcDbLine
 10
46.18
 20
20.26
 30
0.0
 11
44.619999
 21
19.370001
 31
0.0
  0
LINE
  5
5F
100
AcDbEntity
  8
0
  6
DASHED
 62
     2
100
AcDbLine
 10
43.549999
 20
34.18
 30
0.0
 11
44.18
 21
33.09
 31
0.0
  0
LINE
  5
60
100
AcDbEntity
  8
0
  6
DASHED
 62
     2
100
AcDbLine
 10
43.549999
 20
18.009998
 30
0.0
 11
44.18
 21
19.089998
 31
0.0
  0
LINE
  5
61
100
AcDbEntity
  8
0
  6
DASHED
 62
     2
100
AcDbLine
 10
-45.959999
 20
0.59
 30
0.0
 11
-45.959999
 21
-9.41
 31
0.0
  0
LINE
  5
62
100
AcDbEntity
  8
0
  6
DASHED
 62
     2
100
AcDbLine
 10
-49.66
 20
0.59
 30
0.0
 11
-49.66
 21
-9.41
 31
0.0
  0
LINE
  5
63
100
AcDbEntity
  8
0
  6
DASHED
 62
     2
100
AcDbLine
 10
12.33
 20
0.59
 30
0.0
 11
12.33
 21
-9.41
 31
0.0
  0
LINE
  5
64
100
AcDbEntity
  8
0
  6
DASHED
 62
     2
100
AcDbLine
 10
16.030001
 20
0.59
 30
0.0
 11
16.030001
 21
-9.41
 31
0.0
  0
LINE
  5
65
100
AcDbEntity
  8
0
  6
CENTER
 62
     2
100
AcDbLine
 10
79.209999
 20
26.09
 30
0.0
 11
74.209999
 21
26.09
 31
0.0
  0
LINE
  5
66
100
AcDbEntity
  8
0
  6
PHANTOM
 62
     2
100
AcDbLine
 10
46.18
 20
31.035
 30
0.0
 11
46.18
 21
21.15
 31
0.0
  0
LINE
  5
67
100
AcDbEntity
  8
0
  6
PHANTOM
 62
     2
100
AcDbLine
 10
46.18
 20
21.735001
 30
0.0
 11
49.18
 21
21.829863
 31
0.0
  0
LINE
  5
68
100
AcDbEntity
  8
0
  6
PHANTOM
 62
     2
100
AcDbLine
 10
46.18
 20
30.450001
 30
0.0
 11
49.18
 21
30.355139
 31
0.0
  0
LINE
  5
69
100
AcDbEntity
  8
0
  6
PHANTOM
 62
     2
100
AcDbLine
 10
44.68
 20
33.09
 30
0.0
 11
44.68
 21
19.09
 31
0.0
  0
LINE
  5
6A
100
AcDbEntity
  8
0
  6
PHANTOM
 62
     2
100
AcDbLine
 10
35.98
 20
16.84
 30
0.0
 11
36.575001
 21
16.84
 31
0.0
  0
LINE
  5
6B
100
AcDbEntity
  8
0
  6
PHANTOM
 62
     2
100
AcDbLine
 10
35.98
 20
11.34
 30
0.0
 11
36.575001
 21
11.34
 31
0.0
  0
LINE
  5
6C
100
AcDbEntity
  8
0
  6
PHANTOM
 62
     2
100
AcDbLine
 10
34.794998
 20
14.09
 30
0.0
 11
39.400002
 21
14.09
 31
0.0
  0
LINE
  5
6D
100
AcDbEntity
  8
0
  6
PHANTOM
 62
     2
100
AcDbLine
 10
10.18
 20
47.34
 30
0.0
 11
10.18
 21
4.84
 31
0.0
  0
LINE
  5
6E
100
AcDbEntity
  8
0
  6
PHANTOM
 62
     2
100
AcDbLine
 10
9.179999
 20
5.84
 30
0.0
 11
10.179999
 21
4.84
 31
0.0
  0
LINE
  5
6F
100
AcDbEntity
  8
0
  6
PHANTOM
 62
     2
100
AcDbLine
 10
9.179998
 20
46.34
 30
0.0
 11
10.18
 21
47.34
 31
0.0
  0
LINE
  5
70
100
AcDbEntity
  8
0
  6
PHANTOM
 62
     2
100
AcDbLine
 10
28.98
 20
9.015
 30
0.0
 11
28.98
 21
2.51
 31
0.0
  0
LINE
  5
71
100
AcDbEntity
  8
0
  6
PHANTOM
 62
     2
100
AcDbLine
 10
35.98
 20
33.089996
 30
0.0
 11
44.68
 21
19.089998
 31
0.0
  0
LINE
  5
72
100
AcDbEntity
  8
0
  6
PHANTOM
 62
     2
100
AcDbLine
 10
35.98
 20
19.09
 30
0.0
 11
44.68
 21
33.09
 31
0.0
  0
LINE
  5
73
100
AcDbEntity
  8
0
  6
PHANTOM
 62
     2
100
AcDbLine
 10
35.98
 20
33.09
 30
0.0
 11
44.68
 21
33.09
 31
0.0
  0
LINE
  5
74
100
AcDbEntity
  8
0
  6
PHANTOM
 62
     2
100
AcDbLine
 10
35.98
 20
19.09
 30
0.0
 11
44.68
 21
19.09
 31
0.0
  0
LINE
  5
75
100
AcDbEntity
  8
0
  6
PHANTOM
 62
     2
100
AcDbLine
 10
12.18
 20
5.09
 30
0.0
 11
33.98
 21
5.09
 31
0.0
  0
LINE
  5
76
100
AcDbEntity
  8
0
  6
PHANTOM
 62
     2
100
AcDbLine
 10
12.18
 20
47.09
 30
0.0
 11
33.98
 21
47.09
 31
0.0
  0
LINE
  5
77
100
AcDbEntity
  8
0
  6
PHANTOM
 62
     2
100
AcDbLine
 10
35.98
 20
45.09
 30
0.0
 11
35.98
 21
7.09
 31
0.0
  0
LINE
  5
78
100
AcDbEntity
  8
0
  6
PHANTOM
 62
     2
100
AcDbLine
 10
12.18
 20
47.34
 30
0.0
 11
12.18
 21
4.84
 31
0.0
  0
LINE
  5
79
100
AcDbEntity
  8
0
  6
PHANTOM
 62
     2
100
AcDbLine
 10
10.18
 20
4.84
 30
0.0
 11
12.18
 21
4.84
 31
0.0
  0
LINE
  5
7A
100
AcDbEntity
  8
0
  6
PHANTOM
 62
     2
100
AcDbLine
 10
10.18
 20
47.34
 30
0.0
 11
12.18
 21
47.34
 31
0.0
  0
LINE
  5
7B
100
AcDbEntity
  8
0
  6
PHANTOM
 62
     2
100
AcDbLine
 10
9.18
 20
46.34
 30
0.0
 11
9.18
 21
5.84
 31
0.0
  0
LINE
  5
7C
100
AcDbEntity
  8
0
  6
PHANTOM
 62
     2
100
AcDbLine
 10
46.18
 20
30.449999
 30
0.0
 11
44.654999
 21
31.084999
 31
0.0
  0
LINE
  5
7D
100
AcDbEntity
  8
0
  6
PHANTOM
 62
     2
100
AcDbLine
 10
46.18
 20
21.734999
 30
0.0
 11
44.68
 21
21.099998
 31
0.0
  0
LINE
  5
7E
100
AcDbEntity
  8
0
  6
PHANTOM
 62
     2
100
AcDbLine
 10
44.68
 20
21.1
 30
0.0
 11
49.180004
 21
21.245161
 31
0.0
  0
LINE
  5
7F
100
AcDbEntity
  8
0
  6
PHANTOM
 62
     2
100
AcDbLine
 10
44.654999
 20
31.084999
 30
0.0
 11
49.18
 21
30.939932
 31
0.0
  0
LINE
  5
80
100
AcDbEntity
  8
0
  6
CENTER
 62
     2
100
AcDbLine
 10
-2.384994
 20
26.09
 30
0.0
 11
93.643082
 21
26.09
 31
0.0
  0
LINE
  5
81
100
AcDbEntity
  8
0
100
AcDbLine
 10
44.18
 20
-0.21
 30
0.0
 11
94.18
 21
-0.21
 31
0.0
  0
LINE
  5
82
100
AcDbEntity
  8
0
100
AcDbLine
 10
44.18
 20
2.09
 30
0.0
 11
94.18
 21
2.09
 31
0.0
  0
LINE
  5
83
100
AcDbEntity
  8
0
  6
PHANTOM
 62
     2
100
AcDbLine
 10
94.18
 20
-0.21
 30
0.0
 11
99.379997
 21
-0.21
 31
0.0
  0
LINE
  5
84
100
AcDbEntity
  8
0
  6
PHANTOM
 62
     2
100
AcDbLine
 10
94.18
 20
2.09
 30
0.0
 11
99.379997
 21
2.09
 31
0.0
  0
LINE
  5
85
100
AcDbEntity
  8
0
  6
PHANTOM
 62
     2
100
AcDbLine
 10
43.18
 20
2.09
 30
0.0
 11
43.18
 21
-0.21
 31
0.0
  0
LINE
  5
86
100
AcDbEntity
  8
0
  6
PHANTOM
 62
     2
100
AcDbLine
 10
100.879997
 20
-1.71
 30
0.0
 11
100.879997
 21
-20.91
 31
0.0
  0
LINE
  5
87
100
AcDbEntity
  8
0
  6
PHANTOM
 62
     2
100
AcDbLine
 10
100.879997
 20
-20.91
 30
0.0
 11
103.18
 21
-20.91
 31
0.0
  0
LINE
  5
88
100
AcDbEntity
  8
0
  6
PHANTOM
 62
     2
100
AcDbLine
 10
103.18
 20
-1.71
 30
0.0
 11
103.18
 21
-20.91
 31
0.0
  0
LINE
  5
89
100
AcDbEntity
  8
0
 62
     2
100
AcDbLine
 10
90.68
 20
2.09
 30
0.0
 11
90.68
 21
-0.21
 31
0.0
  0
LINE
  5
8A
100
AcDbEntity
  8
0
100
AcDbLine
 10
91.68
 20
2.09
 30
0.0
 11
91.68
 21
-0.21
 31
0.0
  0
LINE
  5
8B
100
AcDbEntity
  8
0
100
AcDbLine
 10
91.68
 20
-8.954899
 30
0.0
 11
91.68
 21
-9.91
 31
0.0
  0
LINE
  5
8C
100
AcDbEntity
  8
0
 62
     2
100
AcDbLine
 10
90.68
 20
-8.954899
 30
0.0
 11
90.68
 21
-10.9
 31
0.0
  0
LINE
  5
8D
100
AcDbEntity
  8
0
 62
     2
100
AcDbLine
 10
47.68
 20
-8.21
 30
0.0
 11
47.68
 21
-10.9
 31
0.0
  0
LINE
  5
8E
100
AcDbEntity
  8
0
100
AcDbLine
 10
46.68
 20
-8.21
 30
0.0
 11
46.68
 21
-9.91
 31
0.0
  0
LINE
  5
8F
100
AcDbEntity
  8
0
  6
PHANTOM
 62
     2
100
AcDbLine
 10
43.18
 20
-0.21
 30
0.0
 11
44.18
 21
-0.21
 31
0.0
  0
LINE
  5
90
100
AcDbEntity
  8
0
100
AcDbLine
 10
44.18
 20
-0.209999
 30
0.0
 11
43.18
 21
-1.21
 31
0.0
  0
LINE
  5
91
100
AcDbEntity
  8
0
100
AcDbLine
 10
94.18
 20
-0.210003
 30
0.0
 11
95.179993
 21
-1.209999
 31
0.0
  0
LINE
  5
92
100
AcDbEntity
  8
0
  6
CENTER
 62
     2
100
AcDbLine
 10
-38.310001
 20
-8.870373
 30
0.0
 11
-38.310001
 21
-19.504129
 31
0.0
  0
LINE
  5
93
100
AcDbEntity
  8
0
  6
CENTER
 62
     2
100
AcDbLine
 10
-81.309998
 20
-8.870373
 30
0.0
 11
-81.309998
 21
-19.504129
 31
0.0
  0
LINE
  5
94
100
AcDbEntity
  8
0
  6
PHANTOM
 62
     2
100
AcDbLine
 10
-36.810001
 20
-10.41
 30
0.0
 11
-39.810001
 21
-10.41
 31
0.0
  0
LINE
  5
95
100
AcDbEntity
  8
0
  6
CENTER
 62
     2
100
AcDbLine
 10
-39.810001
 20
-8.870373
 30
0.0
 11
-39.810001
 21
-19.504129
 31
0.0
  0
LINE
  5
96
100
AcDbEntity
  8
0
  6
PHANTOM
 62
     2
100
AcDbLine
 10
-36.810001
 20
-17.41
 30
0.0
 11
-39.810001
 21
-17.41
 31
0.0
  0
LINE
  5
97
100
AcDbEntity
  8
0
  6
CENTER
 62
     2
100
AcDbLine
 10
-36.810001
 20
-8.870373
 30
0.0
 11
-36.810001
 21
-19.504129
 31
0.0
  0
LINE
  5
98
100
AcDbEntity
  8
0
  6
CENTER
 62
     2
100
AcDbLine
 10
-31.650459
 20
-13.91
 30
0.0
 11
-45.164192
 21
-13.91
 31
0.0
  0
LINE
  5
99
100
AcDbEntity
  8
0
  6
CENTER
 62
     2
100
AcDbLine
 10
-79.809998
 20
-8.870373
 30
0.0
 11
-79.809998
 21
-19.504129
 31
0.0
  0
LINE
  5
9A
100
AcDbEntity
  8
0
  6
PHANTOM
 62
     2
100
AcDbLine
 10
-82.809998
 20
-10.41
 30
0.0
 11
-79.809998
 21
-10.41
 31
0.0
  0
LINE
  5
9B
100
AcDbEntity
  8
0
  6
PHANTOM
 62
     2
100
AcDbLine
 10
-82.809998
 20
-17.41
 30
0.0
 11
-79.809998
 21
-17.41
 31
0.0
  0
LINE
  5
9C
100
AcDbEntity
  8
0
  6
CENTER
 62
     2
100
AcDbLine
 10
-82.809998
 20
-8.870373
 30
0.0
 11
-82.809998
 21
-19.504129
 31
0.0
  0
LINE
  5
9D
100
AcDbEntity
  8
0
  6
CENTER
 62
     2
100
AcDbLine
 10
-87.969543
 20
-13.91
 30
0.0
 11
-74.455811
 21
-13.91
 31
0.0
  0
LINE
  5
9E
100
AcDbEntity
  8
0
  6
PHANTOM
 62
     2
100
AcDbLine
 10
-89.809998
 20
-17.909998
 30
0.0
 11
-86.809998
 21
-20.91
 31
0.0
  0
LINE
  5
9F
100
AcDbEntity
  8
0
  6
PHANTOM
 62
     2
100
AcDbLine
 10
-29.810001
 20
-17.910002
 30
0.0
 11
-32.809998
 21
-20.909998
 31
0.0
  0
LINE
  5
A0
100
AcDbEntity
  8
0
  6
PHANTOM
 62
     2
100
AcDbLine
 10
-86.809998
 20
-20.91
 30
0.0
 11
-32.810001
 21
-20.91
 31
0.0
  0
LINE
  5
A1
100
AcDbEntity
  8
0
 62
     2
100
AcDbLine
 10
-38.310001
 20
2.09
 30
0.0
 11
-38.310001
 21
-0.21
 31
0.0
  0
LINE
  5
A2
100
AcDbEntity
  8
0
100
AcDbLine
 10
-37.310001
 20
2.09
 30
0.0
 11
-37.310001
 21
-0.21
 31
0.0
  0
LINE
  5
A3
100
AcDbEntity
  8
0
100
AcDbLine
 10
-37.310001
 20
-8.870373
 30
0.0
 11
-37.310001
 21
-9.91
 31
0.0
  0
LINE
  5
A4
100
AcDbEntity
  8
0
 62
     2
100
AcDbLine
 10
-38.310001
 20
-8.98114
 30
0.0
 11
-38.310001
 21
-10.9
 31
0.0
  0
LINE
  5
A5
100
AcDbEntity
  8
0
 62
     2
100
AcDbLine
 10
-81.309998
 20
-8.21
 30
0.0
 11
-81.309998
 21
-10.9
 31
0.0
  0
LINE
  5
A6
100
AcDbEntity
  8
0
100
AcDbLine
 10
-82.309998
 20
-8.21
 30
0.0
 11
-82.309998
 21
-9.91
 31
0.0
  0
LINE
  5
A7
100
AcDbEntity
  8
0
  6
PHANTOM
 62
     2
100
AcDbLine
 10
-34.810001
 20
-0.21
 30
0.0
 11
-29.809999
 21
-0.21
 31
0.0
  0
LINE
  5
A8
100
AcDbEntity
  8
0
  6
PHANTOM
 62
     2
100
AcDbLine
 10
-34.810001
 20
2.09
 30
0.0
 11
-29.809999
 21
2.09
 31
0.0
  0
LINE
  5
A9
100
AcDbEntity
  8
0
100
AcDbLine
 10
-84.809998
 20
-0.21
 30
0.0
 11
-34.810001
 21
-0.21
 31
0.0
  0
LINE
  5
AA
100
AcDbEntity
  8
0
100
AcDbLine
 10
-84.809998
 20
2.09
 30
0.0
 11
-34.810001
 21
2.09
 31
0.0
  0
LINE
  5
AB
100
AcDbEntity
  8
0
  6
PHANTOM
 62
     2
100
AcDbLine
 10
-89.809998
 20
2.09
 30
0.0
 11
-89.809998
 21
-17.91
 31
0.0
  0
LINE
  5
AC
100
AcDbEntity
  8
0
  6
PHANTOM
 62
     2
100
AcDbLine
 10
-29.809999
 20
2.09
 30
0.0
 11
-29.809999
 21
-17.91
 31
0.0
  0
LINE
  5
AD
100
AcDbEntity
  8
0
  6
PHANTOM
 62
     2
100
AcDbLine
 10
-89.809998
 20
-0.21
 30
0.0
 11
-84.809998
 21
-0.21
 31
0.0
  0
LINE
  5
AE
100
AcDbEntity
  8
0
100
AcDbLine
 10
-34.610001
 20
6.09
 30
0.0
 11
-34.610001
 21
5.09
 31
0.0
  0
LINE
  5
AF
100
AcDbEntity
  8
0
  6
CENTER
 62
     2
100
AcDbLine
 10
-38.810001
 20
7.7
 30
0.0
 11
-38.810001
 21
1.81
 31
0.0
  0
LINE
  5
B0
100
AcDbEntity
  8
0
100
AcDbLine
 10
-34.610001
 20
5.09
 30
0.0
 11
-43.009998
 21
5.09
 31
0.0
  0
LINE
  5
B1
100
AcDbEntity
  8
0
100
AcDbLine
 10
-43.009998
 20
6.09
 30
0.0
 11
-43.009998
 21
5.09
 31
0.0
  0
LINE
  5
B2
100
AcDbEntity
  8
0
100
AcDbLine
 10
-43.810001
 20
6.09
 30
0.0
 11
-43.810001
 21
2.09
 31
0.0
  0
LINE
  5
B3
100
AcDbEntity
  8
0
100
AcDbLine
 10
-33.810001
 20
6.09
 30
0.0
 11
-43.810001
 21
6.09
 31
0.0
  0
LINE
  5
B4
100
AcDbEntity
  8
0
100
AcDbLine
 10
-75.809998
 20
6.09
 30
0.0
 11
-75.809998
 21
2.09
 31
0.0
  0
LINE
  5
B5
100
AcDbEntity
  8
0
100
AcDbLine
 10
-76.610001
 20
6.09
 30
0.0
 11
-76.610001
 21
5.09
 31
0.0
  0
LINE
  5
B6
100
AcDbEntity
  8
0
  6
CENTER
 62
     2
100
AcDbLine
 10
-80.809998
 20
7.7
 30
0.0
 11
-80.809998
 21
1.81
 31
0.0
  0
LINE
  5
B7
100
AcDbEntity
  8
0
100
AcDbLine
 10
-85.010002
 20
5.09
 30
0.0
 11
-76.610001
 21
5.09
 31
0.0
  0
LINE
  5
B8
100
AcDbEntity
  8
0
100
AcDbLine
 10
-85.809998
 20
6.09
 30
0.0
 11
-75.809998
 21
6.09
 31
0.0
  0
LINE
  5
B9
100
AcDbEntity
  8
0
100
AcDbLine
 10
-85.010002
 20
6.09
 30
0.0
 11
-85.010002
 21
5.09
 31
0.0
  0
LINE
  5
BA
100
AcDbEntity
  8
0
  6
CENTER
 62
     2
100
AcDbLine
 10
90.18
 20
7.7
 30
0.0
 11
90.18
 21
1.81
 31
0.0
  0
LINE
  5
BB
100
AcDbEntity
  8
0
100
AcDbLine
 10
85.980003
 20
6.09
 30
0.0
 11
85.980003
 21
5.09
 31
0.0
  0
LINE
  5
BC
100
AcDbEntity
  8
0
100
AcDbLine
 10
94.379997
 20
5.09
 30
0.0
 11
85.980003
 21
5.09
 31
0.0
  0
LINE
  5
BD
100
AcDbEntity
  8
0
100
AcDbLine
 10
94.379997
 20
6.09
 30
0.0
 11
94.379997
 21
5.09
 31
0.0
  0
LINE
  5
BE
100
AcDbEntity
  8
0
100
AcDbLine
 10
95.18
 20
6.09
 30
0.0
 11
85.18
 21
6.09
 31
0.0
  0
LINE
  5
BF
100
AcDbEntity
  8
0
100
AcDbLine
 10
85.18
 20
6.09
 30
0.0
 11
85.18
 21
2.09
 31
0.0
  0
LINE
  5
C0
100
AcDbEntity
  8
0
100
AcDbLine
 10
52.380001
 20
6.09
 30
0.0
 11
52.380001
 21
5.09
 31
0.0
  0
LINE
  5
C1
100
AcDbEntity
  8
0
100
AcDbLine
 10
43.98
 20
6.09
 30
0.0
 11
43.98
 21
5.09
 31
0.0
  0
LINE
  5
C2
100
AcDbEntity
  8
0
100
AcDbLine
 10
43.98
 20
5.09
 30
0.0
 11
52.380001
 21
5.09
 31
0.0
  0
LINE
  5
C3
100
AcDbEntity
  8
0
100
AcDbLine
 10
53.18
 20
6.09
 30
0.0
 11
53.18
 21
2.09
 31
0.0
  0
LINE
  5
C4
100
AcDbEntity
  8
0
  6
CENTER
 62
     2
100
AcDbLine
 10
48.18
 20
7.7
 30
0.0
 11
48.18
 21
1.81
 31
0.0
  0
LINE
  5
C5
100
AcDbEntity
  8
0
100
AcDbLine
 10
43.18
 20
6.09
 30
0.0
 11
53.18
 21
6.09
 31
0.0
  0
LINE
  5
C6
100
AcDbEntity
  8
0
100
AcDbLine
 10
-37.810001
 20
-1.21
 30
0.0
 11
-37.810001
 21
-7.21
 31
0.0
  0
LINE
  5
C7
100
AcDbEntity
  8
0
100
AcDbLine
 10
-39.810001
 20
-1.21
 30
0.0
 11
-39.810001
 21
-7.21
 31
0.0
  0
LINE
  5
C8
100
AcDbEntity
  8
0
100
AcDbLine
 10
-41.810001
 20
-1.21
 30
0.0
 11
-41.810001
 21
-7.21
 31
0.0
  0
LINE
  5
C9
100
AcDbEntity
  8
0
100
AcDbLine
 10
-43.810001
 20
-1.21
 30
0.0
 11
-43.810001
 21
-7.21
 31
0.0
  0
LINE
  5
CA
100
AcDbEntity
  8
0
100
AcDbLine
 10
-45.810001
 20
-1.21
 30
0.0
 11
-45.810001
 21
-7.21
 31
0.0
  0
LINE
  5
CB
100
AcDbEntity
  8
0
100
AcDbLine
 10
-47.810001
 20
-1.21
 30
0.0
 11
-47.810001
 21
-7.21
 31
0.0
  0
LINE
  5
CC
100
AcDbEntity
  8
0
100
AcDbLine
 10
-49.810001
 20
-1.21
 30
0.0
 11
-49.810001
 21
-7.21
 31
0.0
  0
LINE
  5
CD
100
AcDbEntity
  8
0
100
AcDbLine
 10
-51.810001
 20
-1.21
 30
0.0
 11
-51.810001
 21
-7.21
 31
0.0
  0
LINE
  5
CE
100
AcDbEntity
  8
0
100
AcDbLine
 10
-53.810001
 20
-1.21
 30
0.0
 11
-53.810001
 21
-7.21
 31
0.0
  0
LINE
  5
CF
100
AcDbEntity
  8
0
100
AcDbLine
 10
-55.810001
 20
-1.21
 30
0.0
 11
-55.810001
 21
-7.21
 31
0.0
  0
LINE
  5
D0
100
AcDbEntity
  8
0
100
AcDbLine
 10
-57.810001
 20
-1.21
 30
0.0
 11
-57.810001
 21
-7.21
 31
0.0
  0
LINE
  5
D1
100
AcDbEntity
  8
0
100
AcDbLine
 10
-59.810001
 20
-1.21
 30
0.0
 11
-59.810001
 21
-7.21
 31
0.0
  0
LINE
  5
D2
100
AcDbEntity
  8
0
100
AcDbLine
 10
-61.810001
 20
-1.21
 30
0.0
 11
-61.810001
 21
-7.21
 31
0.0
  0
LINE
  5
D3
100
AcDbEntity
  8
0
100
AcDbLine
 10
-63.810001
 20
-1.21
 30
0.0
 11
-63.810001
 21
-7.21
 31
0.0
  0
LINE
  5
D4
100
AcDbEntity
  8
0
100
AcDbLine
 10
-65.809998
 20
-1.21
 30
0.0
 11
-65.809998
 21
-7.21
 31
0.0
  0
LINE
  5
D5
100
AcDbEntity
  8
0
100
AcDbLine
 10
-67.809998
 20
-1.21
 30
0.0
 11
-67.809998
 21
-7.21
 31
0.0
  0
LINE
  5
D6
100
AcDbEntity
  8
0
100
AcDbLine
 10
-69.809998
 20
-1.21
 30
0.0
 11
-69.809998
 21
-7.21
 31
0.0
  0
LINE
  5
D7
100
AcDbEntity
  8
0
100
AcDbLine
 10
-71.809998
 20
-1.21
 30
0.0
 11
-71.809998
 21
-7.21
 31
0.0
  0
LINE
  5
D8
100
AcDbEntity
  8
0
100
AcDbLine
 10
-73.809998
 20
-1.21
 30
0.0
 11
-73.809998
 21
-7.21
 31
0.0
  0
LINE
  5
D9
100
AcDbEntity
  8
0
100
AcDbLine
 10
-75.809998
 20
-1.21
 30
0.0
 11
-75.809998
 21
-7.21
 31
0.0
  0
LINE
  5
DA
100
AcDbEntity
  8
0
100
AcDbLine
 10
-77.809998
 20
-1.21
 30
0.0
 11
-77.809998
 21
-7.21
 31
0.0
  0
LINE
  5
DB
100
AcDbEntity
  8
0
100
AcDbLine
 10
-79.809998
 20
-1.21
 30
0.0
 11
-79.809998
 21
-7.21
 31
0.0
  0
LINE
  5
DC
100
AcDbEntity
  8
0
100
AcDbLine
 10
-81.809998
 20
-1.21
 30
0.0
 11
-81.809998
 21
-7.21
 31
0.0
  0
LINE
  5
DD
100
AcDbEntity
  8
0
100
AcDbLine
 10
-83.809998
 20
-1.21
 30
0.0
 11
-83.809998
 21
-7.21
 31
0.0
  0
LINE
  5
DE
100
AcDbEntity
  8
0
100
AcDbLine
 10
-33.809998
 20
-7.21
 30
0.0
 11
-34.809998
 21
-8.21
 31
0.0
  0
LINE
  5
DF
100
AcDbEntity
  8
0
100
AcDbLine
 10
-34.810001
 20
-0.210001
 30
0.0
 11
-33.810001
 21
-1.21
 31
0.0
  0
LINE
  5
E0
100
AcDbEntity
  8
0
100
AcDbLine
 10
-33.810001
 20
-1.21
 30
0.0
 11
-33.810001
 21
-7.21
 31
0.0
  0
LINE
  5
E1
100
AcDbEntity
  8
0
100
AcDbLine
 10
-85.809998
 20
-7.21
 30
0.0
 11
-33.810001
 21
-7.21
 31
0.0
  0
LINE
  5
E2
100
AcDbEntity
  8
0
100
AcDbLine
 10
-85.809998
 20
-1.21
 30
0.0
 11
-33.810001
 21
-1.21
 31
0.0
  0
LINE
  5
E3
100
AcDbEntity
  8
0
100
AcDbLine
 10
-85.809998
 20
-7.209997
 30
0.0
 11
-84.809998
 21
-8.209998
 31
0.0
  0
LINE
  5
E4
100
AcDbEntity
  8
0
100
AcDbLine
 10
-84.809998
 20
-0.210001
 30
0.0
 11
-85.809998
 21
-1.210002
 31
0.0
  0
LINE
  5
E5
100
AcDbEntity
  8
0
100
AcDbLine
 10
-85.809998
 20
-1.21
 30
0.0
 11
-85.809998
 21
-7.21
 31
0.0
  0
LINE
  5
E6
100
AcDbEntity
  8
0
100
AcDbLine
 10
-35.810001
 20
-1.21
 30
0.0
 11
-35.810001
 21
-7.21
 31
0.0
  0
LINE
  5
E7
100
AcDbEntity
  8
0
100
AcDbLine
 10
44.18
 20
-8.21
 30
0.0
 11
94.18
 21
-8.21
 31
0.0
  0
LINE
  5
E8
100
AcDbEntity
  8
0
100
AcDbLine
 10
93.18
 20
-1.21
 30
0.0
 11
93.18
 21
-7.21
 31
0.0
  0
LINE
  5
E9
100
AcDbEntity
  8
0
100
AcDbLine
 10
91.18
 20
-1.21
 30
0.0
 11
91.18
 21
-7.21
 31
0.0
  0
LINE
  5
EA
100
AcDbEntity
  8
0
100
AcDbLine
 10
89.18
 20
-1.21
 30
0.0
 11
89.18
 21
-7.21
 31
0.0
  0
LINE
  5
EB
100
AcDbEntity
  8
0
100
AcDbLine
 10
87.18
 20
-1.21
 30
0.0
 11
87.18
 21
-7.21
 31
0.0
  0
LINE
  5
EC
100
AcDbEntity
  8
0
100
AcDbLine
 10
85.18
 20
-1.21
 30
0.0
 11
85.18
 21
-7.21
 31
0.0
  0
LINE
  5
ED
100
AcDbEntity
  8
0
100
AcDbLine
 10
83.18
 20
-1.21
 30
0.0
 11
83.18
 21
-7.21
 31
0.0
  0
LINE
  5
EE
100
AcDbEntity
  8
0
100
AcDbLine
 10
81.18
 20
-1.21
 30
0.0
 11
81.18
 21
-7.21
 31
0.0
  0
LINE
  5
EF
100
AcDbEntity
  8
0
100
AcDbLine
 10
79.18
 20
-1.21
 30
0.0
 11
79.18
 21
-7.21
 31
0.0
  0
LINE
  5
F0
100
AcDbEntity
  8
0
100
AcDbLine
 10
77.18
 20
-1.21
 30
0.0
 11
77.18
 21
-7.21
 31
0.0
  0
LINE
  5
F1
100
AcDbEntity
  8
0
100
AcDbLine
 10
75.18
 20
-1.21
 30
0.0
 11
75.18
 21
-7.21
 31
0.0
  0
LINE
  5
F2
100
AcDbEntity
  8
0
100
AcDbLine
 10
73.18
 20
-1.21
 30
0.0
 11
73.18
 21
-7.21
 31
0.0
  0
LINE
  5
F3
100
AcDbEntity
  8
0
100
AcDbLine
 10
71.18
 20
-1.21
 30
0.0
 11
71.18
 21
-7.21
 31
0.0
  0
LINE
  5
F4
100
AcDbEntity
  8
0
100
AcDbLine
 10
69.18
 20
-1.21
 30
0.0
 11
69.18
 21
-7.21
 31
0.0
  0
LINE
  5
F5
100
AcDbEntity
  8
0
100
AcDbLine
 10
67.18
 20
-1.21
 30
0.0
 11
67.18
 21
-7.21
 31
0.0
  0
LINE
  5
F6
100
AcDbEntity
  8
0
100
AcDbLine
 10
65.18
 20
-1.21
 30
0.0
 11
65.18
 21
-7.21
 31
0.0
  0
LINE
  5
F7
100
AcDbEntity
  8
0
100
AcDbLine
 10
63.18
 20
-1.21
 30
0.0
 11
63.18
 21
-7.21
 31
0.0
  0
LINE
  5
F8
100
AcDbEntity
  8
0
100
AcDbLine
 10
61.18
 20
-1.21
 30
0.0
 11
61.18
 21
-7.21
 31
0.0
  0
LINE
  5
F9
100
AcDbEntity
  8
0
100
AcDbLine
 10
59.18
 20
-1.21
 30
0.0
 11
59.18
 21
-7.21
 31
0.0
  0
LINE
  5
FA
100
AcDbEntity
  8
0
100
AcDbLine
 10
57.18
 20
-1.21
 30
0.0
 11
57.18
 21
-7.21
 31
0.0
  0
LINE
  5
FB
100
AcDbEntity
  8
0
100
AcDbLine
 10
55.18
 20
-1.21
 30
0.0
 11
55.18
 21
-7.21
 31
0.0
  0
LINE
  5
FC
100
AcDbEntity
  8
0
100
AcDbLine
 10
53.18
 20
-1.21
 30
0.0
 11
53.18
 21
-7.21
 31
0.0
  0
LINE
  5
FD
100
AcDbEntity
  8
0
100
AcDbLine
 10
51.18
 20
-1.21
 30
0.0
 11
51.18
 21
-7.21
 31
0.0
  0
LINE
  5
FE
100
AcDbEntity
  8
0
100
AcDbLine
 10
49.18
 20
-1.21
 30
0.0
 11
49.18
 21
-7.21
 31
0.0
  0
LINE
  5
FF
100
AcDbEntity
  8
0
100
AcDbLine
 10
47.18
 20
-1.21
 30
0.0
 11
47.18
 21
-7.21
 31
0.0
  0
LINE
  5
100
100
AcDbEntity
  8
0
100
AcDbLine
 10
45.18
 20
-1.21
 30
0.0
 11
45.18
 21
-7.21
 31
0.0
  0
LINE
  5
101
100
AcDbEntity
  8
0
100
AcDbLine
 10
95.18
 20
-7.210002
 30
0.0
 11
94.18
 21
-8.210001
 31
0.0
  0
LINE
  5
102
100
AcDbEntity
  8
0
100
AcDbLine
 10
95.18
 20
-1.21
 30
0.0
 11
95.18
 21
-7.21
 31
0.0
  0
LINE
  5
103
100
AcDbEntity
  8
0
100
AcDbLine
 10
43.18
 20
-7.21
 30
0.0
 11
95.18
 21
-7.21
 31
0.0
  0
LINE
  5
104
100
AcDbEntity
  8
0
100
AcDbLine
 10
43.18
 20
-1.21
 30
0.0
 11
95.18
 21
-1.21
 31
0.0
  0
LINE
  5
105
100
AcDbEntity
  8
0
100
AcDbLine
 10
43.18
 20
-7.21
 30
0.0
 11
44.179996
 21
-8.209998
 31
0.0
  0
LINE
  5
106
100
AcDbEntity
  8
0
100
AcDbLine
 10
43.18
 20
-1.21
 30
0.0
 11
43.18
 21
-7.21
 31
0.0
  0
LINE
  5
107
100
AcDbEntity
  8
0
100
AcDbLine
 10
-84.809998
 20
-8.21
 30
0.0
 11
-34.810001
 21
-8.21
 31
0.0
  0
LINE
  5
108
100
AcDbEntity
  8
0
100
AcDbLine
 10
-81.059998
 20
-19.9
 30
0.0
 11
-38.560001
 21
-19.9
 31
0.0
  0
LINE
  5
109
100
AcDbEntity
  8
0
100
AcDbLine
 10
-55.809998
 20
-49.199997
 30
0.0
 11
-55.109997
 21
-49.899998
 31
0.0
  0
LINE
  5
10A
100
AcDbEntity
  8
0
100
AcDbLine
 10
-47.790001
 20
-23.9
 30
0.0
 11
-48.510002
 21
-24.599998
 31
0.0
  0
LINE
  5
10B
100
AcDbEntity
  8
0
100
AcDbLine
 10
-55.810001
 20
-23.9
 30
0.0
 11
-55.110001
 21
-24.6
 31
0.0
  0
LINE
  5
10C
100
AcDbEntity
  8
0
100
AcDbLine
 10
-49.400002
 20
-49.900002
 30
0.0
 11
-48.510002
 21
-24.6
 31
0.0
  0
LINE
  5
10D
100
AcDbEntity
  8
0
100
AcDbLine
 10
-43.240002
 20
-49.200001
 30
0.0
 11
-43.939995
 21
-49.899998
 31
0.0
  0
LINE
  5
10E
100
AcDbEntity
  8
0
100
AcDbLine
 10
-39.459999
 20
-48.599998
 30
0.0
 11
-40.759998
 21
-49.899998
 31
0.0
  0
LINE
  5
10F
100
AcDbEntity
  8
0
100
AcDbLine
 10
-48.670002
 20
-49.199997
 30
0.0
 11
-47.790001
 21
-23.9
 31
0.0
  0
LINE
  5
110
100
AcDbEntity
  8
0
100
AcDbLine
 10
-48.509998
 20
-24.6
 30
0.0
 11
-55.110001
 21
-24.6
 31
0.0
  0
LINE
  5
111
100
AcDbEntity
  8
0
100
AcDbLine
 10
-47.790001
 20
-23.9
 30
0.0
 11
-55.810001
 21
-23.9
 31
0.0
  0
LINE
  5
112
100
AcDbEntity
  8
0
100
AcDbLine
 10
-42.520004
 20
-23.83
 30
0.0
 11
-43.240002
 21
-49.200001
 31
0.0
  0
LINE
  5
113
100
AcDbEntity
  8
0
100
AcDbLine
 10
-40.02
 20
-24.6
 30
0.0
 11
-42.549999
 21
-24.6
 31
0.0
  0
LINE
  5
114
100
AcDbEntity
  8
0
100
AcDbLine
 10
-55.110001
 20
-24.6
 30
0.0
 11
-55.110001
 21
-49.900002
 31
0.0
  0
LINE
  5
115
100
AcDbEntity
  8
0
100
AcDbLine
 10
-43.240002
 20
-49.200001
 30
0.0
 11
-48.669998
 21
-49.200001
 31
0.0
  0
LINE
  5
116
100
AcDbEntity
  8
0
100
AcDbLine
 10
-40.02
 20
-23.9
 30
0.0
 11
-42.529999
 21
-23.9
 31
0.0
  0
LINE
  5
117
100
AcDbEntity
  8
0
100
AcDbLine
 10
-43.939999
 20
-49.900002
 30
0.0
 11
-49.400002
 21
-49.900002
 31
0.0
  0
LINE
  5
118
100
AcDbEntity
  8
0
100
AcDbLine
 10
-55.810001
 20
-23.9
 30
0.0
 11
-55.810001
 21
-49.200001
 31
0.0
  0
LINE
  5
119
100
AcDbEntity
  8
0
100
AcDbLine
 10
-40.02
 20
-23.9
 30
0.0
 11
-40.810001
 21
-51.900002
 31
0.0
  0
LINE
  5
11A
100
AcDbEntity
  8
0
100
AcDbLine
 10
-38.560001
 20
-19.9
 30
0.0
 11
-39.460003
 21
-48.599998
 31
0.0
  0
LINE
  5
11B
100
AcDbEntity
  8
0
100
AcDbLine
 10
-80.169998
 20
-48.599998
 30
0.0
 11
-78.869995
 21
-49.899998
 31
0.0
  0
LINE
  5
11C
100
AcDbEntity
  8
0
100
AcDbLine
 10
-76.389999
 20
-49.200001
 30
0.0
 11
-75.690002
 21
-49.900002
 31
0.0
  0
LINE
  5
11D
100
AcDbEntity
  8
0
100
AcDbLine
 10
-70.950005
 20
-49.200001
 30
0.0
 11
-70.230003
 21
-49.900002
 31
0.0
  0
LINE
  5
11E
100
AcDbEntity
  8
0
100
AcDbLine
 10
-63.810001
 20
-49.200001
 30
0.0
 11
-64.509995
 21
-49.899998
 31
0.0
  0
LINE
  5
11F
100
AcDbEntity
  8
0
100
AcDbLine
 10
-71.839996
 20
-23.9
 30
0.0
 11
-71.110001
 21
-24.6
 31
0.0
  0
LINE
  5
120
100
AcDbEntity
  8
0
100
AcDbLine
 10
-63.810001
 20
-23.9
 30
0.0
 11
-64.510002
 21
-24.599998
 31
0.0
  0
LINE
  5
121
100
AcDbEntity
  8
0
100
AcDbLine
 10
-70.229996
 20
-49.899998
 30
0.0
 11
-71.110001
 21
-24.599998
 31
0.0
  0
LINE
  5
122
100
AcDbEntity
  8
0
100
AcDbLine
 10
-64.510002
 20
-49.900002
 30
0.0
 11
-55.110001
 21
-49.900002
 31
0.0
  0
LINE
  5
123
100
AcDbEntity
  8
0
100
AcDbLine
 10
-63.810001
 20
-49.200001
 30
0.0
 11
-55.810001
 21
-49.200001
 31
0.0
  0
LINE
  5
124
100
AcDbEntity
  8
0
100
AcDbLine
 10
-70.949997
 20
-49.200001
 30
0.0
 11
-71.839996
 21
-23.9
 31
0.0
  0
LINE
  5
125
100
AcDbEntity
  8
0
100
AcDbLine
 10
-71.110001
 20
-24.6
 30
0.0
 11
-64.510002
 21
-24.6
 31
0.0
  0
LINE
  5
126
100
AcDbEntity
  8
0
100
AcDbLine
 10
-71.839996
 20
-23.9
 30
0.0
 11
-63.810001
 21
-23.9
 31
0.0
  0
LINE
  5
127
100
AcDbEntity
  8
0
100
AcDbLine
 10
-77.099998
 20
-23.83
 30
0.0
 11
-76.389999
 21
-49.200001
 31
0.0
  0
LINE
  5
128
100
AcDbEntity
  8
0
100
AcDbLine
 10
-79.599998
 20
-24.6
 30
0.0
 11
-77.080002
 21
-24.6
 31
0.0
  0
LINE
  5
129
100
AcDbEntity
  8
0
100
AcDbLine
 10
-64.510002
 20
-24.6
 30
0.0
 11
-64.510002
 21
-49.900002
 31
0.0
  0
LINE
  5
12A
100
AcDbEntity
  8
0
100
AcDbLine
 10
-76.389999
 20
-49.200001
 30
0.0
 11
-70.949997
 21
-49.200001
 31
0.0
  0
LINE
  5
12B
100
AcDbEntity
  8
0
100
AcDbLine
 10
-79.599998
 20
-23.9
 30
0.0
 11
-77.099998
 21
-23.9
 31
0.0
  0
LINE
  5
12C
100
AcDbEntity
  8
0
100
AcDbLine
 10
-75.690002
 20
-49.900002
 30
0.0
 11
-70.230003
 21
-49.900002
 31
0.0
  0
LINE
  5
12D
100
AcDbEntity
  8
0
100
AcDbLine
 10
-63.810001
 20
-23.9
 30
0.0
 11
-63.810001
 21
-49.200001
 31
0.0
  0
LINE
  5
12E
100
AcDbEntity
  8
0
100
AcDbLine
 10
-79.599998
 20
-23.9
 30
0.0
 11
-78.809998
 21
-51.900002
 31
0.0
  0
LINE
  5
12F
100
AcDbEntity
  8
0
100
AcDbLine
 10
-81.059998
 20
-19.9
 30
0.0
 11
-80.169998
 21
-48.600002
 31
0.0
  0
LINE
  5
130
100
AcDbEntity
  8
0
100
AcDbLine
 10
-78.809998
 20
-51.900002
 30
0.0
 11
-40.810001
 21
-51.900002
 31
0.0
  0
LINE
  5
131
100
AcDbEntity
  8
0
100
AcDbLine
 10
-48.670002
 20
-49.200001
 30
0.0
 11
-49.400002
 21
-49.899998
 31
0.0
  0
LINE
  5
132
100
AcDbEntity
  8
0
100
AcDbLine
 10
80.32
 20
-49.200005
 30
0.0
 11
79.600006
 21
-49.900002
 31
0.0
  0
LINE
  5
133
100
AcDbEntity
  8
0
100
AcDbLine
 10
73.18
 20
-49.200001
 30
0.0
 11
73.880005
 21
-49.900002
 31
0.0
  0
LINE
  5
134
100
AcDbEntity
  8
0
100
AcDbLine
 10
81.200005
 20
-23.900002
 30
0.0
 11
80.480003
 21
-24.600002
 31
0.0
  0
LINE
  5
135
100
AcDbEntity
  8
0
100
AcDbLine
 10
73.18
 20
-23.9
 30
0.0
 11
73.880005
 21
-24.600002
 31
0.0
  0
LINE
  5
136
100
AcDbEntity
  8
0
100
AcDbLine
 10
79.599998
 20
-49.900002
 30
0.0
 11
80.480003
 21
-24.599998
 31
0.0
  0
LINE
  5
137
100
AcDbEntity
  8
0
100
AcDbLine
 10
85.75
 20
-49.199997
 30
0.0
 11
85.049995
 21
-49.899998
 31
0.0
  0
LINE
  5
138
100
AcDbEntity
  8
0
100
AcDbLine
 10
89.529999
 20
-48.600002
 30
0.0
 11
88.240005
 21
-49.900002
 31
0.0
  0
LINE
  5
139
100
AcDbEntity
  8
0
100
AcDbLine
 10
80.32
 20
-49.200001
 30
0.0
 11
81.199997
 21
-23.9
 31
0.0
  0
LINE
  5
13A
100
AcDbEntity
  8
0
100
AcDbLine
 10
80.480003
 20
-24.6
 30
0.0
 11
73.879997
 21
-24.6
 31
0.0
  0
LINE
  5
13B
100
AcDbEntity
  8
0
100
AcDbLine
 10
81.199997
 20
-23.9
 30
0.0
 11
73.18
 21
-23.9
 31
0.0
  0
LINE
  5
13C
100
AcDbEntity
  8
0
100
AcDbLine
 10
86.470001
 20
-23.83
 30
0.0
 11
85.75
 21
-49.200001
 31
0.0
  0
LINE
  5
13D
100
AcDbEntity
  8
0
100
AcDbLine
 10
88.970001
 20
-24.6
 30
0.0
 11
86.449997
 21
-24.6
 31
0.0
  0
LINE
  5
13E
100
AcDbEntity
  8
0
100
AcDbLine
 10
73.879997
 20
-24.6
 30
0.0
 11
73.879997
 21
-49.900002
 31
0.0
  0
LINE
  5
13F
100
AcDbEntity
  8
0
100
AcDbLine
 10
85.75
 20
-49.200001
 30
0.0
 11
80.32
 21
-49.200001
 31
0.0
  0
LINE
  5
140
100
AcDbEntity
  8
0
100
AcDbLine
 10
88.970001
 20
-23.9
 30
0.0
 11
86.470001
 21
-23.9
 31
0.0
  0
LINE
  5
141
100
AcDbEntity
  8
0
100
AcDbLine
 10
85.050003
 20
-49.900002
 30
0.0
 11
79.599998
 21
-49.900002
 31
0.0
  0
LINE
  5
142
100
AcDbEntity
  8
0
100
AcDbLine
 10
73.18
 20
-23.9
 30
0.0
 11
73.18
 21
-49.200001
 31
0.0
  0
LINE
  5
143
100
AcDbEntity
  8
0
100
AcDbLine
 10
88.970001
 20
-23.9
 30
0.0
 11
88.18
 21
-51.900002
 31
0.0
  0
LINE
  5
144
100
AcDbEntity
  8
0
100
AcDbLine
 10
90.43
 20
-19.9
 30
0.0
 11
89.530006
 21
-48.599998
 31
0.0
  0
LINE
  5
145
100
AcDbEntity
  8
0
100
AcDbLine
 10
48.830002
 20
-48.600002
 30
0.0
 11
50.120003
 21
-49.900002
 31
0.0
  0
LINE
  5
146
100
AcDbEntity
  8
0
100
AcDbLine
 10
52.599998
 20
-49.199997
 30
0.0
 11
53.299999
 21
-49.899998
 31
0.0
  0
LINE
  5
147
100
AcDbEntity
  8
0
100
AcDbLine
 10
58.040005
 20
-49.200001
 30
0.0
 11
58.760002
 21
-49.900002
 31
0.0
  0
LINE
  5
148
100
AcDbEntity
  8
0
100
AcDbLine
 10
65.18
 20
-49.200001
 30
0.0
 11
64.480003
 21
-49.900002
 31
0.0
  0
LINE
  5
149
100
AcDbEntity
  8
0
100
AcDbLine
 10
57.149998
 20
-23.899998
 30
0.0
 11
57.880001
 21
-24.599998
 31
0.0
  0
LINE
  5
14A
100
AcDbEntity
  8
0
100
AcDbLine
 10
65.18
 20
-23.9
 30
0.0
 11
64.479996
 21
-24.599998
 31
0.0
  0
LINE
  5
14B
100
AcDbEntity
  8
0
100
AcDbLine
 10
58.759998
 20
-49.899998
 30
0.0
 11
57.879997
 21
-24.6
 31
0.0
  0
LINE
  5
14C
100
AcDbEntity
  8
0
100
AcDbLine
 10
64.480003
 20
-49.900002
 30
0.0
 11
73.879997
 21
-49.900002
 31
0.0
  0
LINE
  5
14D
100
AcDbEntity
  8
0
100
AcDbLine
 10
65.18
 20
-49.200001
 30
0.0
 11
73.18
 21
-49.200001
 31
0.0
  0
LINE
  5
14E
100
AcDbEntity
  8
0
100
AcDbLine
 10
58.040001
 20
-49.200001
 30
0.0
 11
57.150002
 21
-23.9
 31
0.0
  0
LINE
  5
14F
100
AcDbEntity
  8
0
100
AcDbLine
 10
57.880001
 20
-24.6
 30
0.0
 11
64.480003
 21
-24.6
 31
0.0
  0
LINE
  5
150
100
AcDbEntity
  8
0
100
AcDbLine
 10
57.150002
 20
-23.9
 30
0.0
 11
65.18
 21
-23.9
 31
0.0
  0
LINE
  5
151
100
AcDbEntity
  8
0
100
AcDbLine
 10
51.890003
 20
-23.83
 30
0.0
 11
52.600002
 21
-49.200001
 31
0.0
  0
LINE
  5
152
100
AcDbEntity
  8
0
100
AcDbLine
 10
49.389999
 20
-24.6
 30
0.0
 11
51.91
 21
-24.6
 31
0.0
  0
LINE
  5
153
100
AcDbEntity
  8
0
100
AcDbLine
 10
64.480003
 20
-24.6
 30
0.0
 11
64.480003
 21
-49.900002
 31
0.0
  0
LINE
  5
154
100
AcDbEntity
  8
0
100
AcDbLine
 10
52.599998
 20
-49.200001
 30
0.0
 11
58.040001
 21
-49.200001
 31
0.0
  0
LINE
  5
155
100
AcDbEntity
  8
0
100
AcDbLine
 10
49.389999
 20
-23.9
 30
0.0
 11
51.889999
 21
-23.9
 31
0.0
  0
LINE
  5
156
100
AcDbEntity
  8
0
100
AcDbLine
 10
53.299999
 20
-49.900002
 30
0.0
 11
58.759998
 21
-49.900002
 31
0.0
  0
LINE
  5
157
100
AcDbEntity
  8
0
100
AcDbLine
 10
65.18
 20
-23.9
 30
0.0
 11
65.18
 21
-49.200001
 31
0.0
  0
LINE
  5
158
100
AcDbEntity
  8
0
100
AcDbLine
 10
49.389999
 20
-23.9
 30
0.0
 11
50.18
 21
-51.900002
 31
0.0
  0
LINE
  5
159
100
AcDbEntity
  8
0
100
AcDbLine
 10
47.93
 20
-19.9
 30
0.0
 11
48.829998
 21
-48.600002
 31
0.0
  0
LINE
  5
15A
100
AcDbEntity
  8
0
100
AcDbLine
 10
50.18
 20
-51.900002
 30
0.0
 11
88.18
 21
-51.900002
 31
0.0
  0
LINE
  5
15B
100
AcDbEntity
  8
0
100
AcDbLine
 10
47.93
 20
-19.9
 30
0.0
 11
90.43
 21
-19.9
 31
0.0
  0
LINE
  5
15C
100
AcDbEntity
  8
0
100
AcDbLine
 10
-47.91
 20
49.389999
 30
0.0
 11
-47.91
 21
44.09
 31
0.0
  0
LINE
  5
15D
100
AcDbEntity
  8
0
100
AcDbLine
 10
-50.91
 20
49.390003
 30
0.0
 11
-51.609997
 21
50.089996
 31
0.0
  0
LINE
  5
15E
100
AcDbEntity
  8
0
100
AcDbLine
 10
-50.910004
 20
44.09
 30
0.0
 11
-51.609997
 21
44.789997
 31
0.0
  0
LINE
  5
15F
100
AcDbEntity
  8
0
100
AcDbLine
 10
-50.91
 20
49.389999
 30
0.0
 11
-50.91
 21
44.09
 31
0.0
  0
LINE
  5
160
100
AcDbEntity
  8
0
100
AcDbLine
 10
-51.610001
 20
50.09
 30
0.0
 11
-51.610001
 21
44.790001
 31
0.0
  0
LINE
  5
161
100
AcDbEntity
  8
0
100
AcDbLine
 10
-56.610001
 20
44.790001
 30
0.0
 11
-57.310001
 21
44.09
 31
0.0
  0
LINE
  5
162
100
AcDbEntity
  8
0
100
AcDbLine
 10
-56.610001
 20
50.09
 30
0.0
 11
-57.310001
 21
49.389999
 31
0.0
  0
LINE
  5
163
100
AcDbEntity
  8
0
100
AcDbLine
 10
-46.509998
 20
50.09
 30
0.0
 11
-48.610001
 21
50.09
 31
0.0
  0
LINE
  5
164
100
AcDbEntity
  8
0
100
AcDbLine
 10
-47.91
 20
49.389999
 30
0.0
 11
-50.91
 21
49.389999
 31
0.0
  0
LINE
  5
165
100
AcDbEntity
  8
0
100
AcDbLine
 10
-50.91
 20
44.09
 30
0.0
 11
-57.310001
 21
44.09
 31
0.0
  0
LINE
  5
166
100
AcDbEntity
  8
0
100
AcDbLine
 10
-45.810001
 20
44.790001
 30
0.0
 11
-47.91
 21
44.790001
 31
0.0
  0
LINE
  5
167
100
AcDbEntity
  8
0
100
AcDbLine
 10
-56.610001
 20
50.09
 30
0.0
 11
-56.610001
 21
44.790001
 31
0.0
  0
LINE
  5
168
100
AcDbEntity
  8
0
100
AcDbLine
 10
-45.810001
 20
44.09
 30
0.0
 11
-47.91
 21
44.09
 31
0.0
  0
LINE
  5
169
100
AcDbEntity
  8
0
100
AcDbLine
 10
-57.310001
 20
49.389999
 30
0.0
 11
-57.310001
 21
44.09
 31
0.0
  0
LINE
  5
16A
100
AcDbEntity
  8
0
100
AcDbLine
 10
-62.310001
 20
49.389999
 30
0.0
 11
-57.310001
 21
49.389999
 31
0.0
  0
LINE
  5
16B
100
AcDbEntity
  8
0
100
AcDbLine
 10
-68.010002
 20
44.790001
 30
0.0
 11
-63.009998
 21
44.790001
 31
0.0
  0
LINE
  5
16C
100
AcDbEntity
  8
0
100
AcDbLine
 10
-68.010002
 20
50.09
 30
0.0
 11
-63.009998
 21
50.09
 31
0.0
  0
LINE
  5
16D
100
AcDbEntity
  8
0
100
AcDbLine
 10
-71.709999
 20
49.389999
 30
0.0
 11
-71.010002
 21
50.09
 31
0.0
  0
LINE
  5
16E
100
AcDbEntity
  8
0
100
AcDbLine
 10
-73.809998
 20
49.389999
 30
0.0
 11
-72.110001
 21
51.09
 31
0.0
  0
LINE
  5
16F
100
AcDbEntity
  8
0
100
AcDbLine
 10
-71.709999
 20
49.389999
 30
0.0
 11
-71.709999
 21
44.09
 31
0.0
  0
LINE
  5
170
100
AcDbEntity
  8
0
100
AcDbLine
 10
-68.709999
 20
49.389996
 30
0.0
 11
-68.009995
 21
50.089996
 31
0.0
  0
LINE
  5
171
100
AcDbEntity
  8
0
100
AcDbLine
 10
-68.709999
 20
44.089996
 30
0.0
 11
-68.009995
 21
44.789997
 31
0.0
  0
LINE
  5
172
100
AcDbEntity
  8
0
100
AcDbLine
 10
-68.709999
 20
49.389999
 30
0.0
 11
-68.709999
 21
44.09
 31
0.0
  0
LINE
  5
173
100
AcDbEntity
  8
0
100
AcDbLine
 10
-68.010002
 20
50.09
 30
0.0
 11
-68.010002
 21
44.790001
 31
0.0
  0
LINE
  5
174
100
AcDbEntity
  8
0
100
AcDbLine
 10
-63.009998
 20
44.790001
 30
0.0
 11
-62.309998
 21
44.089996
 31
0.0
  0
LINE
  5
175
100
AcDbEntity
  8
0
100
AcDbLine
 10
-63.009998
 20
50.09
 30
0.0
 11
-62.309998
 21
49.389999
 31
0.0
  0
LINE
  5
176
100
AcDbEntity
  8
0
100
AcDbLine
 10
-73.110001
 20
50.09
 30
0.0
 11
-71.010002
 21
50.09
 31
0.0
  0
LINE
  5
177
100
AcDbEntity
  8
0
100
AcDbLine
 10
-71.709999
 20
49.389999
 30
0.0
 11
-68.709999
 21
49.389999
 31
0.0
  0
LINE
  5
178
100
AcDbEntity
  8
0
100
AcDbLine
 10
-68.709999
 20
44.09
 30
0.0
 11
-62.310001
 21
44.09
 31
0.0
  0
LINE
  5
179
100
AcDbEntity
  8
0
100
AcDbLine
 10
-73.809998
 20
44.790001
 30
0.0
 11
-71.709999
 21
44.790001
 31
0.0
  0
LINE
  5
17A
100
AcDbEntity
  8
0
100
AcDbLine
 10
-63.009998
 20
50.09
 30
0.0
 11
-63.009998
 21
44.790001
 31
0.0
  0
LINE
  5
17B
100
AcDbEntity
  8
0
100
AcDbLine
 10
-73.809998
 20
44.09
 30
0.0
 11
-71.709999
 21
44.09
 31
0.0
  0
LINE
  5
17C
100
AcDbEntity
  8
0
100
AcDbLine
 10
-62.310001
 20
49.389999
 30
0.0
 11
-62.310001
 21
44.09
 31
0.0
  0
LINE
  5
17D
100
AcDbEntity
  8
0
100
AcDbLine
 10
-72.110001
 20
51.09
 30
0.0
 11
-47.509998
 21
51.09
 31
0.0
  0
LINE
  5
17E
100
AcDbEntity
  8
0
100
AcDbLine
 10
-47.91
 20
49.389999
 30
0.0
 11
-48.610001
 21
50.09
 31
0.0
  0
LINE
  5
17F
100
AcDbEntity
  8
0
100
AcDbLine
 10
-51.610001
 20
50.09
 30
0.0
 11
-56.610001
 21
50.09
 31
0.0
  0
LINE
  5
180
100
AcDbEntity
  8
0
100
AcDbLine
 10
-51.610001
 20
44.790001
 30
0.0
 11
-56.610001
 21
44.790001
 31
0.0
  0
LINE
  5
181
100
AcDbEntity
  8
0
100
AcDbLine
 10
-45.810001
 20
49.389999
 30
0.0
 11
-47.509998
 21
51.089996
 31
0.0
  0
LINE
  5
182
100
AcDbEntity
  8
0
100
AcDbLine
 10
77.379997
 20
44.790001
 30
0.0
 11
72.379997
 21
44.790001
 31
0.0
  0
LINE
  5
183
100
AcDbEntity
  8
0
100
AcDbLine
 10
77.379997
 20
50.09
 30
0.0
 11
72.379997
 21
50.09
 31
0.0
  0
LINE
  5
184
100
AcDbEntity
  8
0
100
AcDbLine
 10
81.079994
 20
49.389996
 30
0.0
 11
80.379997
 21
50.089996
 31
0.0
  0
LINE
  5
185
100
AcDbEntity
  8
0
100
AcDbLine
 10
83.179993
 20
49.389996
 30
0.0
 11
81.479996
 21
51.089996
 31
0.0
  0
LINE
  5
186
100
AcDbEntity
  8
0
100
AcDbLine
 10
81.080002
 20
49.389999
 30
0.0
 11
81.080002
 21
44.09
 31
0.0
  0
LINE
  5
187
100
AcDbEntity
  8
0
100
AcDbLine
 10
78.080002
 20
49.389999
 30
0.0
 11
77.379997
 21
50.09
 31
0.0
  0
LINE
  5
188
100
AcDbEntity
  8
0
100
AcDbLine
 10
78.080002
 20
44.09
 30
0.0
 11
77.379997
 21
44.790001
 31
0.0
  0
LINE
  5
189
100
AcDbEntity
  8
0
100
AcDbLine
 10
78.080002
 20
49.389999
 30
0.0
 11
78.080002
 21
44.09
 31
0.0
  0
LINE
  5
18A
100
AcDbEntity
  8
0
100
AcDbLine
 10
77.379997
 20
50.09
 30
0.0
 11
77.379997
 21
44.790001
 31
0.0
  0
LINE
  5
18B
100
AcDbEntity
  8
0
100
AcDbLine
 10
72.379997
 20
44.789997
 30
0.0
 11
71.68
 21
44.090004
 31
0.0
  0
LINE
  5
18C
100
AcDbEntity
  8
0
100
AcDbLine
 10
72.379997
 20
50.089996
 30
0.0
 11
71.68
 21
49.390003
 31
0.0
  0
LINE
  5
18D
100
AcDbEntity
  8
0
100
AcDbLine
 10
82.480003
 20
50.09
 30
0.0
 11
80.379997
 21
50.09
 31
0.0
  0
LINE
  5
18E
100
AcDbEntity
  8
0
100
AcDbLine
 10
81.080002
 20
49.389999
 30
0.0
 11
78.080002
 21
49.389999
 31
0.0
  0
LINE
  5
18F
100
AcDbEntity
  8
0
100
AcDbLine
 10
78.080002
 20
44.09
 30
0.0
 11
71.68
 21
44.09
 31
0.0
  0
LINE
  5
190
100
AcDbEntity
  8
0
100
AcDbLine
 10
83.18
 20
44.790001
 30
0.0
 11
81.080002
 21
44.790001
 31
0.0
  0
LINE
  5
191
100
AcDbEntity
  8
0
100
AcDbLine
 10
72.379997
 20
50.09
 30
0.0
 11
72.379997
 21
44.790001
 31
0.0
  0
LINE
  5
192
100
AcDbEntity
  8
0
100
AcDbLine
 10
83.18
 20
44.09
 30
0.0
 11
81.080002
 21
44.09
 31
0.0
  0
LINE
  5
193
100
AcDbEntity
  8
0
100
AcDbLine
 10
71.68
 20
49.389999
 30
0.0
 11
71.68
 21
44.09
 31
0.0
  0
LINE
  5
194
100
AcDbEntity
  8
0
100
AcDbLine
 10
66.68
 20
49.389999
 30
0.0
 11
71.68
 21
49.389999
 31
0.0
  0
LINE
  5
195
100
AcDbEntity
  8
0
100
AcDbLine
 10
60.98
 20
44.790001
 30
0.0
 11
65.980003
 21
44.790001
 31
0.0
  0
LINE
  5
196
100
AcDbEntity
  8
0
100
AcDbLine
 10
60.98
 20
50.09
 30
0.0
 11
65.980003
 21
50.09
 31
0.0
  0
LINE
  5
197
100
AcDbEntity
  8
0
100
AcDbLine
 10
57.279999
 20
49.389999
 30
0.0
 11
57.98
 21
50.09
 31
0.0
  0
LINE
  5
198
100
AcDbEntity
  8
0
100
AcDbLine
 10
55.179996
 20
49.389999
 30
0.0
 11
56.880001
 21
51.09
 31
0.0
  0
LINE
  5
199
100
AcDbEntity
  8
0
100
AcDbLine
 10
57.279999
 20
49.389999
 30
0.0
 11
57.279999
 21
44.09
 31
0.0
  0
LINE
  5
19A
100
AcDbEntity
  8
0
100
AcDbLine
 10
60.279999
 20
49.389999
 30
0.0
 11
60.98
 21
50.09
 31
0.0
  0
LINE
  5
19B
100
AcDbEntity
  8
0
100
AcDbLine
 10
60.279999
 20
44.09
 30
0.0
 11
60.980003
 21
44.790001
 31
0.0
  0
LINE
  5
19C
100
AcDbEntity
  8
0
100
AcDbLine
 10
60.279999
 20
49.389999
 30
0.0
 11
60.279999
 21
44.09
 31
0.0
  0
LINE
  5
19D
100
AcDbEntity
  8
0
100
AcDbLine
 10
60.98
 20
50.09
 30
0.0
 11
60.98
 21
44.790001
 31
0.0
  0
LINE
  5
19E
100
AcDbEntity
  8
0
100
AcDbLine
 10
65.979996
 20
44.789997
 30
0.0
 11
66.68
 21
44.09
 31
0.0
  0
LINE
  5
19F
100
AcDbEntity
  8
0
100
AcDbLine
 10
65.979996
 20
50.09
 30
0.0
 11
66.68
 21
49.389999
 31
0.0
  0
LINE
  5
1A0
100
AcDbEntity
  8
0
100
AcDbLine
 10
55.880001
 20
50.09
 30
0.0
 11
57.98
 21
50.09
 31
0.0
  0
LINE
  5
1A1
100
AcDbEntity
  8
0
100
AcDbLine
 10
57.279999
 20
49.389999
 30
0.0
 11
60.279999
 21
49.389999
 31
0.0
  0
LINE
  5
1A2
100
AcDbEntity
  8
0
100
AcDbLine
 10
60.279999
 20
44.09
 30
0.0
 11
66.68
 21
44.09
 31
0.0
  0
LINE
  5
1A3
100
AcDbEntity
  8
0
100
AcDbLine
 10
55.18
 20
44.790001
 30
0.0
 11
57.279999
 21
44.790001
 31
0.0
  0
LINE
  5
1A4
100
AcDbEntity
  8
0
100
AcDbLine
 10
65.980003
 20
50.09
 30
0.0
 11
65.980003
 21
44.790001
 31
0.0
  0
LINE
  5
1A5
100
AcDbEntity
  8
0
100
AcDbLine
 10
55.18
 20
44.09
 30
0.0
 11
57.279999
 21
44.09
 31
0.0
  0
LINE
  5
1A6
100
AcDbEntity
  8
0
100
AcDbLine
 10
66.68
 20
49.389999
 30
0.0
 11
66.68
 21
44.09
 31
0.0
  0
LINE
  5
1A7
100
AcDbEntity
  8
0
100
AcDbLine
 10
-42.810001
 20
-12.9
 30
0.0
 11
-42.810001
 21
-19.9
 31
0.0
  0
LINE
  5
1A8
100
AcDbEntity
  8
0
100
AcDbLine
 10
-76.809998
 20
-12.9
 30
0.0
 11
-76.809998
 21
-19.9
 31
0.0
  0
LINE
  5
1A9
100
AcDbEntity
  8
0
100
AcDbLine
 10
-81.309998
 20
-11.9
 30
0.0
 11
-38.310001
 21
-11.9
 31
0.0
  0
LINE
  5
1AA
100
AcDbEntity
  8
0
100
AcDbLine
 10
-39.309998
 20
-12.9
 30
0.0
 11
-38.309998
 21
-11.899999
 31
0.0
  0
LINE
  5
1AB
100
AcDbEntity
  8
0
100
AcDbLine
 10
-81.309998
 20
-11.900002
 30
0.0
 11
-80.309998
 21
-12.9
 31
0.0
  0
LINE
  5
1AC
100
AcDbEntity
  8
0
100
AcDbLine
 10
-37.309998
 20
-9.910001
 30
0.0
 11
-38.310001
 21
-10.900002
 31
0.0
  0
LINE
  5
1AD
100
AcDbEntity
  8
0
100
AcDbLine
 10
-38.310001
 20
-10.9
 30
0.0
 11
-38.310001
 21
-11.9
 31
0.0
  0
LINE
  5
1AE
100
AcDbEntity
  8
0
100
AcDbLine
 10
-37.310001
 20
-8.21
 30
0.0
 11
-37.310001
 21
-8.870373
 31
0.0
  0
LINE
  5
1AF
100
AcDbEntity
  8
0
 62
     2
100
AcDbLine
 10
-38.310001
 20
-8.21
 30
0.0
 11
-38.310001
 21
-8.98114
 31
0.0
  0
LINE
  5
1B0
100
AcDbEntity
  8
0
100
AcDbLine
 10
-81.309998
 20
-10.9
 30
0.0
 11
-81.309998
 21
-11.9
 31
0.0
  0
LINE
  5
1B1
100
AcDbEntity
  8
0
100
AcDbLine
 10
-82.309998
 20
-9.91
 30
0.0
 11
-81.310005
 21
-10.899999
 31
0.0
  0
LINE
  5
1B2
100
AcDbEntity
  8
0
100
AcDbLine
 10
-81.309998
 20
-10.9
 30
0.0
 11
-38.310001
 21
-10.9
 31
0.0
  0
LINE
  5
1B3
100
AcDbEntity
  8
0
 62
     2
100
AcDbLine
 10
-81.309998
 20
2.09
 30
0.0
 11
-81.309998
 21
-0.21
 31
0.0
  0
LINE
  5
1B4
100
AcDbEntity
  8
0
100
AcDbLine
 10
-82.309998
 20
2.09
 30
0.0
 11
-82.309998
 21
-0.21
 31
0.0
  0
LINE
  5
1B5
100
AcDbEntity
  8
0
100
AcDbLine
 10
-80.309998
 20
-12.9
 30
0.0
 11
-39.310001
 21
-12.9
 31
0.0
  0
LINE
  5
1B6
100
AcDbEntity
  8
0
100
AcDbLine
 10
86.18
 20
-12.9
 30
0.0
 11
86.18
 21
-19.9
 31
0.0
  0
LINE
  5
1B7
100
AcDbEntity
  8
0
100
AcDbLine
 10
52.18
 20
-12.9
 30
0.0
 11
52.18
 21
-19.9
 31
0.0
  0
LINE
  5
1B8
100
AcDbEntity
  8
0
100
AcDbLine
 10
47.68
 20
-11.9
 30
0.0
 11
90.68
 21
-11.9
 31
0.0
  0
LINE
  5
1B9
100
AcDbEntity
  8
0
100
AcDbLine
 10
89.68
 20
-12.899997
 30
0.0
 11
90.679993
 21
-11.899999
 31
0.0
  0
LINE
  5
1BA
100
AcDbEntity
  8
0
100
AcDbLine
 10
47.68
 20
-11.899999
 30
0.0
 11
48.68
 21
-12.9
 31
0.0
  0
LINE
  5
1BB
100
AcDbEntity
  8
0
100
AcDbLine
 10
91.68
 20
-9.909996
 30
0.0
 11
90.68
 21
-10.899997
 31
0.0
  0
LINE
  5
1BC
100
AcDbEntity
  8
0
100
AcDbLine
 10
90.68
 20
-10.9
 30
0.0
 11
90.68
 21
-11.9
 31
0.0
  0
LINE
  5
1BD
100
AcDbEntity
  8
0
100
AcDbLine
 10
91.68
 20
-8.21
 30
0.0
 11
91.68
 21
-8.954899
 31
0.0
  0
LINE
  5
1BE
100
AcDbEntity
  8
0
 62
     2
100
AcDbLine
 10
90.68
 20
-8.21
 30
0.0
 11
90.68
 21
-8.954899
 31
0.0
  0
LINE
  5
1BF
100
AcDbEntity
  8
0
100
AcDbLine
 10
47.68
 20
-10.9
 30
0.0
 11
47.68
 21
-11.9
 31
0.0
  0
LINE
  5
1C0
100
AcDbEntity
  8
0
100
AcDbLine
 10
46.68
 20
-9.910001
 30
0.0
 11
47.68
 21
-10.900002
 31
0.0
  0
LINE
  5
1C1
100
AcDbEntity
  8
0
100
AcDbLine
 10
47.68
 20
-10.9
 30
0.0
 11
90.68
 21
-10.9
 31
0.0
  0
LINE
  5
1C2
100
AcDbEntity
  8
0
 62
     2
100
AcDbLine
 10
47.68
 20
2.09
 30
0.0
 11
47.68
 21
-0.21
 31
0.0
  0
LINE
  5
1C3
100
AcDbEntity
  8
0
100
AcDbLine
 10
46.68
 20
2.09
 30
0.0
 11
46.68
 21
-0.21
 31
0.0
  0
LINE
  5
1C4
100
AcDbEntity
  8
0
100
AcDbLine
 10
48.68
 20
-12.9
 30
0.0
 11
89.68
 21
-12.9
 31
0.0
  0
LINE
  5
1C5
100
AcDbEntity
  8
0
  6
PHANTOM
 62
     2
100
AcDbLine
 10
43.18
 20
2.09
 30
0.0
 11
44.18
 21
2.09
 31
0.0
  0
LINE
  5
1C6
100
AcDbEntity
  8
0
  6
PHANTOM
 62
     2
100
AcDbLine
 10
-89.809998
 20
2.09
 30
0.0
 11
-84.809998
 21
2.09
 31
0.0
  0
LINE
  5
1C7
100
AcDbEntity
  8
0
100
AcDbLine
 10
56.880001
 20
51.09
 30
0.0
 11
81.480003
 21
51.09
 31
0.0
  0
LINE
  5
1C8
100
AcDbEntity
  8
0
100
AcDbLine
 10
83.18
 20
38.09
 30
0.0
 11
84.18
 21
37.09
 31
0.0
  0
LINE
  5
1C9
100
AcDbEntity
  8
0
100
AcDbLine
 10
54.18
 20
37.09
 30
0.0
 11
55.18
 21
38.09
 31
0.0
  0
LINE
  5
1CA
100
AcDbEntity
  8
0
100
AcDbLine
 10
89.18
 20
18.089996
 30
0.0
 11
88.18
 21
17.09
 31
0.0
  0
LINE
  5
1CB
100
AcDbEntity
  8
0
100
AcDbLine
 10
88.18
 20
35.09
 30
0.0
 11
89.18
 21
34.09
 31
0.0
  0
LINE
  5
1CC
100
AcDbEntity
  8
0
100
AcDbLine
 10
49.18
 20
34.09
 30
0.0
 11
50.18
 21
35.09
 31
0.0
  0
LINE
  5
1CD
100
AcDbEntity
  8
0
100
AcDbLine
 10
50.18
 20
17.09
 30
0.0
 11
49.18
 21
18.09
 31
0.0
  0
LINE
  5
1CE
100
AcDbEntity
  8
0
100
AcDbLine
 10
83.18
 20
38.09
 30
0.0
 11
83.18
 21
14.09
 31
0.0
  0
LINE
  5
1CF
100
AcDbEntity
  8
0
100
AcDbLine
 10
54.18
 20
37.09
 30
0.0
 11
84.18
 21
37.09
 31
0.0
  0
LINE
  5
1D0
100
AcDbEntity
  8
0
100
AcDbLine
 10
55.18
 20
38.09
 30
0.0
 11
55.18
 21
14.09
 31
0.0
  0
LINE
  5
1D1
100
AcDbEntity
  8
0
100
AcDbLine
 10
88.18
 20
35.09
 30
0.0
 11
88.18
 21
17.09
 31
0.0
  0
LINE
  5
1D2
100
AcDbEntity
  8
0
100
AcDbLine
 10
50.18
 20
35.09
 30
0.0
 11
50.18
 21
17.09
 31
0.0
  0
LINE
  5
1D3
100
AcDbEntity
  8
0
100
AcDbLine
 10
84.18
 20
17.09
 30
0.0
 11
88.18
 21
17.09
 31
0.0
  0
LINE
  5
1D4
100
AcDbEntity
  8
0
100
AcDbLine
 10
84.18
 20
35.09
 30
0.0
 11
88.18
 21
35.09
 31
0.0
  0
LINE
  5
1D5
100
AcDbEntity
  8
0
100
AcDbLine
 10
50.18
 20
17.09
 30
0.0
 11
54.18
 21
17.09
 31
0.0
  0
LINE
  5
1D6
100
AcDbEntity
  8
0
100
AcDbLine
 10
50.18
 20
35.09
 30
0.0
 11
54.18
 21
35.09
 31
0.0
  0
LINE
  5
1D7
100
AcDbEntity
  8
0
100
AcDbLine
 10
89.18
 20
34.09
 30
0.0
 11
89.18
 21
18.09
 31
0.0
  0
LINE
  5
1D8
100
AcDbEntity
  8
0
100
AcDbLine
 10
49.18
 20
34.09
 30
0.0
 11
49.18
 21
18.09
 31
0.0
  0
LINE
  5
1D9
100
AcDbEntity
  8
0
100
AcDbLine
 10
84.18
 20
37.09
 30
0.0
 11
84.18
 21
14.09
 31
0.0
  0
LINE
  5
1DA
100
AcDbEntity
  8
0
100
AcDbLine
 10
54.18
 20
37.09
 30
0.0
 11
54.18
 21
14.09
 31
0.0
  0
LINE
  5
1DB
100
AcDbEntity
  8
0
100
AcDbLine
 10
55.18
 20
49.389999
 30
0.0
 11
55.18
 21
38.09
 31
0.0
  0
LINE
  5
1DC
100
AcDbEntity
  8
0
100
AcDbLine
 10
83.18
 20
49.389999
 30
0.0
 11
83.18
 21
38.09
 31
0.0
  0
LINE
  5
1DD
100
AcDbEntity
  8
0
100
AcDbLine
 10
55.18
 20
38.09
 30
0.0
 11
83.18
 21
38.09
 31
0.0
  0
LINE
  5
1DE
100
AcDbEntity
  8
0
100
AcDbLine
 10
95.18
 20
14.09
 30
0.0
 11
95.18
 21
3.09
 31
0.0
  0
LINE
  5
1DF
100
AcDbEntity
  8
0
100
AcDbLine
 10
43.18
 20
14.09
 30
0.0
 11
43.18
 21
3.09
 31
0.0
  0
LINE
  5
1E0
100
AcDbEntity
  8
0
100
AcDbLine
 10
43.18
 20
14.09
 30
0.0
 11
95.18
 21
14.09
 31
0.0
  0
LINE
  5
1E1
100
AcDbEntity
  8
0
100
AcDbLine
 10
43.18
 20
10.09
 30
0.0
 11
95.18
 21
10.09
 31
0.0
  0
LINE
  5
1E2
100
AcDbEntity
  8
0
100
AcDbLine
 10
55.18
 20
42.09
 30
0.0
 11
83.18
 21
42.09
 31
0.0
  0
LINE
  5
1E3
100
AcDbEntity
  8
0
  6
CENTER
 62
     2
100
AcDbLine
 10
69.18
 20
53.049999
 30
0.0
 11
69.18
 21
-54.040001
 31
0.0
  0
LINE
  5
1E4
100
AcDbEntity
  8
0
100
AcDbLine
 10
-85.309998
 20
38.59
 30
0.0
 11
-78.309998
 21
38.59
 31
0.0
  0
LINE
  5
1E5
100
AcDbEntity
  8
0
100
AcDbLine
 10
-78.309998
 20
38.59
 30
0.0
 11
-78.309998
 21
38.09
 31
0.0
  0
LINE
  5
1E6
100
AcDbEntity
  8
0
100
AcDbLine
 10
-85.309998
 20
38.59
 30
0.0
 11
-85.309998
 21
38.09
 31
0.0
  0
LINE
  5
1E7
100
AcDbEntity
  8
0
100
AcDbLine
 10
-72.809998
 20
19.090002
 30
0.0
 11
-71.810005
 21
20.09
 31
0.0
  0
LINE
  5
1E8
100
AcDbEntity
  8
0
100
AcDbLine
 10
-72.809998
 20
19.09
 30
0.0
 11
-57.610001
 21
19.09
 31
0.0
  0
LINE
  5
1E9
100
AcDbEntity
  8
0
100
AcDbLine
 10
-71.809998
 20
20.09
 30
0.0
 11
-58.060001
 21
20.09
 31
0.0
  0
LINE
  5
1EA
100
AcDbEntity
  8
0
100
AcDbLine
 10
-72.809998
 20
19.09
 30
0.0
 11
-72.809998
 21
14.09
 31
0.0
  0
LINE
  5
1EB
100
AcDbEntity
  8
0
100
AcDbLine
 10
-33.810001
 20
19.09
 30
0.0
 11
-36.810001
 21
19.09
 31
0.0
  0
LINE
  5
1EC
100
AcDbEntity
  8
0
100
AcDbLine
 10
-33.810001
 20
33.09
 30
0.0
 11
-33.810001
 21
19.09
 31
0.0
  0
LINE
  5
1ED
100
AcDbEntity
  8
0
100
AcDbLine
 10
-33.810001
 20
33.09
 30
0.0
 11
-36.810001
 21
33.09
 31
0.0
  0
LINE
  5
1EE
100
AcDbEntity
  8
0
100
AcDbLine
 10
-36.810001
 20
33.09
 30
0.0
 11
-36.810001
 21
19.09
 31
0.0
  0
LINE
  5
1EF
100
AcDbEntity
  8
0
100
AcDbLine
 10
-82.809998
 20
33.09
 30
0.0
 11
-82.809998
 21
19.09
 31
0.0
  0
LINE
  5
1F0
100
AcDbEntity
  8
0
100
AcDbLine
 10
-85.809998
 20
33.09
 30
0.0
 11
-85.809998
 21
19.09
 31
0.0
  0
LINE
  5
1F1
100
AcDbEntity
  8
0
100
AcDbLine
 10
-85.809998
 20
19.09
 30
0.0
 11
-82.809998
 21
19.09
 31
0.0
  0
LINE
  5
1F2
100
AcDbEntity
  8
0
100
AcDbLine
 10
-85.809998
 20
33.09
 30
0.0
 11
-82.809998
 21
33.09
 31
0.0
  0
LINE
  5
1F3
100
AcDbEntity
  8
0
100
AcDbLine
 10
-32.809998
 20
38.089996
 30
0.0
 11
-31.809999
 21
37.09
 31
0.0
  0
LINE
  5
1F4
100
AcDbEntity
  8
0
100
AcDbLine
 10
-87.809998
 20
37.089996
 30
0.0
 11
-86.809998
 21
38.09
 31
0.0
  0
LINE
  5
1F5
100
AcDbEntity
  8
0
100
AcDbLine
 10
-87.809998
 20
37.09
 30
0.0
 11
-31.809999
 21
37.09
 31
0.0
  0
LINE
  5
1F6
100
AcDbEntity
  8
0
100
AcDbLine
 10
-45.810001
 20
49.389999
 30
0.0
 11
-45.810001
 21
38.09
 31
0.0
  0
LINE
  5
1F7
100
AcDbEntity
  8
0
100
AcDbLine
 10
-73.809998
 20
49.389999
 30
0.0
 11
-73.809998
 21
38.09
 31
0.0
  0
LINE
  5
1F8
100
AcDbEntity
  8
0
100
AcDbLine
 10
-86.809998
 20
38.09
 30
0.0
 11
-32.810001
 21
38.09
 31
0.0
  0
LINE
  5
1F9
100
AcDbEntity
  8
0
  6
CENTER
 62
     2
100
AcDbLine
 10
-47.810001
 20
48.740002
 30
0.0
 11
-47.810001
 21
3.66
 31
0.0
  0
LINE
  5
1FA
100
AcDbEntity
  8
0
100
AcDbLine
 10
-32.810001
 20
38.09
 30
0.0
 11
-32.810001
 21
14.09
 31
0.0
  0
LINE
  5
1FB
100
AcDbEntity
  8
0
100
AcDbLine
 10
-86.809998
 20
38.09
 30
0.0
 11
-86.809998
 21
14.09
 31
0.0
  0
LINE
  5
1FC
100
AcDbEntity
  8
0
100
AcDbLine
 10
-85.809998
 20
14.09
 30
0.0
 11
-85.809998
 21
3.09
 31
0.0
  0
LINE
  5
1FD
100
AcDbEntity
  8
0
100
AcDbLine
 10
-33.810001
 20
14.09
 30
0.0
 11
-33.810001
 21
3.09
 31
0.0
  0
LINE
  5
1FE
100
AcDbEntity
  8
0
100
AcDbLine
 10
-87.809998
 20
14.09
 30
0.0
 11
-31.809999
 21
14.09
 31
0.0
  0
LINE
  5
1FF
100
AcDbEntity
  8
0
100
AcDbLine
 10
-87.809998
 20
37.09
 30
0.0
 11
-87.809998
 21
14.09
 31
0.0
  0
LINE
  5
200
100
AcDbEntity
  8
0
100
AcDbLine
 10
-31.809999
 20
37.09
 30
0.0
 11
-31.809999
 21
14.09
 31
0.0
  0
LINE
  5
201
100
AcDbEntity
  8
0
  6
CENTER
 62
     2
100
AcDbLine
 10
-59.810001
 20
52.009998
 30
0.0
 11
-59.810001
 21
-54.389999
 31
0.0
  0
LINE
  5
202
100
AcDbEntity
  8
0
100
AcDbLine
 10
-85.809998
 20
10.09
 30
0.0
 11
-33.810001
 21
10.09
 31
0.0
  0
LINE
  5
203
100
AcDbEntity
  8
0
100
AcDbLine
 10
-73.809998
 20
42.09
 30
0.0
 11
-45.810001
 21
42.09
 31
0.0
  0
LINE
  5
204
100
AcDbEntity
  8
0
  6
CENTER
 62
     2
100
AcDbLine
 10
-93.650002
 20
26.09
 30
0.0
 11
-24.809999
 21
26.09
 31
0.0
  0
LINE
  5
205
100
AcDbEntity
  8
0
100
AcDbLine
 10
-138.399994
 20
94.5
 30
0.0
 11
138.350006
 21
94.5
 31
0.0
  0
LINE
  5
206
100
AcDbEntity
  8
0
100
AcDbLine
 10
138.350006
 20
94.5
 30
0.0
 11
138.350006
 21
-94.800003
 31
0.0
  0
LINE
  5
207
100
AcDbEntity
  8
0
100
AcDbLine
 10
-138.399994
 20
-94.800003
 30
0.0
 11
138.350006
 21
-94.800003
 31
0.0
  0
LINE
  5
208
100
AcDbEntity
  8
0
100
AcDbLine
 10
-138.399994
 20
94.5
 30
0.0
 11
-138.399994
 21
-94.800003
 31
0.0
  0
ARC
  5
209
100
AcDbEntity
  8
0
  6
DASHED
 62
     2
100
AcDbCircle
 10
-64.813652
 20
43.093655
 30
0.0
 40
2.996348
100
AcDbArc
 50
89.930122
 51
180.069885
  0
ARC
  5
20A
100
AcDbEntity
  8
0
  6
DASHED
 62
     2
100
AcDbCircle
 10
-64.806343
 20
9.093657
 30
0.0
 40
3.003657
100
AcDbArc
 50
180.069763
 51
269.930298
  0
ARC
  5
20B
100
AcDbEntity
  8
0
  6
DASHED
 62
     2
100
AcDbCircle
 10
-30.813658
 20
9.093657
 30
0.0
 40
3.00366
100
AcDbArc
 50
270.069794
 51
359.930237
  0
ARC
  5
20C
100
AcDbEntity
  8
0
  6
DASHED
 62
     2
100
AcDbCircle
 10
-30.806347
 20
43.093655
 30
0.0
 40
2.99635
100
AcDbArc
 50
359.930115
 51
90.069847
  0
ARC
  5
20D
100
AcDbEntity
  8
0
  6
DASHED
 62
     2
100
AcDbCircle
 10
2.176351
 20
45.093647
 30
0.0
 40
0.99636
100
AcDbArc
 50
89.790176
 51
180.209717
  0
ARC
  5
20E
100
AcDbEntity
  8
0
  6
DASHED
 62
     2
100
AcDbCircle
 10
2.183662
 20
7.093662
 30
0.0
 40
1.003669
100
AcDbArc
 50
180.209061
 51
269.790955
  0
ARC
  5
20F
100
AcDbEntity
  8
0
  6
DASHED
 62
     2
100
AcDbCircle
 10
30.683792
 20
44.935089
 30
0.0
 40
0.496234
100
AcDbArc
 50
359.412445
 51
85.81575
  0
ARC
  5
210
100
AcDbEntity
  8
0
  6
DASHED
 62
     2
100
AcDbCircle
 10
30.676502
 20
7.251618
 30
0.0
 40
0.503501
100
AcDbArc
 50
274.956146
 51
359.815826
  0
ARC
  5
211
100
AcDbEntity
  8
0
  6
PHANTOM
 62
     2
100
AcDbCircle
 10
36.575489
 20
12.338538
 30
0.0
 40
0.998538
100
AcDbArc
 50
269.971985
 51
334.267334
  0
ARC
  5
212
100
AcDbEntity
  8
0
  6
PHANTOM
 62
     2
100
AcDbCircle
 10
36.577236
 20
15.840383
 30
0.0
 40
0.999621
100
AcDbArc
 50
26.090164
 51
90.128349
  0
ARC
  5
213
100
AcDbEntity
  8
0
  6
PHANTOM
 62
     2
100
AcDbCircle
 10
32.980965
 20
14.0925
 30
0.0
 40
4.998149
100
AcDbArc
 50
334.045197
 51
25.954813
  0
ARC
  5
214
100
AcDbEntity
  8
0
  6
PHANTOM
 62
     2
100
AcDbCircle
 10
33.980484
 20
45.090485
 30
0.0
 40
1.999516
100
AcDbArc
 50
359.986115
 51
90.013885
  0
ARC
  5
215
100
AcDbEntity
  8
0
  6
PHANTOM
 62
     2
100
AcDbCircle
 10
33.980484
 20
7.089518
 30
0.0
 40
1.999517
100
AcDbArc
 50
269.986237
 51
0.013828
  0
ARC
  5
216
100
AcDbEntity
  8
0
  6
PHANTOM
 62
     2
100
AcDbCircle
 10
28.98
 20
5.09
 30
0.0
 40
1.15
100
AcDbArc
 50
0.0
 51
180.0
  0
CIRCLE
  5
217
100
AcDbEntity
  8
0
  6
PHANTOM
 62
     2
100
AcDbCircle
 10
-47.81279
 20
26.090017
 30
0.0
 40
21.25
  0
CIRCLE
  5
218
100
AcDbEntity
  8
0
100
AcDbCircle
 10
69.18
 20
26.09
 30
0.0
 40
5.7225
  0
CIRCLE
  5
219
100
AcDbEntity
  8
0
 62
     2
100
AcDbCircle
 10
69.18
 20
26.09
 30
0.0
 40
6.5785
  0
CIRCLE
  5
21A
100
AcDbEntity
  8
0
100
AcDbCircle
 10
-47.810001
 20
26.09
 30
0.0
 40
5.7225
  0
CIRCLE
  5
21B
100
AcDbEntity
  8
0
 62
     2
100
AcDbCircle
 10
-47.810001
 20
26.09
 30
0.0
 40
6.5785
  0
ARC
  5
21C
100
AcDbEntity
  8
0
  6
PHANTOM
 62
     2
100
AcDbCircle
 10
99.379997
 20
-1.71
 30
0.0
 40
3.800003
100
AcDbArc
 50
0.0
 51
90.0
  0
ARC
  5
21D
100
AcDbEntity
  8
0
  6
PHANTOM
 62
     2
100
AcDbCircle
 10
99.379997
 20
-1.71
 30
0.0
 40
1.5
100
AcDbArc
 50
0.0
 51
90.0
  0
ARC
  5
21E
100
AcDbEntity
  8
0
  6
PHANTOM
 62
     2
100
AcDbCircle
 10
-39.810001
 20
-13.91
 30
0.0
 40
3.5
100
AcDbArc
 50
90.0
 51
270.0
  0
ARC
  5
21F
100
AcDbEntity
  8
0
  6
PHANTOM
 62
     2
100
AcDbCircle
 10
-36.810001
 20
-13.91
 30
0.0
 40
3.5
100
AcDbArc
 50
270.0
 51
90.0
  0
ARC
  5
220
100
AcDbEntity
  8
0
  6
PHANTOM
 62
     2
100
AcDbCircle
 10
-79.809998
 20
-13.91
 30
0.0
 40
3.5
100
AcDbArc
 50
270.0
 51
90.0
  0
ARC
  5
221
100
AcDbEntity
  8
0
  6
PHANTOM
 62
     2
100
AcDbCircle
 10
-82.809998
 20
-13.91
 30
0.0
 40
3.5
100
AcDbArc
 50
90.0
 51
270.0
  0
ARC
  5
222
100
AcDbEntity
  8
0
100
AcDbCircle
 10
-34.817341
 20
3.09734
 30
0.0
 40
1.007367
100
AcDbArc
 50
270.41745
 51
359.582489
  0
ARC
  5
223
100
AcDbEntity
  8
0
100
AcDbCircle
 10
-84.809387
 20
3.09061
 30
0.0
 40
1.000611
100
AcDbArc
 50
180.034927
 51
269.965057
  0
ARC
  5
224
100
AcDbEntity
  8
0
100
AcDbCircle
 10
94.177635
 20
3.092363
 30
0.0
 40
1.002366
100
AcDbArc
 50
270.135193
 51
359.864899
  0
ARC
  5
225
100
AcDbEntity
  8
0
100
AcDbCircle
 10
44.185577
 20
3.095578
 30
0.0
 40
1.005593
100
AcDbArc
 50
180.317841
 51
269.68222
  0
CIRCLE
  5
226
100
AcDbEntity
  8
0
100
AcDbCircle
 10
69.183228
 20
26.097916
 30
0.0
 40
10.25
  0
ARC
  5
227
100
AcDbEntity
  8
0
100
AcDbCircle
 10
-57.617226
 20
21.093819
 30
0.0
 40
2.003832
100
AcDbArc
 50
270.206573
 51
26.886509
  0
ARC
  5
228
100
AcDbEntity
  8
0
100
AcDbCircle
 10
-58.066856
 20
22.093298
 30
0.0
 40
2.003309
100
AcDbArc
 50
270.196167
 51
21.269226
  0
CIRCLE
  5
229
100
AcDbEntity
  8
0
100
AcDbCircle
 10
-47.816757
 20
26.097916
 30
0.0
 40
8.0
  0
CIRCLE
  5
22A
100
AcDbEntity
  8
0
100
AcDbCircle
 10
-47.816757
 20
26.097916
 30
0.0
 40
9.0
  0
POLYLINE
  5
22B
100
AcDbEntity
  8
0
  6
DASHED
 62
     2
100
AcDb2dPolyline
 66
     1
 10
0.0
 20
0.0
 30
0.0
  0
VERTEX
  5
22C
100
AcDbEntity
  8
0
  6
DASHED
 62
     2
100
AcDbVertex
100
AcDb2dVertex
 10
-49.66
 20
-9.41
 30
0.0
  0
VERTEX
  5
22D
100
AcDbEntity
  8
0
  6
DASHED
 62
     2
100
AcDbVertex
100
AcDb2dVertex
 10
-49.229427
 20
-9.757272
 30
0.0
  0
VERTEX
  5
22E
100
AcDbEntity
  8
0
  6
DASHED
 62
     2
100
AcDbVertex
100
AcDb2dVertex
 10
-48.73
 20
-9.91
 30
0.0
  0
VERTEX
  5
22F
100
AcDbEntity
  8
0
  6
DASHED
 62
     2
100
AcDbVertex
100
AcDb2dVertex
 10
-48.258698
 20
-9.752577
 30
0.0
  0
VERTEX
  5
230
100
AcDbEntity
  8
0
  6
DASHED
 62
     2
100
AcDbVertex
100
AcDb2dVertex
 10
-47.810001
 20
-9.41
 30
0.0
  0
VERTEX
  5
231
100
AcDbEntity
  8
0
  6
DASHED
 62
     2
100
AcDbVertex
100
AcDb2dVertex
 10
-47.36079
 20
-9.06742
 30
0.0
  0
VERTEX
  5
232
100
AcDbEntity
  8
0
  6
DASHED
 62
     2
100
AcDbVertex
100
AcDb2dVertex
 10
-46.889999
 20
-8.91
 30
0.0
  0
VERTEX
  5
233
100
AcDbEntity
  8
0
  6
DASHED
 62
     2
100
AcDbVertex
100
AcDb2dVertex
 10
-46.39109
 20
-9.062731
 30
0.0
  0
VERTEX
  5
234
100
AcDbEntity
  8
0
  6
DASHED
 62
     2
100
AcDbVertex
100
AcDb2dVertex
 10
-45.959999
 20
-9.41
 30
0.0
  0
SEQEND
  5
235
100
AcDbEntity
  8
0
 62
     2
  0
POLYLINE
  5
236
100
AcDbEntity
  8
0
  6
DASHED
 62
     2
100
AcDb2dPolyline
 66
     1
 10
0.0
 20
0.0
 30
0.0
  0
VERTEX
  5
237
100
AcDbEntity
  8
0
  6
DASHED
 62
     2
100
AcDbVertex
100
AcDb2dVertex
 10
-45.959999
 20
-9.41
 30
0.0
  0
VERTEX
  5
238
100
AcDbEntity
  8
0
  6
DASHED
 62
     2
100
AcDbVertex
100
AcDb2dVertex
 10
-46.384895
 20
-9.756487
 30
0.0
  0
VERTEX
  5
239
100
AcDbEntity
  8
0
  6
DASHED
 62
     2
100
AcDbVertex
100
AcDb2dVertex
 10
-46.889999
 20
-9.91
 30
0.0
  0
VERTEX
  5
23A
100
AcDbEntity
  8
0
  6
DASHED
 62
     2
100
AcDbVertex
100
AcDb2dVertex
 10
-47.389561
 20
-9.756487
 30
0.0
  0
VERTEX
  5
23B
100
AcDbEntity
  8
0
  6
DASHED
 62
     2
100
AcDbVertex
100
AcDb2dVertex
 10
-47.810001
 20
-9.41
 30
0.0
  0
SEQEND
  5
23C
100
AcDbEntity
  8
0
 62
     2
  0
POLYLINE
  5
23D
100
AcDbEntity
  8
0
  6
DASHED
 62
     2
100
AcDb2dPolyline
 66
     1
 10
0.0
 20
0.0
 30
0.0
  0
VERTEX
  5
23E
100
AcDbEntity
  8
0
  6
DASHED
 62
     2
100
AcDbVertex
100
AcDb2dVertex
 10
16.030001
 20
-9.41
 30
0.0
  0
VERTEX
  5
23F
100
AcDbEntity
  8
0
  6
DASHED
 62
     2
100
AcDbVertex
100
AcDb2dVertex
 10
15.599428
 20
-9.757272
 30
0.0
  0
VERTEX
  5
240
100
AcDbEntity
  8
0
  6
DASHED
 62
     2
100
AcDbVertex
100
AcDb2dVertex
 10
15.1
 20
-9.91
 30
0.0
  0
VERTEX
  5
241
100
AcDbEntity
  8
0
  6
DASHED
 62
     2
100
AcDbVertex
100
AcDb2dVertex
 10
14.628231
 20
-9.752188
 30
0.0
  0
VERTEX
  5
242
100
AcDbEntity
  8
0
  6
DASHED
 62
     2
100
AcDbVertex
100
AcDb2dVertex
 10
14.18
 20
-9.41
 30
0.0
  0
VERTEX
  5
243
100
AcDbEntity
  8
0
  6
DASHED
 62
     2
100
AcDbVertex
100
AcDb2dVertex
 10
13.726821
 20
-9.067426
 30
0.0
  0
VERTEX
  5
244
100
AcDbEntity
  8
0
  6
DASHED
 62
     2
100
AcDbVertex
100
AcDb2dVertex
 10
13.25
 20
-8.91
 30
0.0
  0
VERTEX
  5
245
100
AcDbEntity
  8
0
  6
DASHED
 62
     2
100
AcDbVertex
100
AcDb2dVertex
 10
12.75609
 20
-9.062731
 30
0.0
  0
VERTEX
  5
246
100
AcDbEntity
  8
0
  6
DASHED
 62
     2
100
AcDbVertex
100
AcDb2dVertex
 10
12.33
 20
-9.41
 30
0.0
  0
SEQEND
  5
247
100
AcDbEntity
  8
0
 62
     2
  0
POLYLINE
  5
248
100
AcDbEntity
  8
0
  6
DASHED
 62
     2
100
AcDb2dPolyline
 66
     1
 10
0.0
 20
0.0
 30
0.0
  0
VERTEX
  5
249
100
AcDbEntity
  8
0
  6
DASHED
 62
     2
100
AcDbVertex
100
AcDb2dVertex
 10
12.33
 20
-9.41
 30
0.0
  0
VERTEX
  5
24A
100
AcDbEntity
  8
0
  6
DASHED
 62
     2
100
AcDbVertex
100
AcDb2dVertex
 10
12.750975
 20
-9.756487
 30
0.0
  0
VERTEX
  5
24B
100
AcDbEntity
  8
0
  6
DASHED
 62
     2
100
AcDbVertex
100
AcDb2dVertex
 10
13.25
 20
-9.91
 30
0.0
  0
VERTEX
  5
24C
100
AcDbEntity
  8
0
  6
DASHED
 62
     2
100
AcDbVertex
100
AcDb2dVertex
 10
13.754562
 20
-9.756487
 30
0.0
  0
VERTEX
  5
24D
100
AcDbEntity
  8
0
  6
DASHED
 62
     2
100
AcDbVertex
100
AcDb2dVertex
 10
14.18
 20
-9.41
 30
0.0
  0
SEQEND
  5
24E
100
AcDbEntity
  8
0
 62
     2
  0
POLYLINE
  5
24F
100
AcDbEntity
  8
0
100
AcDb2dPolyline
 66
     1
 10
0.0
 20
0.0
 30
0.0
  0
VERTEX
  5
250
100
AcDbEntity
  8
0
100
AcDbVertex
100
AcDb2dVertex
 10
-42.310001
 20
5.09
 30
0.0
  0
VERTEX
  5
251
100
AcDbEntity
  8
0
100
AcDbVertex
100
AcDb2dVertex
 10
-42.260399
 20
4.42359
 30
0.0
  0
VERTEX
  5
252
100
AcDbEntity
  8
0
100
AcDbVertex
100
AcDb2dVertex
 10
-42.089592
 20
3.777569
 30
0.0
  0
VERTEX
  5
253
100
AcDbEntity
  8
0
100
AcDbVertex
100
AcDb2dVertex
 10
-41.700001
 20
3.13
 30
0.0
  0
VERTEX
  5
254
100
AcDbEntity
  8
0
100
AcDbVertex
100
AcDb2dVertex
 10
-41.123646
 20
2.632467
 30
0.0
  0
VERTEX
  5
255
100
AcDbEntity
  8
0
100
AcDbVertex
100
AcDb2dVertex
 10
-40.400101
 20
2.306077
 30
0.0
  0
VERTEX
  5
256
100
AcDbEntity
  8
0
100
AcDbVertex
100
AcDb2dVertex
 10
-39.604008
 20
2.131649
 30
0.0
  0
VERTEX
  5
257
100
AcDbEntity
  8
0
100
AcDbVertex
100
AcDb2dVertex
 10
-38.810001
 20
2.09
 30
0.0
  0
SEQEND
  5
258
100
AcDbEntity
  8
0
  0
POLYLINE
  5
259
100
AcDbEntity
  8
0
100
AcDb2dPolyline
 66
     1
 10
0.0
 20
0.0
 30
0.0
  0
VERTEX
  5
25A
100
AcDbEntity
  8
0
100
AcDbVertex
100
AcDb2dVertex
 10
-35.310001
 20
5.09
 30
0.0
  0
VERTEX
  5
25B
100
AcDbEntity
  8
0
100
AcDbVertex
100
AcDb2dVertex
 10
-35.3596
 20
4.42359
 30
0.0
  0
VERTEX
  5
25C
100
AcDbEntity
  8
0
100
AcDbVertex
100
AcDb2dVertex
 10
-35.530407
 20
3.777568
 30
0.0
  0
VERTEX
  5
25D
100
AcDbEntity
  8
0
100
AcDbVertex
100
AcDb2dVertex
 10
-35.919998
 20
3.13
 30
0.0
  0
VERTEX
  5
25E
100
AcDbEntity
  8
0
100
AcDbVertex
100
AcDb2dVertex
 10
-36.496357
 20
2.632467
 30
0.0
  0
VERTEX
  5
25F
100
AcDbEntity
  8
0
100
AcDbVertex
100
AcDb2dVertex
 10
-37.219902
 20
2.306077
 30
0.0
  0
VERTEX
  5
260
100
AcDbEntity
  8
0
100
AcDbVertex
100
AcDb2dVertex
 10
-38.015995
 20
2.131649
 30
0.0
  0
VERTEX
  5
261
100
AcDbEntity
  8
0
100
AcDbVertex
100
AcDb2dVertex
 10
-38.810001
 20
2.09
 30
0.0
  0
SEQEND
  5
262
100
AcDbEntity
  8
0
  0
POLYLINE
  5
263
100
AcDbEntity
  8
0
100
AcDb2dPolyline
 66
     1
 10
0.0
 20
0.0
 30
0.0
  0
VERTEX
  5
264
100
AcDbEntity
  8
0
100
AcDbVertex
100
AcDb2dVertex
 10
-77.309998
 20
5.09
 30
0.0
  0
VERTEX
  5
265
100
AcDbEntity
  8
0
100
AcDbVertex
100
AcDb2dVertex
 10
-77.359596
 20
4.42359
 30
0.0
  0
VERTEX
  5
266
100
AcDbEntity
  8
0
100
AcDbVertex
100
AcDb2dVertex
 10
-77.530403
 20
3.777569
 30
0.0
  0
VERTEX
  5
267
100
AcDbEntity
  8
0
100
AcDbVertex
100
AcDb2dVertex
 10
-77.919998
 20
3.13
 30
0.0
  0
VERTEX
  5
268
100
AcDbEntity
  8
0
100
AcDbVertex
100
AcDb2dVertex
 10
-78.496353
 20
2.632467
 30
0.0
  0
VERTEX
  5
269
100
AcDbEntity
  8
0
100
AcDbVertex
100
AcDb2dVertex
 10
-79.219902
 20
2.306077
 30
0.0
  0
VERTEX
  5
26A
100
AcDbEntity
  8
0
100
AcDbVertex
100
AcDb2dVertex
 10
-80.015991
 20
2.131649
 30
0.0
  0
VERTEX
  5
26B
100
AcDbEntity
  8
0
100
AcDbVertex
100
AcDb2dVertex
 10
-80.809998
 20
2.09
 30
0.0
  0
SEQEND
  5
26C
100
AcDbEntity
  8
0
  0
POLYLINE
  5
26D
100
AcDbEntity
  8
0
100
AcDb2dPolyline
 66
     1
 10
0.0
 20
0.0
 30
0.0
  0
VERTEX
  5
26E
100
AcDbEntity
  8
0
100
AcDbVertex
100
AcDb2dVertex
 10
-84.309998
 20
5.09
 30
0.0
  0
VERTEX
  5
26F
100
AcDbEntity
  8
0
100
AcDbVertex
100
AcDb2dVertex
 10
-84.260399
 20
4.42359
 30
0.0
  0
VERTEX
  5
270
100
AcDbEntity
  8
0
100
AcDbVertex
100
AcDb2dVertex
 10
-84.089592
 20
3.777569
 30
0.0
  0
VERTEX
  5
271
100
AcDbEntity
  8
0
100
AcDbVertex
100
AcDb2dVertex
 10
-83.699997
 20
3.13
 30
0.0
  0
VERTEX
  5
272
100
AcDbEntity
  8
0
100
AcDbVertex
100
AcDb2dVertex
 10
-83.123642
 20
2.632467
 30
0.0
  0
VERTEX
  5
273
100
AcDbEntity
  8
0
100
AcDbVertex
100
AcDb2dVertex
 10
-82.400093
 20
2.306077
 30
0.0
  0
VERTEX
  5
274
100
AcDbEntity
  8
0
100
AcDbVertex
100
AcDb2dVertex
 10
-81.604004
 20
2.131649
 30
0.0
  0
VERTEX
  5
275
100
AcDbEntity
  8
0
100
AcDbVertex
100
AcDb2dVertex
 10
-80.809998
 20
2.09
 30
0.0
  0
SEQEND
  5
276
100
AcDbEntity
  8
0
  0
POLYLINE
  5
277
100
AcDbEntity
  8
0
100
AcDb2dPolyline
 66
     1
 10
0.0
 20
0.0
 30
0.0
  0
VERTEX
  5
278
100
AcDbEntity
  8
0
100
AcDbVertex
100
AcDb2dVertex
 10
93.68
 20
5.09
 30
0.0
  0
VERTEX
  5
279
100
AcDbEntity
  8
0
100
AcDbVertex
100
AcDb2dVertex
 10
93.630402
 20
4.423591
 30
0.0
  0
VERTEX
  5
27A
100
AcDbEntity
  8
0
100
AcDbVertex
100
AcDb2dVertex
 10
93.459595
 20
3.77757
 30
0.0
  0
VERTEX
  5
27B
100
AcDbEntity
  8
0
100
AcDbVertex
100
AcDb2dVertex
 10
93.07
 20
3.13
 30
0.0
  0
VERTEX
  5
27C
100
AcDbEntity
  8
0
100
AcDbVertex
100
AcDb2dVertex
 10
92.493645
 20
2.632464
 30
0.0
  0
VERTEX
  5
27D
100
AcDbEntity
  8
0
100
AcDbVertex
100
AcDb2dVertex
 10
91.770096
 20
2.306075
 30
0.0
  0
VERTEX
  5
27E
100
AcDbEntity
  8
0
100
AcDbVertex
100
AcDb2dVertex
 10
90.974007
 20
2.131648
 30
0.0
  0
VERTEX
  5
27F
100
AcDbEntity
  8
0
100
AcDbVertex
100
AcDb2dVertex
 10
90.18
 20
2.09
 30
0.0
  0
SEQEND
  5
280
100
AcDbEntity
  8
0
  0
POLYLINE
  5
281
100
AcDbEntity
  8
0
100
AcDb2dPolyline
 66
     1
 10
0.0
 20
0.0
 30
0.0
  0
VERTEX
  5
282
100
AcDbEntity
  8
0
100
AcDbVertex
100
AcDb2dVertex
 10
86.68
 20
5.09
 30
0.0
  0
VERTEX
  5
283
100
AcDbEntity
  8
0
100
AcDbVertex
100
AcDb2dVertex
 10
86.729599
 20
4.423589
 30
0.0
  0
VERTEX
  5
284
100
AcDbEntity
  8
0
100
AcDbVertex
100
AcDb2dVertex
 10
86.900414
 20
3.777566
 30
0.0
  0
VERTEX
  5
285
100
AcDbEntity
  8
0
100
AcDbVertex
100
AcDb2dVertex
 10
87.290001
 20
3.13
 30
0.0
  0
VERTEX
  5
286
100
AcDbEntity
  8
0
100
AcDbVertex
100
AcDb2dVertex
 10
87.866356
 20
2.632469
 30
0.0
  0
VERTEX
  5
287
100
AcDbEntity
  8
0
100
AcDbVertex
100
AcDb2dVertex
 10
88.589897
 20
2.306079
 30
0.0
  0
VERTEX
  5
288
100
AcDbEntity
  8
0
100
AcDbVertex
100
AcDb2dVertex
 10
89.385994
 20
2.13165
 30
0.0
  0
VERTEX
  5
289
100
AcDbEntity
  8
0
100
AcDbVertex
100
AcDb2dVertex
 10
90.18
 20
2.09
 30
0.0
  0
SEQEND
  5
28A
100
AcDbEntity
  8
0
  0
POLYLINE
  5
28B
100
AcDbEntity
  8
0
100
AcDb2dPolyline
 66
     1
 10
0.0
 20
0.0
 30
0.0
  0
VERTEX
  5
28C
100
AcDbEntity
  8
0
100
AcDbVertex
100
AcDb2dVertex
 10
51.68
 20
5.09
 30
0.0
  0
VERTEX
  5
28D
100
AcDbEntity
  8
0
100
AcDbVertex
100
AcDb2dVertex
 10
51.630398
 20
4.42359
 30
0.0
  0
VERTEX
  5
28E
100
AcDbEntity
  8
0
100
AcDbVertex
100
AcDb2dVertex
 10
51.459591
 20
3.777569
 30
0.0
  0
VERTEX
  5
28F
100
AcDbEntity
  8
0
100
AcDbVertex
100
AcDb2dVertex
 10
51.07
 20
3.13
 30
0.0
  0
VERTEX
  5
290
100
AcDbEntity
  8
0
100
AcDbVertex
100
AcDb2dVertex
 10
50.493645
 20
2.632467
 30
0.0
  0
VERTEX
  5
291
100
AcDbEntity
  8
0
100
AcDbVertex
100
AcDb2dVertex
 10
49.7701
 20
2.306077
 30
0.0
  0
VERTEX
  5
292
100
AcDbEntity
  8
0
100
AcDbVertex
100
AcDb2dVertex
 10
48.974007
 20
2.131649
 30
0.0
  0
VERTEX
  5
293
100
AcDbEntity
  8
0
100
AcDbVertex
100
AcDb2dVertex
 10
48.18
 20
2.09
 30
0.0
  0
SEQEND
  5
294
100
AcDbEntity
  8
0
  0
POLYLINE
  5
295
100
AcDbEntity
  8
0
100
AcDb2dPolyline
 66
     1
 10
0.0
 20
0.0
 30
0.0
  0
VERTEX
  5
296
100
AcDbEntity
  8
0
100
AcDbVertex
100
AcDb2dVertex
 10
44.68
 20
5.09
 30
0.0
  0
VERTEX
  5
297
100
AcDbEntity
  8
0
100
AcDbVertex
100
AcDb2dVertex
 10
44.729603
 20
4.42359
 30
0.0
  0
VERTEX
  5
298
100
AcDbEntity
  8
0
100
AcDbVertex
100
AcDb2dVertex
 10
44.90041
 20
3.777569
 30
0.0
  0
VERTEX
  5
299
100
AcDbEntity
  8
0
100
AcDbVertex
100
AcDb2dVertex
 10
45.290001
 20
3.13
 30
0.0
  0
VERTEX
  5
29A
100
AcDbEntity
  8
0
100
AcDbVertex
100
AcDb2dVertex
 10
45.866356
 20
2.632467
 30
0.0
  0
VERTEX
  5
29B
100
AcDbEntity
  8
0
100
AcDbVertex
100
AcDb2dVertex
 10
46.589901
 20
2.306077
 30
0.0
  0
VERTEX
  5
29C
100
AcDbEntity
  8
0
100
AcDbVertex
100
AcDb2dVertex
 10
47.385994
 20
2.131649
 30
0.0
  0
VERTEX
  5
29D
100
AcDbEntity
  8
0
100
AcDbVertex
100
AcDb2dVertex
 10
48.18
 20
2.09
 30
0.0
  0
SEQEND
  5
29E
100
AcDbEntity
  8
0
  0
TEXT
  5
29F
100
AcDbEntity
  8
0
100
AcDbText
 10
-130.207001
 20
72.620003
 30
0.0
 40
3.2
  1
MODEL:PR200
 41
1.052632
100
AcDbText
  0
ENDSEC
  0
SECTION
  2
OBJECTS
  0
DICTIONARY
  5
C
100
AcDbDictionary
  3
ACAD_GROUP
350
D
  3
ACAD_MLINESTYLE
350
E
  0
DICTIONARY
  5
D
102
{ACAD_REACTORS
330
C
102
}
100
AcDbDictionary
  0
DICTIONARY
  5
E
102
{ACAD_REACTORS
330
C
102
}
100
AcDbDictionary
  3
STANDARD
350
1C
  0
MLINESTYLE
  5
1C
102
{ACAD_REACTORS
330
E
102
}
100
AcDbMlineStyle
  2
STANDARD
 70
     0
  3

 62
     0
 51
90.0
 52
90.0
 71
     2
 49
0.5
 62
   256
  6
BYLAYER
 49
-0.5
 62
   256
  6
BYLAYER
  0
ENDSEC
  0
EOF
