  0
SECTION
  2
HEADER
  9
$ACADVER
  1
AC1009
  9
$DWGCODEPAGE
  3
dos932
  9
$INSBASE
 10
0.0
 20
0.0
 30
0.0
  9
$EXTMIN
 10
-138.3999939
 20
-94.80000305
 30
0.0
  9
$EXTMAX
 10
138.3500061
 20
94.5
 30
0.0
  9
$LIMMIN
 10
-138.3999939
 20
-94.80000305
  9
$LIMMAX
 10
138.3500061
 20
94.5
  9
$ORTHOMODE
 70
       0
  9
$REGENMODE
 70
       1
  9
$FILLMODE
 70
       1
  9
$QTEXTMODE
 70
       0
  9
$MIRRTEXT
 70
       1
  9
$DRAGMODE
 70
       2
  9
$LTSCALE
 40
1.0
  9
$OSMODE
 70
       0
  9
$ATTMODE
 70
       1
  9
$TEXTSIZE
 40
3.20000005
  9
$TRACEWID
 40
0.05
  9
$TEXTSTYLE
  7
MX_NOTE_STANDARD
  9
$CLAYER
  8
0
  9
$CELTYPE
  6
CONTINUOUS
  9
$CECOLOR
 62
     256
  9
$DIMSCALE
 40
1.0
  9
$DIMASZ
 40
2.5
  9
$DIMEXO
 40
1.5
  9
$DIMDLI
 40
3.75
  9
$DIMRND
 40
0.0
  9
$DIMDLE
 40
0.0
  9
$DIMEXE
 40
1.5
  9
$DIMTP
 40
0.0
  9
$DIMTM
 40
0.0
  9
$DIMTXT
 40
3.20000005
  9
$DIMCEN
 40
2.5
  9
$DIMTSZ
 40
0.0
  9
$DIMTOL
 70
       0
  9
$DIMLIM
 70
       0
  9
$DIMTIH
 70
       0
  9
$DIMTOH
 70
       0
  9
$DIMSE1
 70
       0
  9
$DIMSE2
 70
       0
  9
$DIMTAD
 70
       1
  9
$DIMZIN
 70
       8
  9
$DIMBLK
  1

  9
$DIMASO
 70
       1
  9
$DIMSHO
 70
       1
  9
$DIMPOST
  1

  9
$DIMAPOST
  1

  9
$DIMALT
 70
       0
  9
$DIMALTD
 70
       4
  9
$DIMALTF
 40
0.03937008
  9
$DIMLFAC
 40
1.0
  9
$DIMTOFL
 70
       1
  9
$DIMTVP
 40
0.0
  9
$DIMTIX
 70
       0
  9
$DIMSOXD
 70
       0
  9
$DIMSAH
 70
       0
  9
$DIMBLK1
  1

  9
$DIMBLK2
  1

  9
$DIMSTYLE
  2
MXDIMSTYLE
  9
$DIMCLRD
 70
       0
  9
$DIMCLRE
 70
       0
  9
$DIMCLRT
 70
       0
  9
$DIMTFAC
 40
1.0
  9
$DIMGAP
 40
1.0
  9
$LUNITS
 70
       2
  9
$LUPREC
 70
       4
  9
$AXISMODE
 70
       0
  9
$AXISUNIT
 10
0.0
 20
0.0
  9
$SKETCHINC
 40
0.1
  9
$FILLETRAD
 40
0.0
  9
$AUNITS
 70
       0
  9
$AUPREC
 70
       0
  9
$MENU
  1
acad
  9
$ELEVATION
 40
0.0
  9
$PELEVATION
 40
0.0
  9
$THICKNESS
 40
0.0
  9
$LIMCHECK
 70
       0
  9
$BLIPMODE
 70
       1
  9
$CHAMFERA
 40
0.0
  9
$CHAMFERB
 40
0.0
  9
$SKPOLY
 70
       0
  9
$TDCREATE
 40
2453314.746180556
  9
$TDUPDATE
 40
2453314.746180556
  9
$TDINDWG
 40
0.0000000000
  9
$TDUSRTIMER
 40
0.0000000000
  9
$USRTIMER
 70
       1
  9
$ANGBASE
 50
0.0
  9
$ANGDIR
 70
       0
  9
$PDMODE
 70
       0
  9
$PDSIZE
 40
0.0
  9
$PLINEWID
 40
0.0
  9
$COORDS
 70
       1
  9
$SPLFRAME
 70
       0
  9
$SPLINETYPE
 70
       6
  9
$SPLINESEGS
 70
       8
  9
$ATTDIA
 70
       0
  9
$ATTREQ
 70
       1
  9
$HANDLING
 70
       1
  9
$HANDSEED
  5
9D
  9
$SURFTAB1
 70
       6
  9
$SURFTAB2
 70
       6
  9
$SURFTYPE
 70
       6
  9
$SURFU
 70
       6
  9
$SURFV
 70
       6
  9
$UCSNAME
  2

  9
$UCSORG
 10
0.0
 20
0.0
 30
0.0
  9
$UCSXDIR
 10
1.0
 20
0.0
 30
0.0
  9
$UCSYDIR
 10
0.0
 20
1.0
 30
0.0
  9
$PUCSNAME
  2

  9
$PUCSORG
 10
0.0
 20
0.0
 30
0.0
  9
$PUCSXDIR
 10
1.0
 20
0.0
 30
0.0
  9
$PUCSYDIR
 10
0.0
 20
1.0
 30
0.0
  9
$USERI1
 70
       0
  9
$USERI2
 70
       0
  9
$USERI3
 70
       0
  9
$USERI4
 70
       0
  9
$USERI5
 70
       0
  9
$USERR1
 40
0.0
  9
$USERR2
 40
0.0
  9
$USERR3
 40
0.0
  9
$USERR4
 40
0.0
  9
$USERR5
 40
0.0
  9
$WORLDVIEW
 70
       1
  9
$SHADEDGE
 70
       3
  9
$SHADEDIF
 70
      70
  9
$TILEMODE
 70
       1
  9
$MAXACTVP
 70
      16
  9
$PINSBASE
 10
0.0
 20
0.0
 30
0.0
  9
$PLIMCHECK
 70
       0
  9
$PEXTMIN
 10
1.00000000E+20
 20
1.00000000E+20
 30
1.00000000E+20
  9
$PEXTMAX
 10
-1.00000000E+20
 20
-1.00000000E+20
 30
-1.00000000E+20
  9
$PLIMMIN
 10
0.0
 20
0.0
  9
$PLIMMAX
 10
12.0
 20
9.0
  9
$UNITMODE
 70
       0
  9
$VISRETAIN
 70
       0
  9
$PLINEGEN
 70
       1
  9
$PSLTSCALE
 70
       0
  9
$TREEDEPTH
 70
    3020
  9
$DWGCODEPAGE
  3
dos932
  0
ENDSEC
  0
SECTION
  2
TABLES
  0
TABLE
  2
VPORT
 70
       1
  0
VPORT
  2
*ACTIVE
 70
       0
 10
0.0
 20
0.0
 11
1.0
 21
1.0
 12
-0.0249939
 22
-0.15000153
 13
0.0
 23
0.0
 14
1.0
 24
1.0
 15
0.0
 25
0.0
 16
0.0
 26
0.0
 36
1.0
 17
0.0
 27
0.0
 37
0.0
 40
191.19300308
 41
1.73205081
 42
50.0
 43
0.0
 44
0.0
 50
0.0
 51
0.0
 71
       0
 72
     100
 73
       1
 74
       1
 75
       0
 76
       0
 77
       0
 78
       0
  0
ENDTAB
  0
TABLE
  2
LTYPE
 70
       2
  0
LTYPE
  2
CONTINUOUS
 70
      64
  3
Solid line
 72
      65
 73
       0
 40
0.0
  0
LTYPE
  2
DASHED
 70
      64
  3
Dashed __ __ __ __ __ __ __ __ __ __ __ __ __ _
 72
      65
 73
       2
 40
4.0
 49
2.0
 49
-2.0
  0
ENDTAB
  0
TABLE
  2
LAYER
 70
       2
  0
LAYER
  2
0
 70
       0
 62
       7
  6
CONTINUOUS
  0
LAYER
  2
DEFPOINTS
 70
       0
 62
       7
  6
CONTINUOUS
  0
ENDTAB
  0
TABLE
  2
STYLE
 70
       1
  0
STYLE
  2
MX_NOTE_STANDARD
 70
       0
 40
0.0
 41
1.0
 50
0.0
 71
       0
 42
3.20000005
  3
txt.shx
  4
extfont.shx
  0
ENDTAB
  0
TABLE
  2
VIEW
 70
       0
  0
ENDTAB
  0
TABLE
  2
UCS
 70
       0
  0
ENDTAB
  0
TABLE
  2
APPID
 70
       1
  0
APPID
  2
ACAD
 70
       0
  0
ENDTAB
  0
TABLE
  2
DIMSTYLE
 70
       1
  0
DIMSTYLE
  2
MXDIMSTYLE
 70
       0
  3

  4

  5

  6

  7

 40
1.0
 41
2.5
 42
1.5
 43
3.75
 44
1.5
 45
0.0
 46
0.0
 47
0.0
 48
0.0
 71
       0
 72
       0
 73
       0
 74
       0
 75
       0
 76
       0
 77
       1
 78
       8
140
3.20000005
141
2.5
142
0.0
143
0.03937008
144
1.0
145
0.0
146
1.0
147
1.0
170
       0
171
       4
172
       1
173
       0
174
       0
175
       0
176
       0
177
       0
178
       0
  0
ENDTAB
  0
ENDSEC
  0
SECTION
  2
BLOCKS
  0
ENDSEC
  0
SECTION
  2
ENTITIES
  0
LINE
  8
0
  6
CONTINUOUS
 62
       7
  5
1E
 10
-93.78434104
 20
45.59956647
 30
0.0
 11
-13.79434104
 21
45.59956647
 31
0.0
  0
LINE
  8
0
  6
CONTINUOUS
 62
       7
  5
1F
 10
-93.78434104
 20
-17.39043353
 30
0.0
 11
-13.79434104
 21
-17.39043353
 31
0.0
  0
LINE
  8
0
  6
CONTINUOUS
 62
       7
  5
20
 10
-93.78434104
 20
45.59956647
 30
0.0
 11
-93.78434104
 21
-17.39043353
 31
0.0
  0
LINE
  8
0
  6
CONTINUOUS
 62
       7
  5
21
 10
-13.79434104
 20
45.59956647
 30
0.0
 11
-13.79434104
 21
-17.39043353
 31
0.0
  0
LINE
  8
0
  6
CONTINUOUS
 62
       2
  5
22
 10
-69.78434104
 20
-11.07043353
 30
0.0
 11
-69.78434104
 21
-56.85043353
 31
0.0
  0
LINE
  8
0
  6
CONTINUOUS
 62
       7
  5
23
 10
-90.78434104
 20
-4.90043353
 30
0.0
 11
-16.79434104
 21
-4.90043353
 31
0.0
  0
LINE
  8
0
  6
CONTINUOUS
 62
       7
  5
24
 10
-83.98434104
 20
-27.39043353
 30
0.0
 11
-55.58434104
 21
-27.39043353
 31
0.0
  0
LINE
  8
0
  6
CONTINUOUS
 62
       7
  5
25
 10
-86.98434104
 20
-19.39043353
 30
0.0
 11
-86.98434104
 21
-24.39043353
 31
0.0
  0
LINE
  8
0
  6
CONTINUOUS
 62
       7
  5
26
 10
-52.59434104
 20
-19.39043353
 30
0.0
 11
-52.59434104
 21
-24.39043353
 31
0.0
  0
LINE
  8
0
  6
CONTINUOUS
 62
       7
  5
27
 10
-80.75434104
 20
-36.39043353
 30
0.0
 11
-58.81434104
 21
-36.39043353
 31
0.0
  0
LINE
  8
0
  6
CONTINUOUS
 62
       7
  5
28
 10
34.00565896
 20
45.59956647
 30
0.0
 11
34.00565896
 21
-4.90043353
 31
0.0
  0
LINE
  8
0
  6
CONTINUOUS
 62
       7
  5
29
 10
34.00565896
 20
45.59956647
 30
0.0
 11
80.50565896
 21
45.59956647
 31
0.0
  0
LINE
  8
0
  6
CONTINUOUS
 62
       7
  5
2A
 10
36.21565896
 20
-17.39043353
 30
0.0
 11
81.15565896
 21
-17.39043353
 31
0.0
  0
LINE
  8
0
  6
CONTINUOUS
 62
       7
  5
2B
 10
80.50565896
 20
45.59956647
 30
0.0
 11
80.50565896
 21
-17.39043353
 31
0.0
  0
LINE
  8
0
  6
CONTINUOUS
 62
       7
  5
2C
 10
36.21565896
 20
-17.39043353
 30
0.0
 11
34.00565896
 21
-4.90043353
 31
0.0
  0
LINE
  8
0
  6
CONTINUOUS
 62
       7
  5
2D
 10
37.00565896
 20
45.59956647
 30
0.0
 11
37.00565896
 21
-4.90043353
 31
0.0
  0
LINE
  8
0
  6
CONTINUOUS
 62
       7
  5
2E
 10
39.21565896
 20
-17.39043353
 30
0.0
 11
37.00565896
 21
-4.90043353
 31
0.0
  0
LINE
  8
0
  6
CONTINUOUS
 62
       2
  5
2F
 10
77.46565896
 20
25.09956647
 30
0.0
 11
85.86146811
 21
25.09956647
 31
0.0
  0
LINE
  8
0
  6
CONTINUOUS
 62
       2
  5
30
 10
78.23565896
 20
0.09956647
 30
0.0
 11
85.86146811
 21
0.09956647
 31
0.0
  0
LINE
  8
0
  6
CONTINUOUS
 62
       7
  5
31
 10
83.00565896
 20
30.09956647
 30
0.0
 11
83.00565896
 21
-4.90043353
 31
0.0
  0
LINE
  8
0
  6
CONTINUOUS
 62
       7
  5
32
 10
80.50565896
 20
32.59956647
 30
0.0
 11
83.00565896
 21
30.09956647
 31
0.0
  0
LINE
  8
0
  6
CONTINUOUS
 62
       7
  5
33
 10
80.50565896
 20
-7.40043353
 30
0.0
 11
83.00565896
 21
-4.90043353
 31
0.0
  0
LINE
  8
0
  6
CONTINUOUS
 62
       7
  5
34
 10
43.30565896
 20
-19.39043353
 30
0.0
 11
43.30565896
 21
-24.39043353
 31
0.0
  0
LINE
  8
0
  6
CONTINUOUS
 62
       7
  5
35
 10
77.70565896
 20
-19.39043353
 30
0.0
 11
77.70565896
 21
-24.39043353
 31
0.0
  0
LINE
  8
0
  6
CONTINUOUS
 62
       7
  5
36
 10
46.15132049
 20
-27.39043353
 30
0.0
 11
74.70565896
 21
-27.39043353
 31
0.0
  0
LINE
  8
0
  6
CONTINUOUS
 62
       7
  5
37
 10
51.00565896
 20
-31.39043353
 30
0.0
 11
70.00565896
 21
-31.39043353
 31
0.0
  0
LINE
  8
0
  6
CONTINUOUS
 62
       7
  5
38
 10
72.50565896
 20
-27.39043353
 30
0.0
 11
72.50565896
 21
-28.89043353
 31
0.0
  0
LINE
  8
0
  6
CONTINUOUS
 62
       7
  5
39
 10
-76.78434104
 20
-31.39043353
 30
0.0
 11
-76.78434104
 21
-36.39043353
 31
0.0
  0
LINE
  8
0
  6
CONTINUOUS
 62
       7
  5
3A
 10
-62.78434104
 20
-31.39043353
 30
0.0
 11
-62.78434104
 21
-36.39043353
 31
0.0
  0
LINE
  8
0
  6
CONTINUOUS
 62
       7
  5
3B
 10
-81.78434104
 20
-27.39043353
 30
0.0
 11
-81.78434104
 21
-28.89043353
 31
0.0
  0
LINE
  8
0
  6
CONTINUOUS
 62
       7
  5
3C
 10
-79.28434104
 20
-31.39043353
 30
0.0
 11
-60.28434104
 21
-31.39043353
 31
0.0
  0
LINE
  8
0
  6
CONTINUOUS
 62
       7
  5
3D
 10
-57.78434104
 20
-27.39043353
 30
0.0
 11
-57.78434104
 21
-28.89043353
 31
0.0
  0
LINE
  8
0
  6
CONTINUOUS
 62
       7
  5
3E
 10
67.50565896
 20
-31.39043353
 30
0.0
 11
67.50565896
 21
-36.39043353
 31
0.0
  0
LINE
  8
0
  6
CONTINUOUS
 62
       7
  5
3F
 10
51.00565896
 20
-36.39043353
 30
0.0
 11
70.00565896
 21
-36.39043353
 31
0.0
  0
LINE
  8
0
  6
CONTINUOUS
 62
       7
  5
40
 10
51.00565896
 20
-54.39043353
 30
0.0
 11
70.00565896
 21
-54.39043353
 31
0.0
  0
LINE
  8
0
  6
CONTINUOUS
 62
       7
  5
41
 10
51.00565896
 20
-36.39043353
 30
0.0
 11
51.00565896
 21
-54.39043353
 31
0.0
  0
LINE
  8
0
  6
CONTINUOUS
 62
       7
  5
42
 10
70.00565896
 20
-36.39043353
 30
0.0
 11
70.00565896
 21
-54.39043353
 31
0.0
  0
LINE
  8
0
  6
CONTINUOUS
 62
       7
  5
43
 10
-79.28434104
 20
-54.39043353
 30
0.0
 11
-60.28434104
 21
-54.39043353
 31
0.0
  0
LINE
  8
0
  6
CONTINUOUS
 62
       7
  5
44
 10
-80.75434104
 20
-53.54043353
 30
0.0
 11
-79.28434104
 21
-54.39043353
 31
0.0
  0
LINE
  8
0
  6
CONTINUOUS
 62
       7
  5
45
 10
-80.75434104
 20
-53.54043353
 30
0.0
 11
-80.75434104
 21
-36.39043353
 31
0.0
  0
LINE
  8
0
  6
CONTINUOUS
 62
       7
  5
46
 10
-58.81434104
 20
-53.54043353
 30
0.0
 11
-60.28434104
 21
-54.39043353
 31
0.0
  0
LINE
  8
0
  6
CONTINUOUS
 62
       7
  5
47
 10
-58.81434104
 20
-53.54043353
 30
0.0
 11
-58.81434104
 21
-36.39043353
 31
0.0
  0
LINE
  8
0
  6
CONTINUOUS
 62
       7
  5
48
 10
-75.26434104
 20
-36.39043353
 30
0.0
 11
-75.26434104
 21
-53.54043353
 31
0.0
  0
LINE
  8
0
  6
CONTINUOUS
 62
       7
  5
49
 10
-64.29434104
 20
-36.39043353
 30
0.0
 11
-64.29434104
 21
-53.54043353
 31
0.0
  0
LINE
  8
0
  6
CONTINUOUS
 62
       7
  5
4A
 10
60.50565896
 20
-53.54043353
 30
0.0
 11
60.50565896
 21
-36.39043353
 31
0.0
  0
LINE
  8
0
  6
CONTINUOUS
 62
       7
  5
4B
 10
-90.78434104
 20
42.59956647
 30
0.0
 11
-16.79434104
 21
42.59956647
 31
0.0
  0
LINE
  8
0
  6
CONTINUOUS
 62
       7
  5
4C
 10
-90.78434104
 20
42.59956647
 30
0.0
 11
-90.78434104
 21
-14.40043353
 31
0.0
  0
LINE
  8
0
  6
CONTINUOUS
 62
       7
  5
4D
 10
-90.78434104
 20
-14.40043353
 30
0.0
 11
-16.79434104
 21
-14.40043353
 31
0.0
  0
LINE
  8
0
  6
CONTINUOUS
 62
       7
  5
4E
 10
-16.79434104
 20
42.59956647
 30
0.0
 11
-16.79434104
 21
-14.40043353
 31
0.0
  0
LINE
  8
0
  6
CONTINUOUS
 62
       7
  5
4F
 10
-81.78434104
 20
32.59956647
 30
0.0
 11
-81.78434104
 21
-1.90043353
 31
0.0
  0
LINE
  8
0
  6
CONTINUOUS
 62
       7
  5
50
 10
-63.78434104
 20
32.59956647
 30
0.0
 11
-63.78434104
 21
-1.90043353
 31
0.0
  0
LINE
  8
0
  6
CONTINUOUS
 62
       7
  5
51
 10
-81.78434104
 20
-1.90043353
 30
0.0
 11
-63.78434104
 21
-1.90043353
 31
0.0
  0
LINE
  8
0
  6
CONTINUOUS
 62
       7
  5
52
 10
-81.78434104
 20
32.59956647
 30
0.0
 11
-63.78434104
 21
32.59956647
 31
0.0
  0
LINE
  8
0
  6
CONTINUOUS
 62
       7
  5
53
 10
-58.78434104
 20
39.09956647
 30
0.0
 11
-58.78434104
 21
32.09956647
 31
0.0
  0
LINE
  8
0
  6
CONTINUOUS
 62
       7
  5
54
 10
-28.79434104
 20
39.09956647
 30
0.0
 11
-28.79434104
 21
32.09956647
 31
0.0
  0
LINE
  8
0
  6
CONTINUOUS
 62
       7
  5
55
 10
-57.28434104
 20
-1.90043353
 30
0.0
 11
-30.29434104
 21
-1.90043353
 31
0.0
  0
LINE
  8
0
  6
CONTINUOUS
 62
       7
  5
56
 10
-57.28434104
 20
8.09956647
 30
0.0
 11
-30.29434104
 21
8.09956647
 31
0.0
  0
LINE
  8
0
  6
CONTINUOUS
 62
       7
  5
57
 10
-57.28434104
 20
40.59956647
 30
0.0
 11
-30.29434104
 21
40.59956647
 31
0.0
  0
LINE
  8
0
  6
CONTINUOUS
 62
       7
  5
58
 10
-57.28434104
 20
30.59956647
 30
0.0
 11
-30.29434104
 21
30.59956647
 31
0.0
  0
LINE
  8
0
  6
CONTINUOUS
 62
       7
  5
59
 10
-58.78434104
 20
6.59956647
 30
0.0
 11
-58.78434104
 21
-0.40043353
 31
0.0
  0
LINE
  8
0
  6
CONTINUOUS
 62
       7
  5
5A
 10
-28.79434104
 20
6.59956647
 30
0.0
 11
-28.79434104
 21
-0.40043353
 31
0.0
  0
LINE
  8
0
  6
CONTINUOUS
 62
       2
  5
5B
 10
-66.86434104
 20
-9.65043353
 30
0.0
 11
-59.10434104
 21
-9.65043353
 31
0.0
  0
LINE
  8
0
  6
CONTINUOUS
 62
       2
  5
5C
 10
-63.17434104
 20
-6.25043353
 30
0.0
 11
-63.17434104
 21
-13.00043353
 31
0.0
  0
LINE
  8
0
  6
CONTINUOUS
 62
       7
  5
5D
 10
38.68565896
 20
-14.40043353
 30
0.0
 11
80.50565896
 21
-14.40043353
 31
0.0
  0
LINE
  8
0
  6
CONTINUOUS
 62
       2
  5
5E
 10
-82.78434104
 20
51.86956647
 30
0.0
 11
-82.78434104
 21
41.46956647
 31
0.0
  0
LINE
  8
0
  6
CONTINUOUS
 62
       2
  5
5F
 10
-69.78434104
 20
52.77956647
 30
0.0
 11
-69.78434104
 21
41.01956647
 31
0.0
  0
LINE
  8
0
  6
CONTINUOUS
 62
       2
  5
60
 10
61.00565896
 20
50.78956647
 30
0.0
 11
61.00565896
 21
42.56956647
 31
0.0
  0
LINE
  8
0
  6
CONTINUOUS
 62
       2
  5
61
 10
47.00565896
 20
51.20956647
 30
0.0
 11
47.00565896
 21
41.74956647
 31
0.0
  0
LINE
  8
0
  6
CONTINUOUS
 62
       7
  5
62
 10
43.88565896
 20
47.59956647
 30
0.0
 11
50.13565896
 21
47.59956647
 31
0.0
  0
LINE
  8
0
  6
CONTINUOUS
 62
       7
  5
63
 10
64.13565896
 20
49.59956647
 30
0.0
 11
64.13565896
 21
45.59956647
 31
0.0
  0
LINE
  8
0
  6
CONTINUOUS
 62
       7
  5
64
 10
57.88565896
 20
49.59956647
 30
0.0
 11
57.88565896
 21
45.59956647
 31
0.0
  0
LINE
  8
0
  6
CONTINUOUS
 62
       7
  5
65
 10
50.13565896
 20
47.59956647
 30
0.0
 11
50.13565896
 21
45.59956647
 31
0.0
  0
LINE
  8
0
  6
CONTINUOUS
 62
       7
  5
66
 10
43.88565896
 20
47.59956647
 30
0.0
 11
43.88565896
 21
45.59956647
 31
0.0
  0
LINE
  8
0
  6
CONTINUOUS
 62
       7
  5
67
 10
-79.65434104
 20
47.59956647
 30
0.0
 11
-79.65434104
 21
45.59956647
 31
0.0
  0
LINE
  8
0
  6
CONTINUOUS
 62
       7
  5
68
 10
-85.90434104
 20
47.59956647
 30
0.0
 11
-79.65434104
 21
47.59956647
 31
0.0
  0
LINE
  8
0
  6
CONTINUOUS
 62
       7
  5
69
 10
-85.90434104
 20
47.59956647
 30
0.0
 11
-85.90434104
 21
45.59956647
 31
0.0
  0
LINE
  8
0
  6
CONTINUOUS
 62
       7
  5
6A
 10
-66.65434104
 20
49.59956647
 30
0.0
 11
-66.65434104
 21
45.59956647
 31
0.0
  0
LINE
  8
0
  6
CONTINUOUS
 62
       7
  5
6B
 10
-72.90434104
 20
49.59956647
 30
0.0
 11
-66.65434104
 21
49.59956647
 31
0.0
  0
LINE
  8
0
  6
CONTINUOUS
 62
       7
  5
6C
 10
-72.90434104
 20
49.59956647
 30
0.0
 11
-72.90434104
 21
45.59956647
 31
0.0
  0
LINE
  8
0
  6
CONTINUOUS
 62
       7
  5
6D
 10
57.88565896
 20
49.59956647
 30
0.0
 11
64.13565896
 21
49.59956647
 31
0.0
  0
LINE
  8
0
  6
DASHED
 62
       2
  5
6F
 10
81.09565896
 20
27.09956647
 30
0.0
 11
83.00565896
 21
27.09956647
 31
0.0
  0
LINE
  8
0
  6
DASHED
 62
       2
  5
70
 10
81.25565896
 20
23.09956647
 30
0.0
 11
83.00565896
 21
23.09956647
 31
0.0
  0
LINE
  8
0
  6
DASHED
 62
       2
  5
71
 10
81.25565896
 20
-1.90043353
 30
0.0
 11
83.00565896
 21
-1.90043353
 31
0.0
  0
LINE
  8
0
  6
DASHED
 62
       2
  5
72
 10
81.09565896
 20
2.09956647
 30
0.0
 11
83.00565896
 21
2.09956647
 31
0.0
  0
LINE
  8
0
  6
CONTINUOUS
 62
       7
  5
73
 10
-75.78434104
 20
27.59956647
 30
0.0
 11
-75.78434104
 21
3.09956647
 31
0.0
  0
LINE
  8
0
  6
CONTINUOUS
 62
       7
  5
74
 10
-69.78434104
 20
27.59956647
 30
0.0
 11
-69.78434104
 21
3.09956647
 31
0.0
  0
LINE
  8
0
  6
CONTINUOUS
 62
       7
  5
75
 10
-75.78434104
 20
3.09956647
 30
0.0
 11
-69.78434104
 21
3.09956647
 31
0.0
  0
LINE
  8
0
  6
CONTINUOUS
 62
       7
  5
76
 10
-75.78434104
 20
27.59956647
 30
0.0
 11
-69.78434104
 21
27.59956647
 31
0.0
  0
LINE
  8
0
  6
CONTINUOUS
 62
       7
  5
77
 10
-75.78434104
 20
18.09956647
 30
0.0
 11
-69.78434104
 21
18.09956647
 31
0.0
  0
LINE
  8
0
  6
CONTINUOUS
 62
       7
  5
78
 10
-75.78434104
 20
17.09956647
 30
0.0
 11
-69.78434104
 21
17.09956647
 31
0.0
  0
ARC
  8
0
  6
CONTINUOUS
 62
       7
  5
79
 10
-83.98598387
 20
-24.39207635
 30
0.0
 40
2.99835762
 50
179.96860711
 51
270.03139289
  0
ARC
  8
0
  6
CONTINUOUS
 62
       7
  5
7A
 10
-55.59038847
 20
-24.39438959
 30
0.0
 40
2.99605004
 50
270.11564975
 51
0.07565485
  0
ARC
  8
0
  6
CONTINUOUS
 62
       7
  5
7B
 10
46.31216473
 20
-24.38823252
 30
0.0
 40
3.00650657
 50
180.04194522
 51
273.06671466
  0
ARC
  8
0
  6
CONTINUOUS
 62
       7
  5
7C
 10
74.7096054
 20
-24.39437997
 30
0.0
 40
2.99605616
 50
269.92452933
 51
0.07547067
  0
ARC
  8
0
  6
CONTINUOUS
 62
       7
  5
7D
 10
70.00960655
 20
-28.89438112
 30
0.0
 40
2.49605553
 50
269.90938491
 51
0.09061509
  0
ARC
  8
0
  6
CONTINUOUS
 62
       7
  5
7E
 10
-79.28598536
 20
-28.89207784
 30
0.0
 40
2.49835622
 50
179.96229023
 51
270.03770977
  0
ARC
  8
0
  6
CONTINUOUS
 62
       7
  5
7F
 10
-60.28538946
 20
-28.8893851
 30
0.0
 40
2.50104864
 50
270.02401798
 51
359.97598202
  0
ARC
  8
0
  6
CONTINUOUS
 62
       7
  5
80
 10
-78.00934104
 20
-49.53500909
 30
0.0
 40
4.8557646
 50
235.57635475
 51
304.42364525
  0
ARC
  8
0
  6
CONTINUOUS
 62
       7
  5
81
 10
-69.77934104
 20
-36.23956893
 30
0.0
 40
18.14952177
 50
252.40950132
 51
287.59049868
  0
ARC
  8
0
  6
CONTINUOUS
 62
       7
  5
82
 10
-61.55434104
 20
-49.53500864
 30
0.0
 40
4.85294019
 50
235.62505213
 51
304.37494787
  0
ARC
  8
0
  6
CONTINUOUS
 62
       7
  5
83
 10
55.75565896
 20
-40.67133136
 30
0.0
 40
13.71773635
 50
249.74084003
 51
290.25915997
  0
ARC
  8
0
  6
CONTINUOUS
 62
       7
  5
84
 10
65.25565896
 20
-40.67133136
 30
0.0
 40
13.71773635
 50
249.74084003
 51
290.25915997
  0
ARC
  8
0
  6
CONTINUOUS
 62
       7
  5
85
 10
-30.28599882
 20
39.1079087
 30
0.0
 40
1.4916811
 50
359.67957173
 51
90.32042827
  0
ARC
  8
0
  6
CONTINUOUS
 62
       7
  5
86
 10
-30.29541069
 20
32.10063612
 30
0.0
 40
1.50107003
 50
270.04082841
 51
359.95917159
  0
ARC
  8
0
  6
CONTINUOUS
 62
       7
  5
87
 10
-57.28098246
 20
32.10292505
 30
0.0
 40
1.50336233
 50
180.12800134
 51
269.87199866
  0
ARC
  8
0
  6
CONTINUOUS
 62
       7
  5
88
 10
-57.29037994
 20
39.10560537
 30
0.0
 40
1.4939733
 50
89.76839985
 51
180.23160015
  0
ARC
  8
0
  6
CONTINUOUS
 62
       7
  5
89
 10
-30.28599882
 20
6.6079087
 30
0.0
 40
1.4916811
 50
359.67957173
 51
90.32042827
  0
ARC
  8
0
  6
CONTINUOUS
 62
       7
  5
8A
 10
-30.29541644
 20
-0.39935812
 30
0.0
 40
1.50107579
 50
270.04104788
 51
359.95895212
  0
ARC
  8
0
  6
CONTINUOUS
 62
       7
  5
8B
 10
-57.28097672
 20
-0.3970692
 30
0.0
 40
1.50336809
 50
180.12821981
 51
269.87178019
  0
ARC
  8
0
  6
CONTINUOUS
 62
       7
  5
8C
 10
-57.29037994
 20
6.60560537
 30
0.0
 40
1.4939733
 50
89.76839985
 51
180.23160015
  0
CIRCLE
  8
0
  6
CONTINUOUS
 62
       7
  5
8D
 10
-63.1779827
 20
-9.64103304
 30
0.0
 40
2.5
  0
ARC
  8
0
  6
CONTINUOUS
 62
       7
  5
8E
 10
-86.96934104
 20
-15.44251971
 30
0.0
 40
3.9488724
 50
209.55662956
 51
330.44337044
  0
ARC
  8
0
  6
CONTINUOUS
 62
       7
  5
8F
 10
43.28925456
 20
-15.43836609
 30
0.0
 40
3.94970201
 50
209.61909202
 51
330.38090798
  0
ARC
  8
0
  6
CONTINUOUS
 62
       7
  5
90
 10
-52.60434104
 20
-15.44251981
 30
0.0
 40
3.94452378
 50
209.59245402
 51
330.40754598
  0
ARC
  8
0
  6
CONTINUOUS
 62
       7
  5
91
 10
77.72065896
 20
-15.44251621
 30
0.0
 40
3.94887413
 50
209.5566737
 51
330.4433263
  0
LINE
  8
0
  6
CONTINUOUS
 62
       7
  5
92
 10
48.50565896
 20
-27.39043353
 30
0.0
 11
48.50565896
 21
-28.89043353
 31
0.0
  0
LINE
  8
0
  6
CONTINUOUS
 62
       7
  5
93
 10
53.50565896
 20
-31.39043353
 30
0.0
 11
53.50565896
 21
-36.39043353
 31
0.0
  0
ARC
  8
0
  6
CONTINUOUS
 62
       7
  5
94
 10
51.00171137
 20
-28.89438112
 30
0.0
 40
2.49605553
 50
179.90938491
 51
270.09061509
  0
LINE
  8
0
  6
CONTINUOUS
 62
       2
  5
95
 10
60.50565896
 20
-61.82382336
 30
0.0
 11
60.50565896
 21
-11.07043353
 31
0.0
  0
LINE
  8
0
  6
CONTINUOUS
 62
       7
  5
96
 10
-138.3999939
 20
94.5
 30
0.0
 11
138.3500061
 21
94.5
 31
0.0
  0
LINE
  8
0
  6
CONTINUOUS
 62
       7
  5
97
 10
138.3500061
 20
94.5
 30
0.0
 11
138.3500061
 21
-94.80000305
 31
0.0
  0
LINE
  8
0
  6
CONTINUOUS
 62
       7
  5
98
 10
-138.3999939
 20
-94.80000305
 30
0.0
 11
138.3500061
 21
-94.80000305
 31
0.0
  0
LINE
  8
0
  6
CONTINUOUS
 62
       7
  5
99
 10
-138.3999939
 20
94.5
 30
0.0
 11
-138.3999939
 21
-94.80000305
 31
0.0
  0
TEXT
  8
0
  6
CONTINUOUS
 62
       7
  5
9A
 10
-129.42399391
 20
72.89999998
 30
0.0
 40
3.20000005
  1
MODEL:PS2
 41
1.08
  7
MX_NOTE_STANDARD
 11
-129.42399391
 21
74.5
 31
0.0
 73
       2
  0
ENDSEC
  0
EOF
