  0
SECTION
  2
HEADER
  9
$ACADVER
  1
AC1012
  9
$DWGCODEPAGE
  3
dos932
  9
$INSBASE
 10
0.0
 20
0.0
 30
0.0
  9
$EXTMIN
 10
-350.0
 20
-449.0
 30
0.0
  9
$EXTMAX
 10
350.0
 20
449.0
 30
0.0
  9
$LIMMIN
 10
0.0
 20
0.0
  9
$LIMMAX
 10
12.0
 20
9.0
  9
$ORTHOMODE
 70
     0
  9
$REGENMODE
 70
     1
  9
$FILLMODE
 70
     1
  9
$QTEXTMODE
 70
     0
  9
$MIRRTEXT
 70
     1
  9
$DRAGMODE
 70
     2
  9
$LTSCALE
 40
1.0
  9
$OSMODE
 70
     0
  9
$ATTMODE
 70
     1
  9
$TEXTSIZE
 40
0.2
  9
$TRACEWID
 40
0.05
  9
$TEXTSTYLE
  7
STANDARD
  9
$CLAYER
  8
0
  9
$CELTYPE
  6
CONTINUOUS
  9
$CECOLOR
 62
   256
  9
$CELTSCALE
 40
1.0
  9
$DELOBJ
 70
     1
  9
$DISPSILH
 70
     0
  9
$DIMSCALE
 40
1.0
  9
$DIMASZ
 40
0.18
  9
$DIMEXO
 40
0.0625
  9
$DIMDLI
 40
0.38
  9
$DIMRND
 40
0.0
  9
$DIMDLE
 40
0.0
  9
$DIMEXE
 40
0.18
  9
$DIMTP
 40
0.0
  9
$DIMTM
 40
0.0
  9
$DIMTXT
 40
0.18
  9
$DIMCEN
 40
0.09
  9
$DIMTSZ
 40
0.0
  9
$DIMTOL
 70
     0
  9
$DIMLIM
 70
     0
  9
$DIMTIH
 70
     1
  9
$DIMTOH
 70
     1
  9
$DIMSE1
 70
     0
  9
$DIMSE2
 70
     0
  9
$DIMTAD
 70
     0
  9
$DIMZIN
 70
     0
  9
$DIMBLK
  1

  9
$DIMASO
 70
     1
  9
$DIMSHO
 70
     1
  9
$DIMPOST
  1

  9
$DIMAPOST
  1

  9
$DIMALT
 70
     0
  9
$DIMALTD
 70
     2
  9
$DIMALTF
 40
25.4
  9
$DIMLFAC
 40
1.0
  9
$DIMTOFL
 70
     0
  9
$DIMTVP
 40
0.0
  9
$DIMTIX
 70
     0
  9
$DIMSOXD
 70
     0
  9
$DIMSAH
 70
     0
  9
$DIMBLK1
  1

  9
$DIMBLK2
  1

  9
$DIMSTYLE
  2
STANDARD
  9
$DIMCLRD
 70
     0
  9
$DIMCLRE
 70
     0
  9
$DIMCLRT
 70
     0
  9
$DIMTFAC
 40
1.0
  9
$DIMGAP
 40
0.09
  9
$DIMJUST
 70
     0
  9
$DIMSD1
 70
     0
  9
$DIMSD2
 70
     0
  9
$DIMTOLJ
 70
     1
  9
$DIMTZIN
 70
     0
  9
$DIMALTZ
 70
     0
  9
$DIMALTTZ
 70
     0
  9
$DIMFIT
 70
     3
  9
$DIMUPT
 70
     0
  9
$DIMUNIT
 70
     2
  9
$DIMDEC
 70
     4
  9
$DIMTDEC
 70
     4
  9
$DIMALTU
 70
     2
  9
$DIMALTTD
 70
     2
  9
$DIMTXSTY
  7
STANDARD
  9
$DIMAUNIT
 70
     0
  9
$LUNITS
 70
     2
  9
$LUPREC
 70
     4
  9
$SKETCHINC
 40
0.1
  9
$FILLETRAD
 40
0.0
  9
$AUNITS
 70
     0
  9
$AUPREC
 70
     0
  9
$MENU
  1
.
  9
$ELEVATION
 40
0.0
  9
$PELEVATION
 40
0.0
  9
$THICKNESS
 40
0.0
  9
$LIMCHECK
 70
     0
  9
$BLIPMODE
 70
     1
  9
$CHAMFERA
 40
0.0
  9
$CHAMFERB
 40
0.0
  9
$CHAMFERC
 40
0.0
  9
$CHAMFERD
 40
0.0
  9
$SKPOLY
 70
     0
  9
$TDCREATE
 40
0.0000000000
  9
$TDUPDATE
 40
2452163.481242592
  9
$TDINDWG
 40
0.0564620370
  9
$TDUSRTIMER
 40
0.0564620370
  9
$USRTIMER
 70
     1
  9
$ANGBASE
 50
0.0
  9
$ANGDIR
 70
     0
  9
$PDMODE
 70
     0
  9
$PDSIZE
 40
0.0
  9
$PLINEWID
 40
0.0
  9
$COORDS
 70
     1
  9
$SPLFRAME
 70
     0
  9
$SPLINETYPE
 70
     6
  9
$SPLINESEGS
 70
     8
  9
$ATTDIA
 70
     0
  9
$ATTREQ
 70
     1
  9
$HANDLING
 70
     1
  9
$HANDSEED
  5
AA1
  9
$SURFTAB1
 70
     6
  9
$SURFTAB2
 70
     6
  9
$SURFTYPE
 70
     6
  9
$SURFU
 70
     6
  9
$SURFV
 70
     6
  9
$UCSNAME
  2

  9
$UCSORG
 10
0.0
 20
0.0
 30
0.0
  9
$UCSXDIR
 10
1.0
 20
0.0
 30
0.0
  9
$UCSYDIR
 10
0.0
 20
1.0
 30
0.0
  9
$PUCSNAME
  2

  9
$PUCSORG
 10
0.0
 20
0.0
 30
0.0
  9
$PUCSXDIR
 10
1.0
 20
0.0
 30
0.0
  9
$PUCSYDIR
 10
0.0
 20
1.0
 30
0.0
  9
$USERI1
 70
     0
  9
$USERI2
 70
     0
  9
$USERI3
 70
     0
  9
$USERI4
 70
     0
  9
$USERI5
 70
     0
  9
$USERR1
 40
0.0
  9
$USERR2
 40
0.0
  9
$USERR3
 40
0.0
  9
$USERR4
 40
0.0
  9
$USERR5
 40
0.0
  9
$WORLDVIEW
 70
     1
  9
$SHADEDGE
 70
     3
  9
$SHADEDIF
 70
    70
  9
$TILEMODE
 70
     1
  9
$MAXACTVP
 70
    16
  9
$PINSBASE
 10
0.0
 20
0.0
 30
0.0
  9
$PLIMCHECK
 70
     0
  9
$PEXTMIN
 10
1.000000E+20
 20
1.000000E+20
 30
1.000000E+20
  9
$PEXTMAX
 10
-1.000000E+20
 20
-1.000000E+20
 30
-1.000000E+20
  9
$PLIMMIN
 10
0.0
 20
0.0
  9
$PLIMMAX
 10
12.0
 20
9.0
  9
$UNITMODE
 70
     0
  9
$VISRETAIN
 70
     0
  9
$PLINEGEN
 70
     0
  9
$PSLTSCALE
 70
     1
  9
$TREEDEPTH
 70
  3020
  9
$PICKSTYLE
 70
     1
  9
$CMLSTYLE
  2
STANDARD
  9
$CMLJUST
 70
     0
  9
$CMLSCALE
 40
1.0
  9
$SAVEIMAGES
 70
     0
  0
ENDSEC
  0
SECTION
  2
CLASSES
  0
ENDSEC
  0
SECTION
  2
TABLES
  0
TABLE
  2
VPORT
  5
8
100
AcDbSymbolTable
 70
     9
  0
VPORT
  5
AA0
100
AcDbSymbolTableRecord
100
AcDbViewportTableRecord
  2
*ACTIVE
 70
     0
 10
0.0
 20
0.0
 11
1.0
 21
1.0
 12
-262.107921
 22
393.077716
 13
0.0
 23
0.0
 14
1.0
 24
1.0
 15
0.0
 25
0.0
 16
0.0
 26
0.0
 36
1.0
 17
0.0
 27
0.0
 37
0.0
 40
224.500037
 41
1.820976
 42
50.0
 43
0.0
 44
0.0
 50
0.0
 51
0.0
 71
     0
 72
   100
 73
     1
 74
     1
 75
     0
 76
     0
 77
     0
 78
     0
  0
ENDTAB
  0
TABLE
  2
LTYPE
  5
5
100
AcDbSymbolTable
 70
     5
  0
LTYPE
  5
13
100
AcDbSymbolTableRecord
100
AcDbLinetypeTableRecord
  2
BYBLOCK
 70
     0
  3

 72
    65
 73
     0
 40
0.0
  0
LTYPE
  5
14
100
AcDbSymbolTableRecord
100
AcDbLinetypeTableRecord
  2
BYLAYER
 70
     0
  3

 72
    65
 73
     0
 40
0.0
  0
LTYPE
  5
15
100
AcDbSymbolTableRecord
100
AcDbLinetypeTableRecord
  2
CONTINUOUS
 70
    64
  3
Solid line
 72
    65
 73
     0
 40
0.0
  0
LTYPE
  5
1E
100
AcDbSymbolTableRecord
100
AcDbLinetypeTableRecord
  2
DASHED
 70
    64
  3
__ __ __ __ __ __ __ __ __ __ __ __ __ __ __
 72
    65
 73
     2
 40
3.5
 49
2.0
 74
     0
 49
-1.5
 74
     0
  0
LTYPE
  5
1F
100
AcDbSymbolTableRecord
100
AcDbLinetypeTableRecord
  2
CENTER
 70
    64
  3
____ _ ____ _ ____ _ ____ _ ____ _ ____ _ ____
 72
    65
 73
     4
 40
17.5
 49
13.0
 74
     0
 49
-1.5
 74
     0
 49
1.5
 74
     0
 49
-1.5
 74
     0
  0
LTYPE
  5
20
100
AcDbSymbolTableRecord
100
AcDbLinetypeTableRecord
  2
PHANTOM
 70
    64
  3
_____ _ _ _____ _ _ _____ _ _ _____ _ _ ____  
 72
    65
 73
     6
 40
15.5
 49
8.0
 74
     0
 49
-1.5
 74
     0
 49
1.5
 74
     0
 49
-1.5
 74
     0
 49
1.5
 74
     0
 49
-1.5
 74
     0
  0
LTYPE
  5
21
100
AcDbSymbolTableRecord
100
AcDbLinetypeTableRecord
  2
DOT
 70
    64
  3
. . . . . . . . . . . . . . . . . . . . . . . .
 72
    65
 73
     2
 40
0.25
 49
0.0
 74
     0
 49
-0.25
 74
     0
  0
ENDTAB
  0
TABLE
  2
LAYER
  5
2
100
AcDbSymbolTable
 70
     1
  0
LAYER
  5
F
100
AcDbSymbolTableRecord
100
AcDbLayerTableRecord
  2
0
 70
     0
 62
     7
  6
CONTINUOUS
  0
ENDTAB
  0
TABLE
  2
STYLE
  5
3
100
AcDbSymbolTable
 70
     1
  0
STYLE
  5
10
100
AcDbSymbolTableRecord
100
AcDbTextStyleTableRecord
  2
STANDARD
 70
     0
 40
0.0
 41
1.0
 50
0.0
 71
     0
 42
0.2
  3
txt
  4

  0
ENDTAB
  0
TABLE
  2
VIEW
  5
6
100
AcDbSymbolTable
 70
     0
  0
ENDTAB
  0
TABLE
  2
UCS
  5
7
100
AcDbSymbolTable
 70
     0
  0
ENDTAB
  0
TABLE
  2
APPID
  5
9
100
AcDbSymbolTable
 70
     1
  0
APPID
  5
11
100
AcDbSymbolTableRecord
100
AcDbRegAppTableRecord
  2
ACAD
 70
     0
  0
ENDTAB
  0
TABLE
  2
DIMSTYLE
  5
A
100
AcDbSymbolTable
 70
     1
  0
DIMSTYLE
105
A98
100
AcDbSymbolTableRecord
100
AcDbDimStyleTableRecord
  2
STANDARD
 70
     0
  3

  4

  5

  6

  7

 40
1.0
 41
0.18
 42
0.0625
 43
0.38
 44
0.18
 45
0.0
 46
0.0
 47
0.0
 48
0.0
140
0.18
141
0.09
142
0.0
143
25.4
144
1.0
145
0.0
146
1.0
147
0.09
 71
     0
 72
     0
 73
     1
 74
     1
 75
     0
 76
     0
 77
     0
 78
     0
170
     0
171
     2
172
     0
173
     0
174
     0
175
     0
176
     0
177
     0
178
     0
270
     2
271
     4
272
     4
273
     2
274
     2
340
10
275
     0
280
     0
281
     0
282
     0
283
     1
284
     0
285
     0
286
     0
287
     3
288
     0
  0
ENDTAB
  0
TABLE
  2
BLOCK_RECORD
  5
1
100
AcDbSymbolTable
 70
     0
  0
BLOCK_RECORD
  5
19
100
AcDbSymbolTableRecord
100
AcDbBlockTableRecord
  2
*MODEL_SPACE
  0
BLOCK_RECORD
  5
16
100
AcDbSymbolTableRecord
100
AcDbBlockTableRecord
  2
*PAPER_SPACE
  0
ENDTAB
  0
ENDSEC
  0
SECTION
  2
BLOCKS
  0
BLOCK
  5
1A
100
AcDbEntity
  8
0
100
AcDbBlockBegin
  2
*MODEL_SPACE
 70
     0
 10
0.0
 20
0.0
 30
0.0
  3
*MODEL_SPACE
  1

  0
ENDBLK
  5
1B
100
AcDbEntity
  8
0
100
AcDbBlockEnd
  0
BLOCK
  5
17
100
AcDbEntity
 67
     1
  8
0
100
AcDbBlockBegin
  2
*PAPER_SPACE
 70
     0
 10
0.0
 20
0.0
 30
0.0
  3
*PAPER_SPACE
  1

  0
ENDBLK
  5
18
100
AcDbEntity
 67
     1
  8
0
100
AcDbBlockEnd
  0
ENDSEC
  0
SECTION
  2
ENTITIES
  0
LINE
  5
22
100
AcDbEntity
  8
0
  6
CONTINUOUS
 62
     7
100
AcDbLine
 10
-270.0
 20
433.0
 30
0.0
 11
-270.0
 21
31.0
 31
0.0
  0
LINE
  5
23
100
AcDbEntity
  8
0
  6
CONTINUOUS
 62
     7
100
AcDbLine
 10
-350.0
 20
449.0
 30
0.0
 11
-350.0
 21
-449.0
 31
0.0
  0
LINE
  5
24
100
AcDbEntity
  8
0
  6
CONTINUOUS
 62
     7
100
AcDbLine
 10
-120.0
 20
409.0
 30
0.0
 11
-120.0
 21
231.0
 31
0.0
  0
LINE
  5
25
100
AcDbEntity
  8
0
  6
CONTINUOUS
 62
     7
100
AcDbLine
 10
30.0
 20
417.0
 30
0.0
 11
30.0
 21
231.0
 31
0.0
  0
LINE
  5
26
100
AcDbEntity
  8
0
  6
CONTINUOUS
 62
     7
100
AcDbLine
 10
190.0
 20
409.0
 30
0.0
 11
190.0
 21
231.0
 31
0.0
  0
LINE
  5
27
100
AcDbEntity
  8
0
  6
CONTINUOUS
 62
     7
100
AcDbLine
 10
-350.0
 20
401.0
 30
0.0
 11
350.0
 21
401.0
 31
0.0
  0
LINE
  5
28
100
AcDbEntity
  8
0
  6
CONTINUOUS
 62
     7
100
AcDbLine
 10
-350.0
 20
231.0
 30
0.0
 11
350.0
 21
231.0
 31
0.0
  0
LINE
  5
29
100
AcDbEntity
  8
0
  6
CONTINUOUS
 62
     7
100
AcDbLine
 10
-350.0
 20
223.0
 30
0.0
 11
350.0
 21
223.0
 31
0.0
  0
LINE
  5
2A
100
AcDbEntity
  8
0
  6
CONTINUOUS
 62
     7
100
AcDbLine
 10
-350.0
 20
215.0
 30
0.0
 11
350.0
 21
215.0
 31
0.0
  0
LINE
  5
2B
100
AcDbEntity
  8
0
  6
CONTINUOUS
 62
     7
100
AcDbLine
 10
-350.0
 20
207.0
 30
0.0
 11
350.0
 21
207.0
 31
0.0
  0
LINE
  5
2C
100
AcDbEntity
  8
0
  6
CONTINUOUS
 62
     7
100
AcDbLine
 10
-350.0
 20
199.0
 30
0.0
 11
350.0
 21
199.0
 31
0.0
  0
LINE
  5
2D
100
AcDbEntity
  8
0
  6
CONTINUOUS
 62
     7
100
AcDbLine
 10
-350.0
 20
409.0
 30
0.0
 11
350.0
 21
409.0
 31
0.0
  0
LINE
  5
2E
100
AcDbEntity
  8
0
  6
CONTINUOUS
 62
     7
100
AcDbLine
 10
-350.0
 20
417.0
 30
0.0
 11
350.0
 21
417.0
 31
0.0
  0
LINE
  5
2F
100
AcDbEntity
  8
0
  6
CONTINUOUS
 62
     7
100
AcDbLine
 10
-350.0
 20
425.0
 30
0.0
 11
350.0
 21
425.0
 31
0.0
  0
LINE
  5
30
100
AcDbEntity
  8
0
  6
CONTINUOUS
 62
     7
100
AcDbLine
 10
-350.0
 20
433.0
 30
0.0
 11
350.0
 21
433.0
 31
0.0
  0
LINE
  5
31
100
AcDbEntity
  8
0
  6
CONTINUOUS
 62
     7
100
AcDbLine
 10
200.0
 20
441.0
 30
0.0
 11
350.0
 21
441.0
 31
0.0
  0
LINE
  5
32
100
AcDbEntity
  8
0
  6
CONTINUOUS
 62
     7
100
AcDbLine
 10
-350.0
 20
449.0
 30
0.0
 11
350.0
 21
449.0
 31
0.0
  0
LINE
  5
33
100
AcDbEntity
  8
0
  6
CONTINUOUS
 62
     7
100
AcDbLine
 10
-350.0
 20
31.0
 30
0.0
 11
350.0
 21
31.0
 31
0.0
  0
LINE
  5
34
100
AcDbEntity
  8
0
  6
CONTINUOUS
 62
     7
100
AcDbLine
 10
190.0
 20
207.0
 30
0.0
 11
190.0
 21
31.0
 31
0.0
  0
LINE
  5
35
100
AcDbEntity
  8
0
  6
CONTINUOUS
 62
     7
100
AcDbLine
 10
30.0
 20
215.0
 30
0.0
 11
30.0
 21
31.0
 31
0.0
  0
LINE
  5
36
100
AcDbEntity
  8
0
  6
CONTINUOUS
 62
     7
100
AcDbLine
 10
-120.0
 20
207.0
 30
0.0
 11
-120.0
 21
31.0
 31
0.0
  0
LINE
  5
37
100
AcDbEntity
  8
0
  6
CONTINUOUS
 62
     7
100
AcDbLine
 10
290.0
 20
449.0
 30
0.0
 11
290.0
 21
433.0
 31
0.0
  0
LINE
  5
38
100
AcDbEntity
  8
0
  6
CONTINUOUS
 62
     7
100
AcDbLine
 10
260.0
 20
449.0
 30
0.0
 11
260.0
 21
433.0
 31
0.0
  0
LINE
  5
39
100
AcDbEntity
  8
0
  6
CONTINUOUS
 62
     7
100
AcDbLine
 10
200.0
 20
449.0
 30
0.0
 11
200.0
 21
433.0
 31
0.0
  0
LINE
  5
3A
100
AcDbEntity
  8
0
  6
CONTINUOUS
 62
     7
100
AcDbLine
 10
-350.0
 20
-249.0
 30
0.0
 11
350.0
 21
-249.0
 31
0.0
  0
LINE
  5
3C
100
AcDbEntity
  8
0
  6
CONTINUOUS
 62
     7
100
AcDbLine
 10
29.791081
 20
30.041082
 30
0.0
 11
29.791081
 21
-249.958918
 31
0.0
  0
LINE
  5
3D
100
AcDbEntity
  8
0
  6
CONTINUOUS
 62
     7
100
AcDbLine
 10
-350.0
 20
23.0
 30
0.0
 11
350.0
 21
23.0
 31
0.0
  0
LINE
  5
3E
100
AcDbEntity
  8
0
  6
CONTINUOUS
 62
     7
100
AcDbLine
 10
-350.0
 20
-449.0
 30
0.0
 11
-80.0
 21
-449.0
 31
0.0
  0
LINE
  5
3F
100
AcDbEntity
  8
0
  6
CONTINUOUS
 62
     7
100
AcDbLine
 10
-350.0
 20
-257.0
 30
0.0
 11
-80.0
 21
-257.0
 31
0.0
  0
LINE
  5
40
100
AcDbEntity
  8
0
  6
CONTINUOUS
 62
     7
100
AcDbLine
 10
-80.0
 20
-249.0
 30
0.0
 11
-80.0
 21
-449.0
 31
0.0
  0
LINE
  5
41
100
AcDbEntity
  8
0
  6
CONTINUOUS
 62
     7
100
AcDbLine
 10
350.0
 20
449.0
 30
0.0
 11
350.0
 21
-249.0
 31
0.0
  0
LINE
  5
42
100
AcDbEntity
  8
0
  6
CONTINUOUS
 62
     7
100
AcDbLine
 10
-250.0
 20
449.0
 30
0.0
 11
-250.0
 21
433.0
 31
0.0
  0
TEXT
  5
43
100
AcDbEntity
  8
0
  6
CONTINUOUS
 62
     7
100
AcDbText
 10
212.857
 20
443.4
 30
0.0
 40
3.2
  1
KOGANEI CORP.
 41
1.004473
100
AcDbText
  0
TEXT
  5
44
100
AcDbEntity
  8
0
  6
CONTINUOUS
 62
     7
100
AcDbText
 10
225.657
 20
435.4
 30
0.0
 40
3.2
  1
1:1
 41
1.017891
100
AcDbText
  0
TEXT
  5
45
100
AcDbEntity
  8
0
  6
CONTINUOUS
 62
     7
100
AcDbText
 10
267.457
 20
435.4
 30
0.0
 40
3.2
  1
MODEL
 41
1.010223
100
AcDbText
  0
TEXT
  5
46
100
AcDbEntity
  8
0
  6
CONTINUOUS
 62
     7
100
AcDbText
 10
304.457
 20
435.4
 30
0.0
 40
3.2
  1
PU202-30,-45
 41
1.004935
100
AcDbText
  0
TEXT
  5
47
100
AcDbEntity
  8
0
  6
CONTINUOUS
 62
     7
100
AcDbText
 10
244.857
 20
403.4
 30
0.0
 40
3.2
  1
Inside (PUM-202-PB)
 41
1.003045
100
AcDbText
  0
TEXT
  5
48
100
AcDbEntity
  8
0
  6
CONTINUOUS
 62
     7
100
AcDbText
 10
83.257
 20
403.4
 30
0.0
 40
3.2
  1
Outside (PUM-202-PA)
 41
1.002863
100
AcDbText
  0
TEXT
  5
49
100
AcDbEntity
  8
0
  6
CONTINUOUS
 62
     7
100
AcDbText
 10
172.857
 20
411.4
 30
0.0
 40
3.2
  1
Outside (B)
 41
1.004473
100
AcDbText
  0
TEXT
  5
4A
100
AcDbEntity
  8
0
  6
CONTINUOUS
 62
     7
100
AcDbText
 10
244.857
 20
201.4
 30
0.0
 40
3.2
  1
Inside (PUM-202-HAE)
 41
1.003045
100
AcDbText
  0
TEXT
  5
4B
100
AcDbEntity
  8
0
  6
CONTINUOUS
 62
     7
100
AcDbText
 10
83.257
 20
201.4
 30
0.0
 40
3.2
  1
outside (PUM-202-HAE)
 41
1.002863
100
AcDbText
  0
TEXT
  5
4C
100
AcDbEntity
  8
0
  6
CONTINUOUS
 62
     7
100
AcDbText
 10
172.857
 20
209.4
 30
0.0
 40
3.2
  1
Outside (B)
 41
1.004473
100
AcDbText
  0
TEXT
  5
4D
100
AcDbEntity
  8
0
  6
CONTINUOUS
 62
     7
100
AcDbText
 10
-221.743
 20
403.4
 30
0.0
 40
3.2
  1
Outside (PUM-202-PA)
 41
1.002863
100
AcDbText
  0
TEXT
  5
4E
100
AcDbEntity
  8
0
  6
CONTINUOUS
 62
     7
100
AcDbText
 10
-70.143
 20
403.4
 30
0.0
 40
3.2
  1
Inside (PUM-202-PB)
 41
1.003045
100
AcDbText
  0
TEXT
  5
4F
100
AcDbEntity
  8
0
  6
CONTINUOUS
 62
     7
100
AcDbText
 10
-135.543
 20
411.4
 30
0.0
 40
3.2
  1
Inside (A)
 41
1.004935
100
AcDbText
  0
TEXT
  5
50
100
AcDbEntity
  8
0
  6
CONTINUOUS
 62
     7
100
AcDbText
 10
-221.743
 20
201.4
 30
0.0
 40
3.2
  1
Outside (PUM-202-HA)
 41
1.002863
100
AcDbText
  0
TEXT
  5
51
100
AcDbEntity
  8
0
  6
CONTINUOUS
 62
     7
100
AcDbText
 10
-70.143
 20
201.4
 30
0.0
 40
3.2
  1
Inside (PUM-202-HA)
 41
1.003045
100
AcDbText
  0
TEXT
  5
52
100
AcDbEntity
  8
0
  6
CONTINUOUS
 62
     7
100
AcDbText
 10
-135.543
 20
209.4
 30
0.0
 40
3.2
  1
Inside (A)
 41
1.004935
100
AcDbText
  0
TEXT
  5
53
100
AcDbEntity
  8
0
  6
CONTINUOUS
 62
     7
100
AcDbText
 10
-7.543
 20
217.4
 30
0.0
 40
3.2
  1
Pivot type (for fixed end) (F)
 41
1.001608
100
AcDbText
  0
TEXT
  5
54
100
AcDbEntity
  8
0
  6
CONTINUOUS
 62
     7
100
AcDbText
 10
19.657
 20
225.4
 30
0.0
 40
3.2
  1
for fixed end
 41
1.003766
100
AcDbText
  0
TEXT
  5
55
100
AcDbEntity
  8
0
  6
CONTINUOUS
 62
     7
100
AcDbText
 10
-7.543
 20
419.4
 30
0.0
 40
3.2
  1
Hole type (for moving end) (M)
 41
1.001608
100
AcDbText
  0
TEXT
  5
56
100
AcDbEntity
  8
0
  6
CONTINUOUS
 62
     7
100
AcDbText
 10
18.057
 20
427.4
 30
0.0
 40
3.2
  1
for moving end
 41
1.003491
100
AcDbText
  0
TEXT
  5
57
100
AcDbEntity
  8
0
  6
CONTINUOUS
 62
     7
100
AcDbText
 10
-314.343
 20
427.4
 30
0.0
 40
3.2
  1
use
 41
1.017891
100
AcDbText
  0
TEXT
  5
58
100
AcDbEntity
  8
0
  6
CONTINUOUS
 62
     7
100
AcDbText
 10
-328.743
 20
419.4
 30
0.0
 40
3.2
  1
Bracket type
 41
1.004089
100
AcDbText
  0
TEXT
  5
59
100
AcDbEntity
  8
0
  6
CONTINUOUS
 62
     7
100
AcDbText
 10
-336.743
 20
411.4
 30
0.0
 40
3.2
  1
Screwing position
 41
1.002863
100
AcDbText
  0
TEXT
  5
5A
100
AcDbEntity
  8
0
  6
CONTINUOUS
 62
     7
100
AcDbText
 10
-327.143
 20
403.4
 30
0.0
 40
3.2
  1
Orientation
 41
1.004473
100
AcDbText
  0
TEXT
  5
5B
100
AcDbEntity
  8
0
  6
CONTINUOUS
 62
     7
100
AcDbText
 10
-314.343
 20
225.4
 30
0.0
 40
3.2
  1
use
 41
1.017891
100
AcDbText
  0
TEXT
  5
5C
100
AcDbEntity
  8
0
  6
CONTINUOUS
 62
     7
100
AcDbText
 10
-328.743
 20
217.4
 30
0.0
 40
3.2
  1
Bracket type
 41
1.004089
100
AcDbText
  0
TEXT
  5
5D
100
AcDbEntity
  8
0
  6
CONTINUOUS
 62
     7
100
AcDbText
 10
-336.743
 20
209.4
 30
0.0
 40
3.2
  1
Screwing position
 41
1.002863
100
AcDbText
  0
TEXT
  5
5E
100
AcDbEntity
  8
0
  6
CONTINUOUS
 62
     7
100
AcDbText
 10
-327.143
 20
201.4
 30
0.0
 40
3.2
  1
Orientation
 41
1.004473
100
AcDbText
  0
TEXT
  5
5F
100
AcDbEntity
  8
0
  6
CONTINUOUS
 62
     7
100
AcDbText
 10
-319.28594
 20
438.5
 30
0.0
 40
5.0
  1
PU202
 41
1.006223
100
AcDbText
  0
TEXT
  5
60
100
AcDbEntity
  8
0
  6
CONTINUOUS
 62
     7
100
AcDbText
 10
267.457
 20
443.4
 30
0.0
 40
3.2
  1
TITLE
 41
1.010223
100
AcDbText
  0
TEXT
  5
61
100
AcDbEntity
  8
0
  6
CONTINUOUS
 62
     7
100
AcDbText
 10
298.057
 20
443.4
 30
0.0
 40
3.2
  1
Plachain Ducts
 41
1.003491
100
AcDbText
  0
TEXT
  5
62
100
AcDbEntity
  8
0
  6
CONTINUOUS
 62
     7
100
AcDbText
 10
210.657
 20
25.4
 30
0.0
 40
3.2
  1
PU202-45
 41
1.017891
100
AcDbText
  0
TEXT
  5
63
100
AcDbEntity
  8
0
  6
CONTINUOUS
 62
     7
100
AcDbText
 10
-172.5481
 20
24.493259
 30
0.0
 40
3.2
  1
PU202-30
 41
1.017891
100
AcDbText
  0
TEXT
  5
65
100
AcDbEntity
  8
0
  6
CONTINUOUS
 62
     7
100
AcDbText
 10
-224.143
 20
-254.6
 30
0.0
 40
3.2
  1
1BLOCK
 41
1.008419
100
AcDbText
  0
POINT
  5
66
100
AcDbEntity
  8
0
  6
CONTINUOUS
 62
     7
100
AcDbPoint
 10
-305.0
 20
366.0
 30
0.0
  0
POINT
  5
67
100
AcDbEntity
  8
0
  6
CONTINUOUS
 62
     7
100
AcDbPoint
 10
-293.5514
 20
366.0
 30
0.0
  0
LINE
  5
68
100
AcDbEntity
  8
0
  6
CONTINUOUS
 62
     7
100
AcDbLine
 10
-323.0
 20
359.0
 30
0.0
 11
-323.0
 21
373.0
 31
0.0
  0
LINE
  5
69
100
AcDbEntity
  8
0
  6
CONTINUOUS
 62
     7
100
AcDbLine
 10
-312.0
 20
359.0
 30
0.0
 11
-312.0
 21
373.0
 31
0.0
  0
LINE
  5
6A
100
AcDbEntity
  8
0
  6
CONTINUOUS
 62
     7
100
AcDbLine
 10
-325.55124
 20
373.0
 30
0.0
 11
-325.55124
 21
376.0
 31
0.0
  0
LINE
  5
6B
100
AcDbEntity
  8
0
  6
CONTINUOUS
 62
     7
100
AcDbLine
 10
-325.55124
 20
356.0
 30
0.0
 11
-325.55124
 21
359.0
 31
0.0
  0
LINE
  5
6C
100
AcDbEntity
  8
0
  6
CONTINUOUS
 62
     7
100
AcDbLine
 10
-320.39992
 20
353.9
 30
0.0
 11
-320.39992
 21
359.0
 31
0.0
  0
LINE
  5
6D
100
AcDbEntity
  8
0
  6
CONTINUOUS
 62
     7
100
AcDbLine
 10
-314.59992
 20
353.9
 30
0.0
 11
-314.59992
 21
359.0
 31
0.0
  0
LINE
  5
6E
100
AcDbEntity
  8
0
  6
CONTINUOUS
 62
     7
100
AcDbLine
 10
-309.4486
 20
356.0
 30
0.0
 11
-300.5514
 21
356.0
 31
0.0
  0
LINE
  5
6F
100
AcDbEntity
  8
0
  6
CONTINUOUS
 62
     7
100
AcDbLine
 10
-312.49992
 20
359.0
 30
0.0
 11
-312.49992
 21
373.0
 31
0.0
  0
LINE
  5
70
100
AcDbEntity
  8
0
  6
CONTINUOUS
 62
     7
100
AcDbLine
 10
-309.4486
 20
376.0
 30
0.0
 11
-309.4486
 21
379.0
 31
0.0
  0
LINE
  5
71
100
AcDbEntity
  8
0
  6
CONTINUOUS
 62
     7
100
AcDbLine
 10
-314.59992
 20
373.0
 30
0.0
 11
-300.5514
 21
373.0
 31
0.0
  0
LINE
  5
72
100
AcDbEntity
  8
0
  6
CONTINUOUS
 62
     7
100
AcDbLine
 10
-314.59992
 20
359.0
 30
0.0
 11
-300.5514
 21
359.0
 31
0.0
  0
LINE
  5
73
100
AcDbEntity
  8
0
  6
CONTINUOUS
 62
     7
100
AcDbLine
 10
-309.4486
 20
376.0
 30
0.0
 11
-300.5514
 21
376.0
 31
0.0
  0
LINE
  5
74
100
AcDbEntity
  8
0
  6
CENTER
 62
     7
100
AcDbLine
 10
-322.4
 20
375.25
 30
0.0
 11
-312.6
 21
375.25
 31
0.0
  0
LINE
  5
75
100
AcDbEntity
  8
0
  6
CONTINUOUS
 62
     7
100
AcDbLine
 10
-309.4486
 20
353.0
 30
0.0
 11
-309.4486
 21
356.0
 31
0.0
  0
LINE
  5
76
100
AcDbEntity
  8
0
  6
CONTINUOUS
 62
     7
100
AcDbLine
 10
-320.39992
 20
373.0
 30
0.0
 11
-320.39992
 21
378.1
 31
0.0
  0
LINE
  5
77
100
AcDbEntity
  8
0
  6
CONTINUOUS
 62
     7
100
AcDbLine
 10
-314.59992
 20
373.0
 30
0.0
 11
-314.59992
 21
378.1
 31
0.0
  0
LINE
  5
78
100
AcDbEntity
  8
0
  6
CONTINUOUS
 62
     7
100
AcDbLine
 10
-322.49992
 20
359.0
 30
0.0
 11
-322.49992
 21
373.0
 31
0.0
  0
LINE
  5
79
100
AcDbEntity
  8
0
  6
CENTER
 62
     7
100
AcDbLine
 10
-322.4
 20
356.75
 30
0.0
 11
-312.6
 21
356.75
 31
0.0
  0
LINE
  5
7A
100
AcDbEntity
  8
0
  6
CONTINUOUS
 62
     7
100
AcDbLine
 10
-320.39992
 20
378.1
 30
0.0
 11
-314.59992
 21
378.1
 31
0.0
  0
LINE
  5
7B
100
AcDbEntity
  8
0
  6
CONTINUOUS
 62
     7
100
AcDbLine
 10
-320.39992
 20
353.9
 30
0.0
 11
-314.59992
 21
353.9
 31
0.0
  0
LINE
  5
7C
100
AcDbEntity
  8
0
  6
CONTINUOUS
 62
     7
100
AcDbLine
 10
-320.39992
 20
377.5
 30
0.0
 11
-314.59992
 21
377.5
 31
0.0
  0
LINE
  5
7D
100
AcDbEntity
  8
0
  6
CONTINUOUS
 62
     7
100
AcDbLine
 10
-320.39992
 20
354.5
 30
0.0
 11
-314.59992
 21
354.5
 31
0.0
  0
LINE
  5
7E
100
AcDbEntity
  8
0
  6
CONTINUOUS
 62
     7
100
AcDbLine
 10
-325.55124
 20
373.0
 30
0.0
 11
-320.4
 21
373.0
 31
0.0
  0
LINE
  5
7F
100
AcDbEntity
  8
0
  6
CONTINUOUS
 62
     7
100
AcDbLine
 10
-325.55124
 20
359.0
 30
0.0
 11
-320.4
 21
359.0
 31
0.0
  0
LINE
  5
80
100
AcDbEntity
  8
0
  6
CONTINUOUS
 62
     7
100
AcDbLine
 10
-334.44868
 20
376.0
 30
0.0
 11
-325.55124
 21
376.0
 31
0.0
  0
LINE
  5
81
100
AcDbEntity
  8
0
  6
CONTINUOUS
 62
     7
100
AcDbLine
 10
-334.44868
 20
356.0
 30
0.0
 11
-325.55124
 21
356.0
 31
0.0
  0
LINE
  5
82
100
AcDbEntity
  8
0
  6
CENTER
 62
     7
100
AcDbLine
 10
-305.0
 20
346.0
 30
0.0
 11
-305.0
 21
386.0
 31
0.0
  0
LINE
  5
83
100
AcDbEntity
  8
0
  6
CONTINUOUS
 62
     7
100
AcDbLine
 10
-334.44868
 20
353.0
 30
0.0
 11
-309.4486
 21
353.0
 31
0.0
  0
LINE
  5
84
100
AcDbEntity
  8
0
  6
CENTER
 62
     7
100
AcDbLine
 10
-330.0
 20
346.0
 30
0.0
 11
-330.0
 21
386.0
 31
0.0
  0
LINE
  5
85
100
AcDbEntity
  8
0
  6
CENTER
 62
     7
100
AcDbLine
 10
-346.99992
 20
366.0
 30
0.0
 11
-293.5514
 21
366.0
 31
0.0
  0
LINE
  5
86
100
AcDbEntity
  8
0
  6
CONTINUOUS
 62
     7
100
AcDbLine
 10
-334.44868
 20
379.0
 30
0.0
 11
-309.4486
 21
379.0
 31
0.0
  0
POINT
  5
87
100
AcDbEntity
  8
0
  6
CONTINUOUS
 62
     7
100
AcDbPoint
 10
-305.0
 20
316.0
 30
0.0
  0
POINT
  5
88
100
AcDbEntity
  8
0
  6
CONTINUOUS
 62
     7
100
AcDbPoint
 10
-291.96
 20
316.0
 30
0.0
  0
LINE
  5
89
100
AcDbEntity
  8
0
  6
CONTINUOUS
 62
     7
100
AcDbLine
 10
-330.0
 20
326.0
 30
0.0
 11
-305.0
 21
326.0
 31
0.0
  0
LINE
  5
8A
100
AcDbEntity
  8
0
  6
CONTINUOUS
 62
     7
100
AcDbLine
 10
-330.0
 20
306.0
 30
0.0
 11
-305.0
 21
306.0
 31
0.0
  0
LINE
  5
8B
100
AcDbEntity
  8
0
  6
CONTINUOUS
 62
     7
100
AcDbLine
 10
-311.35085
 20
306.0
 30
0.0
 11
-314.09327
 21
310.75
 31
0.0
  0
LINE
  5
8C
100
AcDbEntity
  8
0
  6
CONTINUOUS
 62
     7
100
AcDbLine
 10
-307.0
 20
318.87228
 30
0.0
 11
-307.0
 21
313.12772
 31
0.0
  0
LINE
  5
8D
100
AcDbEntity
  8
0
  6
CENTER
 62
     7
100
AcDbLine
 10
-305.0
 20
329.04
 30
0.0
 11
-305.0
 21
302.96
 31
0.0
  0
LINE
  5
8E
100
AcDbEntity
  8
0
  6
CENTER
 62
     7
100
AcDbLine
 10
-318.04
 20
316.0
 30
0.0
 11
-291.96
 21
316.0
 31
0.0
  0
LINE
  5
8F
100
AcDbEntity
  8
0
  6
CENTER
 62
     7
100
AcDbLine
 10
-330.0
 20
328.54
 30
0.0
 11
-330.0
 21
303.46
 31
0.0
  0
LINE
  5
90
100
AcDbEntity
  8
0
  6
CENTER
 62
     7
100
AcDbLine
 10
-342.54
 20
316.0
 30
0.0
 11
-317.46
 21
316.0
 31
0.0
  0
ARC
  5
91
100
AcDbEntity
  8
0
  6
CONTINUOUS
 62
     7
100
AcDbCircle
 10
-309.74868
 20
325.7
 30
0.0
 40
0.3
100
AcDbArc
 50
296.08429
 51
90.000003
  0
ARC
  5
92
100
AcDbEntity
  8
0
  6
CONTINUOUS
 62
     7
100
AcDbCircle
 10
-330.0
 20
316.0
 30
0.0
 40
10.0
100
AcDbArc
 50
90.000003
 51
270.0
  0
ARC
  5
93
100
AcDbEntity
  8
0
  6
CONTINUOUS
 62
     7
100
AcDbCircle
 10
-305.0
 20
316.0
 30
0.0
 40
10.5
100
AcDbArc
 50
116.0843
 51
210.0
  0
CIRCLE
  5
94
100
AcDbEntity
  8
0
  6
CONTINUOUS
 62
     7
100
AcDbCircle
 10
-305.0
 20
316.0
 30
0.0
 40
3.5
  0
POINT
  5
95
100
AcDbEntity
  8
0
  6
CONTINUOUS
 62
     7
100
AcDbPoint
 10
-305.0
 20
266.0
 30
0.0
  0
POINT
  5
96
100
AcDbEntity
  8
0
  6
CONTINUOUS
 62
     7
100
AcDbPoint
 10
-291.64915
 20
266.0
 30
0.0
  0
LINE
  5
97
100
AcDbEntity
  8
0
  6
CONTINUOUS
 62
     7
100
AcDbLine
 10
-323.0
 20
273.0
 30
0.0
 11
-323.0
 21
259.0
 31
0.0
  0
LINE
  5
98
100
AcDbEntity
  8
0
  6
CONTINUOUS
 62
     7
100
AcDbLine
 10
-311.35085
 20
256.0
 30
0.0
 11
-311.35085
 21
253.0
 31
0.0
  0
LINE
  5
99
100
AcDbEntity
  8
0
  6
CONTINUOUS
 62
     7
100
AcDbLine
 10
-312.0
 20
273.0
 30
0.0
 11
-312.0
 21
259.0
 31
0.0
  0
LINE
  5
9A
100
AcDbEntity
  8
0
  6
CONTINUOUS
 62
     7
100
AcDbLine
 10
-323.64915
 20
259.0
 30
0.0
 11
-323.0
 21
259.0
 31
0.0
  0
LINE
  5
9B
100
AcDbEntity
  8
0
  6
CONTINUOUS
 62
     7
100
AcDbLine
 10
-336.35085
 20
276.0
 30
0.0
 11
-323.64915
 21
276.0
 31
0.0
  0
LINE
  5
9C
100
AcDbEntity
  8
0
  6
CENTER
 62
     7
100
AcDbLine
 10
-330.0
 20
286.0
 30
0.0
 11
-330.0
 21
246.0
 31
0.0
  0
LINE
  5
9D
100
AcDbEntity
  8
0
  6
CONTINUOUS
 62
     7
100
AcDbLine
 10
-323.64915
 20
273.0
 30
0.0
 11
-323.0
 21
273.0
 31
0.0
  0
LINE
  5
9E
100
AcDbEntity
  8
0
  6
CONTINUOUS
 62
     7
100
AcDbLine
 10
-336.35085
 20
256.0
 30
0.0
 11
-323.64915
 21
256.0
 31
0.0
  0
LINE
  5
9F
100
AcDbEntity
  8
0
  6
CENTER
 62
     7
100
AcDbLine
 10
-305.0
 20
286.0
 30
0.0
 11
-305.0
 21
246.0
 31
0.0
  0
LINE
  5
A0
100
AcDbEntity
  8
0
  6
CONTINUOUS
 62
     7
100
AcDbLine
 10
-336.35085
 20
279.0
 30
0.0
 11
-311.35085
 21
279.0
 31
0.0
  0
LINE
  5
A1
100
AcDbEntity
  8
0
  6
CENTER
 62
     7
100
AcDbLine
 10
-343.35085
 20
266.0
 30
0.0
 11
-291.64915
 21
266.0
 31
0.0
  0
LINE
  5
A2
100
AcDbEntity
  8
0
  6
CONTINUOUS
 62
     7
100
AcDbLine
 10
-336.35085
 20
253.0
 30
0.0
 11
-311.35085
 21
253.0
 31
0.0
  0
LINE
  5
A3
100
AcDbEntity
  8
0
  6
CONTINUOUS
 62
     7
100
AcDbLine
 10
-311.35085
 20
256.0
 30
0.0
 11
-298.64915
 21
256.0
 31
0.0
  0
LINE
  5
A4
100
AcDbEntity
  8
0
  6
CONTINUOUS
 62
     7
100
AcDbLine
 10
-312.0
 20
273.0
 30
0.0
 11
-298.64915
 21
273.0
 31
0.0
  0
LINE
  5
A5
100
AcDbEntity
  8
0
  6
CONTINUOUS
 62
     7
100
AcDbLine
 10
-312.0
 20
259.0
 30
0.0
 11
-298.64915
 21
259.0
 31
0.0
  0
LINE
  5
A6
100
AcDbEntity
  8
0
  6
CONTINUOUS
 62
     7
100
AcDbLine
 10
-311.35085
 20
276.0
 30
0.0
 11
-298.64915
 21
276.0
 31
0.0
  0
LINE
  5
A7
100
AcDbEntity
  8
0
  6
CONTINUOUS
 62
     7
100
AcDbLine
 10
-311.35085
 20
279.0
 30
0.0
 11
-311.35085
 21
276.0
 31
0.0
  0
LINE
  5
A8
100
AcDbEntity
  8
0
  6
CONTINUOUS
 62
     7
100
AcDbLine
 10
-323.64915
 20
259.0
 30
0.0
 11
-323.64915
 21
256.0
 31
0.0
  0
LINE
  5
A9
100
AcDbEntity
  8
0
  6
CONTINUOUS
 62
     7
100
AcDbLine
 10
-323.64915
 20
276.0
 30
0.0
 11
-323.64915
 21
273.0
 31
0.0
  0
POINT
  5
AA
100
AcDbEntity
  8
0
  6
CONTINUOUS
 62
     7
100
AcDbPoint
 10
-305.0
 20
161.0
 30
0.0
  0
POINT
  5
AB
100
AcDbEntity
  8
0
  6
CONTINUOUS
 62
     7
100
AcDbPoint
 10
-291.42953
 20
161.0
 30
0.0
  0
LINE
  5
AC
100
AcDbEntity
  8
0
  6
CONTINUOUS
 62
     7
100
AcDbLine
 10
-323.64915
 20
151.0
 30
0.0
 11
-323.64915
 21
148.0
 31
0.0
  0
LINE
  5
AD
100
AcDbEntity
  8
0
  6
CONTINUOUS
 62
     7
100
AcDbLine
 10
-312.0
 20
154.0
 30
0.0
 11
-312.0
 21
168.0
 31
0.0
  0
LINE
  5
AE
100
AcDbEntity
  8
0
  6
CONTINUOUS
 62
     7
100
AcDbLine
 10
-311.35085
 20
171.0
 30
0.0
 11
-311.35085
 21
168.0
 31
0.0
  0
LINE
  5
AF
100
AcDbEntity
  8
0
  6
CENTER
 62
     7
100
AcDbLine
 10
-330.0
 20
141.0
 30
0.0
 11
-330.0
 21
181.0
 31
0.0
  0
LINE
  5
B0
100
AcDbEntity
  8
0
  6
CONTINUOUS
 62
     7
100
AcDbLine
 10
-298.42953
 20
151.0
 30
0.0
 11
-311.35085
 21
151.0
 31
0.0
  0
LINE
  5
B1
100
AcDbEntity
  8
0
  6
CONTINUOUS
 62
     7
100
AcDbLine
 10
-311.35085
 20
168.0
 30
0.0
 11
-312.0
 21
168.0
 31
0.0
  0
LINE
  5
B2
100
AcDbEntity
  8
0
  6
CONTINUOUS
 62
     7
100
AcDbLine
 10
-298.42953
 20
148.0
 30
0.0
 11
-323.64915
 21
148.0
 31
0.0
  0
LINE
  5
B3
100
AcDbEntity
  8
0
  6
CENTER
 62
     7
100
AcDbLine
 10
-305.0
 20
141.0
 30
0.0
 11
-305.0
 21
181.0
 31
0.0
  0
LINE
  5
B4
100
AcDbEntity
  8
0
  6
CONTINUOUS
 62
     7
100
AcDbLine
 10
-298.42953
 20
171.0
 30
0.0
 11
-311.35085
 21
171.0
 31
0.0
  0
LINE
  5
B5
100
AcDbEntity
  8
0
  6
CONTINUOUS
 62
     7
100
AcDbLine
 10
-311.35085
 20
154.0
 30
0.0
 11
-312.0
 21
154.0
 31
0.0
  0
LINE
  5
B6
100
AcDbEntity
  8
0
  6
CENTER
 62
     7
100
AcDbLine
 10
-291.42953
 20
161.0
 30
0.0
 11
-343.35085
 21
161.0
 31
0.0
  0
LINE
  5
B7
100
AcDbEntity
  8
0
  6
CONTINUOUS
 62
     7
100
AcDbLine
 10
-298.42953
 20
174.0
 30
0.0
 11
-323.64915
 21
174.0
 31
0.0
  0
LINE
  5
B8
100
AcDbEntity
  8
0
  6
CONTINUOUS
 62
     7
100
AcDbLine
 10
-323.64915
 20
171.0
 30
0.0
 11
-336.35085
 21
171.0
 31
0.0
  0
LINE
  5
B9
100
AcDbEntity
  8
0
  6
CONTINUOUS
 62
     7
100
AcDbLine
 10
-323.0
 20
154.0
 30
0.0
 11
-336.35085
 21
154.0
 31
0.0
  0
LINE
  5
BA
100
AcDbEntity
  8
0
  6
CONTINUOUS
 62
     7
100
AcDbLine
 10
-323.0
 20
168.0
 30
0.0
 11
-336.35085
 21
168.0
 31
0.0
  0
LINE
  5
BB
100
AcDbEntity
  8
0
  6
CONTINUOUS
 62
     7
100
AcDbLine
 10
-311.35085
 20
154.0
 30
0.0
 11
-311.35085
 21
151.0
 31
0.0
  0
LINE
  5
BC
100
AcDbEntity
  8
0
  6
CONTINUOUS
 62
     7
100
AcDbLine
 10
-323.64915
 20
151.0
 30
0.0
 11
-336.35085
 21
151.0
 31
0.0
  0
LINE
  5
BD
100
AcDbEntity
  8
0
  6
CONTINUOUS
 62
     7
100
AcDbLine
 10
-323.0
 20
154.0
 30
0.0
 11
-323.0
 21
168.0
 31
0.0
  0
LINE
  5
BE
100
AcDbEntity
  8
0
  6
CONTINUOUS
 62
     7
100
AcDbLine
 10
-323.64915
 20
174.0
 30
0.0
 11
-323.64915
 21
171.0
 31
0.0
  0
POINT
  5
BF
100
AcDbEntity
  8
0
  6
CONTINUOUS
 62
     7
100
AcDbPoint
 10
-305.0
 20
111.0
 30
0.0
  0
POINT
  5
C0
100
AcDbEntity
  8
0
  6
CONTINUOUS
 62
     7
100
AcDbPoint
 10
-292.46
 20
111.0
 30
0.0
  0
LINE
  5
C1
100
AcDbEntity
  8
0
  6
CONTINUOUS
 62
     7
100
AcDbLine
 10
-320.90673
 20
116.25
 30
0.0
 11
-323.64915
 21
121.0
 31
0.0
  0
LINE
  5
C2
100
AcDbEntity
  8
0
  6
CONTINUOUS
 62
     7
100
AcDbLine
 10
-328.0
 20
108.12772
 30
0.0
 11
-328.0
 21
113.87228
 31
0.0
  0
LINE
  5
C3
100
AcDbEntity
  8
0
  6
CONTINUOUS
 62
     7
100
AcDbLine
 10
-305.0
 20
121.0
 30
0.0
 11
-330.0
 21
121.0
 31
0.0
  0
LINE
  5
C4
100
AcDbEntity
  8
0
  6
CONTINUOUS
 62
     7
100
AcDbLine
 10
-305.0
 20
101.0
 30
0.0
 11
-330.0
 21
101.0
 31
0.0
  0
LINE
  5
C5
100
AcDbEntity
  8
0
  6
CENTER
 62
     7
100
AcDbLine
 10
-305.0
 20
123.54
 30
0.0
 11
-305.0
 21
98.46
 31
0.0
  0
LINE
  5
C6
100
AcDbEntity
  8
0
  6
CENTER
 62
     7
100
AcDbLine
 10
-317.54
 20
111.0
 30
0.0
 11
-292.46
 21
111.0
 31
0.0
  0
LINE
  5
C7
100
AcDbEntity
  8
0
  6
CENTER
 62
     7
100
AcDbLine
 10
-330.0
 20
124.04
 30
0.0
 11
-330.0
 21
97.96
 31
0.0
  0
LINE
  5
C8
100
AcDbEntity
  8
0
  6
CENTER
 62
     7
100
AcDbLine
 10
-343.04
 20
111.0
 30
0.0
 11
-316.96
 21
111.0
 31
0.0
  0
ARC
  5
C9
100
AcDbEntity
  8
0
  6
CONTINUOUS
 62
     7
100
AcDbCircle
 10
-305.0
 20
111.0
 30
0.0
 40
10.0
100
AcDbArc
 50
270.0
 51
90.000003
  0
CIRCLE
  5
CA
100
AcDbEntity
  8
0
  6
CONTINUOUS
 62
     7
100
AcDbCircle
 10
-330.0
 20
111.0
 30
0.0
 40
3.5
  0
ARC
  5
CB
100
AcDbEntity
  8
0
  6
CONTINUOUS
 62
     7
100
AcDbCircle
 10
-330.0
 20
111.0
 30
0.0
 40
10.5
100
AcDbArc
 50
296.08429
 51
30.000001
  0
ARC
  5
CC
100
AcDbEntity
  8
0
  6
CONTINUOUS
 62
     7
100
AcDbCircle
 10
-325.25132
 20
101.3
 30
0.0
 40
0.3
100
AcDbArc
 50
116.0843
 51
270.0
  0
POINT
  5
CD
100
AcDbEntity
  8
0
  6
CONTINUOUS
 62
     7
100
AcDbPoint
 10
-305.0
 20
61.0
 30
0.0
  0
POINT
  5
CE
100
AcDbEntity
  8
0
  6
CONTINUOUS
 62
     7
100
AcDbPoint
 10
-293.55132
 20
61.0
 30
0.0
  0
LINE
  5
CF
100
AcDbEntity
  8
0
  6
CENTER
 62
     7
100
AcDbLine
 10
-293.55132
 20
61.0
 30
0.0
 11
-341.44868
 21
61.0
 31
0.0
  0
LINE
  5
D0
100
AcDbEntity
  8
0
  6
CONTINUOUS
 62
     7
100
AcDbLine
 10
-300.55132
 20
74.0
 30
0.0
 11
-325.55132
 21
74.0
 31
0.0
  0
LINE
  5
D1
100
AcDbEntity
  8
0
  6
CENTER
 62
     7
100
AcDbLine
 10
-305.0
 20
41.0
 30
0.0
 11
-305.0
 21
81.0
 31
0.0
  0
LINE
  5
D2
100
AcDbEntity
  8
0
  6
CONTINUOUS
 62
     7
100
AcDbLine
 10
-300.55132
 20
48.0
 30
0.0
 11
-325.55132
 21
48.0
 31
0.0
  0
LINE
  5
D3
100
AcDbEntity
  8
0
  6
CENTER
 62
     7
100
AcDbLine
 10
-330.0
 20
41.0
 30
0.0
 11
-330.0
 21
81.0
 31
0.0
  0
LINE
  5
D4
100
AcDbEntity
  8
0
  6
CONTINUOUS
 62
     7
100
AcDbLine
 10
-300.55132
 20
51.0
 30
0.0
 11
-309.44868
 21
51.0
 31
0.0
  0
LINE
  5
D5
100
AcDbEntity
  8
0
  6
CONTINUOUS
 62
     7
100
AcDbLine
 10
-300.55132
 20
71.0
 30
0.0
 11
-309.44868
 21
71.0
 31
0.0
  0
LINE
  5
D6
100
AcDbEntity
  8
0
  6
CONTINUOUS
 62
     7
100
AcDbLine
 10
-309.44868
 20
54.0
 30
0.0
 11
-314.6
 21
54.0
 31
0.0
  0
LINE
  5
D7
100
AcDbEntity
  8
0
  6
CONTINUOUS
 62
     7
100
AcDbLine
 10
-309.44868
 20
68.0
 30
0.0
 11
-314.6
 21
68.0
 31
0.0
  0
LINE
  5
D8
100
AcDbEntity
  8
0
  6
CONTINUOUS
 62
     7
100
AcDbLine
 10
-314.6
 20
49.5
 30
0.0
 11
-320.4
 21
49.5
 31
0.0
  0
LINE
  5
D9
100
AcDbEntity
  8
0
  6
CONTINUOUS
 62
     7
100
AcDbLine
 10
-314.6
 20
72.5
 30
0.0
 11
-320.4
 21
72.5
 31
0.0
  0
LINE
  5
DA
100
AcDbEntity
  8
0
  6
CONTINUOUS
 62
     7
100
AcDbLine
 10
-314.6
 20
48.9
 30
0.0
 11
-320.4
 21
48.9
 31
0.0
  0
LINE
  5
DB
100
AcDbEntity
  8
0
  6
CONTINUOUS
 62
     7
100
AcDbLine
 10
-314.6
 20
73.1
 30
0.0
 11
-320.4
 21
73.1
 31
0.0
  0
LINE
  5
DC
100
AcDbEntity
  8
0
  6
CENTER
 62
     7
100
AcDbLine
 10
-312.6
 20
51.75
 30
0.0
 11
-322.4
 21
51.75
 31
0.0
  0
LINE
  5
DD
100
AcDbEntity
  8
0
  6
CONTINUOUS
 62
     7
100
AcDbLine
 10
-320.4
 20
48.9
 30
0.0
 11
-320.4
 21
54.0
 31
0.0
  0
LINE
  5
DE
100
AcDbEntity
  8
0
  6
CONTINUOUS
 62
     7
100
AcDbLine
 10
-314.6
 20
48.9
 30
0.0
 11
-314.6
 21
54.0
 31
0.0
  0
LINE
  5
DF
100
AcDbEntity
  8
0
  6
CONTINUOUS
 62
     7
100
AcDbLine
 10
-314.6
 20
68.0
 30
0.0
 11
-314.6
 21
73.1
 31
0.0
  0
LINE
  5
E0
100
AcDbEntity
  8
0
  6
CONTINUOUS
 62
     7
100
AcDbLine
 10
-320.4
 20
68.0
 30
0.0
 11
-320.4
 21
73.1
 31
0.0
  0
LINE
  5
E1
100
AcDbEntity
  8
0
  6
CENTER
 62
     7
100
AcDbLine
 10
-312.6
 20
70.25
 30
0.0
 11
-322.4
 21
70.25
 31
0.0
  0
LINE
  5
E2
100
AcDbEntity
  8
0
  6
CONTINUOUS
 62
     7
100
AcDbLine
 10
-325.55132
 20
71.0
 30
0.0
 11
-334.44868
 21
71.0
 31
0.0
  0
LINE
  5
E3
100
AcDbEntity
  8
0
  6
CONTINUOUS
 62
     7
100
AcDbLine
 10
-320.4
 20
54.0
 30
0.0
 11
-334.44868
 21
54.0
 31
0.0
  0
LINE
  5
E4
100
AcDbEntity
  8
0
  6
CONTINUOUS
 62
     7
100
AcDbLine
 10
-320.4
 20
68.0
 30
0.0
 11
-334.44868
 21
68.0
 31
0.0
  0
LINE
  5
E5
100
AcDbEntity
  8
0
  6
CONTINUOUS
 62
     7
100
AcDbLine
 10
-312.5
 20
54.0
 30
0.0
 11
-312.5
 21
68.0
 31
0.0
  0
LINE
  5
E6
100
AcDbEntity
  8
0
  6
CONTINUOUS
 62
     7
100
AcDbLine
 10
-322.5
 20
54.0
 30
0.0
 11
-322.5
 21
68.0
 31
0.0
  0
LINE
  5
E7
100
AcDbEntity
  8
0
  6
CONTINUOUS
 62
     7
100
AcDbLine
 10
-325.55132
 20
51.0
 30
0.0
 11
-325.55132
 21
48.0
 31
0.0
  0
LINE
  5
E8
100
AcDbEntity
  8
0
  6
CONTINUOUS
 62
     7
100
AcDbLine
 10
-325.55132
 20
51.0
 30
0.0
 11
-334.44868
 21
51.0
 31
0.0
  0
LINE
  5
E9
100
AcDbEntity
  8
0
  6
CONTINUOUS
 62
     7
100
AcDbLine
 10
-325.55132
 20
74.0
 30
0.0
 11
-325.55132
 21
71.0
 31
0.0
  0
LINE
  5
EA
100
AcDbEntity
  8
0
  6
CONTINUOUS
 62
     7
100
AcDbLine
 10
-309.44868
 20
54.0
 30
0.0
 11
-309.44868
 21
51.0
 31
0.0
  0
LINE
  5
EB
100
AcDbEntity
  8
0
  6
CONTINUOUS
 62
     7
100
AcDbLine
 10
-309.44868
 20
71.0
 30
0.0
 11
-309.44868
 21
68.0
 31
0.0
  0
LINE
  5
EC
100
AcDbEntity
  8
0
  6
CONTINUOUS
 62
     7
100
AcDbLine
 10
-323.0
 20
54.0
 30
0.0
 11
-323.0
 21
68.0
 31
0.0
  0
LINE
  5
ED
100
AcDbEntity
  8
0
  6
CONTINUOUS
 62
     7
100
AcDbLine
 10
-312.0
 20
54.0
 30
0.0
 11
-312.0
 21
68.0
 31
0.0
  0
POINT
  5
EE
100
AcDbEntity
  8
0
  6
CONTINUOUS
 62
     7
100
AcDbPoint
 10
-205.0
 20
361.10001
 30
0.0
  0
POINT
  5
EF
100
AcDbEntity
  8
0
  6
CONTINUOUS
 62
     7
100
AcDbPoint
 10
-195.0
 20
361.10001
 30
0.0
  0
LINE
  5
F0
100
AcDbEntity
  8
0
  6
CONTINUOUS
 62
     7
100
AcDbLine
 10
-224.44868
 20
379.00001
 30
0.0
 11
-224.44868
 21
375.70001
 31
0.0
  0
LINE
  5
F1
100
AcDbEntity
  8
0
  6
CONTINUOUS
 62
     7
100
AcDbLine
 10
-249.44868
 20
356.00001
 30
0.0
 11
-240.55132
 21
356.00001
 31
0.0
  0
LINE
  5
F2
100
AcDbEntity
  8
0
  6
CONTINUOUS
 62
     7
100
AcDbLine
 10
-235.4
 20
354.50001
 30
0.0
 11
-229.6
 21
354.50001
 31
0.0
  0
LINE
  5
F3
100
AcDbEntity
  8
0
  6
CONTINUOUS
 62
     7
100
AcDbLine
 10
-235.4
 20
378.10001
 30
0.0
 11
-229.6
 21
378.10001
 31
0.0
  0
LINE
  5
F4
100
AcDbEntity
  8
0
  6
CENTER
 62
     7
100
AcDbLine
 10
-256.44868
 20
366.00001
 30
0.0
 11
-209.79844
 21
366.00001
 31
0.0
  0
LINE
  5
F5
100
AcDbEntity
  8
0
  6
CENTER
 62
     7
100
AcDbLine
 10
-245.0
 20
386.00001
 30
0.0
 11
-245.0
 21
346.00001
 31
0.0
  0
LINE
  5
F6
100
AcDbEntity
  8
0
  6
CONTINUOUS
 62
     7
100
AcDbLine
 10
-249.44868
 20
376.00001
 30
0.0
 11
-240.55132
 21
376.00001
 31
0.0
  0
LINE
  5
F7
100
AcDbEntity
  8
0
  6
CONTINUOUS
 62
     7
100
AcDbLine
 10
-249.44868
 20
353.00001
 30
0.0
 11
-224.44868
 21
353.00001
 31
0.0
  0
LINE
  5
F8
100
AcDbEntity
  8
0
  6
CENTER
 62
     7
100
AcDbLine
 10
-220.0
 20
386.00001
 30
0.0
 11
-220.0
 21
346.00001
 31
0.0
  0
LINE
  5
F9
100
AcDbEntity
  8
0
  6
CONTINUOUS
 62
     7
100
AcDbLine
 10
-240.55132
 20
359.00001
 30
0.0
 11
-235.4
 21
359.00001
 31
0.0
  0
LINE
  5
FA
100
AcDbEntity
  8
0
  6
CONTINUOUS
 62
     7
100
AcDbLine
 10
-249.44868
 20
379.00001
 30
0.0
 11
-224.44868
 21
379.00001
 31
0.0
  0
LINE
  5
FB
100
AcDbEntity
  8
0
  6
CONTINUOUS
 62
     7
100
AcDbLine
 10
-240.55132
 20
373.00001
 30
0.0
 11
-235.4
 21
373.00001
 31
0.0
  0
LINE
  5
FC
100
AcDbEntity
  8
0
  6
CONTINUOUS
 62
     7
100
AcDbLine
 10
-235.4
 20
377.50001
 30
0.0
 11
-229.6
 21
377.50001
 31
0.0
  0
LINE
  5
FD
100
AcDbEntity
  8
0
  6
CONTINUOUS
 62
     7
100
AcDbLine
 10
-235.4
 20
353.90001
 30
0.0
 11
-229.6
 21
353.90001
 31
0.0
  0
LINE
  5
FE
100
AcDbEntity
  8
0
  6
CENTER
 62
     7
100
AcDbLine
 10
-237.4
 20
375.25001
 30
0.0
 11
-227.6
 21
375.25001
 31
0.0
  0
LINE
  5
FF
100
AcDbEntity
  8
0
  6
CONTINUOUS
 62
     7
100
AcDbLine
 10
-229.6
 20
378.10001
 30
0.0
 11
-229.6
 21
373.00001
 31
0.0
  0
LINE
  5
100
100
AcDbEntity
  8
0
  6
CONTINUOUS
 62
     7
100
AcDbLine
 10
-235.4
 20
378.10001
 30
0.0
 11
-235.4
 21
373.00001
 31
0.0
  0
LINE
  5
101
100
AcDbEntity
  8
0
  6
CONTINUOUS
 62
     7
100
AcDbLine
 10
-235.4
 20
359.00001
 30
0.0
 11
-235.4
 21
353.90001
 31
0.0
  0
LINE
  5
102
100
AcDbEntity
  8
0
  6
CONTINUOUS
 62
     7
100
AcDbLine
 10
-229.6
 20
359.00001
 30
0.0
 11
-229.6
 21
353.90001
 31
0.0
  0
LINE
  5
103
100
AcDbEntity
  8
0
  6
CENTER
 62
     7
100
AcDbLine
 10
-237.4
 20
356.75001
 30
0.0
 11
-227.6
 21
356.75001
 31
0.0
  0
LINE
  5
104
100
AcDbEntity
  8
0
  6
CONTINUOUS
 62
     7
100
AcDbLine
 10
-224.44868
 20
375.70001
 30
0.0
 11
-210.0
 21
375.70001
 31
0.0
  0
LINE
  5
105
100
AcDbEntity
  8
0
  6
CONTINUOUS
 62
     7
100
AcDbLine
 10
-224.44868
 20
355.10001
 30
0.0
 11
-190.0
 21
355.10001
 31
0.0
  0
LINE
  5
106
100
AcDbEntity
  8
0
  6
CONTINUOUS
 62
     7
100
AcDbLine
 10
-229.6
 20
373.00001
 30
0.0
 11
-210.0
 21
373.00001
 31
0.0
  0
LINE
  5
107
100
AcDbEntity
  8
0
  6
CONTINUOUS
 62
     7
100
AcDbLine
 10
-229.6
 20
359.00001
 30
0.0
 11
-210.0
 21
359.00001
 31
0.0
  0
LINE
  5
108
100
AcDbEntity
  8
0
  6
CONTINUOUS
 62
     7
100
AcDbLine
 10
-237.5
 20
373.00001
 30
0.0
 11
-237.5
 21
359.00001
 31
0.0
  0
LINE
  5
109
100
AcDbEntity
  8
0
  6
CONTINUOUS
 62
     7
100
AcDbLine
 10
-227.5
 20
373.00001
 30
0.0
 11
-227.5
 21
359.00001
 31
0.0
  0
LINE
  5
10A
100
AcDbEntity
  8
0
  6
CONTINUOUS
 62
     7
100
AcDbLine
 10
-224.44868
 20
356.30001
 30
0.0
 11
-210.0
 21
356.30001
 31
0.0
  0
LINE
  5
10B
100
AcDbEntity
  8
0
  6
CONTINUOUS
 62
     7
100
AcDbLine
 10
-208.0
 20
365.10001
 30
0.0
 11
-192.0
 21
365.10001
 31
0.0
  0
LINE
  5
10C
100
AcDbEntity
  8
0
  6
CONTINUOUS
 62
     7
100
AcDbLine
 10
-224.44868
 20
356.30001
 30
0.0
 11
-224.44868
 21
353.00001
 31
0.0
  0
LINE
  5
10D
100
AcDbEntity
  8
0
  6
CONTINUOUS
 62
     7
100
AcDbLine
 10
-224.44868
 20
376.90001
 30
0.0
 11
-190.0
 21
376.90001
 31
0.0
  0
LINE
  5
10E
100
AcDbEntity
  8
0
  6
CONTINUOUS
 62
     7
100
AcDbLine
 10
-208.0
 20
366.90001
 30
0.0
 11
-192.0
 21
366.90001
 31
0.0
  0
LINE
  5
10F
100
AcDbEntity
  8
0
  6
CONTINUOUS
 62
     7
100
AcDbLine
 10
-190.0
 20
376.90001
 30
0.0
 11
-190.0
 21
368.90001
 31
0.0
  0
LINE
  5
110
100
AcDbEntity
  8
0
  6
CONTINUOUS
 62
     7
100
AcDbLine
 10
-210.0
 20
376.90001
 30
0.0
 11
-210.0
 21
368.90001
 31
0.0
  0
LINE
  5
111
100
AcDbEntity
  8
0
  6
CONTINUOUS
 62
     7
100
AcDbLine
 10
-190.0
 20
363.10001
 30
0.0
 11
-190.0
 21
355.10001
 31
0.0
  0
LINE
  5
112
100
AcDbEntity
  8
0
  6
CONTINUOUS
 62
     7
100
AcDbLine
 10
-210.0
 20
363.10001
 30
0.0
 11
-210.0
 21
355.10001
 31
0.0
  0
LINE
  5
113
100
AcDbEntity
  8
0
  6
CENTER
 62
     7
100
AcDbLine
 10
-190.75
 20
370.90001
 30
0.0
 11
-199.25
 21
370.90001
 31
0.0
  0
LINE
  5
114
100
AcDbEntity
  8
0
  6
CENTER
 62
     7
100
AcDbLine
 10
-195.0
 20
375.15001
 30
0.0
 11
-195.0
 21
366.65001
 31
0.0
  0
LINE
  5
115
100
AcDbEntity
  8
0
  6
CENTER
 62
     7
100
AcDbLine
 10
-200.75
 20
370.90001
 30
0.0
 11
-209.25
 21
370.90001
 31
0.0
  0
LINE
  5
116
100
AcDbEntity
  8
0
  6
CENTER
 62
     7
100
AcDbLine
 10
-205.0
 20
375.15001
 30
0.0
 11
-205.0
 21
366.65001
 31
0.0
  0
LINE
  5
117
100
AcDbEntity
  8
0
  6
CENTER
 62
     7
100
AcDbLine
 10
-200.75
 20
361.10001
 30
0.0
 11
-209.25
 21
361.10001
 31
0.0
  0
LINE
  5
118
100
AcDbEntity
  8
0
  6
CENTER
 62
     7
100
AcDbLine
 10
-205.0
 20
365.35001
 30
0.0
 11
-205.0
 21
356.85001
 31
0.0
  0
LINE
  5
119
100
AcDbEntity
  8
0
  6
CENTER
 62
     7
100
AcDbLine
 10
-190.75
 20
361.10001
 30
0.0
 11
-199.25
 21
361.10001
 31
0.0
  0
LINE
  5
11A
100
AcDbEntity
  8
0
  6
CENTER
 62
     7
100
AcDbLine
 10
-195.0
 20
365.35001
 30
0.0
 11
-195.0
 21
356.85001
 31
0.0
  0
LINE
  5
11B
100
AcDbEntity
  8
0
  6
CONTINUOUS
 62
     7
100
AcDbLine
 10
-238.0
 20
373.00001
 30
0.0
 11
-238.0
 21
359.00001
 31
0.0
  0
LINE
  5
11C
100
AcDbEntity
  8
0
  6
CONTINUOUS
 62
     7
100
AcDbLine
 10
-240.55132
 20
359.00001
 30
0.0
 11
-240.55132
 21
356.00001
 31
0.0
  0
LINE
  5
11D
100
AcDbEntity
  8
0
  6
CONTINUOUS
 62
     7
100
AcDbLine
 10
-240.55132
 20
376.00001
 30
0.0
 11
-240.55132
 21
373.00001
 31
0.0
  0
LINE
  5
11E
100
AcDbEntity
  8
0
  6
CONTINUOUS
 62
     7
100
AcDbLine
 10
-227.0
 20
373.00001
 30
0.0
 11
-227.0
 21
359.00001
 31
0.0
  0
CIRCLE
  5
11F
100
AcDbEntity
  8
0
  6
CONTINUOUS
 62
     7
100
AcDbCircle
 10
-205.0
 20
361.10001
 30
0.0
 40
2.25
  0
CIRCLE
  5
120
100
AcDbEntity
  8
0
  6
CONTINUOUS
 62
     7
100
AcDbCircle
 10
-195.0
 20
361.10001
 30
0.0
 40
2.25
  0
CIRCLE
  5
121
100
AcDbEntity
  8
0
  6
CONTINUOUS
 62
     7
100
AcDbCircle
 10
-195.0
 20
370.90001
 30
0.0
 40
2.25
  0
CIRCLE
  5
122
100
AcDbEntity
  8
0
  6
CONTINUOUS
 62
     7
100
AcDbCircle
 10
-205.0
 20
370.90001
 30
0.0
 40
2.25
  0
ARC
  5
123
100
AcDbEntity
  8
0
  6
CONTINUOUS
 62
     7
100
AcDbCircle
 10
-192.0
 20
363.10001
 30
0.0
 40
2.0
100
AcDbArc
 50
0.0
 51
90.000003
  0
ARC
  5
124
100
AcDbEntity
  8
0
  6
CONTINUOUS
 62
     7
100
AcDbCircle
 10
-192.0
 20
368.90001
 30
0.0
 40
2.0
100
AcDbArc
 50
270.0
 51
0.0
  0
ARC
  5
125
100
AcDbEntity
  8
0
  6
CONTINUOUS
 62
     7
100
AcDbCircle
 10
-208.0
 20
368.90001
 30
0.0
 40
2.0
100
AcDbArc
 50
179.99999
 51
270.0
  0
ARC
  5
126
100
AcDbEntity
  8
0
  6
CONTINUOUS
 62
     7
100
AcDbCircle
 10
-208.0
 20
363.10001
 30
0.0
 40
2.0
100
AcDbArc
 50
90.000003
 51
180.00001
  0
POINT
  5
127
100
AcDbEntity
  8
0
  6
CONTINUOUS
 62
     7
100
AcDbPoint
 10
-205.0
 20
326.0
 30
0.0
  0
POINT
  5
128
100
AcDbEntity
  8
0
  6
CONTINUOUS
 62
     7
100
AcDbPoint
 10
-195.0
 20
326.0
 30
0.0
  0
LINE
  5
129
100
AcDbEntity
  8
0
  6
CONTINUOUS
 62
     7
100
AcDbLine
 10
-226.35085
 20
306.0
 30
0.0
 11
-229.09327
 21
310.75
 31
0.0
  0
LINE
  5
12A
100
AcDbEntity
  8
0
  6
CONTINUOUS
 62
     7
100
AcDbLine
 10
-222.0
 20
318.87228
 30
0.0
 11
-222.0
 21
313.12772
 31
0.0
  0
LINE
  5
12B
100
AcDbEntity
  8
0
  6
CENTER
 62
     7
100
AcDbLine
 10
-225.5
 20
316.0
 30
0.0
 11
-214.5
 21
316.0
 31
0.0
  0
LINE
  5
12C
100
AcDbEntity
  8
0
  6
CENTER
 62
     7
100
AcDbLine
 10
-220.0
 20
321.5
 30
0.0
 11
-220.0
 21
310.5
 31
0.0
  0
LINE
  5
12D
100
AcDbEntity
  8
0
  6
CENTER
 62
     7
100
AcDbLine
 10
-250.5
 20
316.0
 30
0.0
 11
-239.5
 21
316.0
 31
0.0
  0
LINE
  5
12E
100
AcDbEntity
  8
0
  6
CENTER
 62
     7
100
AcDbLine
 10
-245.0
 20
321.5
 30
0.0
 11
-245.0
 21
310.5
 31
0.0
  0
LINE
  5
12F
100
AcDbEntity
  8
0
  6
CONTINUOUS
 62
     7
100
AcDbLine
 10
-245.0
 20
306.0
 30
0.0
 11
-220.0
 21
306.0
 31
0.0
  0
LINE
  5
130
100
AcDbEntity
  8
0
  6
CONTINUOUS
 62
     7
100
AcDbLine
 10
-245.0
 20
326.0
 30
0.0
 11
-213.0
 21
326.0
 31
0.0
  0
LINE
  5
131
100
AcDbEntity
  8
0
  6
DASHED
 62
     7
100
AcDbLine
 10
-210.0
 20
324.8
 30
0.0
 11
-190.0
 21
324.8
 31
0.0
  0
LINE
  5
132
100
AcDbEntity
  8
0
  6
CENTER
 62
     7
100
AcDbLine
 10
-205.0
 20
331.0
 30
0.0
 11
-205.0
 21
319.8
 31
0.0
  0
LINE
  5
133
100
AcDbEntity
  8
0
  6
CONTINUOUS
 62
     7
100
AcDbLine
 10
-192.73874
 20
318.61155
 30
0.0
 11
-215.47775
 21
307.08055
 31
0.0
  0
LINE
  5
134
100
AcDbEntity
  8
0
  6
CONTINUOUS
 62
     7
100
AcDbLine
 10
-190.0
 20
326.0
 30
0.0
 11
-190.0
 21
323.071
 31
0.0
  0
LINE
  5
135
100
AcDbEntity
  8
0
  6
CONTINUOUS
 62
     7
100
AcDbLine
 10
-225.53998
 20
319.7
 30
0.0
 11
-228.521
 21
319.7
 31
0.0
  0
LINE
  5
136
100
AcDbEntity
  8
0
  6
CONTINUOUS
 62
     7
100
AcDbLine
 10
-226.5
 20
315.8
 30
0.0
 11
-229.47498
 21
315.8
 31
0.0
  0
LINE
  5
137
100
AcDbEntity
  8
0
  6
DASHED
 62
     7
100
AcDbLine
 10
-210.0
 20
326.0
 30
0.0
 11
-210.0
 21
324.8
 31
0.0
  0
LINE
  5
138
100
AcDbEntity
  8
0
  6
CONTINUOUS
 62
     7
100
AcDbLine
 10
-210.0
 20
326.0
 30
0.0
 11
-190.0
 21
326.0
 31
0.0
  0
LINE
  5
139
100
AcDbEntity
  8
0
  6
CENTER
 62
     7
100
AcDbLine
 10
-195.0
 20
331.0
 30
0.0
 11
-195.0
 21
319.8
 31
0.0
  0
ARC
  5
13A
100
AcDbEntity
  8
0
  6
CONTINUOUS
 62
     7
100
AcDbCircle
 10
-245.0
 20
316.0
 30
0.0
 40
10.0
100
AcDbArc
 50
90.000003
 51
270.0
  0
CIRCLE
  5
13B
100
AcDbEntity
  8
0
  6
CONTINUOUS
 62
     7
100
AcDbCircle
 10
-220.0
 20
316.0
 30
0.0
 40
3.5
  0
ARC
  5
13C
100
AcDbEntity
  8
0
  6
CONTINUOUS
 62
     7
100
AcDbCircle
 10
-224.74868
 20
325.7
 30
0.0
 40
0.3
100
AcDbArc
 50
296.08429
 51
90.000003
  0
ARC
  5
13D
100
AcDbEntity
  8
0
  6
CONTINUOUS
 62
     7
100
AcDbCircle
 10
-220.0
 20
316.0
 30
0.0
 40
10.5
100
AcDbArc
 50
116.0843
 51
210.0
  0
ARC
  5
13E
100
AcDbEntity
  8
0
  6
CONTINUOUS
 62
     7
100
AcDbCircle
 10
-220.0
 20
316.0
 30
0.0
 40
6.2
100
AcDbArc
 50
148.46101
 51
179.118
  0
ARC
  5
13F
100
AcDbEntity
  8
0
  6
CONTINUOUS
 62
     7
100
AcDbCircle
 10
-220.0
 20
316.0
 30
0.0
 40
10.0
100
AcDbArc
 50
184.225
 51
296.88546
  0
ARC
  5
140
100
AcDbEntity
  8
0
  6
CONTINUOUS
 62
     7
100
AcDbCircle
 10
-220.0
 20
316.0
 30
0.0
 40
10.0
100
AcDbArc
 50
90.000003
 51
153.761
  0
ARC
  5
141
100
AcDbEntity
  8
0
  6
CONTINUOUS
 62
     7
100
AcDbCircle
 10
-228.521
 20
320.2
 30
0.0
 40
0.5
100
AcDbArc
 50
153.761
 51
270.0
  0
ARC
  5
142
100
AcDbEntity
  8
0
  6
CONTINUOUS
 62
     7
100
AcDbCircle
 10
-226.5
 20
316.10001
 30
0.0
 40
0.3
100
AcDbArc
 50
270.001
 51
359.117
  0
ARC
  5
143
100
AcDbEntity
  8
0
  6
CONTINUOUS
 62
     7
100
AcDbCircle
 10
-225.53998
 20
319.39999
 30
0.0
 40
0.3
100
AcDbArc
 50
328.46
 51
90.004101
  0
ARC
  5
144
100
AcDbEntity
  8
0
  6
CONTINUOUS
 62
     7
100
AcDbCircle
 10
-229.47498
 20
315.3
 30
0.0
 40
0.5
100
AcDbArc
 50
89.998001
 51
184.22599
  0
ARC
  5
145
100
AcDbEntity
  8
0
  6
CONTINUOUS
 62
     7
100
AcDbCircle
 10
-195.0
 20
323.071
 30
0.0
 40
5.0
100
AcDbArc
 50
296.8883
 51
0.0
  0
ARC
  5
146
100
AcDbEntity
  8
0
  6
CONTINUOUS
 62
     7
100
AcDbCircle
 10
-211.5
 20
326.0
 30
0.0
 40
1.5
100
AcDbArc
 50
179.99999
 51
0.00001
  0
POINT
  5
147
100
AcDbEntity
  8
0
  6
CONTINUOUS
 62
     7
100
AcDbPoint
 10
-205.0
 20
270.89999
 30
0.0
  0
POINT
  5
148
100
AcDbEntity
  8
0
  6
CONTINUOUS
 62
     7
100
AcDbPoint
 10
-195.0
 20
270.89999
 30
0.0
  0
LINE
  5
149
100
AcDbEntity
  8
0
  6
CONTINUOUS
 62
     7
100
AcDbLine
 10
-226.35085
 20
275.69999
 30
0.0
 11
-190.0
 21
275.69999
 31
0.0
  0
LINE
  5
14A
100
AcDbEntity
  8
0
  6
CONTINUOUS
 62
     7
100
AcDbLine
 10
-226.35085
 20
276.89999
 30
0.0
 11
-190.0
 21
276.89999
 31
0.0
  0
LINE
  5
14B
100
AcDbEntity
  8
0
  6
CONTINUOUS
 62
     7
100
AcDbLine
 10
-226.35085
 20
255.09999
 30
0.0
 11
-190.0
 21
255.09999
 31
0.0
  0
LINE
  5
14C
100
AcDbEntity
  8
0
  6
CONTINUOUS
 62
     7
100
AcDbLine
 10
-208.0
 20
266.89999
 30
0.0
 11
-192.0
 21
266.89999
 31
0.0
  0
LINE
  5
14D
100
AcDbEntity
  8
0
  6
CONTINUOUS
 62
     7
100
AcDbLine
 10
-226.35085
 20
256.29999
 30
0.0
 11
-190.0
 21
256.29999
 31
0.0
  0
LINE
  5
14E
100
AcDbEntity
  8
0
  6
CONTINUOUS
 62
     7
100
AcDbLine
 10
-208.0
 20
265.09999
 30
0.0
 11
-192.0
 21
265.09999
 31
0.0
  0
LINE
  5
14F
100
AcDbEntity
  8
0
  6
CONTINUOUS
 62
     7
100
AcDbLine
 10
-190.0
 20
263.09999
 30
0.0
 11
-190.0
 21
255.09999
 31
0.0
  0
LINE
  5
150
100
AcDbEntity
  8
0
  6
CONTINUOUS
 62
     7
100
AcDbLine
 10
-210.0
 20
275.69999
 30
0.0
 11
-210.0
 21
268.89999
 31
0.0
  0
LINE
  5
151
100
AcDbEntity
  8
0
  6
CONTINUOUS
 62
     7
100
AcDbLine
 10
-238.64915
 20
258.99999
 30
0.0
 11
-238.0
 21
258.99999
 31
0.0
  0
LINE
  5
152
100
AcDbEntity
  8
0
  6
CONTINUOUS
 62
     7
100
AcDbLine
 10
-251.35085
 20
275.99999
 30
0.0
 11
-238.64915
 21
275.99999
 31
0.0
  0
LINE
  5
153
100
AcDbEntity
  8
0
  6
CENTER
 62
     7
100
AcDbLine
 10
-245.0
 20
285.99999
 30
0.0
 11
-245.0
 21
245.99999
 31
0.0
  0
LINE
  5
154
100
AcDbEntity
  8
0
  6
CONTINUOUS
 62
     7
100
AcDbLine
 10
-238.64915
 20
272.99999
 30
0.0
 11
-238.0
 21
272.99999
 31
0.0
  0
LINE
  5
155
100
AcDbEntity
  8
0
  6
CONTINUOUS
 62
     7
100
AcDbLine
 10
-251.35085
 20
255.99999
 30
0.0
 11
-238.64915
 21
255.99999
 31
0.0
  0
LINE
  5
156
100
AcDbEntity
  8
0
  6
CENTER
 62
     7
100
AcDbLine
 10
-220.0
 20
285.99999
 30
0.0
 11
-220.0
 21
245.99999
 31
0.0
  0
LINE
  5
157
100
AcDbEntity
  8
0
  6
CONTINUOUS
 62
     7
100
AcDbLine
 10
-251.35085
 20
278.99999
 30
0.0
 11
-226.35085
 21
278.99999
 31
0.0
  0
LINE
  5
158
100
AcDbEntity
  8
0
  6
CENTER
 62
     7
100
AcDbLine
 10
-258.35085
 20
265.99999
 30
0.0
 11
-207.38502
 21
265.99999
 31
0.0
  0
LINE
  5
159
100
AcDbEntity
  8
0
  6
CONTINUOUS
 62
     7
100
AcDbLine
 10
-251.35085
 20
252.99999
 30
0.0
 11
-226.35085
 21
252.99999
 31
0.0
  0
LINE
  5
15A
100
AcDbEntity
  8
0
  6
CONTINUOUS
 62
     7
100
AcDbLine
 10
-227.0
 20
272.99999
 30
0.0
 11
-210.0
 21
272.99999
 31
0.0
  0
LINE
  5
15B
100
AcDbEntity
  8
0
  6
CONTINUOUS
 62
     7
100
AcDbLine
 10
-227.0
 20
258.99999
 30
0.0
 11
-210.0
 21
258.99999
 31
0.0
  0
LINE
  5
15C
100
AcDbEntity
  8
0
  6
CONTINUOUS
 62
     7
100
AcDbLine
 10
-227.0
 20
272.99999
 30
0.0
 11
-227.0
 21
258.99999
 31
0.0
  0
LINE
  5
15D
100
AcDbEntity
  8
0
  6
CONTINUOUS
 62
     7
100
AcDbLine
 10
-190.0
 20
276.89999
 30
0.0
 11
-190.0
 21
268.89999
 31
0.0
  0
LINE
  5
15E
100
AcDbEntity
  8
0
  6
CONTINUOUS
 62
     7
100
AcDbLine
 10
-210.0
 20
263.09999
 30
0.0
 11
-210.0
 21
256.29999
 31
0.0
  0
LINE
  5
15F
100
AcDbEntity
  8
0
  6
CENTER
 62
     7
100
AcDbLine
 10
-190.75
 20
270.89999
 30
0.0
 11
-199.25
 21
270.89999
 31
0.0
  0
LINE
  5
160
100
AcDbEntity
  8
0
  6
CENTER
 62
     7
100
AcDbLine
 10
-195.0
 20
275.14999
 30
0.0
 11
-195.0
 21
266.64999
 31
0.0
  0
LINE
  5
161
100
AcDbEntity
  8
0
  6
CENTER
 62
     7
100
AcDbLine
 10
-200.75
 20
270.89999
 30
0.0
 11
-209.25
 21
270.89999
 31
0.0
  0
LINE
  5
162
100
AcDbEntity
  8
0
  6
CENTER
 62
     7
100
AcDbLine
 10
-205.0
 20
274.19383
 30
0.0
 11
-205.0
 21
266.64999
 31
0.0
  0
LINE
  5
163
100
AcDbEntity
  8
0
  6
CENTER
 62
     7
100
AcDbLine
 10
-200.75
 20
261.09999
 30
0.0
 11
-209.25
 21
261.09999
 31
0.0
  0
LINE
  5
164
100
AcDbEntity
  8
0
  6
CENTER
 62
     7
100
AcDbLine
 10
-205.0
 20
265.34999
 30
0.0
 11
-205.0
 21
256.84999
 31
0.0
  0
LINE
  5
165
100
AcDbEntity
  8
0
  6
CENTER
 62
     7
100
AcDbLine
 10
-190.75
 20
261.09999
 30
0.0
 11
-199.25
 21
261.09999
 31
0.0
  0
LINE
  5
166
100
AcDbEntity
  8
0
  6
CENTER
 62
     7
100
AcDbLine
 10
-195.0
 20
265.34999
 30
0.0
 11
-195.0
 21
256.84999
 31
0.0
  0
LINE
  5
167
100
AcDbEntity
  8
0
  6
CONTINUOUS
 62
     7
100
AcDbLine
 10
-226.35085
 20
256.29999
 30
0.0
 11
-226.35085
 21
252.99999
 31
0.0
  0
LINE
  5
168
100
AcDbEntity
  8
0
  6
CONTINUOUS
 62
     7
100
AcDbLine
 10
-226.35085
 20
278.99999
 30
0.0
 11
-226.35085
 21
275.69999
 31
0.0
  0
LINE
  5
169
100
AcDbEntity
  8
0
  6
CONTINUOUS
 62
     7
100
AcDbLine
 10
-238.0
 20
272.99999
 30
0.0
 11
-238.0
 21
258.99999
 31
0.0
  0
LINE
  5
16A
100
AcDbEntity
  8
0
  6
CONTINUOUS
 62
     7
100
AcDbLine
 10
-238.64915
 20
275.99999
 30
0.0
 11
-238.64915
 21
272.99999
 31
0.0
  0
LINE
  5
16B
100
AcDbEntity
  8
0
  6
CONTINUOUS
 62
     7
100
AcDbLine
 10
-238.64915
 20
258.99999
 30
0.0
 11
-238.64915
 21
255.99999
 31
0.0
  0
CIRCLE
  5
16C
100
AcDbEntity
  8
0
  6
CONTINUOUS
 62
     7
100
AcDbCircle
 10
-205.0
 20
261.09999
 30
0.0
 40
2.25
  0
CIRCLE
  5
16D
100
AcDbEntity
  8
0
  6
CONTINUOUS
 62
     7
100
AcDbCircle
 10
-195.0
 20
261.09999
 30
0.0
 40
2.25
  0
CIRCLE
  5
16E
100
AcDbEntity
  8
0
  6
CONTINUOUS
 62
     7
100
AcDbCircle
 10
-195.0
 20
270.89999
 30
0.0
 40
2.25
  0
CIRCLE
  5
16F
100
AcDbEntity
  8
0
  6
CONTINUOUS
 62
     7
100
AcDbCircle
 10
-205.0
 20
270.89999
 30
0.0
 40
2.25
  0
ARC
  5
170
100
AcDbEntity
  8
0
  6
CONTINUOUS
 62
     7
100
AcDbCircle
 10
-192.0
 20
263.09999
 30
0.0
 40
2.0
100
AcDbArc
 50
0.0
 51
90.000003
  0
ARC
  5
171
100
AcDbEntity
  8
0
  6
CONTINUOUS
 62
     7
100
AcDbCircle
 10
-192.0
 20
268.89999
 30
0.0
 40
2.0
100
AcDbArc
 50
270.0
 51
0.0
  0
ARC
  5
172
100
AcDbEntity
  8
0
  6
CONTINUOUS
 62
     7
100
AcDbCircle
 10
-208.0
 20
268.89999
 30
0.0
 40
2.0
100
AcDbArc
 50
179.99999
 51
270.0
  0
ARC
  5
173
100
AcDbEntity
  8
0
  6
CONTINUOUS
 62
     7
100
AcDbCircle
 10
-208.0
 20
263.09999
 30
0.0
 40
2.0
100
AcDbArc
 50
90.000003
 51
180.00001
  0
POINT
  5
174
100
AcDbEntity
  8
0
  6
CONTINUOUS
 62
     7
100
AcDbPoint
 10
-155.0
 20
326.0
 30
0.0
  0
POINT
  5
175
100
AcDbEntity
  8
0
  6
CONTINUOUS
 62
     7
100
AcDbPoint
 10
-145.2
 20
326.0
 30
0.0
  0
LINE
  5
176
100
AcDbEntity
  8
0
  6
CONTINUOUS
 62
     7
100
AcDbLine
 10
-157.1
 20
309.0
 30
0.0
 11
-143.1
 21
309.0
 31
0.0
  0
LINE
  5
177
100
AcDbEntity
  8
0
  6
CENTER
 62
     7
100
AcDbLine
 10
-150.1
 20
333.0
 30
0.0
 11
-150.1
 21
299.0
 31
0.0
  0
LINE
  5
178
100
AcDbEntity
  8
0
  6
CONTINUOUS
 62
     7
100
AcDbLine
 10
-163.1
 20
326.0
 30
0.0
 11
-163.1
 21
306.0
 31
0.0
  0
LINE
  5
179
100
AcDbEntity
  8
0
  6
CONTINUOUS
 62
     7
100
AcDbLine
 10
-137.1
 20
326.0
 30
0.0
 11
-137.1
 21
306.0
 31
0.0
  0
LINE
  5
17A
100
AcDbEntity
  8
0
  6
CENTER
 62
     7
100
AcDbLine
 10
-170.1
 20
316.0
 30
0.0
 11
-130.1
 21
316.0
 31
0.0
  0
LINE
  5
17B
100
AcDbEntity
  8
0
  6
CENTER
 62
     7
100
AcDbLine
 10
-155.0
 20
331.0
 30
0.0
 11
-155.0
 21
321.0
 31
0.0
  0
LINE
  5
17C
100
AcDbEntity
  8
0
  6
CONTINUOUS
 62
     7
100
AcDbLine
 10
-159.8
 20
324.8
 30
0.0
 11
-159.8
 21
306.0
 31
0.0
  0
LINE
  5
17D
100
AcDbEntity
  8
0
  6
CONTINUOUS
 62
     7
100
AcDbLine
 10
-151.0
 20
326.0
 30
0.0
 11
-151.0
 21
324.8
 31
0.0
  0
LINE
  5
17E
100
AcDbEntity
  8
0
  6
CONTINUOUS
 62
     7
100
AcDbLine
 10
-143.1
 20
324.8
 30
0.0
 11
-143.1
 21
306.0
 31
0.0
  0
LINE
  5
17F
100
AcDbEntity
  8
0
  6
CONTINUOUS
 62
     7
100
AcDbLine
 10
-157.1
 20
324.8
 30
0.0
 11
-157.1
 21
306.0
 31
0.0
  0
LINE
  5
180
100
AcDbEntity
  8
0
  6
CONTINUOUS
 62
     7
100
AcDbLine
 10
-163.1
 20
326.0
 30
0.0
 11
-151.0
 21
326.0
 31
0.0
  0
LINE
  5
181
100
AcDbEntity
  8
0
  6
CONTINUOUS
 62
     7
100
AcDbLine
 10
-163.1
 20
306.0
 30
0.0
 11
-137.1
 21
306.0
 31
0.0
  0
LINE
  5
182
100
AcDbEntity
  8
0
  6
CONTINUOUS
 62
     7
100
AcDbLine
 10
-149.2
 20
326.0
 30
0.0
 11
-149.2
 21
324.8
 31
0.0
  0
LINE
  5
183
100
AcDbEntity
  8
0
  6
CONTINUOUS
 62
     7
100
AcDbLine
 10
-149.2
 20
326.0
 30
0.0
 11
-137.1
 21
326.0
 31
0.0
  0
LINE
  5
184
100
AcDbEntity
  8
0
  6
CONTINUOUS
 62
     7
100
AcDbLine
 10
-139.2
 20
326.0
 30
0.0
 11
-139.2
 21
306.0
 31
0.0
  0
LINE
  5
185
100
AcDbEntity
  8
0
  6
CONTINUOUS
 62
     7
100
AcDbLine
 10
-161.0
 20
326.0
 30
0.0
 11
-161.0
 21
306.0
 31
0.0
  0
LINE
  5
186
100
AcDbEntity
  8
0
  6
CONTINUOUS
 62
     7
100
AcDbLine
 10
-159.8
 20
324.8
 30
0.0
 11
-151.0
 21
324.8
 31
0.0
  0
LINE
  5
187
100
AcDbEntity
  8
0
  6
CONTINUOUS
 62
     7
100
AcDbLine
 10
-149.2
 20
324.8
 30
0.0
 11
-140.4
 21
324.8
 31
0.0
  0
LINE
  5
188
100
AcDbEntity
  8
0
  6
CENTER
 62
     7
100
AcDbLine
 10
-145.2
 20
331.0
 30
0.0
 11
-145.2
 21
321.0
 31
0.0
  0
LINE
  5
189
100
AcDbEntity
  8
0
  6
CONTINUOUS
 62
     7
100
AcDbLine
 10
-140.4
 20
324.8
 30
0.0
 11
-140.4
 21
306.0
 31
0.0
  0
LINE
  5
18A
100
AcDbEntity
  8
0
  6
CONTINUOUS
 62
     7
100
AcDbLine
 10
-151.0
 20
325.7
 30
0.0
 11
-149.2
 21
325.7
 31
0.0
  0
LINE
  5
18B
100
AcDbEntity
  8
0
  6
CONTINUOUS
 62
     7
100
AcDbLine
 10
-157.1
 20
323.0
 30
0.0
 11
-143.1
 21
323.0
 31
0.0
  0
POINT
  5
18C
100
AcDbEntity
  8
0
  6
CONTINUOUS
 62
     7
100
AcDbPoint
 10
-55.0
 20
361.10001
 30
0.0
  0
POINT
  5
18D
100
AcDbEntity
  8
0
  6
CONTINUOUS
 62
     7
100
AcDbPoint
 10
-45.0
 20
361.10001
 30
0.0
  0
LINE
  5
18E
100
AcDbEntity
  8
0
  6
CONTINUOUS
 62
     7
100
AcDbLine
 10
-99.448685
 20
376.00001
 30
0.0
 11
-90.551315
 21
376.00001
 31
0.0
  0
LINE
  5
18F
100
AcDbEntity
  8
0
  6
CENTER
 62
     7
100
AcDbLine
 10
-95.0
 20
386.00001
 30
0.0
 11
-95.0
 21
346.00001
 31
0.0
  0
LINE
  5
190
100
AcDbEntity
  8
0
  6
CENTER
 62
     7
100
AcDbLine
 10
-106.44868
 20
366.00001
 30
0.0
 11
-59.798438
 21
366.00001
 31
0.0
  0
LINE
  5
191
100
AcDbEntity
  8
0
  6
CONTINUOUS
 62
     7
100
AcDbLine
 10
-85.4
 20
378.10001
 30
0.0
 11
-79.6
 21
378.10001
 31
0.0
  0
LINE
  5
192
100
AcDbEntity
  8
0
  6
CONTINUOUS
 62
     7
100
AcDbLine
 10
-85.4
 20
354.50001
 30
0.0
 11
-79.6
 21
354.50001
 31
0.0
  0
LINE
  5
193
100
AcDbEntity
  8
0
  6
CONTINUOUS
 62
     7
100
AcDbLine
 10
-99.448685
 20
356.00001
 30
0.0
 11
-90.551315
 21
356.00001
 31
0.0
  0
LINE
  5
194
100
AcDbEntity
  8
0
  6
CONTINUOUS
 62
     7
100
AcDbLine
 10
-99.448685
 20
353.00001
 30
0.0
 11
-74.448685
 21
353.00001
 31
0.0
  0
LINE
  5
195
100
AcDbEntity
  8
0
  6
CENTER
 62
     7
100
AcDbLine
 10
-70.0
 20
386.00001
 30
0.0
 11
-70.0
 21
346.00001
 31
0.0
  0
LINE
  5
196
100
AcDbEntity
  8
0
  6
CONTINUOUS
 62
     7
100
AcDbLine
 10
-90.551315
 20
359.00001
 30
0.0
 11
-85.4
 21
359.00001
 31
0.0
  0
LINE
  5
197
100
AcDbEntity
  8
0
  6
CONTINUOUS
 62
     7
100
AcDbLine
 10
-99.448685
 20
379.00001
 30
0.0
 11
-74.448685
 21
379.00001
 31
0.0
  0
LINE
  5
198
100
AcDbEntity
  8
0
  6
CONTINUOUS
 62
     7
100
AcDbLine
 10
-90.551315
 20
373.00001
 30
0.0
 11
-85.4
 21
373.00001
 31
0.0
  0
LINE
  5
199
100
AcDbEntity
  8
0
  6
CONTINUOUS
 62
     7
100
AcDbLine
 10
-85.4
 20
377.50001
 30
0.0
 11
-79.6
 21
377.50001
 31
0.0
  0
LINE
  5
19A
100
AcDbEntity
  8
0
  6
CONTINUOUS
 62
     7
100
AcDbLine
 10
-85.4
 20
353.90001
 30
0.0
 11
-79.6
 21
353.90001
 31
0.0
  0
LINE
  5
19B
100
AcDbEntity
  8
0
  6
CENTER
 62
     7
100
AcDbLine
 10
-87.400002
 20
375.25001
 30
0.0
 11
-77.6
 21
375.25001
 31
0.0
  0
LINE
  5
19C
100
AcDbEntity
  8
0
  6
CONTINUOUS
 62
     7
100
AcDbLine
 10
-79.6
 20
378.10001
 30
0.0
 11
-79.6
 21
373.00001
 31
0.0
  0
LINE
  5
19D
100
AcDbEntity
  8
0
  6
CONTINUOUS
 62
     7
100
AcDbLine
 10
-85.4
 20
378.10001
 30
0.0
 11
-85.4
 21
373.00001
 31
0.0
  0
LINE
  5
19E
100
AcDbEntity
  8
0
  6
CONTINUOUS
 62
     7
100
AcDbLine
 10
-85.4
 20
359.00001
 30
0.0
 11
-85.4
 21
353.90001
 31
0.0
  0
LINE
  5
19F
100
AcDbEntity
  8
0
  6
CONTINUOUS
 62
     7
100
AcDbLine
 10
-79.6
 20
359.00001
 30
0.0
 11
-79.6
 21
353.90001
 31
0.0
  0
LINE
  5
1A0
100
AcDbEntity
  8
0
  6
CENTER
 62
     7
100
AcDbLine
 10
-87.400002
 20
356.75001
 30
0.0
 11
-77.6
 21
356.75001
 31
0.0
  0
LINE
  5
1A1
100
AcDbEntity
  8
0
  6
CONTINUOUS
 62
     7
100
AcDbLine
 10
-74.448685
 20
375.70001
 30
0.0
 11
-40.0
 21
375.70001
 31
0.0
  0
LINE
  5
1A2
100
AcDbEntity
  8
0
  6
CONTINUOUS
 62
     7
100
AcDbLine
 10
-74.448685
 20
355.10001
 30
0.0
 11
-40.0
 21
355.10001
 31
0.0
  0
LINE
  5
1A3
100
AcDbEntity
  8
0
  6
CONTINUOUS
 62
     7
100
AcDbLine
 10
-79.6
 20
373.00001
 30
0.0
 11
-60.0
 21
373.00001
 31
0.0
  0
LINE
  5
1A4
100
AcDbEntity
  8
0
  6
CONTINUOUS
 62
     7
100
AcDbLine
 10
-79.6
 20
359.00001
 30
0.0
 11
-60.0
 21
359.00001
 31
0.0
  0
LINE
  5
1A5
100
AcDbEntity
  8
0
  6
CONTINUOUS
 62
     7
100
AcDbLine
 10
-87.5
 20
373.00001
 30
0.0
 11
-87.5
 21
359.00001
 31
0.0
  0
LINE
  5
1A6
100
AcDbEntity
  8
0
  6
CONTINUOUS
 62
     7
100
AcDbLine
 10
-77.5
 20
373.00001
 30
0.0
 11
-77.5
 21
359.00001
 31
0.0
  0
LINE
  5
1A7
100
AcDbEntity
  8
0
  6
CONTINUOUS
 62
     7
100
AcDbLine
 10
-74.448685
 20
356.30001
 30
0.0
 11
-40.0
 21
356.30001
 31
0.0
  0
LINE
  5
1A8
100
AcDbEntity
  8
0
  6
CONTINUOUS
 62
     7
100
AcDbLine
 10
-58.0
 20
365.10001
 30
0.0
 11
-42.0
 21
365.10001
 31
0.0
  0
LINE
  5
1A9
100
AcDbEntity
  8
0
  6
CONTINUOUS
 62
     7
100
AcDbLine
 10
-74.448685
 20
356.30001
 30
0.0
 11
-74.448685
 21
353.00001
 31
0.0
  0
LINE
  5
1AA
100
AcDbEntity
  8
0
  6
CONTINUOUS
 62
     7
100
AcDbLine
 10
-74.448685
 20
376.90001
 30
0.0
 11
-40.0
 21
376.90001
 31
0.0
  0
LINE
  5
1AB
100
AcDbEntity
  8
0
  6
CONTINUOUS
 62
     7
100
AcDbLine
 10
-58.0
 20
366.90001
 30
0.0
 11
-42.0
 21
366.90001
 31
0.0
  0
LINE
  5
1AC
100
AcDbEntity
  8
0
  6
CONTINUOUS
 62
     7
100
AcDbLine
 10
-40.0
 20
376.90001
 30
0.0
 11
-40.0
 21
368.90001
 31
0.0
  0
LINE
  5
1AD
100
AcDbEntity
  8
0
  6
CONTINUOUS
 62
     7
100
AcDbLine
 10
-60.0
 20
375.70001
 30
0.0
 11
-60.0
 21
368.90001
 31
0.0
  0
LINE
  5
1AE
100
AcDbEntity
  8
0
  6
CONTINUOUS
 62
     7
100
AcDbLine
 10
-40.0
 20
363.10001
 30
0.0
 11
-40.0
 21
355.10001
 31
0.0
  0
LINE
  5
1AF
100
AcDbEntity
  8
0
  6
CONTINUOUS
 62
     7
100
AcDbLine
 10
-60.0
 20
363.10001
 30
0.0
 11
-60.0
 21
356.30001
 31
0.0
  0
LINE
  5
1B0
100
AcDbEntity
  8
0
  6
CENTER
 62
     7
100
AcDbLine
 10
-40.75
 20
370.90001
 30
0.0
 11
-49.25
 21
370.90001
 31
0.0
  0
LINE
  5
1B1
100
AcDbEntity
  8
0
  6
CENTER
 62
     7
100
AcDbLine
 10
-45.0
 20
375.15001
 30
0.0
 11
-45.0
 21
366.65001
 31
0.0
  0
LINE
  5
1B2
100
AcDbEntity
  8
0
  6
CENTER
 62
     7
100
AcDbLine
 10
-50.75
 20
370.90001
 30
0.0
 11
-59.873993
 21
370.90001
 31
0.0
  0
LINE
  5
1B3
100
AcDbEntity
  8
0
  6
CENTER
 62
     7
100
AcDbLine
 10
-55.0
 20
375.15001
 30
0.0
 11
-55.0
 21
366.65001
 31
0.0
  0
LINE
  5
1B4
100
AcDbEntity
  8
0
  6
CENTER
 62
     7
100
AcDbLine
 10
-50.75
 20
361.10001
 30
0.0
 11
-59.25
 21
361.10001
 31
0.0
  0
LINE
  5
1B5
100
AcDbEntity
  8
0
  6
CENTER
 62
     7
100
AcDbLine
 10
-55.0
 20
365.35001
 30
0.0
 11
-55.0
 21
356.85001
 31
0.0
  0
LINE
  5
1B6
100
AcDbEntity
  8
0
  6
CENTER
 62
     7
100
AcDbLine
 10
-40.75
 20
361.10001
 30
0.0
 11
-49.25
 21
361.10001
 31
0.0
  0
LINE
  5
1B7
100
AcDbEntity
  8
0
  6
CENTER
 62
     7
100
AcDbLine
 10
-45.0
 20
365.35001
 30
0.0
 11
-45.0
 21
356.85001
 31
0.0
  0
LINE
  5
1B8
100
AcDbEntity
  8
0
  6
CONTINUOUS
 62
     7
100
AcDbLine
 10
-90.551315
 20
359.00001
 30
0.0
 11
-90.551315
 21
356.00001
 31
0.0
  0
LINE
  5
1B9
100
AcDbEntity
  8
0
  6
CONTINUOUS
 62
     7
100
AcDbLine
 10
-90.551315
 20
376.00001
 30
0.0
 11
-90.551315
 21
373.00001
 31
0.0
  0
LINE
  5
1BA
100
AcDbEntity
  8
0
  6
CONTINUOUS
 62
     7
100
AcDbLine
 10
-77.0
 20
373.00001
 30
0.0
 11
-77.0
 21
359.00001
 31
0.0
  0
LINE
  5
1BB
100
AcDbEntity
  8
0
  6
CONTINUOUS
 62
     7
100
AcDbLine
 10
-74.448685
 20
379.00001
 30
0.0
 11
-74.448685
 21
375.70001
 31
0.0
  0
LINE
  5
1BC
100
AcDbEntity
  8
0
  6
CONTINUOUS
 62
     7
100
AcDbLine
 10
-88.0
 20
373.00001
 30
0.0
 11
-88.0
 21
359.00001
 31
0.0
  0
CIRCLE
  5
1BD
100
AcDbEntity
  8
0
  6
CONTINUOUS
 62
     7
100
AcDbCircle
 10
-55.0
 20
361.10001
 30
0.0
 40
2.25
  0
CIRCLE
  5
1BE
100
AcDbEntity
  8
0
  6
CONTINUOUS
 62
     7
100
AcDbCircle
 10
-45.0
 20
361.10001
 30
0.0
 40
2.25
  0
CIRCLE
  5
1BF
100
AcDbEntity
  8
0
  6
CONTINUOUS
 62
     7
100
AcDbCircle
 10
-45.0
 20
370.90001
 30
0.0
 40
2.25
  0
CIRCLE
  5
1C0
100
AcDbEntity
  8
0
  6
CONTINUOUS
 62
     7
100
AcDbCircle
 10
-55.0
 20
370.90001
 30
0.0
 40
2.25
  0
ARC
  5
1C1
100
AcDbEntity
  8
0
  6
CONTINUOUS
 62
     7
100
AcDbCircle
 10
-42.0
 20
363.10001
 30
0.0
 40
2.0
100
AcDbArc
 50
0.0
 51
90.000003
  0
ARC
  5
1C2
100
AcDbEntity
  8
0
  6
CONTINUOUS
 62
     7
100
AcDbCircle
 10
-42.0
 20
368.90001
 30
0.0
 40
2.0
100
AcDbArc
 50
270.0
 51
0.0
  0
ARC
  5
1C3
100
AcDbEntity
  8
0
  6
CONTINUOUS
 62
     7
100
AcDbCircle
 10
-58.0
 20
368.90001
 30
0.0
 40
2.0
100
AcDbArc
 50
179.99999
 51
270.0
  0
ARC
  5
1C4
100
AcDbEntity
  8
0
  6
CONTINUOUS
 62
     7
100
AcDbCircle
 10
-58.0
 20
363.10001
 30
0.0
 40
2.0
100
AcDbArc
 50
90.000003
 51
180.00001
  0
POINT
  5
1C5
100
AcDbEntity
  8
0
  6
CONTINUOUS
 62
     7
100
AcDbPoint
 10
-55.0
 20
306.0
 30
0.0
  0
POINT
  5
1C6
100
AcDbEntity
  8
0
  6
CONTINUOUS
 62
     7
100
AcDbPoint
 10
-45.0
 20
306.0
 30
0.0
  0
LINE
  5
1C7
100
AcDbEntity
  8
0
  6
CONTINUOUS
 62
     7
100
AcDbLine
 10
-76.350853
 20
306.0
 30
0.0
 11
-79.093267
 21
310.75
 31
0.0
  0
LINE
  5
1C8
100
AcDbEntity
  8
0
  6
CONTINUOUS
 62
     7
100
AcDbLine
 10
-72.0
 20
318.87228
 30
0.0
 11
-72.0
 21
313.12772
 31
0.0
  0
LINE
  5
1C9
100
AcDbEntity
  8
0
  6
CENTER
 62
     7
100
AcDbLine
 10
-75.5
 20
316.0
 30
0.0
 11
-64.5
 21
316.0
 31
0.0
  0
LINE
  5
1CA
100
AcDbEntity
  8
0
  6
CENTER
 62
     7
100
AcDbLine
 10
-70.0
 20
321.5
 30
0.0
 11
-70.0
 21
310.5
 31
0.0
  0
LINE
  5
1CB
100
AcDbEntity
  8
0
  6
CENTER
 62
     7
100
AcDbLine
 10
-100.5
 20
316.0
 30
0.0
 11
-89.5
 21
316.0
 31
0.0
  0
LINE
  5
1CC
100
AcDbEntity
  8
0
  6
CENTER
 62
     7
100
AcDbLine
 10
-95.0
 20
321.5
 30
0.0
 11
-95.0
 21
310.5
 31
0.0
  0
LINE
  5
1CD
100
AcDbEntity
  8
0
  6
CONTINUOUS
 62
     7
100
AcDbLine
 10
-95.0
 20
306.0
 30
0.0
 11
-63.0
 21
306.0
 31
0.0
  0
LINE
  5
1CE
100
AcDbEntity
  8
0
  6
CONTINUOUS
 62
     7
100
AcDbLine
 10
-95.0
 20
326.0
 30
0.0
 11
-70.0
 21
326.0
 31
0.0
  0
LINE
  5
1CF
100
AcDbEntity
  8
0
  6
DASHED
 62
     7
100
AcDbLine
 10
-60.0
 20
307.2
 30
0.0
 11
-40.0
 21
307.2
 31
0.0
  0
LINE
  5
1D0
100
AcDbEntity
  8
0
  6
CENTER
 62
     7
100
AcDbLine
 10
-55.0
 20
301.0
 30
0.0
 11
-55.0
 21
312.2
 31
0.0
  0
LINE
  5
1D1
100
AcDbEntity
  8
0
  6
CONTINUOUS
 62
     7
100
AcDbLine
 10
-42.738737
 20
313.38845
 30
0.0
 11
-65.477749
 21
324.91945
 31
0.0
  0
LINE
  5
1D2
100
AcDbEntity
  8
0
  6
CONTINUOUS
 62
     7
100
AcDbLine
 10
-40.0
 20
306.0
 30
0.0
 11
-40.0
 21
308.929
 31
0.0
  0
LINE
  5
1D3
100
AcDbEntity
  8
0
  6
CONTINUOUS
 62
     7
100
AcDbLine
 10
-75.539978
 20
319.7
 30
0.0
 11
-78.520996
 21
319.7
 31
0.0
  0
LINE
  5
1D4
100
AcDbEntity
  8
0
  6
CONTINUOUS
 62
     7
100
AcDbLine
 10
-76.5
 20
315.8
 30
0.0
 11
-79.474976
 21
315.8
 31
0.0
  0
LINE
  5
1D5
100
AcDbEntity
  8
0
  6
DASHED
 62
     7
100
AcDbLine
 10
-60.0
 20
306.0
 30
0.0
 11
-60.0
 21
307.2
 31
0.0
  0
LINE
  5
1D6
100
AcDbEntity
  8
0
  6
CONTINUOUS
 62
     7
100
AcDbLine
 10
-60.0
 20
306.0
 30
0.0
 11
-40.0
 21
306.0
 31
0.0
  0
LINE
  5
1D7
100
AcDbEntity
  8
0
  6
CENTER
 62
     7
100
AcDbLine
 10
-45.0
 20
301.0
 30
0.0
 11
-45.0
 21
312.2
 31
0.0
  0
ARC
  5
1D8
100
AcDbEntity
  8
0
  6
CONTINUOUS
 62
     7
100
AcDbCircle
 10
-95.0
 20
316.0
 30
0.0
 40
10.0
100
AcDbArc
 50
90.000003
 51
270.0
  0
CIRCLE
  5
1D9
100
AcDbEntity
  8
0
  6
CONTINUOUS
 62
     7
100
AcDbCircle
 10
-70.0
 20
316.0
 30
0.0
 40
3.5
  0
ARC
  5
1DA
100
AcDbEntity
  8
0
  6
CONTINUOUS
 62
     7
100
AcDbCircle
 10
-70.0
 20
316.0
 30
0.0
 40
10.5
100
AcDbArc
 50
116.0843
 51
210.0
  0
ARC
  5
1DB
100
AcDbEntity
  8
0
  6
CONTINUOUS
 62
     7
100
AcDbCircle
 10
-70.0
 20
316.0
 30
0.0
 40
6.2
100
AcDbArc
 50
148.46101
 51
179.118
  0
ARC
  5
1DC
100
AcDbEntity
  8
0
  6
CONTINUOUS
 62
     7
100
AcDbCircle
 10
-70.0
 20
316.0
 30
0.0
 40
10.0
100
AcDbArc
 50
184.225
 51
270.0
  0
ARC
  5
1DD
100
AcDbEntity
  8
0
  6
CONTINUOUS
 62
     7
100
AcDbCircle
 10
-70.0
 20
316.0
 30
0.0
 40
10.0
100
AcDbArc
 50
63.110326
 51
153.761
  0
ARC
  5
1DE
100
AcDbEntity
  8
0
  6
CONTINUOUS
 62
     7
100
AcDbCircle
 10
-78.520996
 20
320.2
 30
0.0
 40
0.5
100
AcDbArc
 50
153.761
 51
270.0
  0
ARC
  5
1DF
100
AcDbEntity
  8
0
  6
CONTINUOUS
 62
     7
100
AcDbCircle
 10
-76.5
 20
316.10001
 30
0.0
 40
0.3
100
AcDbArc
 50
270.001
 51
359.117
  0
ARC
  5
1E0
100
AcDbEntity
  8
0
  6
CONTINUOUS
 62
     7
100
AcDbCircle
 10
-75.539978
 20
319.39999
 30
0.0
 40
0.3
100
AcDbArc
 50
328.46
 51
90.004101
  0
ARC
  5
1E1
100
AcDbEntity
  8
0
  6
CONTINUOUS
 62
     7
100
AcDbCircle
 10
-79.474976
 20
315.3
 30
0.0
 40
0.5
100
AcDbArc
 50
89.998001
 51
184.22599
  0
ARC
  5
1E2
100
AcDbEntity
  8
0
  6
CONTINUOUS
 62
     7
100
AcDbCircle
 10
-45.0
 20
308.929
 30
0.0
 40
5.0
100
AcDbArc
 50
0.0
 51
63.111699
  0
ARC
  5
1E3
100
AcDbEntity
  8
0
  6
CONTINUOUS
 62
     7
100
AcDbCircle
 10
-61.5
 20
306.0
 30
0.0
 40
1.5
100
AcDbArc
 50
0.0
 51
180.00001
  0
ARC
  5
1E4
100
AcDbEntity
  8
0
  6
CONTINUOUS
 62
     7
100
AcDbCircle
 10
-74.748684
 20
325.7
 30
0.0
 40
0.3
100
AcDbArc
 50
296.08429
 51
90.000003
  0
POINT
  5
1E5
100
AcDbEntity
  8
0
  6
CONTINUOUS
 62
     7
100
AcDbPoint
 10
-55.0
 20
270.89999
 30
0.0
  0
POINT
  5
1E6
100
AcDbEntity
  8
0
  6
CONTINUOUS
 62
     7
100
AcDbPoint
 10
-45.0
 20
270.89999
 30
0.0
  0
LINE
  5
1E7
100
AcDbEntity
  8
0
  6
CONTINUOUS
 62
     7
100
AcDbLine
 10
-88.649147
 20
272.99999
 30
0.0
 11
-88.0
 21
272.99999
 31
0.0
  0
LINE
  5
1E8
100
AcDbEntity
  8
0
  6
CONTINUOUS
 62
     7
100
AcDbLine
 10
-76.350853
 20
278.99999
 30
0.0
 11
-76.350853
 21
275.69999
 31
0.0
  0
LINE
  5
1E9
100
AcDbEntity
  8
0
  6
CONTINUOUS
 62
     7
100
AcDbLine
 10
-76.350853
 20
275.69999
 30
0.0
 11
-60.0
 21
275.69999
 31
0.0
  0
LINE
  5
1EA
100
AcDbEntity
  8
0
  6
CONTINUOUS
 62
     7
100
AcDbLine
 10
-76.350853
 20
256.29999
 30
0.0
 11
-76.350853
 21
252.99999
 31
0.0
  0
LINE
  5
1EB
100
AcDbEntity
  8
0
  6
CONTINUOUS
 62
     7
100
AcDbLine
 10
-76.350853
 20
276.89999
 30
0.0
 11
-40.0
 21
276.89999
 31
0.0
  0
LINE
  5
1EC
100
AcDbEntity
  8
0
  6
CONTINUOUS
 62
     7
100
AcDbLine
 10
-76.350853
 20
255.09999
 30
0.0
 11
-40.0
 21
255.09999
 31
0.0
  0
LINE
  5
1ED
100
AcDbEntity
  8
0
  6
CONTINUOUS
 62
     7
100
AcDbLine
 10
-58.0
 20
266.89999
 30
0.0
 11
-42.0
 21
266.89999
 31
0.0
  0
LINE
  5
1EE
100
AcDbEntity
  8
0
  6
CONTINUOUS
 62
     7
100
AcDbLine
 10
-76.350853
 20
256.29999
 30
0.0
 11
-60.0
 21
256.29999
 31
0.0
  0
LINE
  5
1EF
100
AcDbEntity
  8
0
  6
CONTINUOUS
 62
     7
100
AcDbLine
 10
-58.0
 20
265.09999
 30
0.0
 11
-42.0
 21
265.09999
 31
0.0
  0
LINE
  5
1F0
100
AcDbEntity
  8
0
  6
CONTINUOUS
 62
     7
100
AcDbLine
 10
-40.0
 20
263.09999
 30
0.0
 11
-40.0
 21
255.09999
 31
0.0
  0
LINE
  5
1F1
100
AcDbEntity
  8
0
  6
CONTINUOUS
 62
     7
100
AcDbLine
 10
-60.0
 20
276.89999
 30
0.0
 11
-60.0
 21
268.89999
 31
0.0
  0
LINE
  5
1F2
100
AcDbEntity
  8
0
  6
CONTINUOUS
 62
     7
100
AcDbLine
 10
-88.649147
 20
258.99999
 30
0.0
 11
-88.0
 21
258.99999
 31
0.0
  0
LINE
  5
1F3
100
AcDbEntity
  8
0
  6
CONTINUOUS
 62
     7
100
AcDbLine
 10
-101.35085
 20
275.99999
 30
0.0
 11
-88.649147
 21
275.99999
 31
0.0
  0
LINE
  5
1F4
100
AcDbEntity
  8
0
  6
CENTER
 62
     7
100
AcDbLine
 10
-95.0
 20
285.99999
 30
0.0
 11
-95.0
 21
245.99999
 31
0.0
  0
LINE
  5
1F5
100
AcDbEntity
  8
0
  6
CONTINUOUS
 62
     7
100
AcDbLine
 10
-101.35085
 20
255.99999
 30
0.0
 11
-88.649147
 21
255.99999
 31
0.0
  0
LINE
  5
1F6
100
AcDbEntity
  8
0
  6
CENTER
 62
     7
100
AcDbLine
 10
-70.0
 20
285.99999
 30
0.0
 11
-70.0
 21
245.99999
 31
0.0
  0
LINE
  5
1F7
100
AcDbEntity
  8
0
  6
CONTINUOUS
 62
     7
100
AcDbLine
 10
-101.35085
 20
278.99999
 30
0.0
 11
-76.350853
 21
278.99999
 31
0.0
  0
LINE
  5
1F8
100
AcDbEntity
  8
0
  6
CENTER
 62
     7
100
AcDbLine
 10
-108.35085
 20
265.99999
 30
0.0
 11
-57.385022
 21
265.99999
 31
0.0
  0
LINE
  5
1F9
100
AcDbEntity
  8
0
  6
CONTINUOUS
 62
     7
100
AcDbLine
 10
-101.35085
 20
252.99999
 30
0.0
 11
-76.350853
 21
252.99999
 31
0.0
  0
LINE
  5
1FA
100
AcDbEntity
  8
0
  6
CONTINUOUS
 62
     7
100
AcDbLine
 10
-77.0
 20
272.99999
 30
0.0
 11
-60.0
 21
272.99999
 31
0.0
  0
LINE
  5
1FB
100
AcDbEntity
  8
0
  6
CONTINUOUS
 62
     7
100
AcDbLine
 10
-77.0
 20
258.99999
 30
0.0
 11
-60.0
 21
258.99999
 31
0.0
  0
LINE
  5
1FC
100
AcDbEntity
  8
0
  6
CONTINUOUS
 62
     7
100
AcDbLine
 10
-40.0
 20
276.89999
 30
0.0
 11
-40.0
 21
268.89999
 31
0.0
  0
LINE
  5
1FD
100
AcDbEntity
  8
0
  6
CONTINUOUS
 62
     7
100
AcDbLine
 10
-60.0
 20
263.09999
 30
0.0
 11
-60.0
 21
255.09999
 31
0.0
  0
LINE
  5
1FE
100
AcDbEntity
  8
0
  6
CENTER
 62
     7
100
AcDbLine
 10
-40.75
 20
270.89999
 30
0.0
 11
-49.25
 21
270.89999
 31
0.0
  0
LINE
  5
1FF
100
AcDbEntity
  8
0
  6
CENTER
 62
     7
100
AcDbLine
 10
-45.0
 20
275.14999
 30
0.0
 11
-45.0
 21
266.64999
 31
0.0
  0
LINE
  5
200
100
AcDbEntity
  8
0
  6
CENTER
 62
     7
100
AcDbLine
 10
-50.75
 20
270.89999
 30
0.0
 11
-59.25
 21
270.89999
 31
0.0
  0
LINE
  5
201
100
AcDbEntity
  8
0
  6
CENTER
 62
     7
100
AcDbLine
 10
-55.0
 20
275.14999
 30
0.0
 11
-55.0
 21
266.64999
 31
0.0
  0
LINE
  5
202
100
AcDbEntity
  8
0
  6
CENTER
 62
     7
100
AcDbLine
 10
-50.75
 20
261.09999
 30
0.0
 11
-59.25
 21
261.09999
 31
0.0
  0
LINE
  5
203
100
AcDbEntity
  8
0
  6
CENTER
 62
     7
100
AcDbLine
 10
-55.0
 20
265.34999
 30
0.0
 11
-55.0
 21
256.84999
 31
0.0
  0
LINE
  5
204
100
AcDbEntity
  8
0
  6
CENTER
 62
     7
100
AcDbLine
 10
-40.75
 20
261.09999
 30
0.0
 11
-49.25
 21
261.09999
 31
0.0
  0
LINE
  5
205
100
AcDbEntity
  8
0
  6
CENTER
 62
     7
100
AcDbLine
 10
-45.0
 20
265.34999
 30
0.0
 11
-45.0
 21
256.84999
 31
0.0
  0
LINE
  5
206
100
AcDbEntity
  8
0
  6
CONTINUOUS
 62
     7
100
AcDbLine
 10
-77.0
 20
272.99999
 30
0.0
 11
-77.0
 21
258.99999
 31
0.0
  0
LINE
  5
207
100
AcDbEntity
  8
0
  6
CONTINUOUS
 62
     7
100
AcDbLine
 10
-88.0
 20
272.99999
 30
0.0
 11
-88.0
 21
258.99999
 31
0.0
  0
LINE
  5
208
100
AcDbEntity
  8
0
  6
CONTINUOUS
 62
     7
100
AcDbLine
 10
-88.649147
 20
275.99999
 30
0.0
 11
-88.649147
 21
272.99999
 31
0.0
  0
LINE
  5
209
100
AcDbEntity
  8
0
  6
CONTINUOUS
 62
     7
100
AcDbLine
 10
-88.649147
 20
258.99999
 30
0.0
 11
-88.649147
 21
255.99999
 31
0.0
  0
CIRCLE
  5
20A
100
AcDbEntity
  8
0
  6
CONTINUOUS
 62
     7
100
AcDbCircle
 10
-55.0
 20
261.09999
 30
0.0
 40
2.25
  0
CIRCLE
  5
20B
100
AcDbEntity
  8
0
  6
CONTINUOUS
 62
     7
100
AcDbCircle
 10
-45.0
 20
261.09999
 30
0.0
 40
2.25
  0
CIRCLE
  5
20C
100
AcDbEntity
  8
0
  6
CONTINUOUS
 62
     7
100
AcDbCircle
 10
-45.0
 20
270.89999
 30
0.0
 40
2.25
  0
CIRCLE
  5
20D
100
AcDbEntity
  8
0
  6
CONTINUOUS
 62
     7
100
AcDbCircle
 10
-55.0
 20
270.89999
 30
0.0
 40
2.25
  0
ARC
  5
20E
100
AcDbEntity
  8
0
  6
CONTINUOUS
 62
     7
100
AcDbCircle
 10
-42.0
 20
263.09999
 30
0.0
 40
2.0
100
AcDbArc
 50
0.0
 51
90.000003
  0
ARC
  5
20F
100
AcDbEntity
  8
0
  6
CONTINUOUS
 62
     7
100
AcDbCircle
 10
-42.0
 20
268.89999
 30
0.0
 40
2.0
100
AcDbArc
 50
270.0
 51
0.0
  0
ARC
  5
210
100
AcDbEntity
  8
0
  6
CONTINUOUS
 62
     7
100
AcDbCircle
 10
-58.0
 20
268.89999
 30
0.0
 40
2.0
100
AcDbArc
 50
179.99999
 51
270.0
  0
ARC
  5
211
100
AcDbEntity
  8
0
  6
CONTINUOUS
 62
     7
100
AcDbCircle
 10
-58.0
 20
263.09999
 30
0.0
 40
2.0
100
AcDbArc
 50
90.000003
 51
180.00001
  0
POINT
  5
212
100
AcDbEntity
  8
0
  6
CONTINUOUS
 62
     7
100
AcDbPoint
 10
-5.0
 20
306.0
 30
0.0
  0
POINT
  5
213
100
AcDbEntity
  8
0
  6
CONTINUOUS
 62
     7
100
AcDbPoint
 10
4.8
 20
306.0
 30
0.0
  0
LINE
  5
214
100
AcDbEntity
  8
0
  6
CONTINUOUS
 62
     7
100
AcDbLine
 10
-7.1
 20
309.0
 30
0.0
 11
6.9
 21
309.0
 31
0.0
  0
LINE
  5
215
100
AcDbEntity
  8
0
  6
CENTER
 62
     7
100
AcDbLine
 10
-0.1
 20
333.0
 30
0.0
 11
-0.1
 21
299.0
 31
0.0
  0
LINE
  5
216
100
AcDbEntity
  8
0
  6
CONTINUOUS
 62
     7
100
AcDbLine
 10
-13.1
 20
326.0
 30
0.0
 11
-13.1
 21
306.0
 31
0.0
  0
LINE
  5
217
100
AcDbEntity
  8
0
  6
CONTINUOUS
 62
     7
100
AcDbLine
 10
12.9
 20
326.0
 30
0.0
 11
12.9
 21
306.0
 31
0.0
  0
LINE
  5
218
100
AcDbEntity
  8
0
  6
CENTER
 62
     7
100
AcDbLine
 10
-20.1
 20
316.0
 30
0.0
 11
19.9
 21
316.0
 31
0.0
  0
LINE
  5
219
100
AcDbEntity
  8
0
  6
CENTER
 62
     7
100
AcDbLine
 10
-5.0
 20
301.0
 30
0.0
 11
-5.0
 21
311.0
 31
0.0
  0
LINE
  5
21A
100
AcDbEntity
  8
0
  6
CONTINUOUS
 62
     7
100
AcDbLine
 10
-9.8
 20
307.2
 30
0.0
 11
-9.8
 21
326.0
 31
0.0
  0
LINE
  5
21B
100
AcDbEntity
  8
0
  6
CONTINUOUS
 62
     7
100
AcDbLine
 10
-1.0
 20
306.0
 30
0.0
 11
-1.0
 21
307.2
 31
0.0
  0
LINE
  5
21C
100
AcDbEntity
  8
0
  6
CONTINUOUS
 62
     7
100
AcDbLine
 10
6.9
 20
326.0
 30
0.0
 11
6.9
 21
307.2
 31
0.0
  0
LINE
  5
21D
100
AcDbEntity
  8
0
  6
CONTINUOUS
 62
     7
100
AcDbLine
 10
-7.1
 20
326.0
 30
0.0
 11
-7.1
 21
307.2
 31
0.0
  0
LINE
  5
21E
100
AcDbEntity
  8
0
  6
CONTINUOUS
 62
     7
100
AcDbLine
 10
-13.1
 20
306.0
 30
0.0
 11
12.9
 21
306.0
 31
0.0
  0
LINE
  5
21F
100
AcDbEntity
  8
0
  6
CONTINUOUS
 62
     7
100
AcDbLine
 10
0.8
 20
306.0
 30
0.0
 11
0.8
 21
307.2
 31
0.0
  0
LINE
  5
220
100
AcDbEntity
  8
0
  6
CONTINUOUS
 62
     7
100
AcDbLine
 10
-13.1
 20
326.0
 30
0.0
 11
-7.1
 21
326.0
 31
0.0
  0
LINE
  5
221
100
AcDbEntity
  8
0
  6
CONTINUOUS
 62
     7
100
AcDbLine
 10
10.8
 20
306.0
 30
0.0
 11
10.8
 21
326.0
 31
0.0
  0
LINE
  5
222
100
AcDbEntity
  8
0
  6
CONTINUOUS
 62
     7
100
AcDbLine
 10
-11.0
 20
306.0
 30
0.0
 11
-11.0
 21
326.0
 31
0.0
  0
LINE
  5
223
100
AcDbEntity
  8
0
  6
CONTINUOUS
 62
     7
100
AcDbLine
 10
-9.8
 20
307.2
 30
0.0
 11
-1.0
 21
307.2
 31
0.0
  0
LINE
  5
224
100
AcDbEntity
  8
0
  6
CONTINUOUS
 62
     7
100
AcDbLine
 10
0.8
 20
307.2
 30
0.0
 11
9.6
 21
307.2
 31
0.0
  0
LINE
  5
225
100
AcDbEntity
  8
0
  6
CENTER
 62
     7
100
AcDbLine
 10
4.8
 20
301.0
 30
0.0
 11
4.8
 21
311.0
 31
0.0
  0
LINE
  5
226
100
AcDbEntity
  8
0
  6
CONTINUOUS
 62
     7
100
AcDbLine
 10
9.6
 20
307.2
 30
0.0
 11
9.6
 21
326.0
 31
0.0
  0
LINE
  5
227
100
AcDbEntity
  8
0
  6
CONTINUOUS
 62
     7
100
AcDbLine
 10
-7.1
 20
325.7
 30
0.0
 11
6.9
 21
325.7
 31
0.0
  0
LINE
  5
228
100
AcDbEntity
  8
0
  6
CONTINUOUS
 62
     7
100
AcDbLine
 10
6.9
 20
326.0
 30
0.0
 11
12.9
 21
326.0
 31
0.0
  0
LINE
  5
229
100
AcDbEntity
  8
0
  6
CONTINUOUS
 62
     7
100
AcDbLine
 10
-7.1
 20
323.0
 30
0.0
 11
6.9
 21
323.0
 31
0.0
  0
POINT
  5
22A
100
AcDbEntity
  8
0
  6
CONTINUOUS
 62
     7
100
AcDbPoint
 10
95.0
 20
350.29999
 30
0.0
  0
POINT
  5
22B
100
AcDbEntity
  8
0
  6
CONTINUOUS
 62
     7
100
AcDbPoint
 10
105.0
 20
350.29999
 30
0.0
  0
LINE
  5
22C
100
AcDbEntity
  8
0
  6
CONTINUOUS
 62
     7
100
AcDbLine
 10
50.551315
 20
375.99999
 30
0.0
 11
59.448685
 21
375.99999
 31
0.0
  0
LINE
  5
22D
100
AcDbEntity
  8
0
  6
CENTER
 62
     7
100
AcDbLine
 10
55.0
 20
385.99999
 30
0.0
 11
55.0
 21
345.99999
 31
0.0
  0
LINE
  5
22E
100
AcDbEntity
  8
0
  6
CENTER
 62
     7
100
AcDbLine
 10
43.551315
 20
365.99999
 30
0.0
 11
90.201562
 21
365.99999
 31
0.0
  0
LINE
  5
22F
100
AcDbEntity
  8
0
  6
CONTINUOUS
 62
     7
100
AcDbLine
 10
64.6
 20
378.09999
 30
0.0
 11
70.4
 21
378.09999
 31
0.0
  0
LINE
  5
230
100
AcDbEntity
  8
0
  6
CONTINUOUS
 62
     7
100
AcDbLine
 10
64.6
 20
354.49999
 30
0.0
 11
70.4
 21
354.49999
 31
0.0
  0
LINE
  5
231
100
AcDbEntity
  8
0
  6
CONTINUOUS
 62
     7
100
AcDbLine
 10
50.551315
 20
355.99999
 30
0.0
 11
59.448685
 21
355.99999
 31
0.0
  0
LINE
  5
232
100
AcDbEntity
  8
0
  6
CONTINUOUS
 62
     7
100
AcDbLine
 10
50.551315
 20
352.99999
 30
0.0
 11
75.551315
 21
352.99999
 31
0.0
  0
LINE
  5
233
100
AcDbEntity
  8
0
  6
CENTER
 62
     7
100
AcDbLine
 10
80.0
 20
385.99999
 30
0.0
 11
80.0
 21
345.99999
 31
0.0
  0
LINE
  5
234
100
AcDbEntity
  8
0
  6
CONTINUOUS
 62
     7
100
AcDbLine
 10
59.448685
 20
358.99999
 30
0.0
 11
64.6
 21
358.99999
 31
0.0
  0
LINE
  5
235
100
AcDbEntity
  8
0
  6
CONTINUOUS
 62
     7
100
AcDbLine
 10
50.551315
 20
378.99999
 30
0.0
 11
75.551315
 21
378.99999
 31
0.0
  0
LINE
  5
236
100
AcDbEntity
  8
0
  6
CONTINUOUS
 62
     7
100
AcDbLine
 10
59.448685
 20
372.99999
 30
0.0
 11
64.6
 21
372.99999
 31
0.0
  0
LINE
  5
237
100
AcDbEntity
  8
0
  6
CONTINUOUS
 62
     7
100
AcDbLine
 10
64.6
 20
377.49999
 30
0.0
 11
70.4
 21
377.49999
 31
0.0
  0
LINE
  5
238
100
AcDbEntity
  8
0
  6
CONTINUOUS
 62
     7
100
AcDbLine
 10
64.6
 20
353.89999
 30
0.0
 11
70.4
 21
353.89999
 31
0.0
  0
LINE
  5
239
100
AcDbEntity
  8
0
  6
CENTER
 62
     7
100
AcDbLine
 10
62.599998
 20
375.24999
 30
0.0
 11
72.4
 21
375.24999
 31
0.0
  0
LINE
  5
23A
100
AcDbEntity
  8
0
  6
CONTINUOUS
 62
     7
100
AcDbLine
 10
70.4
 20
378.09999
 30
0.0
 11
70.4
 21
372.99999
 31
0.0
  0
LINE
  5
23B
100
AcDbEntity
  8
0
  6
CONTINUOUS
 62
     7
100
AcDbLine
 10
64.6
 20
378.09999
 30
0.0
 11
64.6
 21
372.99999
 31
0.0
  0
LINE
  5
23C
100
AcDbEntity
  8
0
  6
CONTINUOUS
 62
     7
100
AcDbLine
 10
64.6
 20
358.99999
 30
0.0
 11
64.6
 21
353.89999
 31
0.0
  0
LINE
  5
23D
100
AcDbEntity
  8
0
  6
CONTINUOUS
 62
     7
100
AcDbLine
 10
70.4
 20
358.99999
 30
0.0
 11
70.4
 21
353.89999
 31
0.0
  0
LINE
  5
23E
100
AcDbEntity
  8
0
  6
CENTER
 62
     7
100
AcDbLine
 10
62.599998
 20
356.74999
 30
0.0
 11
72.4
 21
356.74999
 31
0.0
  0
LINE
  5
23F
100
AcDbEntity
  8
0
  6
CONTINUOUS
 62
     7
100
AcDbLine
 10
75.551315
 20
375.69999
 30
0.0
 11
110.0
 21
375.69999
 31
0.0
  0
LINE
  5
240
100
AcDbEntity
  8
0
  6
CONTINUOUS
 62
     7
100
AcDbLine
 10
70.4
 20
372.99999
 30
0.0
 11
90.0
 21
372.99999
 31
0.0
  0
LINE
  5
241
100
AcDbEntity
  8
0
  6
CONTINUOUS
 62
     7
100
AcDbLine
 10
70.4
 20
358.99999
 30
0.0
 11
90.0
 21
358.99999
 31
0.0
  0
LINE
  5
242
100
AcDbEntity
  8
0
  6
CONTINUOUS
 62
     7
100
AcDbLine
 10
62.5
 20
372.99999
 30
0.0
 11
62.5
 21
358.99999
 31
0.0
  0
LINE
  5
243
100
AcDbEntity
  8
0
  6
CONTINUOUS
 62
     7
100
AcDbLine
 10
72.5
 20
372.99999
 30
0.0
 11
72.5
 21
358.99999
 31
0.0
  0
LINE
  5
244
100
AcDbEntity
  8
0
  6
CONTINUOUS
 62
     7
100
AcDbLine
 10
75.551315
 20
356.29999
 30
0.0
 11
110.0
 21
356.29999
 31
0.0
  0
LINE
  5
245
100
AcDbEntity
  8
0
  6
CONTINUOUS
 62
     7
100
AcDbLine
 10
110.0
 20
356.29999
 30
0.0
 11
110.0
 21
348.29999
 31
0.0
  0
LINE
  5
246
100
AcDbEntity
  8
0
  6
CONTINUOUS
 62
     7
100
AcDbLine
 10
75.551315
 20
356.29999
 30
0.0
 11
75.551315
 21
352.99999
 31
0.0
  0
LINE
  5
247
100
AcDbEntity
  8
0
  6
CONTINUOUS
 62
     7
100
AcDbLine
 10
75.551315
 20
376.89999
 30
0.0
 11
90.0
 21
376.89999
 31
0.0
  0
LINE
  5
248
100
AcDbEntity
  8
0
  6
CENTER
 62
     7
100
AcDbLine
 10
105.0
 20
354.54999
 30
0.0
 11
105.0
 21
346.04999
 31
0.0
  0
LINE
  5
249
100
AcDbEntity
  8
0
  6
CONTINUOUS
 62
     7
100
AcDbLine
 10
110.0
 20
375.69999
 30
0.0
 11
110.0
 21
383.69999
 31
0.0
  0
LINE
  5
24A
100
AcDbEntity
  8
0
  6
CONTINUOUS
 62
     7
100
AcDbLine
 10
90.0
 20
372.99999
 30
0.0
 11
90.0
 21
383.69999
 31
0.0
  0
LINE
  5
24B
100
AcDbEntity
  8
0
  6
CENTER
 62
     7
100
AcDbLine
 10
109.25
 20
381.69999
 30
0.0
 11
100.75
 21
381.69999
 31
0.0
  0
LINE
  5
24C
100
AcDbEntity
  8
0
  6
CENTER
 62
     7
100
AcDbLine
 10
105.0
 20
377.44999
 30
0.0
 11
105.0
 21
385.94999
 31
0.0
  0
LINE
  5
24D
100
AcDbEntity
  8
0
  6
CENTER
 62
     7
100
AcDbLine
 10
99.25
 20
381.69999
 30
0.0
 11
90.75
 21
381.69999
 31
0.0
  0
LINE
  5
24E
100
AcDbEntity
  8
0
  6
CENTER
 62
     7
100
AcDbLine
 10
95.0
 20
377.44999
 30
0.0
 11
95.0
 21
385.94999
 31
0.0
  0
LINE
  5
24F
100
AcDbEntity
  8
0
  6
CONTINUOUS
 62
     7
100
AcDbLine
 10
92.0
 20
385.69999
 30
0.0
 11
108.0
 21
385.69999
 31
0.0
  0
LINE
  5
250
100
AcDbEntity
  8
0
  6
CENTER
 62
     7
100
AcDbLine
 10
99.25
 20
350.29999
 30
0.0
 11
90.75
 21
350.29999
 31
0.0
  0
LINE
  5
251
100
AcDbEntity
  8
0
  6
CONTINUOUS
 62
     7
100
AcDbLine
 10
90.0
 20
358.99999
 30
0.0
 11
90.0
 21
348.29999
 31
0.0
  0
LINE
  5
252
100
AcDbEntity
  8
0
  6
CENTER
 62
     7
100
AcDbLine
 10
95.0
 20
354.54999
 30
0.0
 11
95.0
 21
346.04999
 31
0.0
  0
LINE
  5
253
100
AcDbEntity
  8
0
  6
CENTER
 62
     7
100
AcDbLine
 10
109.25
 20
350.29999
 30
0.0
 11
100.75
 21
350.29999
 31
0.0
  0
LINE
  5
254
100
AcDbEntity
  8
0
  6
CONTINUOUS
 62
     7
100
AcDbLine
 10
75.551315
 20
355.09999
 30
0.0
 11
90.0
 21
355.09999
 31
0.0
  0
LINE
  5
255
100
AcDbEntity
  8
0
  6
CONTINUOUS
 62
     7
100
AcDbLine
 10
59.448685
 20
375.99999
 30
0.0
 11
59.448685
 21
372.99999
 31
0.0
  0
LINE
  5
256
100
AcDbEntity
  8
0
  6
CONTINUOUS
 62
     7
100
AcDbLine
 10
92.0
 20
346.29999
 30
0.0
 11
108.0
 21
346.29999
 31
0.0
  0
LINE
  5
257
100
AcDbEntity
  8
0
  6
CONTINUOUS
 62
     7
100
AcDbLine
 10
62.0
 20
372.99999
 30
0.0
 11
62.0
 21
358.99999
 31
0.0
  0
LINE
  5
258
100
AcDbEntity
  8
0
  6
CONTINUOUS
 62
     7
100
AcDbLine
 10
75.551315
 20
378.99999
 30
0.0
 11
75.551315
 21
375.69999
 31
0.0
  0
LINE
  5
259
100
AcDbEntity
  8
0
  6
CONTINUOUS
 62
     7
100
AcDbLine
 10
59.448685
 20
358.99999
 30
0.0
 11
59.448685
 21
355.99999
 31
0.0
  0
LINE
  5
25A
100
AcDbEntity
  8
0
  6
CONTINUOUS
 62
     7
100
AcDbLine
 10
73.0
 20
372.99999
 30
0.0
 11
73.0
 21
358.99999
 31
0.0
  0
CIRCLE
  5
25B
100
AcDbEntity
  8
0
  6
CONTINUOUS
 62
     7
100
AcDbCircle
 10
105.0
 20
381.69999
 30
0.0
 40
2.25
  0
CIRCLE
  5
25C
100
AcDbEntity
  8
0
  6
CONTINUOUS
 62
     7
100
AcDbCircle
 10
95.0
 20
381.69999
 30
0.0
 40
2.25
  0
ARC
  5
25D
100
AcDbEntity
  8
0
  6
CONTINUOUS
 62
     7
100
AcDbCircle
 10
108.0
 20
383.69999
 30
0.0
 40
2.0
100
AcDbArc
 50
0.0
 51
90.000003
  0
ARC
  5
25E
100
AcDbEntity
  8
0
  6
CONTINUOUS
 62
     7
100
AcDbCircle
 10
92.0
 20
383.69999
 30
0.0
 40
2.0
100
AcDbArc
 50
90.000003
 51
180.00001
  0
CIRCLE
  5
25F
100
AcDbEntity
  8
0
  6
CONTINUOUS
 62
     7
100
AcDbCircle
 10
105.0
 20
350.29999
 30
0.0
 40
2.25
  0
CIRCLE
  5
260
100
AcDbEntity
  8
0
  6
CONTINUOUS
 62
     7
100
AcDbCircle
 10
95.0
 20
350.29999
 30
0.0
 40
2.25
  0
ARC
  5
261
100
AcDbEntity
  8
0
  6
CONTINUOUS
 62
     7
100
AcDbCircle
 10
108.0
 20
348.29999
 30
0.0
 40
2.0
100
AcDbArc
 50
270.0
 51
0.0
  0
ARC
  5
262
100
AcDbEntity
  8
0
  6
CONTINUOUS
 62
     7
100
AcDbCircle
 10
92.0
 20
348.29999
 30
0.0
 40
2.0
100
AcDbArc
 50
179.99999
 51
270.0
  0
POINT
  5
263
100
AcDbEntity
  8
0
  6
CONTINUOUS
 62
     7
100
AcDbPoint
 10
95.0
 20
326.0
 30
0.0
  0
POINT
  5
264
100
AcDbEntity
  8
0
  6
CONTINUOUS
 62
     7
100
AcDbPoint
 10
105.0
 20
326.0
 30
0.0
  0
LINE
  5
265
100
AcDbEntity
  8
0
  6
CONTINUOUS
 62
     7
100
AcDbLine
 10
73.649147
 20
306.0
 30
0.0
 11
70.906733
 21
310.75
 31
0.0
  0
LINE
  5
266
100
AcDbEntity
  8
0
  6
CONTINUOUS
 62
     7
100
AcDbLine
 10
78.0
 20
318.87228
 30
0.0
 11
78.0
 21
313.12772
 31
0.0
  0
LINE
  5
267
100
AcDbEntity
  8
0
  6
CENTER
 62
     7
100
AcDbLine
 10
74.5
 20
316.0
 30
0.0
 11
85.5
 21
316.0
 31
0.0
  0
LINE
  5
268
100
AcDbEntity
  8
0
  6
CENTER
 62
     7
100
AcDbLine
 10
80.0
 20
321.5
 30
0.0
 11
80.0
 21
310.5
 31
0.0
  0
LINE
  5
269
100
AcDbEntity
  8
0
  6
CENTER
 62
     7
100
AcDbLine
 10
49.5
 20
316.0
 30
0.0
 11
60.5
 21
316.0
 31
0.0
  0
LINE
  5
26A
100
AcDbEntity
  8
0
  6
CENTER
 62
     7
100
AcDbLine
 10
55.0
 20
321.5
 30
0.0
 11
55.0
 21
310.5
 31
0.0
  0
LINE
  5
26B
100
AcDbEntity
  8
0
  6
CONTINUOUS
 62
     7
100
AcDbLine
 10
55.0
 20
306.0
 30
0.0
 11
80.0
 21
306.0
 31
0.0
  0
LINE
  5
26C
100
AcDbEntity
  8
0
  6
CONTINUOUS
 62
     7
100
AcDbLine
 10
55.0
 20
326.0
 30
0.0
 11
80.0
 21
326.0
 31
0.0
  0
LINE
  5
26D
100
AcDbEntity
  8
0
  6
CONTINUOUS
 62
     7
100
AcDbLine
 10
90.0
 20
324.8
 30
0.0
 11
110.0
 21
324.8
 31
0.0
  0
LINE
  5
26E
100
AcDbEntity
  8
0
  6
CENTER
 62
     7
100
AcDbLine
 10
95.0
 20
331.0
 30
0.0
 11
95.0
 21
319.8
 31
0.0
  0
LINE
  5
26F
100
AcDbEntity
  8
0
  6
CONTINUOUS
 62
     7
100
AcDbLine
 10
107.26126
 20
318.61155
 30
0.0
 11
84.522251
 21
307.08055
 31
0.0
  0
LINE
  5
270
100
AcDbEntity
  8
0
  6
CONTINUOUS
 62
     7
100
AcDbLine
 10
110.0
 20
326.0
 30
0.0
 11
110.0
 21
323.071
 31
0.0
  0
LINE
  5
271
100
AcDbEntity
  8
0
  6
CONTINUOUS
 62
     7
100
AcDbLine
 10
74.460022
 20
319.7
 30
0.0
 11
71.479004
 21
319.7
 31
0.0
  0
LINE
  5
272
100
AcDbEntity
  8
0
  6
CONTINUOUS
 62
     7
100
AcDbLine
 10
73.5
 20
315.8
 30
0.0
 11
70.525024
 21
315.8
 31
0.0
  0
LINE
  5
273
100
AcDbEntity
  8
0
  6
CONTINUOUS
 62
     7
100
AcDbLine
 10
90.0
 20
326.0
 30
0.0
 11
90.0
 21
324.8
 31
0.0
  0
LINE
  5
274
100
AcDbEntity
  8
0
  6
CONTINUOUS
 62
     7
100
AcDbLine
 10
90.0
 20
326.0
 30
0.0
 11
110.0
 21
326.0
 31
0.0
  0
LINE
  5
275
100
AcDbEntity
  8
0
  6
CENTER
 62
     7
100
AcDbLine
 10
105.0
 20
331.0
 30
0.0
 11
105.0
 21
319.8
 31
0.0
  0
LINE
  5
276
100
AcDbEntity
  8
0
  6
CONTINUOUS
 62
     7
100
AcDbLine
 10
87.0
 20
326.0
 30
0.0
 11
80.0
 21
326.0
 31
0.0
  0
ARC
  5
277
100
AcDbEntity
  8
0
  6
CONTINUOUS
 62
     7
100
AcDbCircle
 10
75.251316
 20
325.7
 30
0.0
 40
0.3
100
AcDbArc
 50
296.08429
 51
90.000003
  0
ARC
  5
278
100
AcDbEntity
  8
0
  6
CONTINUOUS
 62
     7
100
AcDbCircle
 10
55.0
 20
316.0
 30
0.0
 40
10.0
100
AcDbArc
 50
90.000003
 51
270.0
  0
CIRCLE
  5
279
100
AcDbEntity
  8
0
  6
CONTINUOUS
 62
     7
100
AcDbCircle
 10
80.0
 20
316.0
 30
0.0
 40
3.5
  0
ARC
  5
27A
100
AcDbEntity
  8
0
  6
CONTINUOUS
 62
     7
100
AcDbCircle
 10
80.0
 20
316.0
 30
0.0
 40
10.5
100
AcDbArc
 50
116.0843
 51
210.0
  0
ARC
  5
27B
100
AcDbEntity
  8
0
  6
CONTINUOUS
 62
     7
100
AcDbCircle
 10
80.0
 20
316.0
 30
0.0
 40
6.2
100
AcDbArc
 50
148.46101
 51
179.118
  0
ARC
  5
27C
100
AcDbEntity
  8
0
  6
CONTINUOUS
 62
     7
100
AcDbCircle
 10
80.0
 20
316.0
 30
0.0
 40
10.0
100
AcDbArc
 50
184.225
 51
296.88546
  0
ARC
  5
27D
100
AcDbEntity
  8
0
  6
CONTINUOUS
 62
     7
100
AcDbCircle
 10
80.0
 20
316.0
 30
0.0
 40
10.0
100
AcDbArc
 50
90.000003
 51
153.761
  0
ARC
  5
27E
100
AcDbEntity
  8
0
  6
CONTINUOUS
 62
     7
100
AcDbCircle
 10
71.479004
 20
320.2
 30
0.0
 40
0.5
100
AcDbArc
 50
153.761
 51
270.0
  0
ARC
  5
27F
100
AcDbEntity
  8
0
  6
CONTINUOUS
 62
     7
100
AcDbCircle
 10
73.5
 20
316.10001
 30
0.0
 40
0.3
100
AcDbArc
 50
270.001
 51
359.117
  0
ARC
  5
280
100
AcDbEntity
  8
0
  6
CONTINUOUS
 62
     7
100
AcDbCircle
 10
74.460022
 20
319.39999
 30
0.0
 40
0.3
100
AcDbArc
 50
328.46
 51
90.004101
  0
ARC
  5
281
100
AcDbEntity
  8
0
  6
CONTINUOUS
 62
     7
100
AcDbCircle
 10
70.525024
 20
315.3
 30
0.0
 40
0.5
100
AcDbArc
 50
89.998001
 51
184.22599
  0
ARC
  5
282
100
AcDbEntity
  8
0
  6
CONTINUOUS
 62
     7
100
AcDbCircle
 10
105.0
 20
323.071
 30
0.0
 40
5.0
100
AcDbArc
 50
296.8883
 51
0.0
  0
ARC
  5
283
100
AcDbEntity
  8
0
  6
CONTINUOUS
 62
     7
100
AcDbCircle
 10
88.5
 20
326.0
 30
0.0
 40
1.5
100
AcDbArc
 50
179.99999
 51
0.00001
  0
POINT
  5
284
100
AcDbEntity
  8
0
  6
CONTINUOUS
 62
     7
100
AcDbPoint
 10
95.0
 20
281.70001
 30
0.0
  0
POINT
  5
285
100
AcDbEntity
  8
0
  6
CONTINUOUS
 62
     7
100
AcDbPoint
 10
105.0
 20
281.70001
 30
0.0
  0
LINE
  5
286
100
AcDbEntity
  8
0
  6
CENTER
 62
     7
100
AcDbLine
 10
105.0
 20
254.55001
 30
0.0
 11
105.0
 21
246.05001
 31
0.0
  0
LINE
  5
287
100
AcDbEntity
  8
0
  6
CONTINUOUS
 62
     7
100
AcDbLine
 10
73.649147
 20
275.70001
 30
0.0
 11
110.0
 21
275.70001
 31
0.0
  0
LINE
  5
288
100
AcDbEntity
  8
0
  6
CENTER
 62
     7
100
AcDbLine
 10
99.25
 20
250.30001
 30
0.0
 11
90.75
 21
250.30001
 31
0.0
  0
LINE
  5
289
100
AcDbEntity
  8
0
  6
CONTINUOUS
 62
     7
100
AcDbLine
 10
73.649147
 20
276.90001
 30
0.0
 11
110.0
 21
276.90001
 31
0.0
  0
LINE
  5
28A
100
AcDbEntity
  8
0
  6
CONTINUOUS
 62
     7
100
AcDbLine
 10
92.0
 20
285.70001
 30
0.0
 11
108.0
 21
285.70001
 31
0.0
  0
LINE
  5
28B
100
AcDbEntity
  8
0
  6
CONTINUOUS
 62
     7
100
AcDbLine
 10
90.0
 20
276.90001
 30
0.0
 11
90.0
 21
283.70001
 31
0.0
  0
LINE
  5
28C
100
AcDbEntity
  8
0
  6
CONTINUOUS
 62
     7
100
AcDbLine
 10
73.649147
 20
255.10001
 30
0.0
 11
110.0
 21
255.10001
 31
0.0
  0
LINE
  5
28D
100
AcDbEntity
  8
0
  6
CONTINUOUS
 62
     7
100
AcDbLine
 10
90.0
 20
273.00001
 30
0.0
 11
90.0
 21
275.70001
 31
0.0
  0
LINE
  5
28E
100
AcDbEntity
  8
0
  6
CONTINUOUS
 62
     7
100
AcDbLine
 10
61.350853
 20
259.00001
 30
0.0
 11
62.0
 21
259.00001
 31
0.0
  0
LINE
  5
28F
100
AcDbEntity
  8
0
  6
CONTINUOUS
 62
     7
100
AcDbLine
 10
48.649147
 20
276.00001
 30
0.0
 11
61.350853
 21
276.00001
 31
0.0
  0
LINE
  5
290
100
AcDbEntity
  8
0
  6
CENTER
 62
     7
100
AcDbLine
 10
55.0
 20
286.00001
 30
0.0
 11
55.0
 21
246.00001
 31
0.0
  0
LINE
  5
291
100
AcDbEntity
  8
0
  6
CONTINUOUS
 62
     7
100
AcDbLine
 10
61.350853
 20
273.00001
 30
0.0
 11
62.0
 21
273.00001
 31
0.0
  0
LINE
  5
292
100
AcDbEntity
  8
0
  6
CONTINUOUS
 62
     7
100
AcDbLine
 10
48.649147
 20
256.00001
 30
0.0
 11
61.350853
 21
256.00001
 31
0.0
  0
LINE
  5
293
100
AcDbEntity
  8
0
  6
CENTER
 62
     7
100
AcDbLine
 10
80.0
 20
286.00001
 30
0.0
 11
80.0
 21
246.00001
 31
0.0
  0
LINE
  5
294
100
AcDbEntity
  8
0
  6
CONTINUOUS
 62
     7
100
AcDbLine
 10
48.649147
 20
279.00001
 30
0.0
 11
73.649147
 21
279.00001
 31
0.0
  0
LINE
  5
295
100
AcDbEntity
  8
0
  6
CENTER
 62
     7
100
AcDbLine
 10
41.649147
 20
266.00001
 30
0.0
 11
92.614978
 21
266.00001
 31
0.0
  0
LINE
  5
296
100
AcDbEntity
  8
0
  6
CONTINUOUS
 62
     7
100
AcDbLine
 10
48.649147
 20
253.00001
 30
0.0
 11
73.649147
 21
253.00001
 31
0.0
  0
LINE
  5
297
100
AcDbEntity
  8
0
  6
CONTINUOUS
 62
     7
100
AcDbLine
 10
73.0
 20
273.00001
 30
0.0
 11
90.0
 21
273.00001
 31
0.0
  0
LINE
  5
298
100
AcDbEntity
  8
0
  6
CONTINUOUS
 62
     7
100
AcDbLine
 10
73.0
 20
259.00001
 30
0.0
 11
90.0
 21
259.00001
 31
0.0
  0
LINE
  5
299
100
AcDbEntity
  8
0
  6
CONTINUOUS
 62
     7
100
AcDbLine
 10
61.350853
 20
276.00001
 30
0.0
 11
61.350853
 21
273.00001
 31
0.0
  0
LINE
  5
29A
100
AcDbEntity
  8
0
  6
CONTINUOUS
 62
     7
100
AcDbLine
 10
61.350853
 20
259.00001
 30
0.0
 11
61.350853
 21
256.00001
 31
0.0
  0
LINE
  5
29B
100
AcDbEntity
  8
0
  6
CONTINUOUS
 62
     7
100
AcDbLine
 10
110.0
 20
275.70001
 30
0.0
 11
110.0
 21
283.70001
 31
0.0
  0
LINE
  5
29C
100
AcDbEntity
  8
0
  6
CONTINUOUS
 62
     7
100
AcDbLine
 10
92.0
 20
246.30001
 30
0.0
 11
108.0
 21
246.30001
 31
0.0
  0
LINE
  5
29D
100
AcDbEntity
  8
0
  6
CENTER
 62
     7
100
AcDbLine
 10
105.0
 20
286.49001
 30
0.0
 11
105.0
 21
276.91001
 31
0.0
  0
LINE
  5
29E
100
AcDbEntity
  8
0
  6
CENTER
 62
     7
100
AcDbLine
 10
99.25
 20
281.70001
 30
0.0
 11
90.75
 21
281.70001
 31
0.0
  0
LINE
  5
29F
100
AcDbEntity
  8
0
  6
CENTER
 62
     7
100
AcDbLine
 10
95.0
 20
277.45001
 30
0.0
 11
95.0
 21
285.95001
 31
0.0
  0
LINE
  5
2A0
100
AcDbEntity
  8
0
  6
CONTINUOUS
 62
     7
100
AcDbLine
 10
90.0
 20
255.10001
 30
0.0
 11
90.0
 21
248.30001
 31
0.0
  0
LINE
  5
2A1
100
AcDbEntity
  8
0
  6
CONTINUOUS
 62
     7
100
AcDbLine
 10
90.0
 20
259.00001
 30
0.0
 11
90.0
 21
256.30001
 31
0.0
  0
LINE
  5
2A2
100
AcDbEntity
  8
0
  6
CONTINUOUS
 62
     7
100
AcDbLine
 10
73.649147
 20
256.30001
 30
0.0
 11
110.0
 21
256.30001
 31
0.0
  0
LINE
  5
2A3
100
AcDbEntity
  8
0
  6
CONTINUOUS
 62
     7
100
AcDbLine
 10
110.0
 20
256.30001
 30
0.0
 11
110.0
 21
248.30001
 31
0.0
  0
LINE
  5
2A4
100
AcDbEntity
  8
0
  6
CENTER
 62
     7
100
AcDbLine
 10
109.25
 20
250.30001
 30
0.0
 11
100.75
 21
250.30001
 31
0.0
  0
LINE
  5
2A5
100
AcDbEntity
  8
0
  6
CENTER
 62
     7
100
AcDbLine
 10
95.0
 20
254.55001
 30
0.0
 11
95.0
 21
246.05001
 31
0.0
  0
LINE
  5
2A6
100
AcDbEntity
  8
0
  6
CENTER
 62
     7
100
AcDbLine
 10
109.79
 20
281.70001
 30
0.0
 11
100.21
 21
281.70001
 31
0.0
  0
LINE
  5
2A7
100
AcDbEntity
  8
0
  6
CONTINUOUS
 62
     7
100
AcDbLine
 10
73.649147
 20
256.30001
 30
0.0
 11
73.649147
 21
253.00001
 31
0.0
  0
LINE
  5
2A8
100
AcDbEntity
  8
0
  6
CONTINUOUS
 62
     7
100
AcDbLine
 10
73.649147
 20
279.00001
 30
0.0
 11
73.649147
 21
275.70001
 31
0.0
  0
LINE
  5
2A9
100
AcDbEntity
  8
0
  6
CONTINUOUS
 62
     7
100
AcDbLine
 10
62.0
 20
273.00001
 30
0.0
 11
62.0
 21
259.00001
 31
0.0
  0
LINE
  5
2AA
100
AcDbEntity
  8
0
  6
CONTINUOUS
 62
     7
100
AcDbLine
 10
73.0
 20
273.00001
 30
0.0
 11
73.0
 21
259.00001
 31
0.0
  0
CIRCLE
  5
2AB
100
AcDbEntity
  8
0
  6
CONTINUOUS
 62
     7
100
AcDbCircle
 10
105.0
 20
281.70001
 30
0.0
 40
2.25
  0
CIRCLE
  5
2AC
100
AcDbEntity
  8
0
  6
CONTINUOUS
 62
     7
100
AcDbCircle
 10
95.0
 20
281.70001
 30
0.0
 40
2.25
  0
ARC
  5
2AD
100
AcDbEntity
  8
0
  6
CONTINUOUS
 62
     7
100
AcDbCircle
 10
108.0
 20
283.70001
 30
0.0
 40
2.0
100
AcDbArc
 50
0.0
 51
90.000003
  0
ARC
  5
2AE
100
AcDbEntity
  8
0
  6
CONTINUOUS
 62
     7
100
AcDbCircle
 10
92.0
 20
283.70001
 30
0.0
 40
2.0
100
AcDbArc
 50
90.000003
 51
180.00001
  0
CIRCLE
  5
2AF
100
AcDbEntity
  8
0
  6
CONTINUOUS
 62
     7
100
AcDbCircle
 10
105.0
 20
250.30001
 30
0.0
 40
2.25
  0
CIRCLE
  5
2B0
100
AcDbEntity
  8
0
  6
CONTINUOUS
 62
     7
100
AcDbCircle
 10
95.0
 20
250.30001
 30
0.0
 40
2.25
  0
ARC
  5
2B1
100
AcDbEntity
  8
0
  6
CONTINUOUS
 62
     7
100
AcDbCircle
 10
108.0
 20
248.30001
 30
0.0
 40
2.0
100
AcDbArc
 50
270.0
 51
0.0
  0
ARC
  5
2B2
100
AcDbEntity
  8
0
  6
CONTINUOUS
 62
     7
100
AcDbCircle
 10
92.0
 20
248.30001
 30
0.0
 40
2.0
100
AcDbArc
 50
179.99999
 51
270.0
  0
POINT
  5
2B3
100
AcDbEntity
  8
0
  6
CONTINUOUS
 62
     7
100
AcDbPoint
 10
145.0
 20
326.0
 30
0.0
  0
POINT
  5
2B4
100
AcDbEntity
  8
0
  6
CONTINUOUS
 62
     7
100
AcDbPoint
 10
176.4
 20
326.0
 30
0.0
  0
LINE
  5
2B5
100
AcDbEntity
  8
0
  6
CONTINUOUS
 62
     7
100
AcDbLine
 10
153.7
 20
309.0
 30
0.0
 11
167.7
 21
309.0
 31
0.0
  0
LINE
  5
2B6
100
AcDbEntity
  8
0
  6
CENTER
 62
     7
100
AcDbLine
 10
160.7
 20
333.0
 30
0.0
 11
160.7
 21
299.0
 31
0.0
  0
LINE
  5
2B7
100
AcDbEntity
  8
0
  6
CONTINUOUS
 62
     7
100
AcDbLine
 10
147.7
 20
324.8
 30
0.0
 11
147.7
 21
306.0
 31
0.0
  0
LINE
  5
2B8
100
AcDbEntity
  8
0
  6
CONTINUOUS
 62
     7
100
AcDbLine
 10
173.7
 20
324.8
 30
0.0
 11
173.7
 21
306.0
 31
0.0
  0
LINE
  5
2B9
100
AcDbEntity
  8
0
  6
CENTER
 62
     7
100
AcDbLine
 10
140.7
 20
316.0
 30
0.0
 11
180.7
 21
316.0
 31
0.0
  0
LINE
  5
2BA
100
AcDbEntity
  8
0
  6
CONTINUOUS
 62
     7
100
AcDbLine
 10
167.7
 20
326.0
 30
0.0
 11
167.7
 21
306.0
 31
0.0
  0
LINE
  5
2BB
100
AcDbEntity
  8
0
  6
CONTINUOUS
 62
     7
100
AcDbLine
 10
153.7
 20
326.0
 30
0.0
 11
153.7
 21
306.0
 31
0.0
  0
LINE
  5
2BC
100
AcDbEntity
  8
0
  6
CONTINUOUS
 62
     7
100
AcDbLine
 10
147.7
 20
306.0
 30
0.0
 11
173.7
 21
306.0
 31
0.0
  0
LINE
  5
2BD
100
AcDbEntity
  8
0
  6
CONTINUOUS
 62
     7
100
AcDbLine
 10
180.4
 20
326.0
 30
0.0
 11
180.4
 21
324.8
 31
0.0
  0
LINE
  5
2BE
100
AcDbEntity
  8
0
  6
CONTINUOUS
 62
     7
100
AcDbLine
 10
180.4
 20
326.0
 30
0.0
 11
167.7
 21
326.0
 31
0.0
  0
LINE
  5
2BF
100
AcDbEntity
  8
0
  6
CONTINUOUS
 62
     7
100
AcDbLine
 10
171.6
 20
324.8
 30
0.0
 11
171.6
 21
306.0
 31
0.0
  0
LINE
  5
2C0
100
AcDbEntity
  8
0
  6
CONTINUOUS
 62
     7
100
AcDbLine
 10
180.4
 20
324.8
 30
0.0
 11
171.6
 21
324.8
 31
0.0
  0
LINE
  5
2C1
100
AcDbEntity
  8
0
  6
CONTINUOUS
 62
     7
100
AcDbLine
 10
170.4
 20
326.0
 30
0.0
 11
170.4
 21
306.0
 31
0.0
  0
LINE
  5
2C2
100
AcDbEntity
  8
0
  6
CONTINUOUS
 62
     7
100
AcDbLine
 10
153.7
 20
325.7
 30
0.0
 11
167.7
 21
325.7
 31
0.0
  0
LINE
  5
2C3
100
AcDbEntity
  8
0
  6
CONTINUOUS
 62
     7
100
AcDbLine
 10
151.0
 20
326.0
 30
0.0
 11
151.0
 21
306.0
 31
0.0
  0
LINE
  5
2C4
100
AcDbEntity
  8
0
  6
CONTINUOUS
 62
     7
100
AcDbLine
 10
141.0
 20
324.8
 30
0.0
 11
149.8
 21
324.8
 31
0.0
  0
LINE
  5
2C5
100
AcDbEntity
  8
0
  6
CONTINUOUS
 62
     7
100
AcDbLine
 10
149.8
 20
324.8
 30
0.0
 11
149.8
 21
306.0
 31
0.0
  0
LINE
  5
2C6
100
AcDbEntity
  8
0
  6
CONTINUOUS
 62
     7
100
AcDbLine
 10
141.0
 20
326.0
 30
0.0
 11
153.7
 21
326.0
 31
0.0
  0
LINE
  5
2C7
100
AcDbEntity
  8
0
  6
CONTINUOUS
 62
     7
100
AcDbLine
 10
141.0
 20
326.0
 30
0.0
 11
141.0
 21
324.8
 31
0.0
  0
LINE
  5
2C8
100
AcDbEntity
  8
0
  6
CONTINUOUS
 62
     7
100
AcDbLine
 10
153.7
 20
323.0
 30
0.0
 11
167.7
 21
323.0
 31
0.0
  0
LINE
  5
2C9
100
AcDbEntity
  8
0
  6
CENTER
 62
     7
100
AcDbLine
 10
145.0
 20
331.3
 30
0.0
 11
145.0
 21
321.3
 31
0.0
  0
LINE
  5
2CA
100
AcDbEntity
  8
0
  6
CENTER
 62
     7
100
AcDbLine
 10
176.4
 20
331.3
 30
0.0
 11
176.4
 21
321.3
 31
0.0
  0
POINT
  5
2CB
100
AcDbEntity
  8
0
  6
CONTINUOUS
 62
     7
100
AcDbPoint
 10
250.0
 20
350.29999
 30
0.0
  0
POINT
  5
2CC
100
AcDbEntity
  8
0
  6
CONTINUOUS
 62
     7
100
AcDbPoint
 10
260.0
 20
350.29999
 30
0.0
  0
LINE
  5
2CD
100
AcDbEntity
  8
0
  6
CONTINUOUS
 62
     7
100
AcDbLine
 10
230.55132
 20
378.99999
 30
0.0
 11
230.55132
 21
375.69999
 31
0.0
  0
LINE
  5
2CE
100
AcDbEntity
  8
0
  6
CONTINUOUS
 62
     7
100
AcDbLine
 10
245.0
 20
376.89999
 30
0.0
 11
245.0
 21
383.69999
 31
0.0
  0
LINE
  5
2CF
100
AcDbEntity
  8
0
  6
CONTINUOUS
 62
     7
100
AcDbLine
 10
205.55132
 20
375.99999
 30
0.0
 11
214.44868
 21
375.99999
 31
0.0
  0
LINE
  5
2D0
100
AcDbEntity
  8
0
  6
CENTER
 62
     7
100
AcDbLine
 10
210.0
 20
385.99999
 30
0.0
 11
210.0
 21
345.99999
 31
0.0
  0
LINE
  5
2D1
100
AcDbEntity
  8
0
  6
CENTER
 62
     7
100
AcDbLine
 10
198.55132
 20
365.99999
 30
0.0
 11
245.20156
 21
365.99999
 31
0.0
  0
LINE
  5
2D2
100
AcDbEntity
  8
0
  6
CONTINUOUS
 62
     7
100
AcDbLine
 10
219.6
 20
378.09999
 30
0.0
 11
225.4
 21
378.09999
 31
0.0
  0
LINE
  5
2D3
100
AcDbEntity
  8
0
  6
CONTINUOUS
 62
     7
100
AcDbLine
 10
219.6
 20
354.49999
 30
0.0
 11
225.4
 21
354.49999
 31
0.0
  0
LINE
  5
2D4
100
AcDbEntity
  8
0
  6
CONTINUOUS
 62
     7
100
AcDbLine
 10
205.55132
 20
355.99999
 30
0.0
 11
214.44868
 21
355.99999
 31
0.0
  0
LINE
  5
2D5
100
AcDbEntity
  8
0
  6
CONTINUOUS
 62
     7
100
AcDbLine
 10
205.55132
 20
352.99999
 30
0.0
 11
230.55132
 21
352.99999
 31
0.0
  0
LINE
  5
2D6
100
AcDbEntity
  8
0
  6
CENTER
 62
     7
100
AcDbLine
 10
235.0
 20
385.99999
 30
0.0
 11
235.0
 21
345.99999
 31
0.0
  0
LINE
  5
2D7
100
AcDbEntity
  8
0
  6
CONTINUOUS
 62
     7
100
AcDbLine
 10
214.44868
 20
358.99999
 30
0.0
 11
219.6
 21
358.99999
 31
0.0
  0
LINE
  5
2D8
100
AcDbEntity
  8
0
  6
CONTINUOUS
 62
     7
100
AcDbLine
 10
205.55132
 20
378.99999
 30
0.0
 11
230.55132
 21
378.99999
 31
0.0
  0
LINE
  5
2D9
100
AcDbEntity
  8
0
  6
CONTINUOUS
 62
     7
100
AcDbLine
 10
214.44868
 20
372.99999
 30
0.0
 11
219.6
 21
372.99999
 31
0.0
  0
LINE
  5
2DA
100
AcDbEntity
  8
0
  6
CONTINUOUS
 62
     7
100
AcDbLine
 10
219.6
 20
377.49999
 30
0.0
 11
225.4
 21
377.49999
 31
0.0
  0
LINE
  5
2DB
100
AcDbEntity
  8
0
  6
CONTINUOUS
 62
     7
100
AcDbLine
 10
219.6
 20
353.89999
 30
0.0
 11
225.4
 21
353.89999
 31
0.0
  0
LINE
  5
2DC
100
AcDbEntity
  8
0
  6
CENTER
 62
     7
100
AcDbLine
 10
217.6
 20
375.24999
 30
0.0
 11
227.4
 21
375.24999
 31
0.0
  0
LINE
  5
2DD
100
AcDbEntity
  8
0
  6
CONTINUOUS
 62
     7
100
AcDbLine
 10
225.4
 20
378.09999
 30
0.0
 11
225.4
 21
372.99999
 31
0.0
  0
LINE
  5
2DE
100
AcDbEntity
  8
0
  6
CONTINUOUS
 62
     7
100
AcDbLine
 10
219.6
 20
378.09999
 30
0.0
 11
219.6
 21
372.99999
 31
0.0
  0
LINE
  5
2DF
100
AcDbEntity
  8
0
  6
CONTINUOUS
 62
     7
100
AcDbLine
 10
219.6
 20
358.99999
 30
0.0
 11
219.6
 21
353.89999
 31
0.0
  0
LINE
  5
2E0
100
AcDbEntity
  8
0
  6
CONTINUOUS
 62
     7
100
AcDbLine
 10
225.4
 20
358.99999
 30
0.0
 11
225.4
 21
353.89999
 31
0.0
  0
LINE
  5
2E1
100
AcDbEntity
  8
0
  6
CENTER
 62
     7
100
AcDbLine
 10
217.6
 20
356.74999
 30
0.0
 11
227.4
 21
356.74999
 31
0.0
  0
LINE
  5
2E2
100
AcDbEntity
  8
0
  6
CONTINUOUS
 62
     7
100
AcDbLine
 10
230.55132
 20
375.69999
 30
0.0
 11
265.0
 21
375.69999
 31
0.0
  0
LINE
  5
2E3
100
AcDbEntity
  8
0
  6
CONTINUOUS
 62
     7
100
AcDbLine
 10
225.4
 20
372.99999
 30
0.0
 11
245.0
 21
372.99999
 31
0.0
  0
LINE
  5
2E4
100
AcDbEntity
  8
0
  6
CONTINUOUS
 62
     7
100
AcDbLine
 10
225.4
 20
358.99999
 30
0.0
 11
245.0
 21
358.99999
 31
0.0
  0
LINE
  5
2E5
100
AcDbEntity
  8
0
  6
CONTINUOUS
 62
     7
100
AcDbLine
 10
217.5
 20
372.99999
 30
0.0
 11
217.5
 21
358.99999
 31
0.0
  0
LINE
  5
2E6
100
AcDbEntity
  8
0
  6
CONTINUOUS
 62
     7
100
AcDbLine
 10
227.5
 20
372.99999
 30
0.0
 11
227.5
 21
358.99999
 31
0.0
  0
LINE
  5
2E7
100
AcDbEntity
  8
0
  6
CONTINUOUS
 62
     7
100
AcDbLine
 10
230.55132
 20
356.29999
 30
0.0
 11
265.0
 21
356.29999
 31
0.0
  0
LINE
  5
2E8
100
AcDbEntity
  8
0
  6
CONTINUOUS
 62
     7
100
AcDbLine
 10
265.0
 20
356.29999
 30
0.0
 11
265.0
 21
348.29999
 31
0.0
  0
LINE
  5
2E9
100
AcDbEntity
  8
0
  6
CONTINUOUS
 62
     7
100
AcDbLine
 10
230.55132
 20
356.29999
 30
0.0
 11
230.55132
 21
352.99999
 31
0.0
  0
LINE
  5
2EA
100
AcDbEntity
  8
0
  6
CONTINUOUS
 62
     7
100
AcDbLine
 10
230.55132
 20
376.89999
 30
0.0
 11
265.0
 21
376.89999
 31
0.0
  0
LINE
  5
2EB
100
AcDbEntity
  8
0
  6
CENTER
 62
     7
100
AcDbLine
 10
260.0
 20
354.54999
 30
0.0
 11
260.0
 21
346.04999
 31
0.0
  0
LINE
  5
2EC
100
AcDbEntity
  8
0
  6
CONTINUOUS
 62
     7
100
AcDbLine
 10
265.0
 20
375.69999
 30
0.0
 11
265.0
 21
383.69999
 31
0.0
  0
LINE
  5
2ED
100
AcDbEntity
  8
0
  6
CONTINUOUS
 62
     7
100
AcDbLine
 10
245.0
 20
372.99999
 30
0.0
 11
245.0
 21
375.69999
 31
0.0
  0
LINE
  5
2EE
100
AcDbEntity
  8
0
  6
CENTER
 62
     7
100
AcDbLine
 10
264.25
 20
381.69999
 30
0.0
 11
255.75
 21
381.69999
 31
0.0
  0
LINE
  5
2EF
100
AcDbEntity
  8
0
  6
CENTER
 62
     7
100
AcDbLine
 10
260.0
 20
377.44999
 30
0.0
 11
260.0
 21
385.94999
 31
0.0
  0
LINE
  5
2F0
100
AcDbEntity
  8
0
  6
CENTER
 62
     7
100
AcDbLine
 10
254.25
 20
381.69999
 30
0.0
 11
245.75
 21
381.69999
 31
0.0
  0
LINE
  5
2F1
100
AcDbEntity
  8
0
  6
CENTER
 62
     7
100
AcDbLine
 10
250.0
 20
377.44999
 30
0.0
 11
250.0
 21
385.94999
 31
0.0
  0
LINE
  5
2F2
100
AcDbEntity
  8
0
  6
CONTINUOUS
 62
     7
100
AcDbLine
 10
247.0
 20
385.69999
 30
0.0
 11
263.0
 21
385.69999
 31
0.0
  0
LINE
  5
2F3
100
AcDbEntity
  8
0
  6
CENTER
 62
     7
100
AcDbLine
 10
254.25
 20
350.29999
 30
0.0
 11
245.75
 21
350.29999
 31
0.0
  0
LINE
  5
2F4
100
AcDbEntity
  8
0
  6
CONTINUOUS
 62
     7
100
AcDbLine
 10
245.0
 20
358.99999
 30
0.0
 11
245.0
 21
356.29999
 31
0.0
  0
LINE
  5
2F5
100
AcDbEntity
  8
0
  6
CENTER
 62
     7
100
AcDbLine
 10
250.0
 20
354.54999
 30
0.0
 11
250.0
 21
346.04999
 31
0.0
  0
LINE
  5
2F6
100
AcDbEntity
  8
0
  6
CENTER
 62
     7
100
AcDbLine
 10
264.25
 20
350.29999
 30
0.0
 11
255.75
 21
350.29999
 31
0.0
  0
LINE
  5
2F7
100
AcDbEntity
  8
0
  6
CONTINUOUS
 62
     7
100
AcDbLine
 10
230.55132
 20
355.09999
 30
0.0
 11
265.0
 21
355.09999
 31
0.0
  0
LINE
  5
2F8
100
AcDbEntity
  8
0
  6
CONTINUOUS
 62
     7
100
AcDbLine
 10
247.0
 20
346.29999
 30
0.0
 11
263.0
 21
346.29999
 31
0.0
  0
LINE
  5
2F9
100
AcDbEntity
  8
0
  6
CONTINUOUS
 62
     7
100
AcDbLine
 10
245.0
 20
355.09999
 30
0.0
 11
245.0
 21
348.29999
 31
0.0
  0
LINE
  5
2FA
100
AcDbEntity
  8
0
  6
CONTINUOUS
 62
     7
100
AcDbLine
 10
228.0
 20
372.99999
 30
0.0
 11
228.0
 21
358.99999
 31
0.0
  0
LINE
  5
2FB
100
AcDbEntity
  8
0
  6
CONTINUOUS
 62
     7
100
AcDbLine
 10
214.44868
 20
375.99999
 30
0.0
 11
214.44868
 21
372.99999
 31
0.0
  0
LINE
  5
2FC
100
AcDbEntity
  8
0
  6
CONTINUOUS
 62
     7
100
AcDbLine
 10
214.44868
 20
358.99999
 30
0.0
 11
214.44868
 21
355.99999
 31
0.0
  0
LINE
  5
2FD
100
AcDbEntity
  8
0
  6
CONTINUOUS
 62
     7
100
AcDbLine
 10
217.0
 20
372.99999
 30
0.0
 11
217.0
 21
358.99999
 31
0.0
  0
CIRCLE
  5
2FE
100
AcDbEntity
  8
0
  6
CONTINUOUS
 62
     7
100
AcDbCircle
 10
260.0
 20
381.69999
 30
0.0
 40
2.25
  0
CIRCLE
  5
2FF
100
AcDbEntity
  8
0
  6
CONTINUOUS
 62
     7
100
AcDbCircle
 10
250.0
 20
381.69999
 30
0.0
 40
2.25
  0
ARC
  5
300
100
AcDbEntity
  8
0
  6
CONTINUOUS
 62
     7
100
AcDbCircle
 10
263.0
 20
383.69999
 30
0.0
 40
2.0
100
AcDbArc
 50
0.0
 51
90.000003
  0
ARC
  5
301
100
AcDbEntity
  8
0
  6
CONTINUOUS
 62
     7
100
AcDbCircle
 10
247.0
 20
383.69999
 30
0.0
 40
2.0
100
AcDbArc
 50
90.000003
 51
180.00001
  0
CIRCLE
  5
302
100
AcDbEntity
  8
0
  6
CONTINUOUS
 62
     7
100
AcDbCircle
 10
260.0
 20
350.29999
 30
0.0
 40
2.25
  0
CIRCLE
  5
303
100
AcDbEntity
  8
0
  6
CONTINUOUS
 62
     7
100
AcDbCircle
 10
250.0
 20
350.29999
 30
0.0
 40
2.25
  0
ARC
  5
304
100
AcDbEntity
  8
0
  6
CONTINUOUS
 62
     7
100
AcDbCircle
 10
263.0
 20
348.29999
 30
0.0
 40
2.0
100
AcDbArc
 50
270.0
 51
0.0
  0
ARC
  5
305
100
AcDbEntity
  8
0
  6
CONTINUOUS
 62
     7
100
AcDbCircle
 10
247.0
 20
348.29999
 30
0.0
 40
2.0
100
AcDbArc
 50
179.99999
 51
270.0
  0
POINT
  5
306
100
AcDbEntity
  8
0
  6
CONTINUOUS
 62
     7
100
AcDbPoint
 10
250.0
 20
306.0
 30
0.0
  0
POINT
  5
307
100
AcDbEntity
  8
0
  6
CONTINUOUS
 62
     7
100
AcDbPoint
 10
260.0
 20
306.0
 30
0.0
  0
LINE
  5
308
100
AcDbEntity
  8
0
  6
CONTINUOUS
 62
     7
100
AcDbLine
 10
228.64915
 20
306.0
 30
0.0
 11
225.90673
 21
310.75
 31
0.0
  0
LINE
  5
309
100
AcDbEntity
  8
0
  6
CONTINUOUS
 62
     7
100
AcDbLine
 10
233.0
 20
318.87228
 30
0.0
 11
233.0
 21
313.12772
 31
0.0
  0
LINE
  5
30A
100
AcDbEntity
  8
0
  6
CENTER
 62
     7
100
AcDbLine
 10
229.5
 20
316.0
 30
0.0
 11
240.5
 21
316.0
 31
0.0
  0
LINE
  5
30B
100
AcDbEntity
  8
0
  6
CENTER
 62
     7
100
AcDbLine
 10
235.0
 20
321.5
 30
0.0
 11
235.0
 21
310.5
 31
0.0
  0
LINE
  5
30C
100
AcDbEntity
  8
0
  6
CENTER
 62
     7
100
AcDbLine
 10
204.5
 20
316.0
 30
0.0
 11
215.5
 21
316.0
 31
0.0
  0
LINE
  5
30D
100
AcDbEntity
  8
0
  6
CENTER
 62
     7
100
AcDbLine
 10
210.0
 20
321.5
 30
0.0
 11
210.0
 21
310.5
 31
0.0
  0
LINE
  5
30E
100
AcDbEntity
  8
0
  6
CONTINUOUS
 62
     7
100
AcDbLine
 10
210.0
 20
306.0
 30
0.0
 11
242.0
 21
306.0
 31
0.0
  0
LINE
  5
30F
100
AcDbEntity
  8
0
  6
CONTINUOUS
 62
     7
100
AcDbLine
 10
210.0
 20
326.0
 30
0.0
 11
235.0
 21
326.0
 31
0.0
  0
LINE
  5
310
100
AcDbEntity
  8
0
  6
CONTINUOUS
 62
     7
100
AcDbLine
 10
245.0
 20
307.2
 30
0.0
 11
265.0
 21
307.2
 31
0.0
  0
LINE
  5
311
100
AcDbEntity
  8
0
  6
CENTER
 62
     7
100
AcDbLine
 10
250.0
 20
301.0
 30
0.0
 11
250.0
 21
312.2
 31
0.0
  0
LINE
  5
312
100
AcDbEntity
  8
0
  6
CONTINUOUS
 62
     7
100
AcDbLine
 10
262.26126
 20
313.38845
 30
0.0
 11
239.52225
 21
324.91945
 31
0.0
  0
LINE
  5
313
100
AcDbEntity
  8
0
  6
CONTINUOUS
 62
     7
100
AcDbLine
 10
265.0
 20
306.0
 30
0.0
 11
265.0
 21
308.929
 31
0.0
  0
LINE
  5
314
100
AcDbEntity
  8
0
  6
CONTINUOUS
 62
     7
100
AcDbLine
 10
229.46002
 20
319.7
 30
0.0
 11
226.479
 21
319.7
 31
0.0
  0
LINE
  5
315
100
AcDbEntity
  8
0
  6
CONTINUOUS
 62
     7
100
AcDbLine
 10
228.5
 20
315.8
 30
0.0
 11
225.52502
 21
315.8
 31
0.0
  0
LINE
  5
316
100
AcDbEntity
  8
0
  6
CONTINUOUS
 62
     7
100
AcDbLine
 10
245.0
 20
306.0
 30
0.0
 11
245.0
 21
307.2
 31
0.0
  0
LINE
  5
317
100
AcDbEntity
  8
0
  6
CONTINUOUS
 62
     7
100
AcDbLine
 10
245.0
 20
306.0
 30
0.0
 11
265.0
 21
306.0
 31
0.0
  0
LINE
  5
318
100
AcDbEntity
  8
0
  6
CENTER
 62
     7
100
AcDbLine
 10
260.0
 20
301.0
 30
0.0
 11
260.0
 21
312.2
 31
0.0
  0
ARC
  5
319
100
AcDbEntity
  8
0
  6
CONTINUOUS
 62
     7
100
AcDbCircle
 10
210.0
 20
316.0
 30
0.0
 40
10.0
100
AcDbArc
 50
90.000003
 51
270.0
  0
CIRCLE
  5
31A
100
AcDbEntity
  8
0
  6
CONTINUOUS
 62
     7
100
AcDbCircle
 10
235.0
 20
316.0
 30
0.0
 40
3.5
  0
ARC
  5
31B
100
AcDbEntity
  8
0
  6
CONTINUOUS
 62
     7
100
AcDbCircle
 10
235.0
 20
316.0
 30
0.0
 40
10.5
100
AcDbArc
 50
116.0843
 51
210.0
  0
ARC
  5
31C
100
AcDbEntity
  8
0
  6
CONTINUOUS
 62
     7
100
AcDbCircle
 10
235.0
 20
316.0
 30
0.0
 40
6.2
100
AcDbArc
 50
148.46101
 51
179.118
  0
ARC
  5
31D
100
AcDbEntity
  8
0
  6
CONTINUOUS
 62
     7
100
AcDbCircle
 10
235.0
 20
316.0
 30
0.0
 40
10.0
100
AcDbArc
 50
184.225
 51
270.0
  0
ARC
  5
31E
100
AcDbEntity
  8
0
  6
CONTINUOUS
 62
     7
100
AcDbCircle
 10
235.0
 20
316.0
 30
0.0
 40
10.0
100
AcDbArc
 50
63.110326
 51
153.761
  0
ARC
  5
31F
100
AcDbEntity
  8
0
  6
CONTINUOUS
 62
     7
100
AcDbCircle
 10
226.479
 20
320.2
 30
0.0
 40
0.5
100
AcDbArc
 50
153.761
 51
270.0
  0
ARC
  5
320
100
AcDbEntity
  8
0
  6
CONTINUOUS
 62
     7
100
AcDbCircle
 10
228.5
 20
316.10001
 30
0.0
 40
0.3
100
AcDbArc
 50
270.001
 51
359.117
  0
ARC
  5
321
100
AcDbEntity
  8
0
  6
CONTINUOUS
 62
     7
100
AcDbCircle
 10
229.46002
 20
319.39999
 30
0.0
 40
0.3
100
AcDbArc
 50
328.46
 51
90.004101
  0
ARC
  5
322
100
AcDbEntity
  8
0
  6
CONTINUOUS
 62
     7
100
AcDbCircle
 10
225.52502
 20
315.3
 30
0.0
 40
0.5
100
AcDbArc
 50
89.998001
 51
184.22599
  0
ARC
  5
323
100
AcDbEntity
  8
0
  6
CONTINUOUS
 62
     7
100
AcDbCircle
 10
260.0
 20
308.929
 30
0.0
 40
5.0
100
AcDbArc
 50
0.0
 51
63.111699
  0
ARC
  5
324
100
AcDbEntity
  8
0
  6
CONTINUOUS
 62
     7
100
AcDbCircle
 10
243.5
 20
306.0
 30
0.0
 40
1.5
100
AcDbArc
 50
0.0
 51
180.00001
  0
ARC
  5
325
100
AcDbEntity
  8
0
  6
CONTINUOUS
 62
     7
100
AcDbCircle
 10
230.25132
 20
325.7
 30
0.0
 40
0.3
100
AcDbArc
 50
296.08429
 51
90.000003
  0
POINT
  5
326
100
AcDbEntity
  8
0
  6
CONTINUOUS
 62
     7
100
AcDbPoint
 10
250.0
 20
281.70001
 30
0.0
  0
POINT
  5
327
100
AcDbEntity
  8
0
  6
CONTINUOUS
 62
     7
100
AcDbPoint
 10
260.0
 20
281.70001
 30
0.0
  0
LINE
  5
328
100
AcDbEntity
  8
0
  6
CONTINUOUS
 62
     7
100
AcDbLine
 10
217.0
 20
273.00001
 30
0.0
 11
217.0
 21
259.00001
 31
0.0
  0
LINE
  5
329
100
AcDbEntity
  8
0
  6
CONTINUOUS
 62
     7
100
AcDbLine
 10
228.0
 20
273.00001
 30
0.0
 11
228.0
 21
259.00001
 31
0.0
  0
LINE
  5
32A
100
AcDbEntity
  8
0
  6
CENTER
 62
     7
100
AcDbLine
 10
250.0
 20
286.49001
 30
0.0
 11
250.0
 21
276.91001
 31
0.0
  0
LINE
  5
32B
100
AcDbEntity
  8
0
  6
CENTER
 62
     7
100
AcDbLine
 10
260.0
 20
254.55001
 30
0.0
 11
260.0
 21
246.05001
 31
0.0
  0
LINE
  5
32C
100
AcDbEntity
  8
0
  6
CONTINUOUS
 62
     7
100
AcDbLine
 10
228.64915
 20
275.70001
 30
0.0
 11
265.0
 21
275.70001
 31
0.0
  0
LINE
  5
32D
100
AcDbEntity
  8
0
  6
CENTER
 62
     7
100
AcDbLine
 10
254.25
 20
250.30001
 30
0.0
 11
245.75
 21
250.30001
 31
0.0
  0
LINE
  5
32E
100
AcDbEntity
  8
0
  6
CONTINUOUS
 62
     7
100
AcDbLine
 10
228.64915
 20
276.90001
 30
0.0
 11
245.0
 21
276.90001
 31
0.0
  0
LINE
  5
32F
100
AcDbEntity
  8
0
  6
CONTINUOUS
 62
     7
100
AcDbLine
 10
247.0
 20
285.70001
 30
0.0
 11
263.0
 21
285.70001
 31
0.0
  0
LINE
  5
330
100
AcDbEntity
  8
0
  6
CONTINUOUS
 62
     7
100
AcDbLine
 10
245.0
 20
273.00001
 30
0.0
 11
245.0
 21
283.70001
 31
0.0
  0
LINE
  5
331
100
AcDbEntity
  8
0
  6
CONTINUOUS
 62
     7
100
AcDbLine
 10
228.64915
 20
255.10001
 30
0.0
 11
245.0
 21
255.10001
 31
0.0
  0
LINE
  5
332
100
AcDbEntity
  8
0
  6
CONTINUOUS
 62
     7
100
AcDbLine
 10
216.35085
 20
259.00001
 30
0.0
 11
217.0
 21
259.00001
 31
0.0
  0
LINE
  5
333
100
AcDbEntity
  8
0
  6
CONTINUOUS
 62
     7
100
AcDbLine
 10
203.64915
 20
276.00001
 30
0.0
 11
216.35085
 21
276.00001
 31
0.0
  0
LINE
  5
334
100
AcDbEntity
  8
0
  6
CENTER
 62
     7
100
AcDbLine
 10
210.0
 20
286.00001
 30
0.0
 11
210.0
 21
246.00001
 31
0.0
  0
LINE
  5
335
100
AcDbEntity
  8
0
  6
CONTINUOUS
 62
     7
100
AcDbLine
 10
216.35085
 20
276.00001
 30
0.0
 11
216.35085
 21
273.00001
 31
0.0
  0
LINE
  5
336
100
AcDbEntity
  8
0
  6
CONTINUOUS
 62
     7
100
AcDbLine
 10
216.35085
 20
273.00001
 30
0.0
 11
217.0
 21
273.00001
 31
0.0
  0
LINE
  5
337
100
AcDbEntity
  8
0
  6
CONTINUOUS
 62
     7
100
AcDbLine
 10
203.64915
 20
256.00001
 30
0.0
 11
216.35085
 21
256.00001
 31
0.0
  0
LINE
  5
338
100
AcDbEntity
  8
0
  6
CENTER
 62
     7
100
AcDbLine
 10
235.0
 20
286.00001
 30
0.0
 11
235.0
 21
246.00001
 31
0.0
  0
LINE
  5
339
100
AcDbEntity
  8
0
  6
CONTINUOUS
 62
     7
100
AcDbLine
 10
203.64915
 20
279.00001
 30
0.0
 11
228.64915
 21
279.00001
 31
0.0
  0
LINE
  5
33A
100
AcDbEntity
  8
0
  6
CENTER
 62
     7
100
AcDbLine
 10
196.64915
 20
266.00001
 30
0.0
 11
247.61498
 21
266.00001
 31
0.0
  0
LINE
  5
33B
100
AcDbEntity
  8
0
  6
CONTINUOUS
 62
     7
100
AcDbLine
 10
203.64915
 20
253.00001
 30
0.0
 11
228.64915
 21
253.00001
 31
0.0
  0
LINE
  5
33C
100
AcDbEntity
  8
0
  6
CONTINUOUS
 62
     7
100
AcDbLine
 10
228.0
 20
273.00001
 30
0.0
 11
245.0
 21
273.00001
 31
0.0
  0
LINE
  5
33D
100
AcDbEntity
  8
0
  6
CONTINUOUS
 62
     7
100
AcDbLine
 10
228.0
 20
259.00001
 30
0.0
 11
245.0
 21
259.00001
 31
0.0
  0
LINE
  5
33E
100
AcDbEntity
  8
0
  6
CONTINUOUS
 62
     7
100
AcDbLine
 10
216.35085
 20
259.00001
 30
0.0
 11
216.35085
 21
256.00001
 31
0.0
  0
LINE
  5
33F
100
AcDbEntity
  8
0
  6
CONTINUOUS
 62
     7
100
AcDbLine
 10
265.0
 20
275.70001
 30
0.0
 11
265.0
 21
283.70001
 31
0.0
  0
LINE
  5
340
100
AcDbEntity
  8
0
  6
CONTINUOUS
 62
     7
100
AcDbLine
 10
247.0
 20
246.30001
 30
0.0
 11
263.0
 21
246.30001
 31
0.0
  0
LINE
  5
341
100
AcDbEntity
  8
0
  6
CENTER
 62
     7
100
AcDbLine
 10
264.25
 20
281.70001
 30
0.0
 11
255.75
 21
281.70001
 31
0.0
  0
LINE
  5
342
100
AcDbEntity
  8
0
  6
CENTER
 62
     7
100
AcDbLine
 10
260.0
 20
277.45001
 30
0.0
 11
260.0
 21
285.95001
 31
0.0
  0
LINE
  5
343
100
AcDbEntity
  8
0
  6
CENTER
 62
     7
100
AcDbLine
 10
254.79
 20
281.70001
 30
0.0
 11
245.21
 21
281.70001
 31
0.0
  0
LINE
  5
344
100
AcDbEntity
  8
0
  6
CONTINUOUS
 62
     7
100
AcDbLine
 10
245.0
 20
259.00001
 30
0.0
 11
245.0
 21
248.30001
 31
0.0
  0
LINE
  5
345
100
AcDbEntity
  8
0
  6
CONTINUOUS
 62
     7
100
AcDbLine
 10
228.64915
 20
256.30001
 30
0.0
 11
265.0
 21
256.30001
 31
0.0
  0
LINE
  5
346
100
AcDbEntity
  8
0
  6
CONTINUOUS
 62
     7
100
AcDbLine
 10
265.0
 20
256.30001
 30
0.0
 11
265.0
 21
248.30001
 31
0.0
  0
LINE
  5
347
100
AcDbEntity
  8
0
  6
CENTER
 62
     7
100
AcDbLine
 10
264.25
 20
250.30001
 30
0.0
 11
255.75
 21
250.30001
 31
0.0
  0
LINE
  5
348
100
AcDbEntity
  8
0
  6
CENTER
 62
     7
100
AcDbLine
 10
250.0
 20
254.55001
 30
0.0
 11
250.0
 21
246.05001
 31
0.0
  0
LINE
  5
349
100
AcDbEntity
  8
0
  6
CONTINUOUS
 62
     7
100
AcDbLine
 10
228.64915
 20
256.30001
 30
0.0
 11
228.64915
 21
253.00001
 31
0.0
  0
LINE
  5
34A
100
AcDbEntity
  8
0
  6
CONTINUOUS
 62
     7
100
AcDbLine
 10
228.64915
 20
279.00001
 30
0.0
 11
228.64915
 21
275.70001
 31
0.0
  0
CIRCLE
  5
34B
100
AcDbEntity
  8
0
  6
CONTINUOUS
 62
     7
100
AcDbCircle
 10
260.0
 20
281.70001
 30
0.0
 40
2.25
  0
CIRCLE
  5
34C
100
AcDbEntity
  8
0
  6
CONTINUOUS
 62
     7
100
AcDbCircle
 10
250.0
 20
281.70001
 30
0.0
 40
2.25
  0
ARC
  5
34D
100
AcDbEntity
  8
0
  6
CONTINUOUS
 62
     7
100
AcDbCircle
 10
263.0
 20
283.70001
 30
0.0
 40
2.0
100
AcDbArc
 50
0.0
 51
90.000003
  0
ARC
  5
34E
100
AcDbEntity
  8
0
  6
CONTINUOUS
 62
     7
100
AcDbCircle
 10
247.0
 20
283.70001
 30
0.0
 40
2.0
100
AcDbArc
 50
90.000003
 51
180.00001
  0
CIRCLE
  5
34F
100
AcDbEntity
  8
0
  6
CONTINUOUS
 62
     7
100
AcDbCircle
 10
260.0
 20
250.30001
 30
0.0
 40
2.25
  0
CIRCLE
  5
350
100
AcDbEntity
  8
0
  6
CONTINUOUS
 62
     7
100
AcDbCircle
 10
250.0
 20
250.30001
 30
0.0
 40
2.25
  0
ARC
  5
351
100
AcDbEntity
  8
0
  6
CONTINUOUS
 62
     7
100
AcDbCircle
 10
263.0
 20
248.30001
 30
0.0
 40
2.0
100
AcDbArc
 50
270.0
 51
0.0
  0
ARC
  5
352
100
AcDbEntity
  8
0
  6
CONTINUOUS
 62
     7
100
AcDbCircle
 10
247.0
 20
248.30001
 30
0.0
 40
2.0
100
AcDbArc
 50
179.99999
 51
270.0
  0
POINT
  5
353
100
AcDbEntity
  8
0
  6
CONTINUOUS
 62
     7
100
AcDbPoint
 10
300.0
 20
306.0
 30
0.0
  0
POINT
  5
354
100
AcDbEntity
  8
0
  6
CONTINUOUS
 62
     7
100
AcDbPoint
 10
331.4
 20
306.0
 30
0.0
  0
LINE
  5
355
100
AcDbEntity
  8
0
  6
CENTER
 62
     7
100
AcDbLine
 10
315.7
 20
333.0
 30
0.0
 11
315.7
 21
299.0
 31
0.0
  0
LINE
  5
356
100
AcDbEntity
  8
0
  6
CONTINUOUS
 62
     7
100
AcDbLine
 10
308.7
 20
309.0
 30
0.0
 11
322.7
 21
309.0
 31
0.0
  0
LINE
  5
357
100
AcDbEntity
  8
0
  6
CONTINUOUS
 62
     7
100
AcDbLine
 10
302.7
 20
326.0
 30
0.0
 11
302.7
 21
307.2
 31
0.0
  0
LINE
  5
358
100
AcDbEntity
  8
0
  6
CONTINUOUS
 62
     7
100
AcDbLine
 10
328.7
 20
326.0
 30
0.0
 11
328.7
 21
307.2
 31
0.0
  0
LINE
  5
359
100
AcDbEntity
  8
0
  6
CENTER
 62
     7
100
AcDbLine
 10
295.7
 20
316.0
 30
0.0
 11
335.7
 21
316.0
 31
0.0
  0
LINE
  5
35A
100
AcDbEntity
  8
0
  6
CONTINUOUS
 62
     7
100
AcDbLine
 10
322.7
 20
326.0
 30
0.0
 11
322.7
 21
306.0
 31
0.0
  0
LINE
  5
35B
100
AcDbEntity
  8
0
  6
CONTINUOUS
 62
     7
100
AcDbLine
 10
308.7
 20
326.0
 30
0.0
 11
308.7
 21
306.0
 31
0.0
  0
LINE
  5
35C
100
AcDbEntity
  8
0
  6
CONTINUOUS
 62
     7
100
AcDbLine
 10
335.4
 20
306.0
 30
0.0
 11
335.4
 21
307.2
 31
0.0
  0
LINE
  5
35D
100
AcDbEntity
  8
0
  6
CONTINUOUS
 62
     7
100
AcDbLine
 10
302.7
 20
326.0
 30
0.0
 11
308.7
 21
326.0
 31
0.0
  0
LINE
  5
35E
100
AcDbEntity
  8
0
  6
CONTINUOUS
 62
     7
100
AcDbLine
 10
326.6
 20
307.2
 30
0.0
 11
326.6
 21
326.0
 31
0.0
  0
LINE
  5
35F
100
AcDbEntity
  8
0
  6
CONTINUOUS
 62
     7
100
AcDbLine
 10
335.4
 20
307.2
 30
0.0
 11
326.6
 21
307.2
 31
0.0
  0
LINE
  5
360
100
AcDbEntity
  8
0
  6
CONTINUOUS
 62
     7
100
AcDbLine
 10
325.4
 20
306.0
 30
0.0
 11
325.4
 21
326.0
 31
0.0
  0
LINE
  5
361
100
AcDbEntity
  8
0
  6
CONTINUOUS
 62
     7
100
AcDbLine
 10
308.7
 20
325.7
 30
0.0
 11
322.7
 21
325.7
 31
0.0
  0
LINE
  5
362
100
AcDbEntity
  8
0
  6
CONTINUOUS
 62
     7
100
AcDbLine
 10
306.0
 20
306.0
 30
0.0
 11
306.0
 21
326.0
 31
0.0
  0
LINE
  5
363
100
AcDbEntity
  8
0
  6
CONTINUOUS
 62
     7
100
AcDbLine
 10
296.0
 20
307.2
 30
0.0
 11
304.8
 21
307.2
 31
0.0
  0
LINE
  5
364
100
AcDbEntity
  8
0
  6
CONTINUOUS
 62
     7
100
AcDbLine
 10
304.8
 20
307.2
 30
0.0
 11
304.8
 21
326.0
 31
0.0
  0
LINE
  5
365
100
AcDbEntity
  8
0
  6
CONTINUOUS
 62
     7
100
AcDbLine
 10
296.0
 20
306.0
 30
0.0
 11
335.4
 21
306.0
 31
0.0
  0
LINE
  5
366
100
AcDbEntity
  8
0
  6
CONTINUOUS
 62
     7
100
AcDbLine
 10
296.0
 20
306.0
 30
0.0
 11
296.0
 21
307.2
 31
0.0
  0
LINE
  5
367
100
AcDbEntity
  8
0
  6
CONTINUOUS
 62
     7
100
AcDbLine
 10
322.7
 20
326.0
 30
0.0
 11
328.7
 21
326.0
 31
0.0
  0
LINE
  5
368
100
AcDbEntity
  8
0
  6
CONTINUOUS
 62
     7
100
AcDbLine
 10
308.7
 20
323.0
 30
0.0
 11
322.7
 21
323.0
 31
0.0
  0
LINE
  5
369
100
AcDbEntity
  8
0
  6
CENTER
 62
     7
100
AcDbLine
 10
331.4
 20
310.7
 30
0.0
 11
331.4
 21
300.7
 31
0.0
  0
LINE
  5
36A
100
AcDbEntity
  8
0
  6
CENTER
 62
     7
100
AcDbLine
 10
300.0
 20
310.7
 30
0.0
 11
300.0
 21
300.7
 31
0.0
  0
POINT
  5
36B
100
AcDbEntity
  8
0
  6
CONTINUOUS
 62
     7
100
AcDbPoint
 10
-205.0
 20
157.0
 30
0.0
  0
POINT
  5
36C
100
AcDbEntity
  8
0
  6
CONTINUOUS
 62
     7
100
AcDbPoint
 10
-195.0
 20
157.0
 30
0.0
  0
LINE
  5
36D
100
AcDbEntity
  8
0
  6
CONTINUOUS
 62
     7
100
AcDbLine
 10
-238.64915
 20
174.0
 30
0.0
 11
-238.64915
 21
171.0
 31
0.0
  0
LINE
  5
36E
100
AcDbEntity
  8
0
  6
CONTINUOUS
 62
     7
100
AcDbLine
 10
-238.64915
 20
151.0
 30
0.0
 11
-238.64915
 21
148.0
 31
0.0
  0
LINE
  5
36F
100
AcDbEntity
  8
0
  6
CENTER
 62
     7
100
AcDbLine
 10
-220.0
 20
141.0
 30
0.0
 11
-220.0
 21
181.0
 31
0.0
  0
LINE
  5
370
100
AcDbEntity
  8
0
  6
CONTINUOUS
 62
     7
100
AcDbLine
 10
-210.0
 20
148.0
 30
0.0
 11
-238.64915
 21
148.0
 31
0.0
  0
LINE
  5
371
100
AcDbEntity
  8
0
  6
CONTINUOUS
 62
     7
100
AcDbLine
 10
-226.35085
 20
168.0
 30
0.0
 11
-227.0
 21
168.0
 31
0.0
  0
LINE
  5
372
100
AcDbEntity
  8
0
  6
CONTINUOUS
 62
     7
100
AcDbLine
 10
-226.35085
 20
171.0
 30
0.0
 11
-226.35085
 21
168.0
 31
0.0
  0
LINE
  5
373
100
AcDbEntity
  8
0
  6
CENTER
 62
     7
100
AcDbLine
 10
-245.0
 20
141.0
 30
0.0
 11
-245.0
 21
181.0
 31
0.0
  0
LINE
  5
374
100
AcDbEntity
  8
0
  6
CONTINUOUS
 62
     7
100
AcDbLine
 10
-226.35085
 20
154.0
 30
0.0
 11
-226.35085
 21
151.0
 31
0.0
  0
LINE
  5
375
100
AcDbEntity
  8
0
  6
CONTINUOUS
 62
     7
100
AcDbLine
 10
-226.35085
 20
171.0
 30
0.0
 11
-190.0
 21
171.0
 31
0.0
  0
LINE
  5
376
100
AcDbEntity
  8
0
  6
CENTER
 62
     7
100
AcDbLine
 10
-207.38502
 20
161.0
 30
0.0
 11
-258.35085
 21
161.0
 31
0.0
  0
LINE
  5
377
100
AcDbEntity
  8
0
  6
CONTINUOUS
 62
     7
100
AcDbLine
 10
-210.0
 20
174.0
 30
0.0
 11
-238.64915
 21
174.0
 31
0.0
  0
LINE
  5
378
100
AcDbEntity
  8
0
  6
CONTINUOUS
 62
     7
100
AcDbLine
 10
-226.35085
 20
154.0
 30
0.0
 11
-227.0
 21
154.0
 31
0.0
  0
LINE
  5
379
100
AcDbEntity
  8
0
  6
CONTINUOUS
 62
     7
100
AcDbLine
 10
-238.64915
 20
171.0
 30
0.0
 11
-251.35085
 21
171.0
 31
0.0
  0
LINE
  5
37A
100
AcDbEntity
  8
0
  6
CONTINUOUS
 62
     7
100
AcDbLine
 10
-238.0
 20
154.0
 30
0.0
 11
-251.35085
 21
154.0
 31
0.0
  0
LINE
  5
37B
100
AcDbEntity
  8
0
  6
CONTINUOUS
 62
     7
100
AcDbLine
 10
-238.0
 20
168.0
 30
0.0
 11
-251.35085
 21
168.0
 31
0.0
  0
LINE
  5
37C
100
AcDbEntity
  8
0
  6
CONTINUOUS
 62
     7
100
AcDbLine
 10
-238.64915
 20
151.0
 30
0.0
 11
-251.35085
 21
151.0
 31
0.0
  0
LINE
  5
37D
100
AcDbEntity
  8
0
  6
CONTINUOUS
 62
     7
100
AcDbLine
 10
-190.0
 20
171.0
 30
0.0
 11
-190.0
 21
163.0
 31
0.0
  0
LINE
  5
37E
100
AcDbEntity
  8
0
  6
CONTINUOUS
 62
     7
100
AcDbLine
 10
-210.0
 20
174.0
 30
0.0
 11
-210.0
 21
171.0
 31
0.0
  0
LINE
  5
37F
100
AcDbEntity
  8
0
  6
CENTER
 62
     7
100
AcDbLine
 10
-190.75
 20
165.0
 30
0.0
 11
-199.25
 21
165.0
 31
0.0
  0
LINE
  5
380
100
AcDbEntity
  8
0
  6
CENTER
 62
     7
100
AcDbLine
 10
-195.0
 20
169.25
 30
0.0
 11
-195.0
 21
160.75
 31
0.0
  0
LINE
  5
381
100
AcDbEntity
  8
0
  6
CENTER
 62
     7
100
AcDbLine
 10
-200.75
 20
165.0
 30
0.0
 11
-209.25
 21
165.0
 31
0.0
  0
LINE
  5
382
100
AcDbEntity
  8
0
  6
CENTER
 62
     7
100
AcDbLine
 10
-205.0
 20
169.25
 30
0.0
 11
-205.0
 21
160.75
 31
0.0
  0
LINE
  5
383
100
AcDbEntity
  8
0
  6
CONTINUOUS
 62
     7
100
AcDbLine
 10
-226.35085
 20
151.0
 30
0.0
 11
-190.0
 21
151.0
 31
0.0
  0
LINE
  5
384
100
AcDbEntity
  8
0
  6
CONTINUOUS
 62
     7
100
AcDbLine
 10
-226.35085
 20
169.8
 30
0.0
 11
-190.0
 21
169.8
 31
0.0
  0
LINE
  5
385
100
AcDbEntity
  8
0
  6
CONTINUOUS
 62
     7
100
AcDbLine
 10
-210.0
 20
169.8
 30
0.0
 11
-210.0
 21
163.0
 31
0.0
  0
LINE
  5
386
100
AcDbEntity
  8
0
  6
CONTINUOUS
 62
     7
100
AcDbLine
 10
-208.0
 20
161.0
 30
0.0
 11
-192.0
 21
161.0
 31
0.0
  0
LINE
  5
387
100
AcDbEntity
  8
0
  6
CONTINUOUS
 62
     7
100
AcDbLine
 10
-190.0
 20
151.0
 30
0.0
 11
-190.0
 21
159.0
 31
0.0
  0
LINE
  5
388
100
AcDbEntity
  8
0
  6
CENTER
 62
     7
100
AcDbLine
 10
-190.75
 20
157.0
 30
0.0
 11
-199.25
 21
157.0
 31
0.0
  0
LINE
  5
389
100
AcDbEntity
  8
0
  6
CENTER
 62
     7
100
AcDbLine
 10
-200.75
 20
157.0
 30
0.0
 11
-209.25
 21
157.0
 31
0.0
  0
LINE
  5
38A
100
AcDbEntity
  8
0
  6
CONTINUOUS
 62
     7
100
AcDbLine
 10
-226.35085
 20
152.2
 30
0.0
 11
-190.0
 21
152.2
 31
0.0
  0
LINE
  5
38B
100
AcDbEntity
  8
0
  6
CONTINUOUS
 62
     7
100
AcDbLine
 10
-210.0
 20
152.2
 30
0.0
 11
-210.0
 21
159.0
 31
0.0
  0
LINE
  5
38C
100
AcDbEntity
  8
0
  6
CONTINUOUS
 62
     7
100
AcDbLine
 10
-208.0
 20
161.0
 30
0.0
 11
-192.0
 21
161.0
 31
0.0
  0
LINE
  5
38D
100
AcDbEntity
  8
0
  6
CENTER
 62
     7
100
AcDbLine
 10
-195.0
 20
152.75
 30
0.0
 11
-195.0
 21
161.25
 31
0.0
  0
LINE
  5
38E
100
AcDbEntity
  8
0
  6
CONTINUOUS
 62
     7
100
AcDbLine
 10
-210.0
 20
148.0
 30
0.0
 11
-210.0
 21
151.0
 31
0.0
  0
LINE
  5
38F
100
AcDbEntity
  8
0
  6
CENTER
 62
     7
100
AcDbLine
 10
-205.0
 20
152.75
 30
0.0
 11
-205.0
 21
161.25
 31
0.0
  0
LINE
  5
390
100
AcDbEntity
  8
0
  6
CONTINUOUS
 62
     7
100
AcDbLine
 10
-238.0
 20
154.0
 30
0.0
 11
-238.0
 21
168.0
 31
0.0
  0
LINE
  5
391
100
AcDbEntity
  8
0
  6
CONTINUOUS
 62
     7
100
AcDbLine
 10
-227.0
 20
154.0
 30
0.0
 11
-227.0
 21
168.0
 31
0.0
  0
CIRCLE
  5
392
100
AcDbEntity
  8
0
  6
CONTINUOUS
 62
     7
100
AcDbCircle
 10
-195.0
 20
165.0
 30
0.0
 40
2.25
  0
CIRCLE
  5
393
100
AcDbEntity
  8
0
  6
CONTINUOUS
 62
     7
100
AcDbCircle
 10
-205.0
 20
165.0
 30
0.0
 40
2.25
  0
ARC
  5
394
100
AcDbEntity
  8
0
  6
CONTINUOUS
 62
     7
100
AcDbCircle
 10
-192.0
 20
163.0
 30
0.0
 40
2.0
100
AcDbArc
 50
270.0
 51
0.0
  0
ARC
  5
395
100
AcDbEntity
  8
0
  6
CONTINUOUS
 62
     7
100
AcDbCircle
 10
-208.0
 20
163.0
 30
0.0
 40
2.0
100
AcDbArc
 50
179.99999
 51
270.0
  0
CIRCLE
  5
396
100
AcDbEntity
  8
0
  6
CONTINUOUS
 62
     7
100
AcDbCircle
 10
-195.0
 20
157.0
 30
0.0
 40
2.25
  0
CIRCLE
  5
397
100
AcDbEntity
  8
0
  6
CONTINUOUS
 62
     7
100
AcDbCircle
 10
-205.0
 20
157.0
 30
0.0
 40
2.25
  0
ARC
  5
398
100
AcDbEntity
  8
0
  6
CONTINUOUS
 62
     7
100
AcDbCircle
 10
-192.0
 20
159.0
 30
0.0
 40
2.0
100
AcDbArc
 50
0.0
 51
90.000003
  0
ARC
  5
399
100
AcDbEntity
  8
0
  6
CONTINUOUS
 62
     7
100
AcDbCircle
 10
-208.0
 20
159.0
 30
0.0
 40
2.0
100
AcDbArc
 50
90.000003
 51
180.00001
  0
POINT
  5
39A
100
AcDbEntity
  8
0
  6
CONTINUOUS
 62
     7
100
AcDbPoint
 10
-205.0
 20
101.0
 30
0.0
  0
POINT
  5
39B
100
AcDbEntity
  8
0
  6
CONTINUOUS
 62
     7
100
AcDbPoint
 10
-195.0
 20
101.0
 30
0.0
  0
LINE
  5
39C
100
AcDbEntity
  8
0
  6
DASHED
 62
     7
100
AcDbLine
 10
-210.0
 20
101.0
 30
0.0
 11
-210.0
 21
102.2
 31
0.0
  0
LINE
  5
39D
100
AcDbEntity
  8
0
  6
CENTER
 62
     7
100
AcDbLine
 10
-195.0
 20
96.0
 30
0.0
 11
-195.0
 21
107.2
 31
0.0
  0
LINE
  5
39E
100
AcDbEntity
  8
0
  6
CENTER
 62
     7
100
AcDbLine
 10
-205.0
 20
96.0
 30
0.0
 11
-205.0
 21
107.2
 31
0.0
  0
LINE
  5
39F
100
AcDbEntity
  8
0
  6
CONTINUOUS
 62
     7
100
AcDbLine
 10
-235.90673
 20
116.25
 30
0.0
 11
-238.64915
 21
120.99999
 31
0.0
  0
LINE
  5
3A0
100
AcDbEntity
  8
0
  6
CONTINUOUS
 62
     7
100
AcDbLine
 10
-243.0
 20
108.12771
 30
0.0
 11
-243.0
 21
113.87228
 31
0.0
  0
LINE
  5
3A1
100
AcDbEntity
  8
0
  6
CENTER
 62
     7
100
AcDbLine
 10
-239.5
 20
111.0
 30
0.0
 11
-250.5
 21
111.0
 31
0.0
  0
LINE
  5
3A2
100
AcDbEntity
  8
0
  6
CENTER
 62
     7
100
AcDbLine
 10
-245.0
 20
105.5
 30
0.0
 11
-245.0
 21
116.5
 31
0.0
  0
LINE
  5
3A3
100
AcDbEntity
  8
0
  6
CENTER
 62
     7
100
AcDbLine
 10
-214.5
 20
111.0
 30
0.0
 11
-225.5
 21
111.0
 31
0.0
  0
LINE
  5
3A4
100
AcDbEntity
  8
0
  6
CENTER
 62
     7
100
AcDbLine
 10
-220.0
 20
105.5
 30
0.0
 11
-220.0
 21
116.5
 31
0.0
  0
LINE
  5
3A5
100
AcDbEntity
  8
0
  6
CONTINUOUS
 62
     7
100
AcDbLine
 10
-220.0
 20
121.0
 30
0.0
 11
-245.0
 21
121.0
 31
0.0
  0
LINE
  5
3A6
100
AcDbEntity
  8
0
  6
CONTINUOUS
 62
     7
100
AcDbLine
 10
-213.0
 20
101.0
 30
0.0
 11
-245.0
 21
101.0
 31
0.0
  0
LINE
  5
3A7
100
AcDbEntity
  8
0
  6
DASHED
 62
     7
100
AcDbLine
 10
-190.0
 20
102.2
 30
0.0
 11
-210.0
 21
102.2
 31
0.0
  0
LINE
  5
3A8
100
AcDbEntity
  8
0
  6
CONTINUOUS
 62
     7
100
AcDbLine
 10
-192.73901
 20
108.38869
 30
0.0
 11
-215.47726
 21
119.91902
 31
0.0
  0
LINE
  5
3A9
100
AcDbEntity
  8
0
  6
CONTINUOUS
 62
     7
100
AcDbLine
 10
-190.0
 20
101.0
 30
0.0
 11
-190.0
 21
103.9293
 31
0.0
  0
LINE
  5
3AA
100
AcDbEntity
  8
0
  6
CONTINUOUS
 62
     7
100
AcDbLine
 10
-190.0
 20
101.0
 30
0.0
 11
-210.0
 21
101.0
 31
0.0
  0
ARC
  5
3AB
100
AcDbEntity
  8
0
  6
CONTINUOUS
 62
     7
100
AcDbCircle
 10
-220.0
 20
111.0
 30
0.0
 40
10.0
100
AcDbArc
 50
270.0
 51
90.000003
  0
CIRCLE
  5
3AC
100
AcDbEntity
  8
0
  6
CONTINUOUS
 62
     7
100
AcDbCircle
 10
-245.0
 20
111.0
 30
0.0
 40
3.5
  0
ARC
  5
3AD
100
AcDbEntity
  8
0
  6
CONTINUOUS
 62
     7
100
AcDbCircle
 10
-245.0
 20
111.0
 30
0.0
 40
10.5
100
AcDbArc
 50
296.08429
 51
30.000001
  0
CIRCLE
  5
3AE
100
AcDbEntity
  8
0
  6
CONTINUOUS
 62
     7
100
AcDbCircle
 10
-220.0
 20
111.0
 30
0.0
 40
3.5
  0
ARC
  5
3AF
100
AcDbEntity
  8
0
  6
CONTINUOUS
 62
     7
100
AcDbCircle
 10
-195.0
 20
103.9293
 30
0.0
 40
5.0
100
AcDbArc
 50
0.0
 51
63.111699
  0
ARC
  5
3B0
100
AcDbEntity
  8
0
  6
CONTINUOUS
 62
     7
100
AcDbCircle
 10
-211.5
 20
101.0
 30
0.0
 40
1.5
100
AcDbArc
 50
0.0
 51
180.00001
  0
ARC
  5
3B1
100
AcDbEntity
  8
0
  6
CONTINUOUS
 62
     7
100
AcDbCircle
 10
-240.25132
 20
101.3
 30
0.0
 40
0.3
100
AcDbArc
 50
116.0843
 51
270.0
  0
POINT
  5
3B2
100
AcDbEntity
  8
0
  6
CONTINUOUS
 62
     7
100
AcDbPoint
 10
-205.0
 20
65.0
 30
0.0
  0
POINT
  5
3B3
100
AcDbEntity
  8
0
  6
CONTINUOUS
 62
     7
100
AcDbPoint
 10
-195.0
 20
65.0
 30
0.0
  0
LINE
  5
3B4
100
AcDbEntity
  8
0
  6
CONTINUOUS
 62
     7
100
AcDbLine
 10
-224.44868
 20
71.0
 30
0.0
 11
-190.0
 21
71.0
 31
0.0
  0
LINE
  5
3B5
100
AcDbEntity
  8
0
  6
CENTER
 62
     7
100
AcDbLine
 10
-209.79844
 20
61.0
 30
0.0
 11
-256.44868
 21
61.0
 31
0.0
  0
LINE
  5
3B6
100
AcDbEntity
  8
0
  6
CONTINUOUS
 62
     7
100
AcDbLine
 10
-210.0
 20
74.0
 30
0.0
 11
-240.55132
 21
74.0
 31
0.0
  0
LINE
  5
3B7
100
AcDbEntity
  8
0
  6
CENTER
 62
     7
100
AcDbLine
 10
-220.0
 20
41.0
 30
0.0
 11
-220.0
 21
81.0
 31
0.0
  0
LINE
  5
3B8
100
AcDbEntity
  8
0
  6
CONTINUOUS
 62
     7
100
AcDbLine
 10
-210.0
 20
48.0
 30
0.0
 11
-240.55132
 21
48.0
 31
0.0
  0
LINE
  5
3B9
100
AcDbEntity
  8
0
  6
CENTER
 62
     7
100
AcDbLine
 10
-245.0
 20
41.0
 30
0.0
 11
-245.0
 21
81.0
 31
0.0
  0
LINE
  5
3BA
100
AcDbEntity
  8
0
  6
CONTINUOUS
 62
     7
100
AcDbLine
 10
-224.44868
 20
54.0
 30
0.0
 11
-229.6
 21
54.0
 31
0.0
  0
LINE
  5
3BB
100
AcDbEntity
  8
0
  6
CONTINUOUS
 62
     7
100
AcDbLine
 10
-224.44868
 20
68.0
 30
0.0
 11
-229.6
 21
68.0
 31
0.0
  0
LINE
  5
3BC
100
AcDbEntity
  8
0
  6
CONTINUOUS
 62
     7
100
AcDbLine
 10
-229.6
 20
49.5
 30
0.0
 11
-235.4
 21
49.5
 31
0.0
  0
LINE
  5
3BD
100
AcDbEntity
  8
0
  6
CONTINUOUS
 62
     7
100
AcDbLine
 10
-229.6
 20
72.5
 30
0.0
 11
-235.4
 21
72.5
 31
0.0
  0
LINE
  5
3BE
100
AcDbEntity
  8
0
  6
CONTINUOUS
 62
     7
100
AcDbLine
 10
-229.6
 20
48.9
 30
0.0
 11
-235.4
 21
48.9
 31
0.0
  0
LINE
  5
3BF
100
AcDbEntity
  8
0
  6
CONTINUOUS
 62
     7
100
AcDbLine
 10
-229.6
 20
73.1
 30
0.0
 11
-235.4
 21
73.1
 31
0.0
  0
LINE
  5
3C0
100
AcDbEntity
  8
0
  6
CENTER
 62
     7
100
AcDbLine
 10
-227.6
 20
51.75
 30
0.0
 11
-237.4
 21
51.75
 31
0.0
  0
LINE
  5
3C1
100
AcDbEntity
  8
0
  6
CONTINUOUS
 62
     7
100
AcDbLine
 10
-235.4
 20
48.9
 30
0.0
 11
-235.4
 21
54.0
 31
0.0
  0
LINE
  5
3C2
100
AcDbEntity
  8
0
  6
CONTINUOUS
 62
     7
100
AcDbLine
 10
-229.6
 20
48.9
 30
0.0
 11
-229.6
 21
54.0
 31
0.0
  0
LINE
  5
3C3
100
AcDbEntity
  8
0
  6
CONTINUOUS
 62
     7
100
AcDbLine
 10
-229.6
 20
68.0
 30
0.0
 11
-229.6
 21
73.1
 31
0.0
  0
LINE
  5
3C4
100
AcDbEntity
  8
0
  6
CONTINUOUS
 62
     7
100
AcDbLine
 10
-235.4
 20
68.0
 30
0.0
 11
-235.4
 21
73.1
 31
0.0
  0
LINE
  5
3C5
100
AcDbEntity
  8
0
  6
CENTER
 62
     7
100
AcDbLine
 10
-227.6
 20
70.25
 30
0.0
 11
-237.4
 21
70.25
 31
0.0
  0
LINE
  5
3C6
100
AcDbEntity
  8
0
  6
CONTINUOUS
 62
     7
100
AcDbLine
 10
-240.55132
 20
71.0
 30
0.0
 11
-249.44868
 21
71.0
 31
0.0
  0
LINE
  5
3C7
100
AcDbEntity
  8
0
  6
CONTINUOUS
 62
     7
100
AcDbLine
 10
-235.4
 20
54.0
 30
0.0
 11
-249.44868
 21
54.0
 31
0.0
  0
LINE
  5
3C8
100
AcDbEntity
  8
0
  6
CONTINUOUS
 62
     7
100
AcDbLine
 10
-235.4
 20
68.0
 30
0.0
 11
-249.44868
 21
68.0
 31
0.0
  0
LINE
  5
3C9
100
AcDbEntity
  8
0
  6
CONTINUOUS
 62
     7
100
AcDbLine
 10
-224.44868
 20
71.0
 30
0.0
 11
-224.44868
 21
68.0
 31
0.0
  0
LINE
  5
3CA
100
AcDbEntity
  8
0
  6
CONTINUOUS
 62
     7
100
AcDbLine
 10
-227.5
 20
54.0
 30
0.0
 11
-227.5
 21
68.0
 31
0.0
  0
LINE
  5
3CB
100
AcDbEntity
  8
0
  6
CONTINUOUS
 62
     7
100
AcDbLine
 10
-237.5
 20
54.0
 30
0.0
 11
-237.5
 21
68.0
 31
0.0
  0
LINE
  5
3CC
100
AcDbEntity
  8
0
  6
CONTINUOUS
 62
     7
100
AcDbLine
 10
-240.55132
 20
51.0
 30
0.0
 11
-249.44868
 21
51.0
 31
0.0
  0
LINE
  5
3CD
100
AcDbEntity
  8
0
  6
CONTINUOUS
 62
     7
100
AcDbLine
 10
-240.55132
 20
51.0
 30
0.0
 11
-240.55132
 21
48.0
 31
0.0
  0
LINE
  5
3CE
100
AcDbEntity
  8
0
  6
CONTINUOUS
 62
     7
100
AcDbLine
 10
-190.0
 20
71.0
 30
0.0
 11
-190.0
 21
63.0
 31
0.0
  0
LINE
  5
3CF
100
AcDbEntity
  8
0
  6
CENTER
 62
     7
100
AcDbLine
 10
-190.75
 20
65.0
 30
0.0
 11
-199.25
 21
65.0
 31
0.0
  0
LINE
  5
3D0
100
AcDbEntity
  8
0
  6
CENTER
 62
     7
100
AcDbLine
 10
-195.0
 20
69.25
 30
0.0
 11
-195.0
 21
60.75
 31
0.0
  0
LINE
  5
3D1
100
AcDbEntity
  8
0
  6
CENTER
 62
     7
100
AcDbLine
 10
-200.75
 20
65.0
 30
0.0
 11
-209.25
 21
65.0
 31
0.0
  0
LINE
  5
3D2
100
AcDbEntity
  8
0
  6
CENTER
 62
     7
100
AcDbLine
 10
-205.0
 20
69.25
 30
0.0
 11
-205.0
 21
60.75
 31
0.0
  0
LINE
  5
3D3
100
AcDbEntity
  8
0
  6
CONTINUOUS
 62
     7
100
AcDbLine
 10
-224.44868
 20
51.0
 30
0.0
 11
-190.0
 21
51.0
 31
0.0
  0
LINE
  5
3D4
100
AcDbEntity
  8
0
  6
CONTINUOUS
 62
     7
100
AcDbLine
 10
-224.44868
 20
69.8
 30
0.0
 11
-210.0
 21
69.8
 31
0.0
  0
LINE
  5
3D5
100
AcDbEntity
  8
0
  6
CONTINUOUS
 62
     7
100
AcDbLine
 10
-210.0
 20
74.0
 30
0.0
 11
-210.0
 21
63.0
 31
0.0
  0
LINE
  5
3D6
100
AcDbEntity
  8
0
  6
CONTINUOUS
 62
     7
100
AcDbLine
 10
-208.0
 20
61.0
 30
0.0
 11
-192.0
 21
61.0
 31
0.0
  0
LINE
  5
3D7
100
AcDbEntity
  8
0
  6
CONTINUOUS
 62
     7
100
AcDbLine
 10
-190.0
 20
51.0
 30
0.0
 11
-190.0
 21
59.0
 31
0.0
  0
LINE
  5
3D8
100
AcDbEntity
  8
0
  6
CENTER
 62
     7
100
AcDbLine
 10
-190.75
 20
57.0
 30
0.0
 11
-199.25
 21
57.0
 31
0.0
  0
LINE
  5
3D9
100
AcDbEntity
  8
0
  6
CENTER
 62
     7
100
AcDbLine
 10
-200.75
 20
57.0
 30
0.0
 11
-209.25
 21
57.0
 31
0.0
  0
LINE
  5
3DA
100
AcDbEntity
  8
0
  6
CONTINUOUS
 62
     7
100
AcDbLine
 10
-224.44868
 20
52.2
 30
0.0
 11
-210.0
 21
52.2
 31
0.0
  0
LINE
  5
3DB
100
AcDbEntity
  8
0
  6
CONTINUOUS
 62
     7
100
AcDbLine
 10
-210.0
 20
48.0
 30
0.0
 11
-210.0
 21
59.0
 31
0.0
  0
LINE
  5
3DC
100
AcDbEntity
  8
0
  6
CONTINUOUS
 62
     7
100
AcDbLine
 10
-208.0
 20
61.0
 30
0.0
 11
-192.0
 21
61.0
 31
0.0
  0
LINE
  5
3DD
100
AcDbEntity
  8
0
  6
CENTER
 62
     7
100
AcDbLine
 10
-195.0
 20
52.75
 30
0.0
 11
-195.0
 21
61.25
 31
0.0
  0
LINE
  5
3DE
100
AcDbEntity
  8
0
  6
CENTER
 62
     7
100
AcDbLine
 10
-205.0
 20
52.75
 30
0.0
 11
-205.0
 21
61.25
 31
0.0
  0
LINE
  5
3DF
100
AcDbEntity
  8
0
  6
CONTINUOUS
 62
     7
100
AcDbLine
 10
-224.44868
 20
54.0
 30
0.0
 11
-224.44868
 21
48.0
 31
0.0
  0
LINE
  5
3E0
100
AcDbEntity
  8
0
  6
CONTINUOUS
 62
     7
100
AcDbLine
 10
-240.55132
 20
74.0
 30
0.0
 11
-240.55132
 21
71.0
 31
0.0
  0
LINE
  5
3E1
100
AcDbEntity
  8
0
  6
CONTINUOUS
 62
     7
100
AcDbLine
 10
-238.0
 20
54.0
 30
0.0
 11
-238.0
 21
68.0
 31
0.0
  0
LINE
  5
3E2
100
AcDbEntity
  8
0
  6
CONTINUOUS
 62
     7
100
AcDbLine
 10
-227.0
 20
54.0
 30
0.0
 11
-227.0
 21
68.0
 31
0.0
  0
CIRCLE
  5
3E3
100
AcDbEntity
  8
0
  6
CONTINUOUS
 62
     7
100
AcDbCircle
 10
-195.0
 20
65.0
 30
0.0
 40
2.25
  0
CIRCLE
  5
3E4
100
AcDbEntity
  8
0
  6
CONTINUOUS
 62
     7
100
AcDbCircle
 10
-205.0
 20
65.0
 30
0.0
 40
2.25
  0
ARC
  5
3E5
100
AcDbEntity
  8
0
  6
CONTINUOUS
 62
     7
100
AcDbCircle
 10
-192.0
 20
63.0
 30
0.0
 40
2.0
100
AcDbArc
 50
270.0
 51
0.0
  0
ARC
  5
3E6
100
AcDbEntity
  8
0
  6
CONTINUOUS
 62
     7
100
AcDbCircle
 10
-208.0
 20
63.0
 30
0.0
 40
2.0
100
AcDbArc
 50
179.99999
 51
270.0
  0
CIRCLE
  5
3E7
100
AcDbEntity
  8
0
  6
CONTINUOUS
 62
     7
100
AcDbCircle
 10
-195.0
 20
57.0
 30
0.0
 40
2.25
  0
CIRCLE
  5
3E8
100
AcDbEntity
  8
0
  6
CONTINUOUS
 62
     7
100
AcDbCircle
 10
-205.0
 20
57.0
 30
0.0
 40
2.25
  0
ARC
  5
3E9
100
AcDbEntity
  8
0
  6
CONTINUOUS
 62
     7
100
AcDbCircle
 10
-192.0
 20
59.0
 30
0.0
 40
2.0
100
AcDbArc
 50
0.0
 51
90.000003
  0
ARC
  5
3EA
100
AcDbEntity
  8
0
  6
CONTINUOUS
 62
     7
100
AcDbCircle
 10
-208.0
 20
59.0
 30
0.0
 40
2.0
100
AcDbArc
 50
90.000003
 51
180.00001
  0
POINT
  5
3EB
100
AcDbEntity
  8
0
  6
CONTINUOUS
 62
     7
100
AcDbPoint
 10
-155.0
 20
101.0
 30
0.0
  0
POINT
  5
3EC
100
AcDbEntity
  8
0
  6
CONTINUOUS
 62
     7
100
AcDbPoint
 10
-147.0
 20
101.0
 30
0.0
  0
LINE
  5
3ED
100
AcDbEntity
  8
0
  6
CONTINUOUS
 62
     7
100
AcDbLine
 10
-138.0
 20
121.0
 30
0.0
 11
-138.0
 21
101.0
 31
0.0
  0
LINE
  5
3EE
100
AcDbEntity
  8
0
  6
CENTER
 62
     7
100
AcDbLine
 10
-155.0
 20
96.0
 30
0.0
 11
-155.0
 21
106.0
 31
0.0
  0
LINE
  5
3EF
100
AcDbEntity
  8
0
  6
CENTER
 62
     7
100
AcDbLine
 10
-171.0
 20
111.0
 30
0.0
 11
-131.0
 21
111.0
 31
0.0
  0
LINE
  5
3F0
100
AcDbEntity
  8
0
  6
CONTINUOUS
 62
     7
100
AcDbLine
 10
-164.0
 20
121.0
 30
0.0
 11
-164.0
 21
101.0
 31
0.0
  0
LINE
  5
3F1
100
AcDbEntity
  8
0
  6
CENTER
 62
     7
100
AcDbLine
 10
-151.0
 20
128.0
 30
0.0
 11
-151.0
 21
94.0
 31
0.0
  0
LINE
  5
3F2
100
AcDbEntity
  8
0
  6
CONTINUOUS
 62
     7
100
AcDbLine
 10
-158.0
 20
118.0
 30
0.0
 11
-144.0
 21
118.0
 31
0.0
  0
LINE
  5
3F3
100
AcDbEntity
  8
0
  6
CONTINUOUS
 62
     7
100
AcDbLine
 10
-159.8
 20
102.2
 30
0.0
 11
-159.8
 21
121.0
 31
0.0
  0
LINE
  5
3F4
100
AcDbEntity
  8
0
  6
CONTINUOUS
 62
     7
100
AcDbLine
 10
-151.0
 20
101.0
 30
0.0
 11
-151.0
 21
102.2
 31
0.0
  0
LINE
  5
3F5
100
AcDbEntity
  8
0
  6
CONTINUOUS
 62
     7
100
AcDbLine
 10
-144.0
 20
121.0
 30
0.0
 11
-144.0
 21
102.2
 31
0.0
  0
LINE
  5
3F6
100
AcDbEntity
  8
0
  6
CONTINUOUS
 62
     7
100
AcDbLine
 10
-158.0
 20
121.0
 30
0.0
 11
-158.0
 21
102.2
 31
0.0
  0
LINE
  5
3F7
100
AcDbEntity
  8
0
  6
CONTINUOUS
 62
     7
100
AcDbLine
 10
-164.0
 20
101.0
 30
0.0
 11
-138.0
 21
101.0
 31
0.0
  0
LINE
  5
3F8
100
AcDbEntity
  8
0
  6
CONTINUOUS
 62
     7
100
AcDbLine
 10
-141.0
 20
101.0
 30
0.0
 11
-141.0
 21
121.0
 31
0.0
  0
LINE
  5
3F9
100
AcDbEntity
  8
0
  6
CONTINUOUS
 62
     7
100
AcDbLine
 10
-161.0
 20
101.0
 30
0.0
 11
-161.0
 21
121.0
 31
0.0
  0
LINE
  5
3FA
100
AcDbEntity
  8
0
  6
CONTINUOUS
 62
     7
100
AcDbLine
 10
-159.8
 20
102.2
 30
0.0
 11
-151.0
 21
102.2
 31
0.0
  0
LINE
  5
3FB
100
AcDbEntity
  8
0
  6
CONTINUOUS
 62
     7
100
AcDbLine
 10
-151.0
 20
102.2
 30
0.0
 11
-142.2
 21
102.2
 31
0.0
  0
LINE
  5
3FC
100
AcDbEntity
  8
0
  6
CENTER
 62
     7
100
AcDbLine
 10
-147.0
 20
96.0
 30
0.0
 11
-147.0
 21
106.0
 31
0.0
  0
LINE
  5
3FD
100
AcDbEntity
  8
0
  6
CONTINUOUS
 62
     7
100
AcDbLine
 10
-142.2
 20
102.2
 30
0.0
 11
-142.2
 21
121.0
 31
0.0
  0
LINE
  5
3FE
100
AcDbEntity
  8
0
  6
CONTINUOUS
 62
     7
100
AcDbLine
 10
-164.0
 20
121.0
 30
0.0
 11
-138.0
 21
121.0
 31
0.0
  0
LINE
  5
3FF
100
AcDbEntity
  8
0
  6
CONTINUOUS
 62
     7
100
AcDbLine
 10
-158.0
 20
104.0
 30
0.0
 11
-144.0
 21
104.0
 31
0.0
  0
POINT
  5
400
100
AcDbEntity
  8
0
  6
CONTINUOUS
 62
     7
100
AcDbPoint
 10
-55.0
 20
157.0
 30
0.0
  0
POINT
  5
401
100
AcDbEntity
  8
0
  6
CONTINUOUS
 62
     7
100
AcDbPoint
 10
-45.0
 20
157.0
 30
0.0
  0
LINE
  5
402
100
AcDbEntity
  8
0
  6
CONTINUOUS
 62
     7
100
AcDbLine
 10
-76.350853
 20
154.0
 30
0.0
 11
-76.350853
 21
151.0
 31
0.0
  0
LINE
  5
403
100
AcDbEntity
  8
0
  6
CONTINUOUS
 62
     7
100
AcDbLine
 10
-76.350853
 20
171.0
 30
0.0
 11
-76.350853
 21
168.0
 31
0.0
  0
LINE
  5
404
100
AcDbEntity
  8
0
  6
CONTINUOUS
 62
     7
100
AcDbLine
 10
-88.649147
 20
174.0
 30
0.0
 11
-88.649147
 21
171.0
 31
0.0
  0
LINE
  5
405
100
AcDbEntity
  8
0
  6
CONTINUOUS
 62
     7
100
AcDbLine
 10
-88.649147
 20
151.0
 30
0.0
 11
-88.649147
 21
148.0
 31
0.0
  0
LINE
  5
406
100
AcDbEntity
  8
0
  6
CONTINUOUS
 62
     7
100
AcDbLine
 10
-76.350853
 20
168.0
 30
0.0
 11
-77.0
 21
168.0
 31
0.0
  0
LINE
  5
407
100
AcDbEntity
  8
0
  6
CONTINUOUS
 62
     7
100
AcDbLine
 10
-60.0
 20
148.0
 30
0.0
 11
-88.649147
 21
148.0
 31
0.0
  0
LINE
  5
408
100
AcDbEntity
  8
0
  6
CENTER
 62
     7
100
AcDbLine
 10
-70.0
 20
141.0
 30
0.0
 11
-70.0
 21
181.0
 31
0.0
  0
LINE
  5
409
100
AcDbEntity
  8
0
  6
CENTER
 62
     7
100
AcDbLine
 10
-95.0
 20
141.0
 30
0.0
 11
-95.0
 21
181.0
 31
0.0
  0
LINE
  5
40A
100
AcDbEntity
  8
0
  6
CONTINUOUS
 62
     7
100
AcDbLine
 10
-76.350853
 20
171.0
 30
0.0
 11
-40.0
 21
171.0
 31
0.0
  0
LINE
  5
40B
100
AcDbEntity
  8
0
  6
CENTER
 62
     7
100
AcDbLine
 10
-57.385022
 20
161.0
 30
0.0
 11
-108.35085
 21
161.0
 31
0.0
  0
LINE
  5
40C
100
AcDbEntity
  8
0
  6
CONTINUOUS
 62
     7
100
AcDbLine
 10
-60.0
 20
174.0
 30
0.0
 11
-88.649147
 21
174.0
 31
0.0
  0
LINE
  5
40D
100
AcDbEntity
  8
0
  6
CONTINUOUS
 62
     7
100
AcDbLine
 10
-76.350853
 20
154.0
 30
0.0
 11
-77.0
 21
154.0
 31
0.0
  0
LINE
  5
40E
100
AcDbEntity
  8
0
  6
CONTINUOUS
 62
     7
100
AcDbLine
 10
-88.649147
 20
171.0
 30
0.0
 11
-101.35085
 21
171.0
 31
0.0
  0
LINE
  5
40F
100
AcDbEntity
  8
0
  6
CONTINUOUS
 62
     7
100
AcDbLine
 10
-88.0
 20
154.0
 30
0.0
 11
-101.35085
 21
154.0
 31
0.0
  0
LINE
  5
410
100
AcDbEntity
  8
0
  6
CONTINUOUS
 62
     7
100
AcDbLine
 10
-88.0
 20
168.0
 30
0.0
 11
-101.35085
 21
168.0
 31
0.0
  0
LINE
  5
411
100
AcDbEntity
  8
0
  6
CONTINUOUS
 62
     7
100
AcDbLine
 10
-88.649147
 20
151.0
 30
0.0
 11
-101.35085
 21
151.0
 31
0.0
  0
LINE
  5
412
100
AcDbEntity
  8
0
  6
CONTINUOUS
 62
     7
100
AcDbLine
 10
-40.0
 20
171.0
 30
0.0
 11
-40.0
 21
163.0
 31
0.0
  0
LINE
  5
413
100
AcDbEntity
  8
0
  6
CENTER
 62
     7
100
AcDbLine
 10
-40.75
 20
165.0
 30
0.0
 11
-49.25
 21
165.0
 31
0.0
  0
LINE
  5
414
100
AcDbEntity
  8
0
  6
CENTER
 62
     7
100
AcDbLine
 10
-45.0
 20
169.25
 30
0.0
 11
-45.0
 21
160.75
 31
0.0
  0
LINE
  5
415
100
AcDbEntity
  8
0
  6
CENTER
 62
     7
100
AcDbLine
 10
-50.75
 20
165.0
 30
0.0
 11
-59.25
 21
165.0
 31
0.0
  0
LINE
  5
416
100
AcDbEntity
  8
0
  6
CENTER
 62
     7
100
AcDbLine
 10
-55.0
 20
169.25
 30
0.0
 11
-55.0
 21
160.75
 31
0.0
  0
LINE
  5
417
100
AcDbEntity
  8
0
  6
CONTINUOUS
 62
     7
100
AcDbLine
 10
-76.350853
 20
151.0
 30
0.0
 11
-40.0
 21
151.0
 31
0.0
  0
LINE
  5
418
100
AcDbEntity
  8
0
  6
CONTINUOUS
 62
     7
100
AcDbLine
 10
-76.350853
 20
169.8
 30
0.0
 11
-60.0
 21
169.8
 31
0.0
  0
LINE
  5
419
100
AcDbEntity
  8
0
  6
CONTINUOUS
 62
     7
100
AcDbLine
 10
-60.0
 20
174.0
 30
0.0
 11
-60.0
 21
163.0
 31
0.0
  0
LINE
  5
41A
100
AcDbEntity
  8
0
  6
CONTINUOUS
 62
     7
100
AcDbLine
 10
-58.0
 20
161.0
 30
0.0
 11
-42.0
 21
161.0
 31
0.0
  0
LINE
  5
41B
100
AcDbEntity
  8
0
  6
CONTINUOUS
 62
     7
100
AcDbLine
 10
-40.0
 20
151.0
 30
0.0
 11
-40.0
 21
159.0
 31
0.0
  0
LINE
  5
41C
100
AcDbEntity
  8
0
  6
CENTER
 62
     7
100
AcDbLine
 10
-40.75
 20
157.0
 30
0.0
 11
-49.25
 21
157.0
 31
0.0
  0
LINE
  5
41D
100
AcDbEntity
  8
0
  6
CENTER
 62
     7
100
AcDbLine
 10
-50.75
 20
157.0
 30
0.0
 11
-59.25
 21
157.0
 31
0.0
  0
LINE
  5
41E
100
AcDbEntity
  8
0
  6
CONTINUOUS
 62
     7
100
AcDbLine
 10
-76.350853
 20
152.2
 30
0.0
 11
-60.0
 21
152.2
 31
0.0
  0
LINE
  5
41F
100
AcDbEntity
  8
0
  6
CONTINUOUS
 62
     7
100
AcDbLine
 10
-60.0
 20
148.0
 30
0.0
 11
-60.0
 21
159.0
 31
0.0
  0
LINE
  5
420
100
AcDbEntity
  8
0
  6
CENTER
 62
     7
100
AcDbLine
 10
-45.0
 20
152.75
 30
0.0
 11
-45.0
 21
161.25
 31
0.0
  0
LINE
  5
421
100
AcDbEntity
  8
0
  6
CENTER
 62
     7
100
AcDbLine
 10
-55.0
 20
152.75
 30
0.0
 11
-55.0
 21
161.25
 31
0.0
  0
LINE
  5
422
100
AcDbEntity
  8
0
  6
CONTINUOUS
 62
     7
100
AcDbLine
 10
-88.0
 20
154.0
 30
0.0
 11
-88.0
 21
168.0
 31
0.0
  0
LINE
  5
423
100
AcDbEntity
  8
0
  6
CONTINUOUS
 62
     7
100
AcDbLine
 10
-77.0
 20
154.0
 30
0.0
 11
-77.0
 21
168.0
 31
0.0
  0
CIRCLE
  5
424
100
AcDbEntity
  8
0
  6
CONTINUOUS
 62
     7
100
AcDbCircle
 10
-45.0
 20
165.0
 30
0.0
 40
2.25
  0
CIRCLE
  5
425
100
AcDbEntity
  8
0
  6
CONTINUOUS
 62
     7
100
AcDbCircle
 10
-55.0
 20
165.0
 30
0.0
 40
2.25
  0
ARC
  5
426
100
AcDbEntity
  8
0
  6
CONTINUOUS
 62
     7
100
AcDbCircle
 10
-42.0
 20
163.0
 30
0.0
 40
2.0
100
AcDbArc
 50
270.0
 51
0.0
  0
ARC
  5
427
100
AcDbEntity
  8
0
  6
CONTINUOUS
 62
     7
100
AcDbCircle
 10
-58.0
 20
163.0
 30
0.0
 40
2.0
100
AcDbArc
 50
179.99999
 51
270.0
  0
CIRCLE
  5
428
100
AcDbEntity
  8
0
  6
CONTINUOUS
 62
     7
100
AcDbCircle
 10
-45.0
 20
157.0
 30
0.0
 40
2.25
  0
CIRCLE
  5
429
100
AcDbEntity
  8
0
  6
CONTINUOUS
 62
     7
100
AcDbCircle
 10
-55.0
 20
157.0
 30
0.0
 40
2.25
  0
ARC
  5
42A
100
AcDbEntity
  8
0
  6
CONTINUOUS
 62
     7
100
AcDbCircle
 10
-42.0
 20
159.0
 30
0.0
 40
2.0
100
AcDbArc
 50
0.0
 51
90.000003
  0
ARC
  5
42B
100
AcDbEntity
  8
0
  6
CONTINUOUS
 62
     7
100
AcDbCircle
 10
-58.0
 20
159.0
 30
0.0
 40
2.0
100
AcDbArc
 50
90.000003
 51
180.00001
  0
POINT
  5
42C
100
AcDbEntity
  8
0
  6
CONTINUOUS
 62
     7
100
AcDbPoint
 10
-55.0
 20
121.0
 30
0.0
  0
POINT
  5
42D
100
AcDbEntity
  8
0
  6
CONTINUOUS
 62
     7
100
AcDbPoint
 10
-45.0
 20
121.0
 30
0.0
  0
LINE
  5
42E
100
AcDbEntity
  8
0
  6
DASHED
 62
     7
100
AcDbLine
 10
-60.0
 20
119.8
 30
0.0
 11
-60.0
 21
121.0
 31
0.0
  0
LINE
  5
42F
100
AcDbEntity
  8
0
  6
CENTER
 62
     7
100
AcDbLine
 10
-45.0
 20
126.0
 30
0.0
 11
-45.0
 21
114.8
 31
0.0
  0
LINE
  5
430
100
AcDbEntity
  8
0
  6
CENTER
 62
     7
100
AcDbLine
 10
-55.0
 20
126.0
 30
0.0
 11
-55.0
 21
114.8
 31
0.0
  0
LINE
  5
431
100
AcDbEntity
  8
0
  6
CONTINUOUS
 62
     7
100
AcDbLine
 10
-85.906733
 20
116.25
 30
0.0
 11
-88.649147
 21
121.0
 31
0.0
  0
LINE
  5
432
100
AcDbEntity
  8
0
  6
CONTINUOUS
 62
     7
100
AcDbLine
 10
-93.0
 20
108.12772
 30
0.0
 11
-93.0
 21
113.87228
 31
0.0
  0
LINE
  5
433
100
AcDbEntity
  8
0
  6
CENTER
 62
     7
100
AcDbLine
 10
-89.5
 20
111.0
 30
0.0
 11
-100.5
 21
111.0
 31
0.0
  0
LINE
  5
434
100
AcDbEntity
  8
0
  6
CENTER
 62
     7
100
AcDbLine
 10
-95.0
 20
105.5
 30
0.0
 11
-95.0
 21
116.5
 31
0.0
  0
LINE
  5
435
100
AcDbEntity
  8
0
  6
CENTER
 62
     7
100
AcDbLine
 10
-64.5
 20
111.0
 30
0.0
 11
-75.5
 21
111.0
 31
0.0
  0
LINE
  5
436
100
AcDbEntity
  8
0
  6
CENTER
 62
     7
100
AcDbLine
 10
-70.0
 20
105.5
 30
0.0
 11
-70.0
 21
116.5
 31
0.0
  0
LINE
  5
437
100
AcDbEntity
  8
0
  6
CONTINUOUS
 62
     7
100
AcDbLine
 10
-63.0
 20
121.0
 30
0.0
 11
-95.0
 21
121.0
 31
0.0
  0
LINE
  5
438
100
AcDbEntity
  8
0
  6
CONTINUOUS
 62
     7
100
AcDbLine
 10
-70.0
 20
101.0
 30
0.0
 11
-95.0
 21
101.0
 31
0.0
  0
LINE
  5
439
100
AcDbEntity
  8
0
  6
DASHED
 62
     7
100
AcDbLine
 10
-40.0
 20
119.8
 30
0.0
 11
-60.0
 21
119.8
 31
0.0
  0
LINE
  5
43A
100
AcDbEntity
  8
0
  6
CONTINUOUS
 62
     7
100
AcDbLine
 10
-42.739006
 20
113.61131
 30
0.0
 11
-65.477263
 21
102.08098
 31
0.0
  0
LINE
  5
43B
100
AcDbEntity
  8
0
  6
CONTINUOUS
 62
     7
100
AcDbLine
 10
-40.0
 20
121.0
 30
0.0
 11
-40.0
 21
118.0707
 31
0.0
  0
LINE
  5
43C
100
AcDbEntity
  8
0
  6
CONTINUOUS
 62
     7
100
AcDbLine
 10
-40.0
 20
121.0
 30
0.0
 11
-60.0
 21
121.0
 31
0.0
  0
ARC
  5
43D
100
AcDbEntity
  8
0
  6
CONTINUOUS
 62
     7
100
AcDbCircle
 10
-70.0
 20
111.0
 30
0.0
 40
10.0
100
AcDbArc
 50
270.0
 51
90.000003
  0
CIRCLE
  5
43E
100
AcDbEntity
  8
0
  6
CONTINUOUS
 62
     7
100
AcDbCircle
 10
-95.0
 20
111.0
 30
0.0
 40
3.5
  0
ARC
  5
43F
100
AcDbEntity
  8
0
  6
CONTINUOUS
 62
     7
100
AcDbCircle
 10
-95.0
 20
111.0
 30
0.0
 40
10.5
100
AcDbArc
 50
296.08429
 51
30.000001
  0
CIRCLE
  5
440
100
AcDbEntity
  8
0
  6
CONTINUOUS
 62
     7
100
AcDbCircle
 10
-70.0
 20
111.0
 30
0.0
 40
3.5
  0
ARC
  5
441
100
AcDbEntity
  8
0
  6
CONTINUOUS
 62
     7
100
AcDbCircle
 10
-45.0
 20
118.0707
 30
0.0
 40
5.0
100
AcDbArc
 50
296.8883
 51
0.0
  0
ARC
  5
442
100
AcDbEntity
  8
0
  6
CONTINUOUS
 62
     7
100
AcDbCircle
 10
-61.5
 20
121.0
 30
0.0
 40
1.5
100
AcDbArc
 50
179.99999
 51
0.00001
  0
ARC
  5
443
100
AcDbEntity
  8
0
  6
CONTINUOUS
 62
     7
100
AcDbCircle
 10
-90.251316
 20
101.3
 30
0.0
 40
0.3
100
AcDbArc
 50
116.0843
 51
270.0
  0
POINT
  5
444
100
AcDbEntity
  8
0
  6
CONTINUOUS
 62
     7
100
AcDbPoint
 10
-55.0
 20
65.0
 30
0.0
  0
POINT
  5
445
100
AcDbEntity
  8
0
  6
CONTINUOUS
 62
     7
100
AcDbPoint
 10
-45.0
 20
65.0
 30
0.0
  0
LINE
  5
446
100
AcDbEntity
  8
0
  6
CONTINUOUS
 62
     7
100
AcDbLine
 10
-90.551315
 20
74.0
 30
0.0
 11
-90.551315
 21
71.0
 31
0.0
  0
LINE
  5
447
100
AcDbEntity
  8
0
  6
CONTINUOUS
 62
     7
100
AcDbLine
 10
-60.0
 20
69.8
 30
0.0
 11
-60.0
 21
63.0
 31
0.0
  0
LINE
  5
448
100
AcDbEntity
  8
0
  6
CONTINUOUS
 62
     7
100
AcDbLine
 10
-74.448685
 20
71.0
 30
0.0
 11
-40.0
 21
71.0
 31
0.0
  0
LINE
  5
449
100
AcDbEntity
  8
0
  6
CENTER
 62
     7
100
AcDbLine
 10
-59.798438
 20
61.0
 30
0.0
 11
-106.44868
 21
61.0
 31
0.0
  0
LINE
  5
44A
100
AcDbEntity
  8
0
  6
CONTINUOUS
 62
     7
100
AcDbLine
 10
-60.0
 20
74.0
 30
0.0
 11
-90.551315
 21
74.0
 31
0.0
  0
LINE
  5
44B
100
AcDbEntity
  8
0
  6
CENTER
 62
     7
100
AcDbLine
 10
-70.0
 20
41.0
 30
0.0
 11
-70.0
 21
81.0
 31
0.0
  0
LINE
  5
44C
100
AcDbEntity
  8
0
  6
CONTINUOUS
 62
     7
100
AcDbLine
 10
-60.0
 20
48.0
 30
0.0
 11
-90.551315
 21
48.0
 31
0.0
  0
LINE
  5
44D
100
AcDbEntity
  8
0
  6
CENTER
 62
     7
100
AcDbLine
 10
-95.0
 20
41.0
 30
0.0
 11
-95.0
 21
81.0
 31
0.0
  0
LINE
  5
44E
100
AcDbEntity
  8
0
  6
CONTINUOUS
 62
     7
100
AcDbLine
 10
-74.448685
 20
54.0
 30
0.0
 11
-79.6
 21
54.0
 31
0.0
  0
LINE
  5
44F
100
AcDbEntity
  8
0
  6
CONTINUOUS
 62
     7
100
AcDbLine
 10
-74.448685
 20
68.0
 30
0.0
 11
-79.6
 21
68.0
 31
0.0
  0
LINE
  5
450
100
AcDbEntity
  8
0
  6
CONTINUOUS
 62
     7
100
AcDbLine
 10
-79.6
 20
49.5
 30
0.0
 11
-85.4
 21
49.5
 31
0.0
  0
LINE
  5
451
100
AcDbEntity
  8
0
  6
CONTINUOUS
 62
     7
100
AcDbLine
 10
-79.6
 20
72.5
 30
0.0
 11
-85.4
 21
72.5
 31
0.0
  0
LINE
  5
452
100
AcDbEntity
  8
0
  6
CONTINUOUS
 62
     7
100
AcDbLine
 10
-79.6
 20
48.9
 30
0.0
 11
-85.4
 21
48.9
 31
0.0
  0
LINE
  5
453
100
AcDbEntity
  8
0
  6
CONTINUOUS
 62
     7
100
AcDbLine
 10
-79.6
 20
73.1
 30
0.0
 11
-85.4
 21
73.1
 31
0.0
  0
LINE
  5
454
100
AcDbEntity
  8
0
  6
CENTER
 62
     7
100
AcDbLine
 10
-77.6
 20
51.75
 30
0.0
 11
-87.400002
 21
51.75
 31
0.0
  0
LINE
  5
455
100
AcDbEntity
  8
0
  6
CONTINUOUS
 62
     7
100
AcDbLine
 10
-85.4
 20
48.9
 30
0.0
 11
-85.4
 21
54.0
 31
0.0
  0
LINE
  5
456
100
AcDbEntity
  8
0
  6
CONTINUOUS
 62
     7
100
AcDbLine
 10
-79.6
 20
48.9
 30
0.0
 11
-79.6
 21
54.0
 31
0.0
  0
LINE
  5
457
100
AcDbEntity
  8
0
  6
CONTINUOUS
 62
     7
100
AcDbLine
 10
-79.6
 20
68.0
 30
0.0
 11
-79.6
 21
73.1
 31
0.0
  0
LINE
  5
458
100
AcDbEntity
  8
0
  6
CONTINUOUS
 62
     7
100
AcDbLine
 10
-85.4
 20
68.0
 30
0.0
 11
-85.4
 21
73.1
 31
0.0
  0
LINE
  5
459
100
AcDbEntity
  8
0
  6
CENTER
 62
     7
100
AcDbLine
 10
-77.6
 20
70.25
 30
0.0
 11
-87.400002
 21
70.25
 31
0.0
  0
LINE
  5
45A
100
AcDbEntity
  8
0
  6
CONTINUOUS
 62
     7
100
AcDbLine
 10
-90.551315
 20
71.0
 30
0.0
 11
-99.448685
 21
71.0
 31
0.0
  0
LINE
  5
45B
100
AcDbEntity
  8
0
  6
CONTINUOUS
 62
     7
100
AcDbLine
 10
-85.4
 20
54.0
 30
0.0
 11
-99.448685
 21
54.0
 31
0.0
  0
LINE
  5
45C
100
AcDbEntity
  8
0
  6
CONTINUOUS
 62
     7
100
AcDbLine
 10
-85.4
 20
68.0
 30
0.0
 11
-99.448685
 21
68.0
 31
0.0
  0
LINE
  5
45D
100
AcDbEntity
  8
0
  6
CONTINUOUS
 62
     7
100
AcDbLine
 10
-77.5
 20
54.0
 30
0.0
 11
-77.5
 21
68.0
 31
0.0
  0
LINE
  5
45E
100
AcDbEntity
  8
0
  6
CONTINUOUS
 62
     7
100
AcDbLine
 10
-87.5
 20
54.0
 30
0.0
 11
-87.5
 21
68.0
 31
0.0
  0
LINE
  5
45F
100
AcDbEntity
  8
0
  6
CONTINUOUS
 62
     7
100
AcDbLine
 10
-90.551315
 20
51.0
 30
0.0
 11
-99.448685
 21
51.0
 31
0.0
  0
LINE
  5
460
100
AcDbEntity
  8
0
  6
CONTINUOUS
 62
     7
100
AcDbLine
 10
-90.551315
 20
51.0
 30
0.0
 11
-90.551315
 21
48.0
 31
0.0
  0
LINE
  5
461
100
AcDbEntity
  8
0
  6
CONTINUOUS
 62
     7
100
AcDbLine
 10
-40.0
 20
71.0
 30
0.0
 11
-40.0
 21
63.0
 31
0.0
  0
LINE
  5
462
100
AcDbEntity
  8
0
  6
CENTER
 62
     7
100
AcDbLine
 10
-40.75
 20
65.0
 30
0.0
 11
-49.25
 21
65.0
 31
0.0
  0
LINE
  5
463
100
AcDbEntity
  8
0
  6
CENTER
 62
     7
100
AcDbLine
 10
-45.0
 20
69.25
 30
0.0
 11
-45.0
 21
60.75
 31
0.0
  0
LINE
  5
464
100
AcDbEntity
  8
0
  6
CENTER
 62
     7
100
AcDbLine
 10
-50.75
 20
65.0
 30
0.0
 11
-59.25
 21
65.0
 31
0.0
  0
LINE
  5
465
100
AcDbEntity
  8
0
  6
CENTER
 62
     7
100
AcDbLine
 10
-55.0
 20
69.25
 30
0.0
 11
-55.0
 21
60.75
 31
0.0
  0
LINE
  5
466
100
AcDbEntity
  8
0
  6
CONTINUOUS
 62
     7
100
AcDbLine
 10
-74.448685
 20
51.0
 30
0.0
 11
-40.0
 21
51.0
 31
0.0
  0
LINE
  5
467
100
AcDbEntity
  8
0
  6
CONTINUOUS
 62
     7
100
AcDbLine
 10
-74.448685
 20
69.8
 30
0.0
 11
-40.0
 21
69.8
 31
0.0
  0
LINE
  5
468
100
AcDbEntity
  8
0
  6
CONTINUOUS
 62
     7
100
AcDbLine
 10
-60.0
 20
74.0
 30
0.0
 11
-60.0
 21
71.0
 31
0.0
  0
LINE
  5
469
100
AcDbEntity
  8
0
  6
CONTINUOUS
 62
     7
100
AcDbLine
 10
-58.0
 20
61.0
 30
0.0
 11
-42.0
 21
61.0
 31
0.0
  0
LINE
  5
46A
100
AcDbEntity
  8
0
  6
CONTINUOUS
 62
     7
100
AcDbLine
 10
-40.0
 20
51.0
 30
0.0
 11
-40.0
 21
59.0
 31
0.0
  0
LINE
  5
46B
100
AcDbEntity
  8
0
  6
CENTER
 62
     7
100
AcDbLine
 10
-40.75
 20
57.0
 30
0.0
 11
-49.25
 21
57.0
 31
0.0
  0
LINE
  5
46C
100
AcDbEntity
  8
0
  6
CENTER
 62
     7
100
AcDbLine
 10
-50.75
 20
57.0
 30
0.0
 11
-59.25
 21
57.0
 31
0.0
  0
LINE
  5
46D
100
AcDbEntity
  8
0
  6
CONTINUOUS
 62
     7
100
AcDbLine
 10
-74.448685
 20
52.2
 30
0.0
 11
-40.0
 21
52.2
 31
0.0
  0
LINE
  5
46E
100
AcDbEntity
  8
0
  6
CONTINUOUS
 62
     7
100
AcDbLine
 10
-60.0
 20
48.0
 30
0.0
 11
-60.0
 21
51.0
 31
0.0
  0
LINE
  5
46F
100
AcDbEntity
  8
0
  6
CONTINUOUS
 62
     7
100
AcDbLine
 10
-58.0
 20
61.0
 30
0.0
 11
-42.0
 21
61.0
 31
0.0
  0
LINE
  5
470
100
AcDbEntity
  8
0
  6
CENTER
 62
     7
100
AcDbLine
 10
-45.0
 20
52.75
 30
0.0
 11
-45.0
 21
61.25
 31
0.0
  0
LINE
  5
471
100
AcDbEntity
  8
0
  6
CENTER
 62
     7
100
AcDbLine
 10
-55.0
 20
52.75
 30
0.0
 11
-55.0
 21
61.25
 31
0.0
  0
LINE
  5
472
100
AcDbEntity
  8
0
  6
CONTINUOUS
 62
     7
100
AcDbLine
 10
-60.0
 20
52.2
 30
0.0
 11
-60.0
 21
59.0
 31
0.0
  0
LINE
  5
473
100
AcDbEntity
  8
0
  6
CONTINUOUS
 62
     7
100
AcDbLine
 10
-74.448685
 20
54.0
 30
0.0
 11
-74.448685
 21
51.0
 31
0.0
  0
LINE
  5
474
100
AcDbEntity
  8
0
  6
CONTINUOUS
 62
     7
100
AcDbLine
 10
-74.448685
 20
71.0
 30
0.0
 11
-74.448685
 21
68.0
 31
0.0
  0
LINE
  5
475
100
AcDbEntity
  8
0
  6
CONTINUOUS
 62
     7
100
AcDbLine
 10
-88.0
 20
54.0
 30
0.0
 11
-88.0
 21
68.0
 31
0.0
  0
LINE
  5
476
100
AcDbEntity
  8
0
  6
CONTINUOUS
 62
     7
100
AcDbLine
 10
-77.0
 20
54.0
 30
0.0
 11
-77.0
 21
68.0
 31
0.0
  0
CIRCLE
  5
477
100
AcDbEntity
  8
0
  6
CONTINUOUS
 62
     7
100
AcDbCircle
 10
-45.0
 20
65.0
 30
0.0
 40
2.25
  0
CIRCLE
  5
478
100
AcDbEntity
  8
0
  6
CONTINUOUS
 62
     7
100
AcDbCircle
 10
-55.0
 20
65.0
 30
0.0
 40
2.25
  0
ARC
  5
479
100
AcDbEntity
  8
0
  6
CONTINUOUS
 62
     7
100
AcDbCircle
 10
-42.0
 20
63.0
 30
0.0
 40
2.0
100
AcDbArc
 50
270.0
 51
0.0
  0
ARC
  5
47A
100
AcDbEntity
  8
0
  6
CONTINUOUS
 62
     7
100
AcDbCircle
 10
-58.0
 20
63.0
 30
0.0
 40
2.0
100
AcDbArc
 50
179.99999
 51
270.0
  0
CIRCLE
  5
47B
100
AcDbEntity
  8
0
  6
CONTINUOUS
 62
     7
100
AcDbCircle
 10
-45.0
 20
57.0
 30
0.0
 40
2.25
  0
CIRCLE
  5
47C
100
AcDbEntity
  8
0
  6
CONTINUOUS
 62
     7
100
AcDbCircle
 10
-55.0
 20
57.0
 30
0.0
 40
2.25
  0
ARC
  5
47D
100
AcDbEntity
  8
0
  6
CONTINUOUS
 62
     7
100
AcDbCircle
 10
-42.0
 20
59.0
 30
0.0
 40
2.0
100
AcDbArc
 50
0.0
 51
90.000003
  0
ARC
  5
47E
100
AcDbEntity
  8
0
  6
CONTINUOUS
 62
     7
100
AcDbCircle
 10
-58.0
 20
59.0
 30
0.0
 40
2.0
100
AcDbArc
 50
90.000003
 51
180.00001
  0
POINT
  5
47F
100
AcDbEntity
  8
0
  6
CONTINUOUS
 62
     7
100
AcDbPoint
 10
-5.0
 20
121.0
 30
0.0
  0
POINT
  5
480
100
AcDbEntity
  8
0
  6
CONTINUOUS
 62
     7
100
AcDbPoint
 10
3.0
 20
121.0
 30
0.0
  0
LINE
  5
481
100
AcDbEntity
  8
0
  6
CONTINUOUS
 62
     7
100
AcDbLine
 10
12.0
 20
121.0
 30
0.0
 11
12.0
 21
101.0
 31
0.0
  0
LINE
  5
482
100
AcDbEntity
  8
0
  6
CENTER
 62
     7
100
AcDbLine
 10
-5.0
 20
126.0
 30
0.0
 11
-5.0
 21
116.0
 31
0.0
  0
LINE
  5
483
100
AcDbEntity
  8
0
  6
CENTER
 62
     7
100
AcDbLine
 10
-21.0
 20
111.0
 30
0.0
 11
19.0
 21
111.0
 31
0.0
  0
LINE
  5
484
100
AcDbEntity
  8
0
  6
CONTINUOUS
 62
     7
100
AcDbLine
 10
-14.0
 20
121.0
 30
0.0
 11
-14.0
 21
101.0
 31
0.0
  0
LINE
  5
485
100
AcDbEntity
  8
0
  6
CENTER
 62
     7
100
AcDbLine
 10
-1.0
 20
128.0
 30
0.0
 11
-1.0
 21
94.0
 31
0.0
  0
LINE
  5
486
100
AcDbEntity
  8
0
  6
CONTINUOUS
 62
     7
100
AcDbLine
 10
-8.0
 20
118.0
 30
0.0
 11
6.0
 21
118.0
 31
0.0
  0
LINE
  5
487
100
AcDbEntity
  8
0
  6
CONTINUOUS
 62
     7
100
AcDbLine
 10
-9.8
 20
119.8
 30
0.0
 11
-9.8
 21
101.0
 31
0.0
  0
LINE
  5
488
100
AcDbEntity
  8
0
  6
CONTINUOUS
 62
     7
100
AcDbLine
 10
-1.0
 20
121.0
 30
0.0
 11
-1.0
 21
119.8
 31
0.0
  0
LINE
  5
489
100
AcDbEntity
  8
0
  6
CONTINUOUS
 62
     7
100
AcDbLine
 10
6.0
 20
119.8
 30
0.0
 11
6.0
 21
101.0
 31
0.0
  0
LINE
  5
48A
100
AcDbEntity
  8
0
  6
CONTINUOUS
 62
     7
100
AcDbLine
 10
-8.0
 20
119.8
 30
0.0
 11
-8.0
 21
101.0
 31
0.0
  0
LINE
  5
48B
100
AcDbEntity
  8
0
  6
CONTINUOUS
 62
     7
100
AcDbLine
 10
-14.0
 20
121.0
 30
0.0
 11
12.0
 21
121.0
 31
0.0
  0
LINE
  5
48C
100
AcDbEntity
  8
0
  6
CONTINUOUS
 62
     7
100
AcDbLine
 10
9.0
 20
121.0
 30
0.0
 11
9.0
 21
101.0
 31
0.0
  0
LINE
  5
48D
100
AcDbEntity
  8
0
  6
CONTINUOUS
 62
     7
100
AcDbLine
 10
-11.0
 20
121.0
 30
0.0
 11
-11.0
 21
101.0
 31
0.0
  0
LINE
  5
48E
100
AcDbEntity
  8
0
  6
CONTINUOUS
 62
     7
100
AcDbLine
 10
-9.8
 20
119.8
 30
0.0
 11
-1.0
 21
119.8
 31
0.0
  0
LINE
  5
48F
100
AcDbEntity
  8
0
  6
CONTINUOUS
 62
     7
100
AcDbLine
 10
-1.0
 20
119.8
 30
0.0
 11
7.8
 21
119.8
 31
0.0
  0
LINE
  5
490
100
AcDbEntity
  8
0
  6
CENTER
 62
     7
100
AcDbLine
 10
3.0
 20
126.0
 30
0.0
 11
3.0
 21
116.0
 31
0.0
  0
LINE
  5
491
100
AcDbEntity
  8
0
  6
CONTINUOUS
 62
     7
100
AcDbLine
 10
7.8
 20
119.8
 30
0.0
 11
7.8
 21
101.0
 31
0.0
  0
LINE
  5
492
100
AcDbEntity
  8
0
  6
CONTINUOUS
 62
     7
100
AcDbLine
 10
-14.0
 20
101.0
 30
0.0
 11
-8.0
 21
101.0
 31
0.0
  0
LINE
  5
493
100
AcDbEntity
  8
0
  6
CONTINUOUS
 62
     7
100
AcDbLine
 10
6.0
 20
101.0
 30
0.0
 11
12.0
 21
101.0
 31
0.0
  0
LINE
  5
494
100
AcDbEntity
  8
0
  6
CONTINUOUS
 62
     7
100
AcDbLine
 10
-8.0
 20
101.3
 30
0.0
 11
6.0
 21
101.3
 31
0.0
  0
LINE
  5
495
100
AcDbEntity
  8
0
  6
CONTINUOUS
 62
     7
100
AcDbLine
 10
-8.0
 20
104.0
 30
0.0
 11
6.0
 21
104.0
 31
0.0
  0
POINT
  5
496
100
AcDbEntity
  8
0
  6
CONTINUOUS
 62
     7
100
AcDbPoint
 10
95.0
 20
146.2
 30
0.0
  0
POINT
  5
497
100
AcDbEntity
  8
0
  6
CONTINUOUS
 62
     7
100
AcDbPoint
 10
105.0
 20
146.2
 30
0.0
  0
LINE
  5
498
100
AcDbEntity
  8
0
  6
CONTINUOUS
 62
     7
100
AcDbLine
 10
73.649147
 20
154.0
 30
0.0
 11
73.649147
 21
151.0
 31
0.0
  0
LINE
  5
499
100
AcDbEntity
  8
0
  6
CONTINUOUS
 62
     7
100
AcDbLine
 10
62.0
 20
154.0
 30
0.0
 11
62.0
 21
168.0
 31
0.0
  0
LINE
  5
49A
100
AcDbEntity
  8
0
  6
CONTINUOUS
 62
     7
100
AcDbLine
 10
73.649147
 20
171.0
 30
0.0
 11
73.649147
 21
168.0
 31
0.0
  0
LINE
  5
49B
100
AcDbEntity
  8
0
  6
CONTINUOUS
 62
     7
100
AcDbLine
 10
73.649147
 20
168.0
 30
0.0
 11
73.0
 21
168.0
 31
0.0
  0
LINE
  5
49C
100
AcDbEntity
  8
0
  6
CONTINUOUS
 62
     7
100
AcDbLine
 10
90.0
 20
148.0
 30
0.0
 11
61.350853
 21
148.0
 31
0.0
  0
LINE
  5
49D
100
AcDbEntity
  8
0
  6
CENTER
 62
     7
100
AcDbLine
 10
80.0
 20
141.0
 30
0.0
 11
80.0
 21
181.0
 31
0.0
  0
LINE
  5
49E
100
AcDbEntity
  8
0
  6
CENTER
 62
     7
100
AcDbLine
 10
55.0
 20
141.0
 30
0.0
 11
55.0
 21
181.0
 31
0.0
  0
LINE
  5
49F
100
AcDbEntity
  8
0
  6
CONTINUOUS
 62
     7
100
AcDbLine
 10
73.649147
 20
171.0
 30
0.0
 11
110.0
 21
171.0
 31
0.0
  0
LINE
  5
4A0
100
AcDbEntity
  8
0
  6
CENTER
 62
     7
100
AcDbLine
 10
92.614978
 20
161.0
 30
0.0
 11
41.649147
 21
161.0
 31
0.0
  0
LINE
  5
4A1
100
AcDbEntity
  8
0
  6
CONTINUOUS
 62
     7
100
AcDbLine
 10
90.0
 20
174.0
 30
0.0
 11
61.350853
 21
174.0
 31
0.0
  0
LINE
  5
4A2
100
AcDbEntity
  8
0
  6
CONTINUOUS
 62
     7
100
AcDbLine
 10
73.649147
 20
154.0
 30
0.0
 11
73.0
 21
154.0
 31
0.0
  0
LINE
  5
4A3
100
AcDbEntity
  8
0
  6
CONTINUOUS
 62
     7
100
AcDbLine
 10
61.350853
 20
171.0
 30
0.0
 11
48.649147
 21
171.0
 31
0.0
  0
LINE
  5
4A4
100
AcDbEntity
  8
0
  6
CONTINUOUS
 62
     7
100
AcDbLine
 10
62.0
 20
154.0
 30
0.0
 11
48.649147
 21
154.0
 31
0.0
  0
LINE
  5
4A5
100
AcDbEntity
  8
0
  6
CONTINUOUS
 62
     7
100
AcDbLine
 10
62.0
 20
168.0
 30
0.0
 11
48.649147
 21
168.0
 31
0.0
  0
LINE
  5
4A6
100
AcDbEntity
  8
0
  6
CONTINUOUS
 62
     7
100
AcDbLine
 10
61.350853
 20
151.0
 30
0.0
 11
48.649147
 21
151.0
 31
0.0
  0
LINE
  5
4A7
100
AcDbEntity
  8
0
  6
CONTINUOUS
 62
     7
100
AcDbLine
 10
110.0
 20
169.8
 30
0.0
 11
110.0
 21
177.8
 31
0.0
  0
LINE
  5
4A8
100
AcDbEntity
  8
0
  6
CENTER
 62
     7
100
AcDbLine
 10
109.25
 20
175.8
 30
0.0
 11
100.75
 21
175.8
 31
0.0
  0
LINE
  5
4A9
100
AcDbEntity
  8
0
  6
CENTER
 62
     7
100
AcDbLine
 10
105.0
 20
171.55
 30
0.0
 11
105.0
 21
180.05
 31
0.0
  0
LINE
  5
4AA
100
AcDbEntity
  8
0
  6
CENTER
 62
     7
100
AcDbLine
 10
99.25
 20
175.8
 30
0.0
 11
90.75
 21
175.8
 31
0.0
  0
LINE
  5
4AB
100
AcDbEntity
  8
0
  6
CENTER
 62
     7
100
AcDbLine
 10
95.0
 20
171.55
 30
0.0
 11
95.0
 21
180.05
 31
0.0
  0
LINE
  5
4AC
100
AcDbEntity
  8
0
  6
CONTINUOUS
 62
     7
100
AcDbLine
 10
73.649147
 20
169.8
 30
0.0
 11
110.0
 21
169.8
 31
0.0
  0
LINE
  5
4AD
100
AcDbEntity
  8
0
  6
CONTINUOUS
 62
     7
100
AcDbLine
 10
90.0
 20
171.0
 30
0.0
 11
90.0
 21
177.8
 31
0.0
  0
LINE
  5
4AE
100
AcDbEntity
  8
0
  6
CONTINUOUS
 62
     7
100
AcDbLine
 10
92.0
 20
179.8
 30
0.0
 11
108.0
 21
179.8
 31
0.0
  0
LINE
  5
4AF
100
AcDbEntity
  8
0
  6
CENTER
 62
     7
100
AcDbLine
 10
109.25
 20
146.2
 30
0.0
 11
100.75
 21
146.2
 31
0.0
  0
LINE
  5
4B0
100
AcDbEntity
  8
0
  6
CENTER
 62
     7
100
AcDbLine
 10
95.0
 20
150.45
 30
0.0
 11
95.0
 21
141.95
 31
0.0
  0
LINE
  5
4B1
100
AcDbEntity
  8
0
  6
CONTINUOUS
 62
     7
100
AcDbLine
 10
110.0
 20
152.2
 30
0.0
 11
110.0
 21
144.2
 31
0.0
  0
LINE
  5
4B2
100
AcDbEntity
  8
0
  6
CENTER
 62
     7
100
AcDbLine
 10
105.0
 20
150.45
 30
0.0
 11
105.0
 21
141.95
 31
0.0
  0
LINE
  5
4B3
100
AcDbEntity
  8
0
  6
CENTER
 62
     7
100
AcDbLine
 10
99.25
 20
146.2
 30
0.0
 11
90.75
 21
146.2
 31
0.0
  0
LINE
  5
4B4
100
AcDbEntity
  8
0
  6
CONTINUOUS
 62
     7
100
AcDbLine
 10
73.649147
 20
151.0
 30
0.0
 11
110.0
 21
151.0
 31
0.0
  0
LINE
  5
4B5
100
AcDbEntity
  8
0
  6
CONTINUOUS
 62
     7
100
AcDbLine
 10
73.649147
 20
152.2
 30
0.0
 11
110.0
 21
152.2
 31
0.0
  0
LINE
  5
4B6
100
AcDbEntity
  8
0
  6
CONTINUOUS
 62
     7
100
AcDbLine
 10
90.0
 20
151.0
 30
0.0
 11
90.0
 21
144.2
 31
0.0
  0
LINE
  5
4B7
100
AcDbEntity
  8
0
  6
CONTINUOUS
 62
     7
100
AcDbLine
 10
92.0
 20
142.2
 30
0.0
 11
108.0
 21
142.2
 31
0.0
  0
LINE
  5
4B8
100
AcDbEntity
  8
0
  6
CONTINUOUS
 62
     7
100
AcDbLine
 10
61.350853
 20
174.0
 30
0.0
 11
61.350853
 21
171.0
 31
0.0
  0
LINE
  5
4B9
100
AcDbEntity
  8
0
  6
CONTINUOUS
 62
     7
100
AcDbLine
 10
61.350853
 20
151.0
 30
0.0
 11
61.350853
 21
148.0
 31
0.0
  0
LINE
  5
4BA
100
AcDbEntity
  8
0
  6
CONTINUOUS
 62
     7
100
AcDbLine
 10
73.0
 20
154.0
 30
0.0
 11
73.0
 21
168.0
 31
0.0
  0
CIRCLE
  5
4BB
100
AcDbEntity
  8
0
  6
CONTINUOUS
 62
     7
100
AcDbCircle
 10
105.0
 20
175.8
 30
0.0
 40
2.25
  0
CIRCLE
  5
4BC
100
AcDbEntity
  8
0
  6
CONTINUOUS
 62
     7
100
AcDbCircle
 10
95.0
 20
175.8
 30
0.0
 40
2.25
  0
ARC
  5
4BD
100
AcDbEntity
  8
0
  6
CONTINUOUS
 62
     7
100
AcDbCircle
 10
108.0
 20
177.8
 30
0.0
 40
2.0
100
AcDbArc
 50
0.0
 51
90.000003
  0
ARC
  5
4BE
100
AcDbEntity
  8
0
  6
CONTINUOUS
 62
     7
100
AcDbCircle
 10
92.0
 20
177.8
 30
0.0
 40
2.0
100
AcDbArc
 50
90.000003
 51
180.00001
  0
ARC
  5
4BF
100
AcDbEntity
  8
0
  6
CONTINUOUS
 62
     7
100
AcDbCircle
 10
92.0
 20
144.2
 30
0.0
 40
2.0
100
AcDbArc
 50
179.99999
 51
270.0
  0
CIRCLE
  5
4C0
100
AcDbEntity
  8
0
  6
CONTINUOUS
 62
     7
100
AcDbCircle
 10
95.0
 20
146.2
 30
0.0
 40
2.25
  0
CIRCLE
  5
4C1
100
AcDbEntity
  8
0
  6
CONTINUOUS
 62
     7
100
AcDbCircle
 10
105.0
 20
146.2
 30
0.0
 40
2.25
  0
ARC
  5
4C2
100
AcDbEntity
  8
0
  6
CONTINUOUS
 62
     7
100
AcDbCircle
 10
108.0
 20
144.2
 30
0.0
 40
2.0
100
AcDbArc
 50
270.0
 51
0.0
  0
POINT
  5
4C3
100
AcDbEntity
  8
0
  6
CONTINUOUS
 62
     7
100
AcDbPoint
 10
95.0
 20
101.0
 30
0.0
  0
POINT
  5
4C4
100
AcDbEntity
  8
0
  6
CONTINUOUS
 62
     7
100
AcDbPoint
 10
105.0
 20
101.0
 30
0.0
  0
LINE
  5
4C5
100
AcDbEntity
  8
0
  6
CONTINUOUS
 62
     7
100
AcDbLine
 10
90.0
 20
101.0
 30
0.0
 11
90.0
 21
102.2
 31
0.0
  0
LINE
  5
4C6
100
AcDbEntity
  8
0
  6
CENTER
 62
     7
100
AcDbLine
 10
105.0
 20
96.0
 30
0.0
 11
105.0
 21
107.2
 31
0.0
  0
LINE
  5
4C7
100
AcDbEntity
  8
0
  6
CENTER
 62
     7
100
AcDbLine
 10
95.0
 20
96.0
 30
0.0
 11
95.0
 21
107.2
 31
0.0
  0
LINE
  5
4C8
100
AcDbEntity
  8
0
  6
CONTINUOUS
 62
     7
100
AcDbLine
 10
64.093266
 20
116.25
 30
0.0
 11
61.350853
 21
120.99999
 31
0.0
  0
LINE
  5
4C9
100
AcDbEntity
  8
0
  6
CONTINUOUS
 62
     7
100
AcDbLine
 10
57.0
 20
108.12771
 30
0.0
 11
57.0
 21
113.87228
 31
0.0
  0
LINE
  5
4CA
100
AcDbEntity
  8
0
  6
CENTER
 62
     7
100
AcDbLine
 10
60.5
 20
111.0
 30
0.0
 11
49.5
 21
111.0
 31
0.0
  0
LINE
  5
4CB
100
AcDbEntity
  8
0
  6
CENTER
 62
     7
100
AcDbLine
 10
55.0
 20
105.5
 30
0.0
 11
55.0
 21
116.5
 31
0.0
  0
LINE
  5
4CC
100
AcDbEntity
  8
0
  6
CENTER
 62
     7
100
AcDbLine
 10
85.5
 20
111.0
 30
0.0
 11
74.5
 21
111.0
 31
0.0
  0
LINE
  5
4CD
100
AcDbEntity
  8
0
  6
CENTER
 62
     7
100
AcDbLine
 10
80.0
 20
105.5
 30
0.0
 11
80.0
 21
116.5
 31
0.0
  0
LINE
  5
4CE
100
AcDbEntity
  8
0
  6
CONTINUOUS
 62
     7
100
AcDbLine
 10
80.0
 20
121.0
 30
0.0
 11
55.0
 21
121.0
 31
0.0
  0
LINE
  5
4CF
100
AcDbEntity
  8
0
  6
CONTINUOUS
 62
     7
100
AcDbLine
 10
87.0
 20
101.0
 30
0.0
 11
55.0
 21
101.0
 31
0.0
  0
LINE
  5
4D0
100
AcDbEntity
  8
0
  6
CONTINUOUS
 62
     7
100
AcDbLine
 10
110.0
 20
102.2
 30
0.0
 11
90.0
 21
102.2
 31
0.0
  0
LINE
  5
4D1
100
AcDbEntity
  8
0
  6
CONTINUOUS
 62
     7
100
AcDbLine
 10
107.26099
 20
108.38869
 30
0.0
 11
84.522738
 21
119.91902
 31
0.0
  0
LINE
  5
4D2
100
AcDbEntity
  8
0
  6
CONTINUOUS
 62
     7
100
AcDbLine
 10
110.0
 20
101.0
 30
0.0
 11
110.0
 21
103.9293
 31
0.0
  0
LINE
  5
4D3
100
AcDbEntity
  8
0
  6
CONTINUOUS
 62
     7
100
AcDbLine
 10
110.0
 20
101.0
 30
0.0
 11
90.0
 21
101.0
 31
0.0
  0
ARC
  5
4D4
100
AcDbEntity
  8
0
  6
CONTINUOUS
 62
     7
100
AcDbCircle
 10
80.0
 20
111.0
 30
0.0
 40
10.0
100
AcDbArc
 50
270.0
 51
90.000003
  0
CIRCLE
  5
4D5
100
AcDbEntity
  8
0
  6
CONTINUOUS
 62
     7
100
AcDbCircle
 10
55.0
 20
111.0
 30
0.0
 40
3.5
  0
ARC
  5
4D6
100
AcDbEntity
  8
0
  6
CONTINUOUS
 62
     7
100
AcDbCircle
 10
55.0
 20
111.0
 30
0.0
 40
10.5
100
AcDbArc
 50
296.08429
 51
30.000001
  0
CIRCLE
  5
4D7
100
AcDbEntity
  8
0
  6
CONTINUOUS
 62
     7
100
AcDbCircle
 10
80.0
 20
111.0
 30
0.0
 40
3.5
  0
ARC
  5
4D8
100
AcDbEntity
  8
0
  6
CONTINUOUS
 62
     7
100
AcDbCircle
 10
105.0
 20
103.9293
 30
0.0
 40
5.0
100
AcDbArc
 50
0.0
 51
63.111699
  0
ARC
  5
4D9
100
AcDbEntity
  8
0
  6
CONTINUOUS
 62
     7
100
AcDbCircle
 10
88.5
 20
101.0
 30
0.0
 40
1.5
100
AcDbArc
 50
0.0
 51
180.00001
  0
ARC
  5
4DA
100
AcDbEntity
  8
0
  6
CONTINUOUS
 62
     7
100
AcDbCircle
 10
59.748684
 20
101.3
 30
0.0
 40
0.3
100
AcDbArc
 50
116.0843
 51
270.0
  0
POINT
  5
4DB
100
AcDbEntity
  8
0
  6
CONTINUOUS
 62
     7
100
AcDbPoint
 10
95.0
 20
75.800003
 30
0.0
  0
POINT
  5
4DC
100
AcDbEntity
  8
0
  6
CONTINUOUS
 62
     7
100
AcDbPoint
 10
105.0
 20
75.800003
 30
0.0
  0
LINE
  5
4DD
100
AcDbEntity
  8
0
  6
CONTINUOUS
 62
     7
100
AcDbLine
 10
62.0
 20
54.000004
 30
0.0
 11
62.0
 21
68.000003
 31
0.0
  0
LINE
  5
4DE
100
AcDbEntity
  8
0
  6
CONTINUOUS
 62
     7
100
AcDbLine
 10
59.448685
 20
74.000003
 30
0.0
 11
59.448685
 21
71.000003
 31
0.0
  0
LINE
  5
4DF
100
AcDbEntity
  8
0
  6
CONTINUOUS
 62
     7
100
AcDbLine
 10
90.0
 20
52.200003
 30
0.0
 11
90.0
 21
44.200003
 31
0.0
  0
LINE
  5
4E0
100
AcDbEntity
  8
0
  6
CONTINUOUS
 62
     7
100
AcDbLine
 10
75.551315
 20
71.000003
 30
0.0
 11
90.0
 21
71.000003
 31
0.0
  0
LINE
  5
4E1
100
AcDbEntity
  8
0
  6
CENTER
 62
     7
100
AcDbLine
 10
90.201562
 20
61.000003
 30
0.0
 11
43.551315
 21
61.000003
 31
0.0
  0
LINE
  5
4E2
100
AcDbEntity
  8
0
  6
CONTINUOUS
 62
     7
100
AcDbLine
 10
90.0
 20
74.000003
 30
0.0
 11
59.448685
 21
74.000003
 31
0.0
  0
LINE
  5
4E3
100
AcDbEntity
  8
0
  6
CENTER
 62
     7
100
AcDbLine
 10
80.0
 20
41.000004
 30
0.0
 11
80.0
 21
81.000003
 31
0.0
  0
LINE
  5
4E4
100
AcDbEntity
  8
0
  6
CONTINUOUS
 62
     7
100
AcDbLine
 10
90.0
 20
48.000004
 30
0.0
 11
59.448685
 21
48.000004
 31
0.0
  0
LINE
  5
4E5
100
AcDbEntity
  8
0
  6
CENTER
 62
     7
100
AcDbLine
 10
55.0
 20
41.000004
 30
0.0
 11
55.0
 21
81.000003
 31
0.0
  0
LINE
  5
4E6
100
AcDbEntity
  8
0
  6
CONTINUOUS
 62
     7
100
AcDbLine
 10
75.551315
 20
54.000004
 30
0.0
 11
70.4
 21
54.000004
 31
0.0
  0
LINE
  5
4E7
100
AcDbEntity
  8
0
  6
CONTINUOUS
 62
     7
100
AcDbLine
 10
75.551315
 20
68.000003
 30
0.0
 11
70.4
 21
68.000003
 31
0.0
  0
LINE
  5
4E8
100
AcDbEntity
  8
0
  6
CONTINUOUS
 62
     7
100
AcDbLine
 10
70.4
 20
49.500004
 30
0.0
 11
64.6
 21
49.500004
 31
0.0
  0
LINE
  5
4E9
100
AcDbEntity
  8
0
  6
CONTINUOUS
 62
     7
100
AcDbLine
 10
70.4
 20
72.500003
 30
0.0
 11
64.6
 21
72.500003
 31
0.0
  0
LINE
  5
4EA
100
AcDbEntity
  8
0
  6
CONTINUOUS
 62
     7
100
AcDbLine
 10
70.4
 20
48.900003
 30
0.0
 11
64.6
 21
48.900003
 31
0.0
  0
LINE
  5
4EB
100
AcDbEntity
  8
0
  6
CONTINUOUS
 62
     7
100
AcDbLine
 10
70.4
 20
73.100003
 30
0.0
 11
64.6
 21
73.100003
 31
0.0
  0
LINE
  5
4EC
100
AcDbEntity
  8
0
  6
CENTER
 62
     7
100
AcDbLine
 10
72.4
 20
51.750004
 30
0.0
 11
62.599998
 21
51.750004
 31
0.0
  0
LINE
  5
4ED
100
AcDbEntity
  8
0
  6
CONTINUOUS
 62
     7
100
AcDbLine
 10
64.6
 20
48.900003
 30
0.0
 11
64.6
 21
54.000004
 31
0.0
  0
LINE
  5
4EE
100
AcDbEntity
  8
0
  6
CONTINUOUS
 62
     7
100
AcDbLine
 10
70.4
 20
48.900003
 30
0.0
 11
70.4
 21
54.000004
 31
0.0
  0
LINE
  5
4EF
100
AcDbEntity
  8
0
  6
CONTINUOUS
 62
     7
100
AcDbLine
 10
70.4
 20
68.000003
 30
0.0
 11
70.4
 21
73.100003
 31
0.0
  0
LINE
  5
4F0
100
AcDbEntity
  8
0
  6
CONTINUOUS
 62
     7
100
AcDbLine
 10
64.6
 20
68.000003
 30
0.0
 11
64.6
 21
73.100003
 31
0.0
  0
LINE
  5
4F1
100
AcDbEntity
  8
0
  6
CENTER
 62
     7
100
AcDbLine
 10
72.4
 20
70.250003
 30
0.0
 11
62.599998
 21
70.250003
 31
0.0
  0
LINE
  5
4F2
100
AcDbEntity
  8
0
  6
CONTINUOUS
 62
     7
100
AcDbLine
 10
59.448685
 20
71.000003
 30
0.0
 11
50.551315
 21
71.000003
 31
0.0
  0
LINE
  5
4F3
100
AcDbEntity
  8
0
  6
CONTINUOUS
 62
     7
100
AcDbLine
 10
64.6
 20
54.000004
 30
0.0
 11
50.551315
 21
54.000004
 31
0.0
  0
LINE
  5
4F4
100
AcDbEntity
  8
0
  6
CONTINUOUS
 62
     7
100
AcDbLine
 10
64.6
 20
68.000003
 30
0.0
 11
50.551315
 21
68.000003
 31
0.0
  0
LINE
  5
4F5
100
AcDbEntity
  8
0
  6
CONTINUOUS
 62
     7
100
AcDbLine
 10
72.5
 20
54.000004
 30
0.0
 11
72.5
 21
68.000003
 31
0.0
  0
LINE
  5
4F6
100
AcDbEntity
  8
0
  6
CONTINUOUS
 62
     7
100
AcDbLine
 10
62.5
 20
54.000004
 30
0.0
 11
62.5
 21
68.000003
 31
0.0
  0
LINE
  5
4F7
100
AcDbEntity
  8
0
  6
CONTINUOUS
 62
     7
100
AcDbLine
 10
59.448685
 20
51.000004
 30
0.0
 11
50.551315
 21
51.000004
 31
0.0
  0
LINE
  5
4F8
100
AcDbEntity
  8
0
  6
CONTINUOUS
 62
     7
100
AcDbLine
 10
59.448685
 20
51.000004
 30
0.0
 11
59.448685
 21
48.000004
 31
0.0
  0
LINE
  5
4F9
100
AcDbEntity
  8
0
  6
CONTINUOUS
 62
     7
100
AcDbLine
 10
110.0
 20
69.800003
 30
0.0
 11
110.0
 21
77.800003
 31
0.0
  0
LINE
  5
4FA
100
AcDbEntity
  8
0
  6
CENTER
 62
     7
100
AcDbLine
 10
109.25
 20
75.800003
 30
0.0
 11
100.75
 21
75.800003
 31
0.0
  0
LINE
  5
4FB
100
AcDbEntity
  8
0
  6
CENTER
 62
     7
100
AcDbLine
 10
105.0
 20
71.550003
 30
0.0
 11
105.0
 21
80.050003
 31
0.0
  0
LINE
  5
4FC
100
AcDbEntity
  8
0
  6
CENTER
 62
     7
100
AcDbLine
 10
99.25
 20
75.800003
 30
0.0
 11
90.75
 21
75.800003
 31
0.0
  0
LINE
  5
4FD
100
AcDbEntity
  8
0
  6
CENTER
 62
     7
100
AcDbLine
 10
95.0
 20
71.550003
 30
0.0
 11
95.0
 21
80.050003
 31
0.0
  0
LINE
  5
4FE
100
AcDbEntity
  8
0
  6
CONTINUOUS
 62
     7
100
AcDbLine
 10
110.0
 20
52.200003
 30
0.0
 11
110.0
 21
44.200003
 31
0.0
  0
LINE
  5
4FF
100
AcDbEntity
  8
0
  6
CONTINUOUS
 62
     7
100
AcDbLine
 10
75.551315
 20
69.800003
 30
0.0
 11
110.0
 21
69.800003
 31
0.0
  0
LINE
  5
500
100
AcDbEntity
  8
0
  6
CONTINUOUS
 62
     7
100
AcDbLine
 10
90.0
 20
69.800003
 30
0.0
 11
90.0
 21
77.800003
 31
0.0
  0
LINE
  5
501
100
AcDbEntity
  8
0
  6
CONTINUOUS
 62
     7
100
AcDbLine
 10
92.0
 20
79.800003
 30
0.0
 11
108.0
 21
79.800003
 31
0.0
  0
LINE
  5
502
100
AcDbEntity
  8
0
  6
CENTER
 62
     7
100
AcDbLine
 10
109.25
 20
46.200003
 30
0.0
 11
100.75
 21
46.200003
 31
0.0
  0
LINE
  5
503
100
AcDbEntity
  8
0
  6
CENTER
 62
     7
100
AcDbLine
 10
99.25
 20
46.200003
 30
0.0
 11
90.75
 21
46.200003
 31
0.0
  0
LINE
  5
504
100
AcDbEntity
  8
0
  6
CONTINUOUS
 62
     7
100
AcDbLine
 10
75.551315
 20
51.000004
 30
0.0
 11
90.0
 21
51.000004
 31
0.0
  0
LINE
  5
505
100
AcDbEntity
  8
0
  6
CONTINUOUS
 62
     7
100
AcDbLine
 10
75.551315
 20
52.200003
 30
0.0
 11
110.0
 21
52.200003
 31
0.0
  0
LINE
  5
506
100
AcDbEntity
  8
0
  6
CENTER
 62
     7
100
AcDbLine
 10
95.0
 20
50.450003
 30
0.0
 11
95.0
 21
41.950005
 31
0.0
  0
LINE
  5
507
100
AcDbEntity
  8
0
  6
CENTER
 62
     7
100
AcDbLine
 10
105.0
 20
50.450003
 30
0.0
 11
105.0
 21
41.950005
 31
0.0
  0
LINE
  5
508
100
AcDbEntity
  8
0
  6
CONTINUOUS
 62
     7
100
AcDbLine
 10
92.0
 20
42.200005
 30
0.0
 11
108.0
 21
42.200005
 31
0.0
  0
LINE
  5
509
100
AcDbEntity
  8
0
  6
CONTINUOUS
 62
     7
100
AcDbLine
 10
75.551315
 20
71.000003
 30
0.0
 11
75.551315
 21
68.000003
 31
0.0
  0
LINE
  5
50A
100
AcDbEntity
  8
0
  6
CONTINUOUS
 62
     7
100
AcDbLine
 10
75.551315
 20
54.000004
 30
0.0
 11
75.551315
 21
51.000004
 31
0.0
  0
LINE
  5
50B
100
AcDbEntity
  8
0
  6
CONTINUOUS
 62
     7
100
AcDbLine
 10
73.0
 20
54.000004
 30
0.0
 11
73.0
 21
68.000003
 31
0.0
  0
ARC
  5
50C
100
AcDbEntity
  8
0
  6
CONTINUOUS
 62
     7
100
AcDbCircle
 10
92.0
 20
44.200003
 30
0.0
 40
2.0
100
AcDbArc
 50
179.99999
 51
270.0
  0
CIRCLE
  5
50D
100
AcDbEntity
  8
0
  6
CONTINUOUS
 62
     7
100
AcDbCircle
 10
105.0
 20
75.800003
 30
0.0
 40
2.25
  0
CIRCLE
  5
50E
100
AcDbEntity
  8
0
  6
CONTINUOUS
 62
     7
100
AcDbCircle
 10
95.0
 20
75.800003
 30
0.0
 40
2.25
  0
ARC
  5
50F
100
AcDbEntity
  8
0
  6
CONTINUOUS
 62
     7
100
AcDbCircle
 10
108.0
 20
77.800003
 30
0.0
 40
2.0
100
AcDbArc
 50
0.0
 51
90.000003
  0
ARC
  5
510
100
AcDbEntity
  8
0
  6
CONTINUOUS
 62
     7
100
AcDbCircle
 10
92.0
 20
77.800003
 30
0.0
 40
2.0
100
AcDbArc
 50
90.000003
 51
180.00001
  0
CIRCLE
  5
511
100
AcDbEntity
  8
0
  6
CONTINUOUS
 62
     7
100
AcDbCircle
 10
105.0
 20
46.200003
 30
0.0
 40
2.25
  0
CIRCLE
  5
512
100
AcDbEntity
  8
0
  6
CONTINUOUS
 62
     7
100
AcDbCircle
 10
95.0
 20
46.200003
 30
0.0
 40
2.25
  0
ARC
  5
513
100
AcDbEntity
  8
0
  6
CONTINUOUS
 62
     7
100
AcDbCircle
 10
108.0
 20
44.200003
 30
0.0
 40
2.0
100
AcDbArc
 50
270.0
 51
0.0
  0
POINT
  5
514
100
AcDbEntity
  8
0
  6
CONTINUOUS
 62
     7
100
AcDbPoint
 10
145.0
 20
101.0
 30
0.0
  0
POINT
  5
515
100
AcDbEntity
  8
0
  6
CONTINUOUS
 62
     7
100
AcDbPoint
 10
174.6
 20
101.0
 30
0.0
  0
LINE
  5
516
100
AcDbEntity
  8
0
  6
CONTINUOUS
 62
     7
100
AcDbLine
 10
172.8
 20
121.0
 30
0.0
 11
172.8
 21
102.2
 31
0.0
  0
LINE
  5
517
100
AcDbEntity
  8
0
  6
CONTINUOUS
 62
     7
100
AcDbLine
 10
152.8
 20
101.3
 30
0.0
 11
166.8
 21
101.3
 31
0.0
  0
LINE
  5
518
100
AcDbEntity
  8
0
  6
CENTER
 62
     7
100
AcDbLine
 10
139.8
 20
111.0
 30
0.0
 11
179.8
 21
111.0
 31
0.0
  0
LINE
  5
519
100
AcDbEntity
  8
0
  6
CONTINUOUS
 62
     7
100
AcDbLine
 10
146.8
 20
121.0
 30
0.0
 11
146.8
 21
102.2
 31
0.0
  0
LINE
  5
51A
100
AcDbEntity
  8
0
  6
CENTER
 62
     7
100
AcDbLine
 10
159.8
 20
128.0
 30
0.0
 11
159.8
 21
94.0
 31
0.0
  0
LINE
  5
51B
100
AcDbEntity
  8
0
  6
CONTINUOUS
 62
     7
100
AcDbLine
 10
152.8
 20
118.0
 30
0.0
 11
166.8
 21
118.0
 31
0.0
  0
LINE
  5
51C
100
AcDbEntity
  8
0
  6
CONTINUOUS
 62
     7
100
AcDbLine
 10
141.0
 20
101.0
 30
0.0
 11
141.0
 21
102.2
 31
0.0
  0
LINE
  5
51D
100
AcDbEntity
  8
0
  6
CONTINUOUS
 62
     7
100
AcDbLine
 10
178.6
 20
101.0
 30
0.0
 11
178.6
 21
102.2
 31
0.0
  0
LINE
  5
51E
100
AcDbEntity
  8
0
  6
CONTINUOUS
 62
     7
100
AcDbLine
 10
166.8
 20
121.0
 30
0.0
 11
166.8
 21
101.0
 31
0.0
  0
LINE
  5
51F
100
AcDbEntity
  8
0
  6
CONTINUOUS
 62
     7
100
AcDbLine
 10
152.8
 20
121.0
 30
0.0
 11
152.8
 21
101.0
 31
0.0
  0
LINE
  5
520
100
AcDbEntity
  8
0
  6
CONTINUOUS
 62
     7
100
AcDbLine
 10
178.6
 20
101.0
 30
0.0
 11
166.8
 21
101.0
 31
0.0
  0
LINE
  5
521
100
AcDbEntity
  8
0
  6
CONTINUOUS
 62
     7
100
AcDbLine
 10
168.6
 20
101.0
 30
0.0
 11
168.6
 21
121.0
 31
0.0
  0
LINE
  5
522
100
AcDbEntity
  8
0
  6
CONTINUOUS
 62
     7
100
AcDbLine
 10
141.0
 20
102.2
 30
0.0
 11
149.8
 21
102.2
 31
0.0
  0
LINE
  5
523
100
AcDbEntity
  8
0
  6
CONTINUOUS
 62
     7
100
AcDbLine
 10
178.6
 20
102.2
 30
0.0
 11
169.8
 21
102.2
 31
0.0
  0
LINE
  5
524
100
AcDbEntity
  8
0
  6
CENTER
 62
     7
100
AcDbLine
 10
174.6
 20
96.0
 30
0.0
 11
174.6
 21
106.0
 31
0.0
  0
LINE
  5
525
100
AcDbEntity
  8
0
  6
CONTINUOUS
 62
     7
100
AcDbLine
 10
169.8
 20
102.2
 30
0.0
 11
169.8
 21
121.0
 31
0.0
  0
LINE
  5
526
100
AcDbEntity
  8
0
  6
CONTINUOUS
 62
     7
100
AcDbLine
 10
146.8
 20
121.0
 30
0.0
 11
172.8
 21
121.0
 31
0.0
  0
LINE
  5
527
100
AcDbEntity
  8
0
  6
CONTINUOUS
 62
     7
100
AcDbLine
 10
141.0
 20
101.0
 30
0.0
 11
152.8
 21
101.0
 31
0.0
  0
LINE
  5
528
100
AcDbEntity
  8
0
  6
CONTINUOUS
 62
     7
100
AcDbLine
 10
151.0
 20
101.0
 30
0.0
 11
151.0
 21
121.0
 31
0.0
  0
LINE
  5
529
100
AcDbEntity
  8
0
  6
CENTER
 62
     7
100
AcDbLine
 10
145.0
 20
96.0
 30
0.0
 11
145.0
 21
106.0
 31
0.0
  0
LINE
  5
52A
100
AcDbEntity
  8
0
  6
CONTINUOUS
 62
     7
100
AcDbLine
 10
149.8
 20
102.2
 30
0.0
 11
149.8
 21
121.0
 31
0.0
  0
LINE
  5
52B
100
AcDbEntity
  8
0
  6
CONTINUOUS
 62
     7
100
AcDbLine
 10
152.8
 20
104.0
 30
0.0
 11
166.8
 21
104.0
 31
0.0
  0
POINT
  5
52C
100
AcDbEntity
  8
0
  6
CONTINUOUS
 62
     7
100
AcDbPoint
 10
250.0
 20
146.2
 30
0.0
  0
POINT
  5
52D
100
AcDbEntity
  8
0
  6
CONTINUOUS
 62
     7
100
AcDbPoint
 10
260.0
 20
146.2
 30
0.0
  0
LINE
  5
52E
100
AcDbEntity
  8
0
  6
CONTINUOUS
 62
     7
100
AcDbLine
 10
228.64915
 20
154.0
 30
0.0
 11
228.64915
 21
151.0
 31
0.0
  0
LINE
  5
52F
100
AcDbEntity
  8
0
  6
CONTINUOUS
 62
     7
100
AcDbLine
 10
228.64915
 20
171.0
 30
0.0
 11
228.64915
 21
168.0
 31
0.0
  0
LINE
  5
530
100
AcDbEntity
  8
0
  6
CONTINUOUS
 62
     7
100
AcDbLine
 10
228.64915
 20
168.0
 30
0.0
 11
228.0
 21
168.0
 31
0.0
  0
LINE
  5
531
100
AcDbEntity
  8
0
  6
CONTINUOUS
 62
     7
100
AcDbLine
 10
245.0
 20
148.0
 30
0.0
 11
216.35085
 21
148.0
 31
0.0
  0
LINE
  5
532
100
AcDbEntity
  8
0
  6
CENTER
 62
     7
100
AcDbLine
 10
235.0
 20
141.0
 30
0.0
 11
235.0
 21
181.0
 31
0.0
  0
LINE
  5
533
100
AcDbEntity
  8
0
  6
CENTER
 62
     7
100
AcDbLine
 10
210.0
 20
141.0
 30
0.0
 11
210.0
 21
181.0
 31
0.0
  0
LINE
  5
534
100
AcDbEntity
  8
0
  6
CONTINUOUS
 62
     7
100
AcDbLine
 10
228.64915
 20
171.0
 30
0.0
 11
245.0
 21
171.0
 31
0.0
  0
LINE
  5
535
100
AcDbEntity
  8
0
  6
CENTER
 62
     7
100
AcDbLine
 10
247.61498
 20
161.0
 30
0.0
 11
196.64915
 21
161.0
 31
0.0
  0
LINE
  5
536
100
AcDbEntity
  8
0
  6
CONTINUOUS
 62
     7
100
AcDbLine
 10
245.0
 20
174.0
 30
0.0
 11
216.35085
 21
174.0
 31
0.0
  0
LINE
  5
537
100
AcDbEntity
  8
0
  6
CONTINUOUS
 62
     7
100
AcDbLine
 10
228.64915
 20
154.0
 30
0.0
 11
228.0
 21
154.0
 31
0.0
  0
LINE
  5
538
100
AcDbEntity
  8
0
  6
CONTINUOUS
 62
     7
100
AcDbLine
 10
216.35085
 20
171.0
 30
0.0
 11
203.64915
 21
171.0
 31
0.0
  0
LINE
  5
539
100
AcDbEntity
  8
0
  6
CONTINUOUS
 62
     7
100
AcDbLine
 10
217.0
 20
154.0
 30
0.0
 11
203.64915
 21
154.0
 31
0.0
  0
LINE
  5
53A
100
AcDbEntity
  8
0
  6
CONTINUOUS
 62
     7
100
AcDbLine
 10
217.0
 20
168.0
 30
0.0
 11
203.64915
 21
168.0
 31
0.0
  0
LINE
  5
53B
100
AcDbEntity
  8
0
  6
CONTINUOUS
 62
     7
100
AcDbLine
 10
216.35085
 20
151.0
 30
0.0
 11
216.35085
 21
148.0
 31
0.0
  0
LINE
  5
53C
100
AcDbEntity
  8
0
  6
CONTINUOUS
 62
     7
100
AcDbLine
 10
216.35085
 20
151.0
 30
0.0
 11
203.64915
 21
151.0
 31
0.0
  0
LINE
  5
53D
100
AcDbEntity
  8
0
  6
CONTINUOUS
 62
     7
100
AcDbLine
 10
265.0
 20
169.8
 30
0.0
 11
265.0
 21
177.8
 31
0.0
  0
LINE
  5
53E
100
AcDbEntity
  8
0
  6
CENTER
 62
     7
100
AcDbLine
 10
264.25
 20
175.8
 30
0.0
 11
255.75
 21
175.8
 31
0.0
  0
LINE
  5
53F
100
AcDbEntity
  8
0
  6
CENTER
 62
     7
100
AcDbLine
 10
260.0
 20
171.55
 30
0.0
 11
260.0
 21
180.05
 31
0.0
  0
LINE
  5
540
100
AcDbEntity
  8
0
  6
CENTER
 62
     7
100
AcDbLine
 10
254.25
 20
175.8
 30
0.0
 11
245.75
 21
175.8
 31
0.0
  0
LINE
  5
541
100
AcDbEntity
  8
0
  6
CENTER
 62
     7
100
AcDbLine
 10
250.0
 20
171.55
 30
0.0
 11
250.0
 21
180.05
 31
0.0
  0
LINE
  5
542
100
AcDbEntity
  8
0
  6
CONTINUOUS
 62
     7
100
AcDbLine
 10
228.64915
 20
169.8
 30
0.0
 11
265.0
 21
169.8
 31
0.0
  0
LINE
  5
543
100
AcDbEntity
  8
0
  6
CONTINUOUS
 62
     7
100
AcDbLine
 10
245.0
 20
169.8
 30
0.0
 11
245.0
 21
177.8
 31
0.0
  0
LINE
  5
544
100
AcDbEntity
  8
0
  6
CONTINUOUS
 62
     7
100
AcDbLine
 10
247.0
 20
179.8
 30
0.0
 11
263.0
 21
179.8
 31
0.0
  0
LINE
  5
545
100
AcDbEntity
  8
0
  6
CENTER
 62
     7
100
AcDbLine
 10
264.25
 20
146.2
 30
0.0
 11
255.75
 21
146.2
 31
0.0
  0
LINE
  5
546
100
AcDbEntity
  8
0
  6
CENTER
 62
     7
100
AcDbLine
 10
250.0
 20
150.45
 30
0.0
 11
250.0
 21
141.95
 31
0.0
  0
LINE
  5
547
100
AcDbEntity
  8
0
  6
CONTINUOUS
 62
     7
100
AcDbLine
 10
265.0
 20
152.2
 30
0.0
 11
265.0
 21
144.2
 31
0.0
  0
LINE
  5
548
100
AcDbEntity
  8
0
  6
CENTER
 62
     7
100
AcDbLine
 10
260.0
 20
150.45
 30
0.0
 11
260.0
 21
141.95
 31
0.0
  0
LINE
  5
549
100
AcDbEntity
  8
0
  6
CENTER
 62
     7
100
AcDbLine
 10
254.25
 20
146.2
 30
0.0
 11
245.75
 21
146.2
 31
0.0
  0
LINE
  5
54A
100
AcDbEntity
  8
0
  6
CONTINUOUS
 62
     7
100
AcDbLine
 10
228.64915
 20
151.0
 30
0.0
 11
245.0
 21
151.0
 31
0.0
  0
LINE
  5
54B
100
AcDbEntity
  8
0
  6
CONTINUOUS
 62
     7
100
AcDbLine
 10
228.64915
 20
152.2
 30
0.0
 11
265.0
 21
152.2
 31
0.0
  0
LINE
  5
54C
100
AcDbEntity
  8
0
  6
CONTINUOUS
 62
     7
100
AcDbLine
 10
245.0
 20
152.2
 30
0.0
 11
245.0
 21
144.2
 31
0.0
  0
LINE
  5
54D
100
AcDbEntity
  8
0
  6
CONTINUOUS
 62
     7
100
AcDbLine
 10
247.0
 20
142.2
 30
0.0
 11
263.0
 21
142.2
 31
0.0
  0
LINE
  5
54E
100
AcDbEntity
  8
0
  6
CONTINUOUS
 62
     7
100
AcDbLine
 10
217.0
 20
154.0
 30
0.0
 11
217.0
 21
168.0
 31
0.0
  0
LINE
  5
54F
100
AcDbEntity
  8
0
  6
CONTINUOUS
 62
     7
100
AcDbLine
 10
216.35085
 20
174.0
 30
0.0
 11
216.35085
 21
171.0
 31
0.0
  0
LINE
  5
550
100
AcDbEntity
  8
0
  6
CONTINUOUS
 62
     7
100
AcDbLine
 10
228.0
 20
154.0
 30
0.0
 11
228.0
 21
168.0
 31
0.0
  0
CIRCLE
  5
551
100
AcDbEntity
  8
0
  6
CONTINUOUS
 62
     7
100
AcDbCircle
 10
260.0
 20
175.8
 30
0.0
 40
2.25
  0
CIRCLE
  5
552
100
AcDbEntity
  8
0
  6
CONTINUOUS
 62
     7
100
AcDbCircle
 10
250.0
 20
175.8
 30
0.0
 40
2.25
  0
ARC
  5
553
100
AcDbEntity
  8
0
  6
CONTINUOUS
 62
     7
100
AcDbCircle
 10
263.0
 20
177.8
 30
0.0
 40
2.0
100
AcDbArc
 50
0.0
 51
90.000003
  0
ARC
  5
554
100
AcDbEntity
  8
0
  6
CONTINUOUS
 62
     7
100
AcDbCircle
 10
247.0
 20
177.8
 30
0.0
 40
2.0
100
AcDbArc
 50
90.000003
 51
180.00001
  0
ARC
  5
555
100
AcDbEntity
  8
0
  6
CONTINUOUS
 62
     7
100
AcDbCircle
 10
247.0
 20
144.2
 30
0.0
 40
2.0
100
AcDbArc
 50
179.99999
 51
270.0
  0
CIRCLE
  5
556
100
AcDbEntity
  8
0
  6
CONTINUOUS
 62
     7
100
AcDbCircle
 10
250.0
 20
146.2
 30
0.0
 40
2.25
  0
CIRCLE
  5
557
100
AcDbEntity
  8
0
  6
CONTINUOUS
 62
     7
100
AcDbCircle
 10
260.0
 20
146.2
 30
0.0
 40
2.25
  0
ARC
  5
558
100
AcDbEntity
  8
0
  6
CONTINUOUS
 62
     7
100
AcDbCircle
 10
263.0
 20
144.2
 30
0.0
 40
2.0
100
AcDbArc
 50
270.0
 51
0.0
  0
POINT
  5
559
100
AcDbEntity
  8
0
  6
CONTINUOUS
 62
     7
100
AcDbPoint
 10
250.0
 20
121.0
 30
0.0
  0
POINT
  5
55A
100
AcDbEntity
  8
0
  6
CONTINUOUS
 62
     7
100
AcDbPoint
 10
260.0
 20
121.0
 30
0.0
  0
LINE
  5
55B
100
AcDbEntity
  8
0
  6
CONTINUOUS
 62
     7
100
AcDbLine
 10
219.09327
 20
116.25
 30
0.0
 11
216.35085
 21
121.0
 31
0.0
  0
LINE
  5
55C
100
AcDbEntity
  8
0
  6
CONTINUOUS
 62
     7
100
AcDbLine
 10
212.0
 20
108.12772
 30
0.0
 11
212.0
 21
113.87228
 31
0.0
  0
LINE
  5
55D
100
AcDbEntity
  8
0
  6
CENTER
 62
     7
100
AcDbLine
 10
215.5
 20
111.0
 30
0.0
 11
204.5
 21
111.0
 31
0.0
  0
LINE
  5
55E
100
AcDbEntity
  8
0
  6
CENTER
 62
     7
100
AcDbLine
 10
210.0
 20
105.5
 30
0.0
 11
210.0
 21
116.5
 31
0.0
  0
LINE
  5
55F
100
AcDbEntity
  8
0
  6
CENTER
 62
     7
100
AcDbLine
 10
240.5
 20
111.0
 30
0.0
 11
229.5
 21
111.0
 31
0.0
  0
LINE
  5
560
100
AcDbEntity
  8
0
  6
CENTER
 62
     7
100
AcDbLine
 10
235.0
 20
105.5
 30
0.0
 11
235.0
 21
116.5
 31
0.0
  0
LINE
  5
561
100
AcDbEntity
  8
0
  6
CONTINUOUS
 62
     7
100
AcDbLine
 10
242.0
 20
121.0
 30
0.0
 11
210.0
 21
121.0
 31
0.0
  0
LINE
  5
562
100
AcDbEntity
  8
0
  6
CENTER
 62
     7
100
AcDbLine
 10
250.0
 20
126.0
 30
0.0
 11
250.0
 21
114.8
 31
0.0
  0
LINE
  5
563
100
AcDbEntity
  8
0
  6
CENTER
 62
     7
100
AcDbLine
 10
260.0
 20
126.0
 30
0.0
 11
260.0
 21
114.8
 31
0.0
  0
LINE
  5
564
100
AcDbEntity
  8
0
  6
CONTINUOUS
 62
     7
100
AcDbLine
 10
245.0
 20
119.8
 30
0.0
 11
245.0
 21
121.0
 31
0.0
  0
LINE
  5
565
100
AcDbEntity
  8
0
  6
CONTINUOUS
 62
     7
100
AcDbLine
 10
235.0
 20
101.0
 30
0.0
 11
210.0
 21
101.0
 31
0.0
  0
LINE
  5
566
100
AcDbEntity
  8
0
  6
CONTINUOUS
 62
     7
100
AcDbLine
 10
265.0
 20
119.8
 30
0.0
 11
245.0
 21
119.8
 31
0.0
  0
LINE
  5
567
100
AcDbEntity
  8
0
  6
CONTINUOUS
 62
     7
100
AcDbLine
 10
262.26099
 20
113.61131
 30
0.0
 11
239.52274
 21
102.08098
 31
0.0
  0
LINE
  5
568
100
AcDbEntity
  8
0
  6
CONTINUOUS
 62
     7
100
AcDbLine
 10
265.0
 20
121.0
 30
0.0
 11
265.0
 21
118.0707
 31
0.0
  0
LINE
  5
569
100
AcDbEntity
  8
0
  6
CONTINUOUS
 62
     7
100
AcDbLine
 10
265.0
 20
121.0
 30
0.0
 11
245.0
 21
121.0
 31
0.0
  0
ARC
  5
56A
100
AcDbEntity
  8
0
  6
CONTINUOUS
 62
     7
100
AcDbCircle
 10
235.0
 20
111.0
 30
0.0
 40
10.0
100
AcDbArc
 50
270.0
 51
90.000003
  0
CIRCLE
  5
56B
100
AcDbEntity
  8
0
  6
CONTINUOUS
 62
     7
100
AcDbCircle
 10
210.0
 20
111.0
 30
0.0
 40
3.5
  0
ARC
  5
56C
100
AcDbEntity
  8
0
  6
CONTINUOUS
 62
     7
100
AcDbCircle
 10
210.0
 20
111.0
 30
0.0
 40
10.5
100
AcDbArc
 50
296.08429
 51
30.000001
  0
CIRCLE
  5
56D
100
AcDbEntity
  8
0
  6
CONTINUOUS
 62
     7
100
AcDbCircle
 10
235.0
 20
111.0
 30
0.0
 40
3.5
  0
ARC
  5
56E
100
AcDbEntity
  8
0
  6
CONTINUOUS
 62
     7
100
AcDbCircle
 10
260.0
 20
118.0707
 30
0.0
 40
5.0
100
AcDbArc
 50
296.8883
 51
0.0
  0
ARC
  5
56F
100
AcDbEntity
  8
0
  6
CONTINUOUS
 62
     7
100
AcDbCircle
 10
243.5
 20
121.0
 30
0.0
 40
1.5
100
AcDbArc
 50
179.99999
 51
0.00001
  0
ARC
  5
570
100
AcDbEntity
  8
0
  6
CONTINUOUS
 62
     7
100
AcDbCircle
 10
214.74868
 20
101.3
 30
0.0
 40
0.3
100
AcDbArc
 50
116.0843
 51
270.0
  0
POINT
  5
571
100
AcDbEntity
  8
0
  6
CONTINUOUS
 62
     7
100
AcDbPoint
 10
250.0
 20
75.800003
 30
0.0
  0
POINT
  5
572
100
AcDbEntity
  8
0
  6
CONTINUOUS
 62
     7
100
AcDbPoint
 10
260.0
 20
75.800003
 30
0.0
  0
LINE
  5
573
100
AcDbEntity
  8
0
  6
CONTINUOUS
 62
     7
100
AcDbLine
 10
245.0
 20
51.000004
 30
0.0
 11
245.0
 21
44.200003
 31
0.0
  0
LINE
  5
574
100
AcDbEntity
  8
0
  6
CONTINUOUS
 62
     7
100
AcDbLine
 10
230.55132
 20
71.000003
 30
0.0
 11
265.0
 21
71.000003
 31
0.0
  0
LINE
  5
575
100
AcDbEntity
  8
0
  6
CENTER
 62
     7
100
AcDbLine
 10
245.20156
 20
61.000003
 30
0.0
 11
198.55132
 21
61.000003
 31
0.0
  0
LINE
  5
576
100
AcDbEntity
  8
0
  6
CONTINUOUS
 62
     7
100
AcDbLine
 10
245.0
 20
74.000003
 30
0.0
 11
214.44868
 21
74.000003
 31
0.0
  0
LINE
  5
577
100
AcDbEntity
  8
0
  6
CENTER
 62
     7
100
AcDbLine
 10
235.0
 20
41.000004
 30
0.0
 11
235.0
 21
81.000003
 31
0.0
  0
LINE
  5
578
100
AcDbEntity
  8
0
  6
CONTINUOUS
 62
     7
100
AcDbLine
 10
245.0
 20
48.000004
 30
0.0
 11
214.44868
 21
48.000004
 31
0.0
  0
LINE
  5
579
100
AcDbEntity
  8
0
  6
CENTER
 62
     7
100
AcDbLine
 10
210.0
 20
41.000004
 30
0.0
 11
210.0
 21
81.000003
 31
0.0
  0
LINE
  5
57A
100
AcDbEntity
  8
0
  6
CONTINUOUS
 62
     7
100
AcDbLine
 10
230.55132
 20
54.000004
 30
0.0
 11
225.4
 21
54.000004
 31
0.0
  0
LINE
  5
57B
100
AcDbEntity
  8
0
  6
CONTINUOUS
 62
     7
100
AcDbLine
 10
230.55132
 20
68.000003
 30
0.0
 11
225.4
 21
68.000003
 31
0.0
  0
LINE
  5
57C
100
AcDbEntity
  8
0
  6
CONTINUOUS
 62
     7
100
AcDbLine
 10
225.4
 20
49.500004
 30
0.0
 11
219.6
 21
49.500004
 31
0.0
  0
LINE
  5
57D
100
AcDbEntity
  8
0
  6
CONTINUOUS
 62
     7
100
AcDbLine
 10
225.4
 20
72.500003
 30
0.0
 11
219.6
 21
72.500003
 31
0.0
  0
LINE
  5
57E
100
AcDbEntity
  8
0
  6
CONTINUOUS
 62
     7
100
AcDbLine
 10
225.4
 20
48.900003
 30
0.0
 11
219.6
 21
48.900003
 31
0.0
  0
LINE
  5
57F
100
AcDbEntity
  8
0
  6
CONTINUOUS
 62
     7
100
AcDbLine
 10
225.4
 20
73.100003
 30
0.0
 11
219.6
 21
73.100003
 31
0.0
  0
LINE
  5
580
100
AcDbEntity
  8
0
  6
CENTER
 62
     7
100
AcDbLine
 10
227.4
 20
51.750004
 30
0.0
 11
217.6
 21
51.750004
 31
0.0
  0
LINE
  5
581
100
AcDbEntity
  8
0
  6
CONTINUOUS
 62
     7
100
AcDbLine
 10
219.6
 20
48.900003
 30
0.0
 11
219.6
 21
54.000004
 31
0.0
  0
LINE
  5
582
100
AcDbEntity
  8
0
  6
CONTINUOUS
 62
     7
100
AcDbLine
 10
225.4
 20
48.900003
 30
0.0
 11
225.4
 21
54.000004
 31
0.0
  0
LINE
  5
583
100
AcDbEntity
  8
0
  6
CONTINUOUS
 62
     7
100
AcDbLine
 10
225.4
 20
68.000003
 30
0.0
 11
225.4
 21
73.100003
 31
0.0
  0
LINE
  5
584
100
AcDbEntity
  8
0
  6
CONTINUOUS
 62
     7
100
AcDbLine
 10
219.6
 20
68.000003
 30
0.0
 11
219.6
 21
73.100003
 31
0.0
  0
LINE
  5
585
100
AcDbEntity
  8
0
  6
CENTER
 62
     7
100
AcDbLine
 10
227.4
 20
70.250003
 30
0.0
 11
217.6
 21
70.250003
 31
0.0
  0
LINE
  5
586
100
AcDbEntity
  8
0
  6
CONTINUOUS
 62
     7
100
AcDbLine
 10
214.44868
 20
51.000004
 30
0.0
 11
214.44868
 21
48.000004
 31
0.0
  0
LINE
  5
587
100
AcDbEntity
  8
0
  6
CONTINUOUS
 62
     7
100
AcDbLine
 10
214.44868
 20
71.000003
 30
0.0
 11
205.55132
 21
71.000003
 31
0.0
  0
LINE
  5
588
100
AcDbEntity
  8
0
  6
CONTINUOUS
 62
     7
100
AcDbLine
 10
219.6
 20
54.000004
 30
0.0
 11
205.55132
 21
54.000004
 31
0.0
  0
LINE
  5
589
100
AcDbEntity
  8
0
  6
CONTINUOUS
 62
     7
100
AcDbLine
 10
219.6
 20
68.000003
 30
0.0
 11
205.55132
 21
68.000003
 31
0.0
  0
LINE
  5
58A
100
AcDbEntity
  8
0
  6
CONTINUOUS
 62
     7
100
AcDbLine
 10
230.55132
 20
71.000003
 30
0.0
 11
230.55132
 21
68.000003
 31
0.0
  0
LINE
  5
58B
100
AcDbEntity
  8
0
  6
CONTINUOUS
 62
     7
100
AcDbLine
 10
227.5
 20
54.000004
 30
0.0
 11
227.5
 21
68.000003
 31
0.0
  0
LINE
  5
58C
100
AcDbEntity
  8
0
  6
CONTINUOUS
 62
     7
100
AcDbLine
 10
217.5
 20
54.000004
 30
0.0
 11
217.5
 21
68.000003
 31
0.0
  0
LINE
  5
58D
100
AcDbEntity
  8
0
  6
CONTINUOUS
 62
     7
100
AcDbLine
 10
230.55132
 20
54.000004
 30
0.0
 11
230.55132
 21
51.000004
 31
0.0
  0
LINE
  5
58E
100
AcDbEntity
  8
0
  6
CONTINUOUS
 62
     7
100
AcDbLine
 10
214.44868
 20
51.000004
 30
0.0
 11
205.55132
 21
51.000004
 31
0.0
  0
LINE
  5
58F
100
AcDbEntity
  8
0
  6
CONTINUOUS
 62
     7
100
AcDbLine
 10
265.0
 20
69.800003
 30
0.0
 11
265.0
 21
77.800003
 31
0.0
  0
LINE
  5
590
100
AcDbEntity
  8
0
  6
CENTER
 62
     7
100
AcDbLine
 10
264.25
 20
75.800003
 30
0.0
 11
255.75
 21
75.800003
 31
0.0
  0
LINE
  5
591
100
AcDbEntity
  8
0
  6
CENTER
 62
     7
100
AcDbLine
 10
260.0
 20
71.550003
 30
0.0
 11
260.0
 21
80.050003
 31
0.0
  0
LINE
  5
592
100
AcDbEntity
  8
0
  6
CENTER
 62
     7
100
AcDbLine
 10
254.25
 20
75.800003
 30
0.0
 11
245.75
 21
75.800003
 31
0.0
  0
LINE
  5
593
100
AcDbEntity
  8
0
  6
CENTER
 62
     7
100
AcDbLine
 10
250.0
 20
71.550003
 30
0.0
 11
250.0
 21
80.050003
 31
0.0
  0
LINE
  5
594
100
AcDbEntity
  8
0
  6
CONTINUOUS
 62
     7
100
AcDbLine
 10
265.0
 20
52.200003
 30
0.0
 11
265.0
 21
44.200003
 31
0.0
  0
LINE
  5
595
100
AcDbEntity
  8
0
  6
CONTINUOUS
 62
     7
100
AcDbLine
 10
230.55132
 20
69.800003
 30
0.0
 11
265.0
 21
69.800003
 31
0.0
  0
LINE
  5
596
100
AcDbEntity
  8
0
  6
CONTINUOUS
 62
     7
100
AcDbLine
 10
245.0
 20
71.000003
 30
0.0
 11
245.0
 21
77.800003
 31
0.0
  0
LINE
  5
597
100
AcDbEntity
  8
0
  6
CONTINUOUS
 62
     7
100
AcDbLine
 10
247.0
 20
79.800003
 30
0.0
 11
263.0
 21
79.800003
 31
0.0
  0
LINE
  5
598
100
AcDbEntity
  8
0
  6
CENTER
 62
     7
100
AcDbLine
 10
264.25
 20
46.200003
 30
0.0
 11
255.75
 21
46.200003
 31
0.0
  0
LINE
  5
599
100
AcDbEntity
  8
0
  6
CENTER
 62
     7
100
AcDbLine
 10
254.25
 20
46.200003
 30
0.0
 11
245.75
 21
46.200003
 31
0.0
  0
LINE
  5
59A
100
AcDbEntity
  8
0
  6
CONTINUOUS
 62
     7
100
AcDbLine
 10
230.55132
 20
51.000004
 30
0.0
 11
265.0
 21
51.000004
 31
0.0
  0
LINE
  5
59B
100
AcDbEntity
  8
0
  6
CONTINUOUS
 62
     7
100
AcDbLine
 10
230.55132
 20
52.200003
 30
0.0
 11
265.0
 21
52.200003
 31
0.0
  0
LINE
  5
59C
100
AcDbEntity
  8
0
  6
CENTER
 62
     7
100
AcDbLine
 10
250.0
 20
50.450003
 30
0.0
 11
250.0
 21
41.950005
 31
0.0
  0
LINE
  5
59D
100
AcDbEntity
  8
0
  6
CENTER
 62
     7
100
AcDbLine
 10
260.0
 20
50.450003
 30
0.0
 11
260.0
 21
41.950005
 31
0.0
  0
LINE
  5
59E
100
AcDbEntity
  8
0
  6
CONTINUOUS
 62
     7
100
AcDbLine
 10
247.0
 20
42.200005
 30
0.0
 11
263.0
 21
42.200005
 31
0.0
  0
LINE
  5
59F
100
AcDbEntity
  8
0
  6
CONTINUOUS
 62
     7
100
AcDbLine
 10
214.44868
 20
74.000003
 30
0.0
 11
214.44868
 21
71.000003
 31
0.0
  0
LINE
  5
5A0
100
AcDbEntity
  8
0
  6
CONTINUOUS
 62
     7
100
AcDbLine
 10
217.0
 20
54.000004
 30
0.0
 11
217.0
 21
68.000003
 31
0.0
  0
LINE
  5
5A1
100
AcDbEntity
  8
0
  6
CONTINUOUS
 62
     7
100
AcDbLine
 10
228.0
 20
54.000004
 30
0.0
 11
228.0
 21
68.000003
 31
0.0
  0
ARC
  5
5A2
100
AcDbEntity
  8
0
  6
CONTINUOUS
 62
     7
100
AcDbCircle
 10
247.0
 20
44.200003
 30
0.0
 40
2.0
100
AcDbArc
 50
179.99999
 51
270.0
  0
CIRCLE
  5
5A3
100
AcDbEntity
  8
0
  6
CONTINUOUS
 62
     7
100
AcDbCircle
 10
260.0
 20
75.800003
 30
0.0
 40
2.25
  0
CIRCLE
  5
5A4
100
AcDbEntity
  8
0
  6
CONTINUOUS
 62
     7
100
AcDbCircle
 10
250.0
 20
75.800003
 30
0.0
 40
2.25
  0
ARC
  5
5A5
100
AcDbEntity
  8
0
  6
CONTINUOUS
 62
     7
100
AcDbCircle
 10
263.0
 20
77.800003
 30
0.0
 40
2.0
100
AcDbArc
 50
0.0
 51
90.000003
  0
ARC
  5
5A6
100
AcDbEntity
  8
0
  6
CONTINUOUS
 62
     7
100
AcDbCircle
 10
247.0
 20
77.800003
 30
0.0
 40
2.0
100
AcDbArc
 50
90.000003
 51
180.00001
  0
CIRCLE
  5
5A7
100
AcDbEntity
  8
0
  6
CONTINUOUS
 62
     7
100
AcDbCircle
 10
260.0
 20
46.200003
 30
0.0
 40
2.25
  0
CIRCLE
  5
5A8
100
AcDbEntity
  8
0
  6
CONTINUOUS
 62
     7
100
AcDbCircle
 10
250.0
 20
46.200003
 30
0.0
 40
2.25
  0
ARC
  5
5A9
100
AcDbEntity
  8
0
  6
CONTINUOUS
 62
     7
100
AcDbCircle
 10
263.0
 20
44.200003
 30
0.0
 40
2.0
100
AcDbArc
 50
270.0
 51
0.0
  0
POINT
  5
5AA
100
AcDbEntity
  8
0
  6
CONTINUOUS
 62
     7
100
AcDbPoint
 10
300.0
 20
121.0
 30
0.0
  0
POINT
  5
5AB
100
AcDbEntity
  8
0
  6
CONTINUOUS
 62
     7
100
AcDbPoint
 10
329.6
 20
121.0
 30
0.0
  0
LINE
  5
5AC
100
AcDbEntity
  8
0
  6
CONTINUOUS
 62
     7
100
AcDbLine
 10
324.8
 20
119.8
 30
0.0
 11
333.6
 21
119.8
 31
0.0
  0
LINE
  5
5AD
100
AcDbEntity
  8
0
  6
CONTINUOUS
 62
     7
100
AcDbLine
 10
327.8
 20
119.8
 30
0.0
 11
327.8
 21
101.0
 31
0.0
  0
LINE
  5
5AE
100
AcDbEntity
  8
0
  6
CONTINUOUS
 62
     7
100
AcDbLine
 10
307.8
 20
101.3
 30
0.0
 11
321.8
 21
101.3
 31
0.0
  0
LINE
  5
5AF
100
AcDbEntity
  8
0
  6
CENTER
 62
     7
100
AcDbLine
 10
294.8
 20
111.0
 30
0.0
 11
334.8
 21
111.0
 31
0.0
  0
LINE
  5
5B0
100
AcDbEntity
  8
0
  6
CONTINUOUS
 62
     7
100
AcDbLine
 10
301.8
 20
119.8
 30
0.0
 11
301.8
 21
101.0
 31
0.0
  0
LINE
  5
5B1
100
AcDbEntity
  8
0
  6
CENTER
 62
     7
100
AcDbLine
 10
314.8
 20
128.0
 30
0.0
 11
314.8
 21
94.0
 31
0.0
  0
LINE
  5
5B2
100
AcDbEntity
  8
0
  6
CONTINUOUS
 62
     7
100
AcDbLine
 10
307.8
 20
118.0
 30
0.0
 11
321.8
 21
118.0
 31
0.0
  0
LINE
  5
5B3
100
AcDbEntity
  8
0
  6
CONTINUOUS
 62
     7
100
AcDbLine
 10
296.0
 20
121.0
 30
0.0
 11
296.0
 21
119.8
 31
0.0
  0
LINE
  5
5B4
100
AcDbEntity
  8
0
  6
CONTINUOUS
 62
     7
100
AcDbLine
 10
333.6
 20
121.0
 30
0.0
 11
333.6
 21
119.8
 31
0.0
  0
LINE
  5
5B5
100
AcDbEntity
  8
0
  6
CONTINUOUS
 62
     7
100
AcDbLine
 10
321.8
 20
121.0
 30
0.0
 11
321.8
 21
101.0
 31
0.0
  0
LINE
  5
5B6
100
AcDbEntity
  8
0
  6
CONTINUOUS
 62
     7
100
AcDbLine
 10
307.8
 20
121.0
 30
0.0
 11
307.8
 21
101.0
 31
0.0
  0
LINE
  5
5B7
100
AcDbEntity
  8
0
  6
CONTINUOUS
 62
     7
100
AcDbLine
 10
323.6
 20
121.0
 30
0.0
 11
323.6
 21
101.0
 31
0.0
  0
LINE
  5
5B8
100
AcDbEntity
  8
0
  6
CONTINUOUS
 62
     7
100
AcDbLine
 10
296.0
 20
119.8
 30
0.0
 11
304.8
 21
119.8
 31
0.0
  0
LINE
  5
5B9
100
AcDbEntity
  8
0
  6
CENTER
 62
     7
100
AcDbLine
 10
329.6
 20
126.0
 30
0.0
 11
329.6
 21
116.0
 31
0.0
  0
LINE
  5
5BA
100
AcDbEntity
  8
0
  6
CONTINUOUS
 62
     7
100
AcDbLine
 10
324.8
 20
119.8
 30
0.0
 11
324.8
 21
101.0
 31
0.0
  0
LINE
  5
5BB
100
AcDbEntity
  8
0
  6
CONTINUOUS
 62
     7
100
AcDbLine
 10
296.0
 20
121.0
 30
0.0
 11
333.6
 21
121.0
 31
0.0
  0
LINE
  5
5BC
100
AcDbEntity
  8
0
  6
CONTINUOUS
 62
     7
100
AcDbLine
 10
306.0
 20
121.0
 30
0.0
 11
306.0
 21
101.0
 31
0.0
  0
LINE
  5
5BD
100
AcDbEntity
  8
0
  6
CENTER
 62
     7
100
AcDbLine
 10
300.0
 20
126.0
 30
0.0
 11
300.0
 21
116.0
 31
0.0
  0
LINE
  5
5BE
100
AcDbEntity
  8
0
  6
CONTINUOUS
 62
     7
100
AcDbLine
 10
304.8
 20
119.8
 30
0.0
 11
304.8
 21
101.0
 31
0.0
  0
LINE
  5
5BF
100
AcDbEntity
  8
0
  6
CONTINUOUS
 62
     7
100
AcDbLine
 10
301.8
 20
101.0
 30
0.0
 11
307.8
 21
101.0
 31
0.0
  0
LINE
  5
5C0
100
AcDbEntity
  8
0
  6
CONTINUOUS
 62
     7
100
AcDbLine
 10
321.8
 20
101.0
 30
0.0
 11
327.8
 21
101.0
 31
0.0
  0
LINE
  5
5C1
100
AcDbEntity
  8
0
  6
CONTINUOUS
 62
     7
100
AcDbLine
 10
307.8
 20
104.0
 30
0.0
 11
321.8
 21
104.0
 31
0.0
  0
POINT
  5
6FD
100
AcDbEntity
  8
0
  6
CONTINUOUS
 62
     7
100
AcDbPoint
 10
-216.837007
 20
-109.584618
 30
0.0
  0
POINT
  5
6FE
100
AcDbEntity
  8
0
  6
CONTINUOUS
 62
     7
100
AcDbPoint
 10
-196.837007
 20
-109.584618
 30
0.0
  0
LINE
  5
6FF
100
AcDbEntity
  8
0
  6
CONTINUOUS
 62
     7
100
AcDbLine
 10
-206.837007
 20
-149.584568
 30
0.0
 11
-206.837007
 21
-147.857708
 31
0.0
  0
LINE
  5
700
100
AcDbEntity
  8
0
  6
CONTINUOUS
 62
     7
100
AcDbLine
 10
-203.837007
 20
-149.584568
 30
0.0
 11
-203.837007
 21
-69.584618
 31
0.0
  0
LINE
  5
701
100
AcDbEntity
  8
0
  6
CONTINUOUS
 62
     7
100
AcDbLine
 10
-229.837007
 20
-149.584568
 30
0.0
 11
-229.837007
 21
-69.584618
 31
0.0
  0
LINE
  5
702
100
AcDbEntity
  8
0
  6
CENTER
 62
     7
100
AcDbLine
 10
-196.837007
 20
-139.584568
 30
0.0
 11
-236.837007
 21
-139.584568
 31
0.0
  0
LINE
  5
703
100
AcDbEntity
  8
0
  6
CONTINUOUS
 62
     7
100
AcDbLine
 10
-226.837007
 20
-149.584568
 30
0.0
 11
-226.837007
 21
-147.857708
 31
0.0
  0
LINE
  5
704
100
AcDbEntity
  8
0
  6
CENTER
 62
     7
100
AcDbLine
 10
-196.837007
 20
-132.311168
 30
0.0
 11
-236.837007
 21
-132.311168
 31
0.0
  0
LINE
  5
705
100
AcDbEntity
  8
0
  6
CENTER
 62
     7
100
AcDbLine
 10
-196.837007
 20
-109.584618
 30
0.0
 11
-236.837007
 21
-109.584618
 31
0.0
  0
LINE
  5
706
100
AcDbEntity
  8
0
  6
CONTINUOUS
 62
     7
100
AcDbLine
 10
-228.937007
 20
-127.750798
 30
0.0
 11
-223.837007
 21
-127.750798
 31
0.0
  0
LINE
  5
707
100
AcDbEntity
  8
0
  6
CONTINUOUS
 62
     7
100
AcDbLine
 10
-223.837007
 20
-129.659828
 30
0.0
 11
-209.837007
 21
-129.659828
 31
0.0
  0
LINE
  5
708
100
AcDbEntity
  8
0
  6
CONTINUOUS
 62
     7
100
AcDbLine
 10
-209.837007
 20
-149.584568
 30
0.0
 11
-209.837007
 21
-146.359008
 31
0.0
  0
LINE
  5
709
100
AcDbEntity
  8
0
  6
CONTINUOUS
 62
     7
100
AcDbLine
 10
-223.837007
 20
-149.584568
 30
0.0
 11
-223.837007
 21
-146.359008
 31
0.0
  0
LINE
  5
70A
100
AcDbEntity
  8
0
  6
CONTINUOUS
 62
     7
100
AcDbLine
 10
-205.337007
 20
-146.359008
 30
0.0
 11
-205.337007
 21
-144.671578
 31
0.0
  0
LINE
  5
70B
100
AcDbEntity
  8
0
  6
CONTINUOUS
 62
     7
100
AcDbLine
 10
-228.337007
 20
-146.359008
 30
0.0
 11
-228.337007
 21
-144.671578
 31
0.0
  0
LINE
  5
70C
100
AcDbEntity
  8
0
  6
CONTINUOUS
 62
     7
100
AcDbLine
 10
-204.737007
 20
-146.359008
 30
0.0
 11
-204.737007
 21
-144.671578
 31
0.0
  0
LINE
  5
70D
100
AcDbEntity
  8
0
  6
CONTINUOUS
 62
     7
100
AcDbLine
 10
-228.937007
 20
-146.359008
 30
0.0
 11
-228.937007
 21
-144.671578
 31
0.0
  0
LINE
  5
70E
100
AcDbEntity
  8
0
  6
CONTINUOUS
 62
     7
100
AcDbLine
 10
-209.837007
 20
-122.478238
 30
0.0
 11
-204.737007
 21
-122.478238
 31
0.0
  0
LINE
  5
70F
100
AcDbEntity
  8
0
  6
CONTINUOUS
 62
     7
100
AcDbLine
 10
-209.837007
 20
-127.750798
 30
0.0
 11
-204.737007
 21
-127.750798
 31
0.0
  0
LINE
  5
710
100
AcDbEntity
  8
0
  6
CONTINUOUS
 62
     7
100
AcDbLine
 10
-206.837007
 20
-117.795378
 30
0.0
 11
-203.837007
 21
-117.795378
 31
0.0
  0
LINE
  5
711
100
AcDbEntity
  8
0
  6
CONTINUOUS
 62
     7
100
AcDbLine
 10
-206.837007
 20
-117.795378
 30
0.0
 11
-206.837007
 21
-101.373848
 31
0.0
  0
LINE
  5
712
100
AcDbEntity
  8
0
  6
CONTINUOUS
 62
     7
100
AcDbLine
 10
-209.837007
 20
-122.478238
 30
0.0
 11
-209.837007
 21
-96.690995
 31
0.0
  0
LINE
  5
713
100
AcDbEntity
  8
0
  6
CONTINUOUS
 62
     7
100
AcDbLine
 10
-226.837007
 20
-117.795378
 30
0.0
 11
-226.837007
 21
-101.373848
 31
0.0
  0
LINE
  5
714
100
AcDbEntity
  8
0
  6
CONTINUOUS
 62
     7
100
AcDbLine
 10
-223.837007
 20
-122.478238
 30
0.0
 11
-223.837007
 21
-96.690995
 31
0.0
  0
LINE
  5
715
100
AcDbEntity
  8
0
  6
CONTINUOUS
 62
     7
100
AcDbLine
 10
-228.937007
 20
-144.671578
 30
0.0
 11
-223.837007
 21
-144.671578
 31
0.0
  0
LINE
  5
716
100
AcDbEntity
  8
0
  6
CONTINUOUS
 62
     7
100
AcDbLine
 10
-209.837007
 20
-132.433658
 30
0.0
 11
-206.837007
 21
-132.433658
 31
0.0
  0
LINE
  5
717
100
AcDbEntity
  8
0
  6
CONTINUOUS
 62
     7
100
AcDbLine
 10
-226.837007
 20
-132.433658
 30
0.0
 11
-223.837007
 21
-132.433658
 31
0.0
  0
LINE
  5
718
100
AcDbEntity
  8
0
  6
CENTER
 62
     7
100
AcDbLine
 10
-196.837007
 20
-86.858143
 30
0.0
 11
-236.837007
 21
-86.858143
 31
0.0
  0
LINE
  5
719
100
AcDbEntity
  8
0
  6
CENTER
 62
     7
100
AcDbLine
 10
-216.837007
 20
-62.584618
 30
0.0
 11
-216.837007
 21
-154.429668
 31
0.0
  0
LINE
  5
71A
100
AcDbEntity
  8
0
  6
CONTINUOUS
 62
     7
100
AcDbLine
 10
-229.837007
 20
-117.795378
 30
0.0
 11
-226.837007
 21
-117.795378
 31
0.0
  0
LINE
  5
71B
100
AcDbEntity
  8
0
  6
CONTINUOUS
 62
     7
100
AcDbLine
 10
-226.837007
 20
-147.857708
 30
0.0
 11
-223.837007
 21
-147.857708
 31
0.0
  0
LINE
  5
71C
100
AcDbEntity
  8
0
  6
CONTINUOUS
 62
     7
100
AcDbLine
 10
-223.837007
 20
-146.969978
 30
0.0
 11
-209.837007
 21
-146.969978
 31
0.0
  0
LINE
  5
71D
100
AcDbEntity
  8
0
  6
CONTINUOUS
 62
     7
100
AcDbLine
 10
-228.937007
 20
-146.359008
 30
0.0
 11
-223.837007
 21
-146.359008
 31
0.0
  0
LINE
  5
71E
100
AcDbEntity
  8
0
  6
CONTINUOUS
 62
     7
100
AcDbLine
 10
-228.937007
 20
-122.478238
 30
0.0
 11
-223.837007
 21
-122.478238
 31
0.0
  0
LINE
  5
71F
100
AcDbEntity
  8
0
  6
CONTINUOUS
 62
     7
100
AcDbLine
 10
-223.837007
 20
-120.569208
 30
0.0
 11
-209.837007
 21
-120.569208
 31
0.0
  0
LINE
  5
720
100
AcDbEntity
  8
0
  6
CONTINUOUS
 62
     7
100
AcDbLine
 10
-223.837007
 20
-144.060618
 30
0.0
 11
-209.837007
 21
-144.060618
 31
0.0
  0
LINE
  5
721
100
AcDbEntity
  8
0
  6
CONTINUOUS
 62
     7
100
AcDbLine
 10
-229.837007
 20
-143.172878
 30
0.0
 11
-226.837007
 21
-143.172878
 31
0.0
  0
LINE
  5
722
100
AcDbEntity
  8
0
  6
CONTINUOUS
 62
     7
100
AcDbLine
 10
-226.837007
 20
-101.373848
 30
0.0
 11
-223.837007
 21
-101.373848
 31
0.0
  0
LINE
  5
723
100
AcDbEntity
  8
0
  6
CONTINUOUS
 62
     7
100
AcDbLine
 10
-223.837007
 20
-98.60002
 30
0.0
 11
-209.837007
 21
-98.60002
 31
0.0
  0
LINE
  5
724
100
AcDbEntity
  8
0
  6
CONTINUOUS
 62
     7
100
AcDbLine
 10
-228.937007
 20
-96.690995
 30
0.0
 11
-223.837007
 21
-96.690995
 31
0.0
  0
LINE
  5
725
100
AcDbEntity
  8
0
  6
CONTINUOUS
 62
     7
100
AcDbLine
 10
-228.937007
 20
-91.41845
 30
0.0
 11
-223.837007
 21
-91.41845
 31
0.0
  0
LINE
  5
726
100
AcDbEntity
  8
0
  6
CONTINUOUS
 62
     7
100
AcDbLine
 10
-223.837007
 20
-89.509425
 30
0.0
 11
-209.837007
 21
-89.509425
 31
0.0
  0
LINE
  5
727
100
AcDbEntity
  8
0
  6
CONTINUOUS
 62
     7
100
AcDbLine
 10
-229.837007
 20
-86.735598
 30
0.0
 11
-226.837007
 21
-86.735598
 31
0.0
  0
LINE
  5
728
100
AcDbEntity
  8
0
  6
CONTINUOUS
 62
     7
100
AcDbLine
 10
-226.837007
 20
-75.99643
 30
0.0
 11
-223.837007
 21
-75.99643
 31
0.0
  0
LINE
  5
729
100
AcDbEntity
  8
0
  6
CONTINUOUS
 62
     7
100
AcDbLine
 10
-223.837007
 20
-75.108673
 30
0.0
 11
-209.837007
 21
-75.108673
 31
0.0
  0
LINE
  5
72A
100
AcDbEntity
  8
0
  6
CONTINUOUS
 62
     7
100
AcDbLine
 10
-228.937007
 20
-74.4977
 30
0.0
 11
-223.837007
 21
-74.4977
 31
0.0
  0
LINE
  5
72B
100
AcDbEntity
  8
0
  6
CONTINUOUS
 62
     7
100
AcDbLine
 10
-228.937007
 20
-72.810242
 30
0.0
 11
-223.837007
 21
-72.810242
 31
0.0
  0
LINE
  5
72C
100
AcDbEntity
  8
0
  6
CONTINUOUS
 62
     7
100
AcDbLine
 10
-223.837007
 20
-72.199265
 30
0.0
 11
-209.837007
 21
-72.199265
 31
0.0
  0
LINE
  5
72D
100
AcDbEntity
  8
0
  6
CONTINUOUS
 62
     7
100
AcDbLine
 10
-229.837007
 20
-71.311512
 30
0.0
 11
-226.837007
 21
-71.311512
 31
0.0
  0
LINE
  5
72E
100
AcDbEntity
  8
0
  6
CONTINUOUS
 62
     7
100
AcDbLine
 10
-206.837007
 20
-143.172878
 30
0.0
 11
-203.837007
 21
-143.172878
 31
0.0
  0
LINE
  5
72F
100
AcDbEntity
  8
0
  6
CONTINUOUS
 62
     7
100
AcDbLine
 10
-209.837007
 20
-144.671578
 30
0.0
 11
-204.737007
 21
-144.671578
 31
0.0
  0
LINE
  5
730
100
AcDbEntity
  8
0
  6
CONTINUOUS
 62
     7
100
AcDbLine
 10
-209.837007
 20
-146.359008
 30
0.0
 11
-204.737007
 21
-146.359008
 31
0.0
  0
LINE
  5
731
100
AcDbEntity
  8
0
  6
CONTINUOUS
 62
     7
100
AcDbLine
 10
-209.837007
 20
-147.857708
 30
0.0
 11
-206.837007
 21
-147.857708
 31
0.0
  0
LINE
  5
732
100
AcDbEntity
  8
0
  6
CONTINUOUS
 62
     7
100
AcDbLine
 10
-229.837007
 20
-149.584568
 30
0.0
 11
-203.837007
 21
-149.584568
 31
0.0
  0
LINE
  5
733
100
AcDbEntity
  8
0
  6
CONTINUOUS
 62
     7
100
AcDbLine
 10
-223.837007
 20
-144.671578
 30
0.0
 11
-223.837007
 21
-127.750798
 31
0.0
  0
LINE
  5
734
100
AcDbEntity
  8
0
  6
CONTINUOUS
 62
     7
100
AcDbLine
 10
-209.837007
 20
-144.671578
 30
0.0
 11
-209.837007
 21
-127.750798
 31
0.0
  0
LINE
  5
735
100
AcDbEntity
  8
0
  6
CONTINUOUS
 62
     7
100
AcDbLine
 10
-206.837007
 20
-143.172878
 30
0.0
 11
-206.837007
 21
-132.433658
 31
0.0
  0
LINE
  5
736
100
AcDbEntity
  8
0
  6
CONTINUOUS
 62
     7
100
AcDbLine
 10
-226.837007
 20
-143.172878
 30
0.0
 11
-226.837007
 21
-132.433658
 31
0.0
  0
LINE
  5
737
100
AcDbEntity
  8
0
  6
CONTINUOUS
 62
     7
100
AcDbLine
 10
-228.937007
 20
-127.750798
 30
0.0
 11
-228.937007
 21
-122.478238
 31
0.0
  0
LINE
  5
738
100
AcDbEntity
  8
0
  6
CONTINUOUS
 62
     7
100
AcDbLine
 10
-228.337007
 20
-127.750798
 30
0.0
 11
-228.337007
 21
-122.478238
 31
0.0
  0
LINE
  5
739
100
AcDbEntity
  8
0
  6
CONTINUOUS
 62
     7
100
AcDbLine
 10
-205.337007
 20
-127.750798
 30
0.0
 11
-205.337007
 21
-122.478238
 31
0.0
  0
LINE
  5
73A
100
AcDbEntity
  8
0
  6
CONTINUOUS
 62
     7
100
AcDbLine
 10
-204.737007
 20
-127.750798
 30
0.0
 11
-204.737007
 21
-122.478238
 31
0.0
  0
LINE
  5
73B
100
AcDbEntity
  8
0
  6
CONTINUOUS
 62
     7
100
AcDbLine
 10
-209.837007
 20
-101.373848
 30
0.0
 11
-206.837007
 21
-101.373848
 31
0.0
  0
LINE
  5
73C
100
AcDbEntity
  8
0
  6
CONTINUOUS
 62
     7
100
AcDbLine
 10
-209.837007
 20
-96.690995
 30
0.0
 11
-204.737007
 21
-96.690995
 31
0.0
  0
LINE
  5
73D
100
AcDbEntity
  8
0
  6
CONTINUOUS
 62
     7
100
AcDbLine
 10
-209.837007
 20
-91.41845
 30
0.0
 11
-204.737007
 21
-91.41845
 31
0.0
  0
LINE
  5
73E
100
AcDbEntity
  8
0
  6
CONTINUOUS
 62
     7
100
AcDbLine
 10
-206.837007
 20
-86.735598
 30
0.0
 11
-203.837007
 21
-86.735598
 31
0.0
  0
LINE
  5
73F
100
AcDbEntity
  8
0
  6
CONTINUOUS
 62
     7
100
AcDbLine
 10
-209.837007
 20
-75.99643
 30
0.0
 11
-206.837007
 21
-75.99643
 31
0.0
  0
LINE
  5
740
100
AcDbEntity
  8
0
  6
CONTINUOUS
 62
     7
100
AcDbLine
 10
-209.837007
 20
-74.4977
 30
0.0
 11
-204.737007
 21
-74.4977
 31
0.0
  0
LINE
  5
741
100
AcDbEntity
  8
0
  6
CONTINUOUS
 62
     7
100
AcDbLine
 10
-209.837007
 20
-72.810242
 30
0.0
 11
-204.737007
 21
-72.810242
 31
0.0
  0
LINE
  5
742
100
AcDbEntity
  8
0
  6
CONTINUOUS
 62
     7
100
AcDbLine
 10
-206.837007
 20
-71.311512
 30
0.0
 11
-203.837007
 21
-71.311512
 31
0.0
  0
LINE
  5
743
100
AcDbEntity
  8
0
  6
CONTINUOUS
 62
     7
100
AcDbLine
 10
-229.837007
 20
-69.584618
 30
0.0
 11
-203.837007
 21
-69.584618
 31
0.0
  0
LINE
  5
744
100
AcDbEntity
  8
0
  6
CONTINUOUS
 62
     7
100
AcDbLine
 10
-223.837007
 20
-91.41845
 30
0.0
 11
-223.837007
 21
-74.4977
 31
0.0
  0
LINE
  5
745
100
AcDbEntity
  8
0
  6
CONTINUOUS
 62
     7
100
AcDbLine
 10
-226.837007
 20
-86.735598
 30
0.0
 11
-226.837007
 21
-75.99643
 31
0.0
  0
LINE
  5
746
100
AcDbEntity
  8
0
  6
CONTINUOUS
 62
     7
100
AcDbLine
 10
-228.337007
 20
-96.690995
 30
0.0
 11
-228.337007
 21
-91.41845
 31
0.0
  0
LINE
  5
747
100
AcDbEntity
  8
0
  6
CONTINUOUS
 62
     7
100
AcDbLine
 10
-228.937007
 20
-96.690995
 30
0.0
 11
-228.937007
 21
-91.41845
 31
0.0
  0
LINE
  5
748
100
AcDbEntity
  8
0
  6
CONTINUOUS
 62
     7
100
AcDbLine
 10
-209.837007
 20
-91.41845
 30
0.0
 11
-209.837007
 21
-74.4977
 31
0.0
  0
LINE
  5
749
100
AcDbEntity
  8
0
  6
CONTINUOUS
 62
     7
100
AcDbLine
 10
-206.837007
 20
-86.735598
 30
0.0
 11
-206.837007
 21
-75.99643
 31
0.0
  0
LINE
  5
74A
100
AcDbEntity
  8
0
  6
CONTINUOUS
 62
     7
100
AcDbLine
 10
-205.337007
 20
-96.690995
 30
0.0
 11
-205.337007
 21
-91.41845
 31
0.0
  0
LINE
  5
74B
100
AcDbEntity
  8
0
  6
CONTINUOUS
 62
     7
100
AcDbLine
 10
-204.737007
 20
-96.690995
 30
0.0
 11
-204.737007
 21
-91.41845
 31
0.0
  0
LINE
  5
74C
100
AcDbEntity
  8
0
  6
CONTINUOUS
 62
     7
100
AcDbLine
 10
-226.837007
 20
-71.311512
 30
0.0
 11
-226.837007
 21
-69.584618
 31
0.0
  0
LINE
  5
74D
100
AcDbEntity
  8
0
  6
CONTINUOUS
 62
     7
100
AcDbLine
 10
-223.837007
 20
-72.810242
 30
0.0
 11
-223.837007
 21
-69.584618
 31
0.0
  0
LINE
  5
74E
100
AcDbEntity
  8
0
  6
CONTINUOUS
 62
     7
100
AcDbLine
 10
-228.937007
 20
-74.4977
 30
0.0
 11
-228.937007
 21
-72.810242
 31
0.0
  0
LINE
  5
74F
100
AcDbEntity
  8
0
  6
CONTINUOUS
 62
     7
100
AcDbLine
 10
-228.337007
 20
-74.4977
 30
0.0
 11
-228.337007
 21
-72.810242
 31
0.0
  0
LINE
  5
750
100
AcDbEntity
  8
0
  6
CONTINUOUS
 62
     7
100
AcDbLine
 10
-209.837007
 20
-72.810242
 30
0.0
 11
-209.837007
 21
-69.584618
 31
0.0
  0
LINE
  5
751
100
AcDbEntity
  8
0
  6
CONTINUOUS
 62
     7
100
AcDbLine
 10
-206.837007
 20
-71.311512
 30
0.0
 11
-206.837007
 21
-69.584618
 31
0.0
  0
LINE
  5
752
100
AcDbEntity
  8
0
  6
CONTINUOUS
 62
     7
100
AcDbLine
 10
-205.337007
 20
-74.4977
 30
0.0
 11
-205.337007
 21
-72.810242
 31
0.0
  0
LINE
  5
753
100
AcDbEntity
  8
0
  6
CONTINUOUS
 62
     7
100
AcDbLine
 10
-204.737007
 20
-74.4977
 30
0.0
 11
-204.737007
 21
-72.810242
 31
0.0
  0
LINE
  5
754
100
AcDbEntity
  8
0
  6
CENTER
 62
     7
100
AcDbLine
 10
-236.837007
 20
-79.584618
 30
0.0
 11
-196.837007
 21
-79.584618
 31
0.0
  0
POINT
  5
755
100
AcDbEntity
  8
0
  6
CONTINUOUS
 62
     7
100
AcDbPoint
 10
-91.837007
 20
-34.584618
 30
0.0
  0
POINT
  5
756
100
AcDbEntity
  8
0
  6
CONTINUOUS
 62
     7
100
AcDbPoint
 10
-74.837087
 20
-34.584618
 30
0.0
  0
LINE
  5
757
100
AcDbEntity
  8
0
  6
CONTINUOUS
 62
     7
100
AcDbLine
 10
-151.699743
 20
-44.584618
 30
0.0
 11
-151.699743
 21
-47.584618
 31
0.0
  0
LINE
  5
758
100
AcDbEntity
  8
0
  6
CONTINUOUS
 62
     7
100
AcDbLine
 10
-128.931131
 20
-22.484618
 30
0.0
 11
-128.931131
 21
-27.584618
 31
0.0
  0
LINE
  5
759
100
AcDbEntity
  8
0
  6
CONTINUOUS
 62
     7
100
AcDbLine
 10
-161.172189
 20
-41.584618
 30
0.0
 11
-161.172189
 21
-47.584618
 31
0.0
  0
LINE
  5
75A
100
AcDbEntity
  8
0
  6
CONTINUOUS
 62
     7
100
AcDbLine
 10
-124.002656
 20
-44.584618
 30
0.0
 11
-124.002656
 21
-47.584618
 31
0.0
  0
LINE
  5
75B
100
AcDbEntity
  8
0
  6
CONTINUOUS
 62
     7
100
AcDbLine
 10
-128.931131
 20
-41.584618
 30
0.0
 11
-128.931131
 21
-46.684618
 31
0.0
  0
LINE
  5
75C
100
AcDbEntity
  8
0
  6
CONTINUOUS
 62
     7
100
AcDbLine
 10
-134.48023
 20
-41.584618
 30
0.0
 11
-134.48023
 21
-46.684618
 31
0.0
  0
LINE
  5
75D
100
AcDbEntity
  8
0
  6
CONTINUOUS
 62
     7
100
AcDbLine
 10
-139.408704
 20
-41.584618
 30
0.0
 11
-139.408704
 21
-44.584618
 31
0.0
  0
LINE
  5
75E
100
AcDbEntity
  8
0
  6
CONTINUOUS
 62
     7
100
AcDbLine
 10
-139.408704
 20
-24.584618
 30
0.0
 11
-139.408704
 21
-27.584618
 31
0.0
  0
LINE
  5
75F
100
AcDbEntity
  8
0
  6
CONTINUOUS
 62
     7
100
AcDbLine
 10
-134.48023
 20
-22.484618
 30
0.0
 11
-134.48023
 21
-27.584618
 31
0.0
  0
LINE
  5
760
100
AcDbEntity
  8
0
  6
CONTINUOUS
 62
     7
100
AcDbLine
 10
-156.262788
 20
-22.484618
 30
0.0
 11
-156.262788
 21
-27.584618
 31
0.0
  0
LINE
  5
761
100
AcDbEntity
  8
0
  6
CONTINUOUS
 62
     7
100
AcDbLine
 10
-157.137788
 20
-27.584618
 30
0.0
 11
-157.137788
 21
-41.584618
 31
0.0
  0
LINE
  5
762
100
AcDbEntity
  8
0
  6
CONTINUOUS
 62
     7
100
AcDbLine
 10
-158.409166
 20
-24.584618
 30
0.0
 11
-158.409166
 21
-27.584618
 31
0.0
  0
LINE
  5
763
100
AcDbEntity
  8
0
  6
CONTINUOUS
 62
     7
100
AcDbLine
 10
-156.262788
 20
-41.584618
 30
0.0
 11
-156.262788
 21
-46.684618
 31
0.0
  0
LINE
  5
764
100
AcDbEntity
  8
0
  6
CONTINUOUS
 62
     7
100
AcDbLine
 10
-158.409166
 20
-41.584618
 30
0.0
 11
-158.409166
 21
-44.584618
 31
0.0
  0
LINE
  5
765
100
AcDbEntity
  8
0
  6
CONTINUOUS
 62
     7
100
AcDbLine
 10
-153.846124
 20
-41.584618
 30
0.0
 11
-153.846124
 21
-46.684618
 31
0.0
  0
LINE
  5
766
100
AcDbEntity
  8
0
  6
CONTINUOUS
 62
     7
100
AcDbLine
 10
-126.921976
 20
-27.584618
 30
0.0
 11
-126.921976
 21
-41.584618
 31
0.0
  0
LINE
  5
767
100
AcDbEntity
  8
0
  6
CENTER
 62
     7
100
AcDbLine
 10
-168.172189
 20
-34.584618
 30
0.0
 11
-74.837087
 21
-34.584618
 31
0.0
  0
LINE
  5
768
100
AcDbEntity
  8
0
  6
CONTINUOUS
 62
     7
100
AcDbLine
 10
-161.172189
 20
-47.584618
 30
0.0
 11
-96.285691
 21
-47.584618
 31
0.0
  0
LINE
  5
769
100
AcDbEntity
  8
0
  6
CONTINUOUS
 62
     7
100
AcDbLine
 10
-124.002656
 20
-21.584618
 30
0.0
 11
-124.002656
 21
-24.584618
 31
0.0
  0
LINE
  5
76A
100
AcDbEntity
  8
0
  6
CONTINUOUS
 62
     7
100
AcDbLine
 10
-151.699743
 20
-21.584618
 30
0.0
 11
-151.699743
 21
-24.584618
 31
0.0
  0
LINE
  5
76B
100
AcDbEntity
  8
0
  6
CONTINUOUS
 62
     7
100
AcDbLine
 10
-152.971124
 20
-27.584618
 30
0.0
 11
-152.971124
 21
-41.584618
 31
0.0
  0
LINE
  5
76C
100
AcDbEntity
  8
0
  6
CONTINUOUS
 62
     7
100
AcDbLine
 10
-153.846124
 20
-22.484618
 30
0.0
 11
-153.846124
 21
-27.584618
 31
0.0
  0
LINE
  5
76D
100
AcDbEntity
  8
0
  6
CONTINUOUS
 62
     7
100
AcDbLine
 10
-107.237007
 20
-41.584618
 30
0.0
 11
-107.237007
 21
-46.684618
 31
0.0
  0
LINE
  5
76E
100
AcDbEntity
  8
0
  6
CONTINUOUS
 62
     7
100
AcDbLine
 10
-161.172189
 20
-21.584618
 30
0.0
 11
-161.172189
 21
-27.584618
 31
0.0
  0
LINE
  5
76F
100
AcDbEntity
  8
0
  6
CENTER
 62
     7
100
AcDbLine
 10
-109.237007
 20
-25.334618
 30
0.0
 11
-99.437007
 21
-25.334618
 31
0.0
  0
LINE
  5
770
100
AcDbEntity
  8
0
  6
CONTINUOUS
 62
     7
100
AcDbLine
 10
-136.489385
 20
-27.584618
 30
0.0
 11
-136.489385
 21
-41.584618
 31
0.0
  0
LINE
  5
771
100
AcDbEntity
  8
0
  6
CENTER
 62
     7
100
AcDbLine
 10
-116.837007
 20
-14.584618
 30
0.0
 11
-116.837007
 21
-54.584618
 31
0.0
  0
LINE
  5
772
100
AcDbEntity
  8
0
  6
CONTINUOUS
 62
     7
100
AcDbLine
 10
-161.172189
 20
-21.584618
 30
0.0
 11
-96.285691
 21
-21.584618
 31
0.0
  0
LINE
  5
773
100
AcDbEntity
  8
0
  6
CONTINUOUS
 62
     7
100
AcDbLine
 10
-161.172189
 20
-44.584618
 30
0.0
 11
-158.409166
 21
-44.584618
 31
0.0
  0
LINE
  5
774
100
AcDbEntity
  8
0
  6
CONTINUOUS
 62
     7
100
AcDbLine
 10
-161.172189
 20
-27.584618
 30
0.0
 11
-156.262788
 21
-27.584618
 31
0.0
  0
LINE
  5
775
100
AcDbEntity
  8
0
  6
CONTINUOUS
 62
     7
100
AcDbLine
 10
-107.237007
 20
-22.484618
 30
0.0
 11
-107.237007
 21
-27.584618
 31
0.0
  0
LINE
  5
776
100
AcDbEntity
  8
0
  6
CONTINUOUS
 62
     7
100
AcDbLine
 10
-161.172189
 20
-41.584618
 30
0.0
 11
-156.262788
 21
-41.584618
 31
0.0
  0
LINE
  5
777
100
AcDbEntity
  8
0
  6
CONTINUOUS
 62
     7
100
AcDbLine
 10
-101.437007
 20
-41.584618
 30
0.0
 11
-101.437007
 21
-46.684618
 31
0.0
  0
LINE
  5
778
100
AcDbEntity
  8
0
  6
CONTINUOUS
 62
     7
100
AcDbLine
 10
-101.437007
 20
-41.584618
 30
0.0
 11
-87.388323
 21
-41.584618
 31
0.0
  0
LINE
  5
779
100
AcDbEntity
  8
0
  6
CENTER
 62
     7
100
AcDbLine
 10
-91.837007
 20
-14.584618
 30
0.0
 11
-91.837007
 21
-54.584618
 31
0.0
  0
LINE
  5
77A
100
AcDbEntity
  8
0
  6
CONTINUOUS
 62
     7
100
AcDbLine
 10
-156.262788
 20
-23.084618
 30
0.0
 11
-153.846124
 21
-23.084618
 31
0.0
  0
LINE
  5
77B
100
AcDbEntity
  8
0
  6
CONTINUOUS
 62
     7
100
AcDbLine
 10
-156.262788
 20
-22.484618
 30
0.0
 11
-153.846124
 21
-22.484618
 31
0.0
  0
LINE
  5
77C
100
AcDbEntity
  8
0
  6
CONTINUOUS
 62
     7
100
AcDbLine
 10
-156.262788
 20
-46.684618
 30
0.0
 11
-153.846124
 21
-46.684618
 31
0.0
  0
LINE
  5
77D
100
AcDbEntity
  8
0
  6
CONTINUOUS
 62
     7
100
AcDbLine
 10
-156.262788
 20
-46.084618
 30
0.0
 11
-153.846124
 21
-46.084618
 31
0.0
  0
LINE
  5
77E
100
AcDbEntity
  8
0
  6
CONTINUOUS
 62
     7
100
AcDbLine
 10
-101.437007
 20
-22.484618
 30
0.0
 11
-101.437007
 21
-27.584618
 31
0.0
  0
LINE
  5
77F
100
AcDbEntity
  8
0
  6
CONTINUOUS
 62
     7
100
AcDbLine
 10
-101.437007
 20
-27.584618
 30
0.0
 11
-87.388323
 21
-27.584618
 31
0.0
  0
LINE
  5
780
100
AcDbEntity
  8
0
  6
CONTINUOUS
 62
     7
100
AcDbLine
 10
-161.172189
 20
-24.584618
 30
0.0
 11
-158.409166
 21
-24.584618
 31
0.0
  0
LINE
  5
781
100
AcDbEntity
  8
0
  6
CONTINUOUS
 62
     7
100
AcDbLine
 10
-109.337007
 20
-27.584618
 30
0.0
 11
-109.337007
 21
-41.584618
 31
0.0
  0
LINE
  5
782
100
AcDbEntity
  8
0
  6
CENTER
 62
     7
100
AcDbLine
 10
-109.237007
 20
-43.834618
 30
0.0
 11
-99.437007
 21
-43.834618
 31
0.0
  0
LINE
  5
783
100
AcDbEntity
  8
0
  6
CONTINUOUS
 62
     7
100
AcDbLine
 10
-99.337007
 20
-27.584618
 30
0.0
 11
-99.337007
 21
-41.584618
 31
0.0
  0
LINE
  5
784
100
AcDbEntity
  8
0
  6
CONTINUOUS
 62
     7
100
AcDbLine
 10
-96.285691
 20
-44.584618
 30
0.0
 11
-87.388323
 21
-44.584618
 31
0.0
  0
LINE
  5
785
100
AcDbEntity
  8
0
  6
CONTINUOUS
 62
     7
100
AcDbLine
 10
-96.285691
 20
-24.584618
 30
0.0
 11
-87.388323
 21
-24.584618
 31
0.0
  0
LINE
  5
786
100
AcDbEntity
  8
0
  6
CONTINUOUS
 62
     7
100
AcDbLine
 10
-96.285691
 20
-44.584618
 30
0.0
 11
-96.285691
 21
-47.584618
 31
0.0
  0
LINE
  5
787
100
AcDbEntity
  8
0
  6
CONTINUOUS
 62
     7
100
AcDbLine
 10
-96.285691
 20
-21.584618
 30
0.0
 11
-96.285691
 21
-24.584618
 31
0.0
  0
LINE
  5
788
100
AcDbEntity
  8
0
  6
CONTINUOUS
 62
     7
100
AcDbLine
 10
-112.388323
 20
-24.584618
 30
0.0
 11
-112.388323
 21
-27.584618
 31
0.0
  0
LINE
  5
789
100
AcDbEntity
  8
0
  6
CONTINUOUS
 62
     7
100
AcDbLine
 10
-112.388323
 20
-41.584618
 30
0.0
 11
-112.388323
 21
-44.584618
 31
0.0
  0
LINE
  5
78A
100
AcDbEntity
  8
0
  6
CONTINUOUS
 62
     7
100
AcDbLine
 10
-128.931131
 20
-27.584618
 30
0.0
 11
-107.237007
 21
-27.584618
 31
0.0
  0
LINE
  5
78B
100
AcDbEntity
  8
0
  6
CONTINUOUS
 62
     7
100
AcDbLine
 10
-153.846124
 20
-27.584618
 30
0.0
 11
-134.48023
 21
-27.584618
 31
0.0
  0
LINE
  5
78C
100
AcDbEntity
  8
0
  6
CONTINUOUS
 62
     7
100
AcDbLine
 10
-153.846124
 20
-41.584618
 30
0.0
 11
-134.48023
 21
-41.584618
 31
0.0
  0
LINE
  5
78D
100
AcDbEntity
  8
0
  6
CONTINUOUS
 62
     7
100
AcDbLine
 10
-128.931131
 20
-41.584618
 30
0.0
 11
-107.237007
 21
-41.584618
 31
0.0
  0
LINE
  5
78E
100
AcDbEntity
  8
0
  6
CONTINUOUS
 62
     7
100
AcDbLine
 10
-151.699743
 20
-44.584618
 30
0.0
 11
-139.408704
 21
-44.584618
 31
0.0
  0
LINE
  5
78F
100
AcDbEntity
  8
0
  6
CONTINUOUS
 62
     7
100
AcDbLine
 10
-124.002656
 20
-44.584618
 30
0.0
 11
-112.388323
 21
-44.584618
 31
0.0
  0
LINE
  5
790
100
AcDbEntity
  8
0
  6
CONTINUOUS
 62
     7
100
AcDbLine
 10
-124.002656
 20
-24.584618
 30
0.0
 11
-112.388323
 21
-24.584618
 31
0.0
  0
LINE
  5
791
100
AcDbEntity
  8
0
  6
CONTINUOUS
 62
     7
100
AcDbLine
 10
-151.699743
 20
-24.584618
 30
0.0
 11
-139.408704
 21
-24.584618
 31
0.0
  0
LINE
  5
792
100
AcDbEntity
  8
0
  6
CONTINUOUS
 62
     7
100
AcDbLine
 10
-134.48023
 20
-23.084618
 30
0.0
 11
-128.931131
 21
-23.084618
 31
0.0
  0
LINE
  5
793
100
AcDbEntity
  8
0
  6
CONTINUOUS
 62
     7
100
AcDbLine
 10
-134.48023
 20
-22.484618
 30
0.0
 11
-128.931131
 21
-22.484618
 31
0.0
  0
LINE
  5
794
100
AcDbEntity
  8
0
  6
CONTINUOUS
 62
     7
100
AcDbLine
 10
-107.237007
 20
-22.484618
 30
0.0
 11
-101.437007
 21
-22.484618
 31
0.0
  0
LINE
  5
795
100
AcDbEntity
  8
0
  6
CONTINUOUS
 62
     7
100
AcDbLine
 10
-107.237007
 20
-46.084618
 30
0.0
 11
-101.437007
 21
-46.084618
 31
0.0
  0
LINE
  5
796
100
AcDbEntity
  8
0
  6
CONTINUOUS
 62
     7
100
AcDbLine
 10
-107.237007
 20
-46.684618
 30
0.0
 11
-101.437007
 21
-46.684618
 31
0.0
  0
LINE
  5
797
100
AcDbEntity
  8
0
  6
CONTINUOUS
 62
     7
100
AcDbLine
 10
-134.48023
 20
-46.684618
 30
0.0
 11
-128.931131
 21
-46.684618
 31
0.0
  0
LINE
  5
798
100
AcDbEntity
  8
0
  6
CONTINUOUS
 62
     7
100
AcDbLine
 10
-134.48023
 20
-46.084618
 30
0.0
 11
-128.931131
 21
-46.084618
 31
0.0
  0
LINE
  5
799
100
AcDbEntity
  8
0
  6
CONTINUOUS
 62
     7
100
AcDbLine
 10
-107.237007
 20
-23.084618
 30
0.0
 11
-101.437007
 21
-23.084618
 31
0.0
  0
LINE
  5
79A
100
AcDbEntity
  8
0
  6
CENTER
 62
     7
100
AcDbLine
 10
-151.172193
 20
-14.584618
 30
0.0
 11
-151.172193
 21
-54.584618
 31
0.0
  0
LINE
  5
79B
100
AcDbEntity
  8
0
  6
CENTER
 62
     7
100
AcDbLine
 10
-140.755533
 20
-14.584618
 30
0.0
 11
-140.755533
 21
-54.584618
 31
0.0
  0
LINE
  5
79C
100
AcDbEntity
  8
0
  6
CENTER
 62
     7
100
AcDbLine
 10
-104.337007
 20
-14.584618
 30
0.0
 11
-104.337007
 21
-54.584618
 31
0.0
  0
LINE
  5
79D
100
AcDbEntity
  8
0
  6
CONTINUOUS
 62
     7
100
AcDbLine
 10
-109.837007
 20
-27.584618
 30
0.0
 11
-109.837007
 21
-41.584618
 31
0.0
  0
LINE
  5
79E
100
AcDbEntity
  8
0
  6
CONTINUOUS
 62
     7
100
AcDbLine
 10
-98.837007
 20
-27.584618
 30
0.0
 11
-98.837007
 21
-41.584618
 31
0.0
  0
POINT
  5
79F
100
AcDbEntity
  8
0
  6
CONTINUOUS
 62
     7
100
AcDbPoint
 10
-91.837007
 20
-79.584618
 30
0.0
  0
POINT
  5
7A0
100
AcDbEntity
  8
0
  6
CONTINUOUS
 62
     7
100
AcDbPoint
 10
-74.837087
 20
-79.584618
 30
0.0
  0
LINE
  5
7A1
100
AcDbEntity
  8
0
  6
CONTINUOUS
 62
     7
100
AcDbLine
 10
-143.664941
 20
-77.290733
 30
0.0
 11
-119.746418
 21
-70.017208
 31
0.0
  0
LINE
  5
7A2
100
AcDbEntity
  8
0
  6
CONTINUOUS
 62
     7
100
AcDbLine
 10
-137.846124
 20
-96.425553
 30
0.0
 11
-115.350141
 21
-89.584618
 31
0.0
  0
LINE
  5
7A3
100
AcDbEntity
  8
0
  6
CONTINUOUS
 62
     7
100
AcDbLine
 10
-120.383211
 20
-90.644806
 30
0.0
 11
-124.009469
 21
-87.253112
 31
0.0
  0
LINE
  5
7A4
100
AcDbEntity
  8
0
  6
CONTINUOUS
 62
     7
100
AcDbLine
 10
-119.586155
 20
-77.418471
 30
0.0
 11
-117.914825
 21
-82.91453
 31
0.0
  0
LINE
  5
7A5
100
AcDbEntity
  8
0
  6
CONTINUOUS
 62
     7
100
AcDbLine
 10
-160.262788
 20
-105.417968
 30
0.0
 11
-149.846128
 21
-82.691478
 31
0.0
  0
LINE
  5
7A6
100
AcDbEntity
  8
0
  6
CONTINUOUS
 62
     7
100
AcDbLine
 10
-142.081598
 20
-113.751298
 30
0.0
 11
-133.540193
 21
-95.116138
 31
0.0
  0
LINE
  5
7A7
100
AcDbEntity
  8
0
  6
CONTINUOUS
 62
     7
100
AcDbLine
 10
-134.828454
 20
-96.846791
 30
0.0
 11
-139.771829
 21
-97.311961
 31
0.0
  0
LINE
  5
7A8
100
AcDbEntity
  8
0
  6
CONTINUOUS
 62
     7
100
AcDbLine
 10
-144.199941
 20
-87.479479
 30
0.0
 11
-138.977788
 21
-89.873045
 31
0.0
  0
LINE
  5
7A9
100
AcDbEntity
  8
0
  6
CONTINUOUS
 62
     7
100
AcDbLine
 10
-149.846269
 20
-136.477788
 30
0.0
 11
-160.262804
 21
-113.751248
 31
0.0
  0
LINE
  5
7AA
100
AcDbEntity
  8
0
  6
CONTINUOUS
 62
     7
100
AcDbLine
 10
-131.665033
 20
-128.144558
 30
0.0
 11
-140.171823
 21
-109.584658
 31
0.0
  0
LINE
  5
7AB
100
AcDbEntity
  8
0
  6
CONTINUOUS
 62
     7
100
AcDbLine
 10
-139.736242
 20
-111.615008
 30
0.0
 11
-142.610803
 21
-115.663498
 31
0.0
  0
LINE
  5
7AC
100
AcDbEntity
  8
0
  6
CENTER
 62
     7
100
AcDbLine
 10
-91.837007
 20
-74.084618
 30
0.0
 11
-91.837007
 21
-85.084618
 31
0.0
  0
LINE
  5
7AD
100
AcDbEntity
  8
0
  6
CENTER
 62
     7
100
AcDbLine
 10
-97.337007
 20
-79.584618
 30
0.0
 11
-86.337007
 21
-79.584618
 31
0.0
  0
LINE
  5
7AE
100
AcDbEntity
  8
0
  6
CONTINUOUS
 62
     7
100
AcDbLine
 10
-93.837007
 20
-76.712337
 30
0.0
 11
-93.837007
 21
-82.456899
 31
0.0
  0
LINE
  5
7AF
100
AcDbEntity
  8
0
  6
CONTINUOUS
 62
     7
100
AcDbLine
 10
-98.447668
 20
-89.134618
 30
0.0
 11
-100.930273
 21
-84.834618
 31
0.0
  0
LINE
  5
7B0
100
AcDbEntity
  8
0
  6
CONTINUOUS
 62
     7
100
AcDbLine
 10
-116.837007
 20
-89.584618
 30
0.0
 11
-91.837007
 21
-89.584618
 31
0.0
  0
LINE
  5
7B1
100
AcDbEntity
  8
0
  6
CONTINUOUS
 62
     7
100
AcDbLine
 10
-116.837007
 20
-69.584618
 30
0.0
 11
-91.837007
 21
-69.584618
 31
0.0
  0
LINE
  5
7B2
100
AcDbEntity
  8
0
  6
CENTER
 62
     7
100
AcDbLine
 10
-116.837007
 20
-74.084618
 30
0.0
 11
-116.837007
 21
-85.084618
 31
0.0
  0
LINE
  5
7B3
100
AcDbEntity
  8
0
  6
CENTER
 62
     7
100
AcDbLine
 10
-122.337007
 20
-79.584618
 30
0.0
 11
-111.337007
 21
-79.584618
 31
0.0
  0
LINE
  5
7B4
100
AcDbEntity
  8
0
  6
CONTINUOUS
 62
     7
100
AcDbLine
 10
-116.837007
 20
-79.584618
 30
0.0
 11
-116.837007
 21
-79.584617
 31
0.0
  0
LINE
  5
7B5
100
AcDbEntity
  8
0
  6
CENTER
 62
     7
100
AcDbLine
 10
-121.172201
 20
-139.584618
 30
0.0
 11
-74.837087
 21
-139.584618
 31
0.0
  0
LINE
  5
7B6
100
AcDbEntity
  8
0
  6
CENTER
 62
     7
100
AcDbLine
 10
-121.172201
 20
-79.584618
 30
0.0
 11
-74.837087
 21
-79.584618
 31
0.0
  0
LINE
  5
7B7
100
AcDbEntity
  8
0
  6
CENTER
 62
     7
100
AcDbLine
 10
-168.172189
 20
-109.584618
 30
0.0
 11
-74.837087
 21
-109.584618
 31
0.0
  0
LINE
  5
7B8
100
AcDbEntity
  8
0
  6
CENTER
 62
     7
100
AcDbLine
 10
-121.172201
 20
-62.584618
 30
0.0
 11
-121.172201
 21
-156.584568
 31
0.0
  0
LINE
  5
7B9
100
AcDbEntity
  8
0
  6
CONTINUOUS
 62
     7
100
AcDbLine
 10
-152.949953
 20
-112.599518
 30
0.0
 11
-147.727788
 21
-110.205988
 31
0.0
  0
LINE
  5
7BA
100
AcDbEntity
  8
0
  6
CONTINUOUS
 62
     7
100
AcDbLine
 10
-119.74645
 20
-149.151998
 30
0.0
 11
-143.665014
 21
-141.878598
 31
0.0
  0
LINE
  5
7BB
100
AcDbEntity
  8
0
  6
CONTINUOUS
 62
     7
100
AcDbLine
 10
-113.927729
 20
-130.017148
 30
0.0
 11
-133.540296
 21
-124.053158
 31
0.0
  0
LINE
  5
7BC
100
AcDbEntity
  8
0
  6
CENTER
 62
     7
100
AcDbLine
 10
-116.837007
 20
-134.084568
 30
0.0
 11
-116.837007
 21
-145.084568
 31
0.0
  0
LINE
  5
7BD
100
AcDbEntity
  8
0
  6
CONTINUOUS
 62
     7
100
AcDbLine
 10
-131.652513
 20
-125.097558
 30
0.0
 11
-130.528322
 21
-129.933828
 31
0.0
  0
LINE
  5
7BE
100
AcDbEntity
  8
0
  6
CONTINUOUS
 62
     7
100
AcDbLine
 10
-139.677816
 20
-135.641078
 30
0.0
 11
-138.006517
 21
-130.145008
 31
0.0
  0
LINE
  5
7BF
100
AcDbEntity
  8
0
  6
CONTINUOUS
 62
     7
100
AcDbLine
 10
-91.837088
 20
-149.584568
 30
0.0
 11
-116.837088
 21
-149.584568
 31
0.0
  0
LINE
  5
7C0
100
AcDbEntity
  8
0
  6
CENTER
 62
     7
100
AcDbLine
 10
-86.337088
 20
-139.584568
 30
0.0
 11
-97.337088
 21
-139.584568
 31
0.0
  0
LINE
  5
7C1
100
AcDbEntity
  8
0
  6
CONTINUOUS
 62
     7
100
AcDbLine
 10
-91.837088
 20
-129.584568
 30
0.0
 11
-115.35025
 21
-129.584568
 31
0.0
  0
LINE
  5
7C2
100
AcDbEntity
  8
0
  6
CENTER
 62
     7
100
AcDbLine
 10
-86.337088
 20
-139.584568
 30
0.0
 11
-97.337088
 21
-139.584568
 31
0.0
  0
LINE
  5
7C3
100
AcDbEntity
  8
0
  6
CENTER
 62
     7
100
AcDbLine
 10
-91.837007
 20
-134.084568
 30
0.0
 11
-91.837007
 21
-145.084568
 31
0.0
  0
LINE
  5
7C4
100
AcDbEntity
  8
0
  6
CENTER
 62
     7
100
AcDbLine
 10
-111.337088
 20
-139.584568
 30
0.0
 11
-122.337087
 21
-139.584568
 31
0.0
  0
LINE
  5
7C5
100
AcDbEntity
  8
0
  6
CONTINUOUS
 62
     7
100
AcDbLine
 10
-114.837088
 20
-142.456848
 30
0.0
 11
-114.837088
 21
-136.712288
 31
0.0
  0
LINE
  5
7C6
100
AcDbEntity
  8
0
  6
CONTINUOUS
 62
     7
100
AcDbLine
 10
-110.226427
 20
-130.034568
 30
0.0
 11
-107.743821
 21
-134.334568
 31
0.0
  0
LINE
  5
7C7
100
AcDbEntity
  8
0
  6
CENTER
 62
     7
100
AcDbLine
 10
-140.755533
 20
-81.358143
 30
0.0
 11
-140.755533
 21
-92.358142
 31
0.0
  0
LINE
  5
7C8
100
AcDbEntity
  8
0
  6
CENTER
 62
     7
100
AcDbLine
 10
-135.255533
 20
-86.858143
 30
0.0
 11
-146.255533
 21
-86.858143
 31
0.0
  0
LINE
  5
7C9
100
AcDbEntity
  8
0
  6
CENTER
 62
     7
100
AcDbLine
 10
-151.172193
 20
-104.084628
 30
0.0
 11
-151.172193
 21
-115.084628
 31
0.0
  0
LINE
  5
7CA
100
AcDbEntity
  8
0
  6
CENTER
 62
     7
100
AcDbLine
 10
-145.672193
 20
-109.584628
 30
0.0
 11
-156.672189
 21
-109.584628
 31
0.0
  0
LINE
  5
7CB
100
AcDbEntity
  8
0
  6
CENTER
 62
     7
100
AcDbLine
 10
-140.755651
 20
-126.811168
 30
0.0
 11
-140.755651
 21
-137.811168
 31
0.0
  0
LINE
  5
7CC
100
AcDbEntity
  8
0
  6
CENTER
 62
     7
100
AcDbLine
 10
-135.255651
 20
-132.311168
 30
0.0
 11
-146.255651
 21
-132.311168
 31
0.0
  0
ARC
  5
7CD
100
AcDbEntity
  8
0
  6
CONTINUOUS
 62
     7
100
AcDbCircle
 10
-116.837007
 20
-79.584618
 30
0.0
 40
10.5
100
AcDbArc
 50
132.99859
 51
226.91431
  0
CIRCLE
  5
7CE
100
AcDbEntity
  8
0
  6
CONTINUOUS
 62
     7
100
AcDbCircle
 10
-116.837007
 20
-79.584618
 30
0.0
 40
3.5
  0
ARC
  5
7CF
100
AcDbEntity
  8
0
  6
CONTINUOUS
 62
     7
100
AcDbCircle
 10
-151.552026
 20
-87.133315
 30
0.0
 40
0.3
100
AcDbArc
 50
1.459993
 51
155.3757
  0
ARC
  5
7D0
100
AcDbEntity
  8
0
  6
CONTINUOUS
 62
     7
100
AcDbCircle
 10
-134.800348
 20
-97.14547
 30
0.0
 40
0.3
100
AcDbArc
 50
335.3757
 51
95.375703
  0
ARC
  5
7D1
100
AcDbEntity
  8
0
  6
CONTINUOUS
 62
     7
100
AcDbCircle
 10
-151.172193
 20
-109.584628
 30
0.0
 40
10.0
100
AcDbArc
 50
155.3757
 51
335.3757
  0
ARC
  5
7D2
100
AcDbEntity
  8
0
  6
CONTINUOUS
 62
     7
100
AcDbCircle
 10
-158.011499
 20
-117.943088
 30
0.0
 40
0.3
100
AcDbArc
 50
50.708294
 51
204.624
  0
ARC
  5
7D3
100
AcDbEntity
  8
0
  6
CONTINUOUS
 62
     7
100
AcDbCircle
 10
-140.755533
 20
-86.858143
 30
0.0
 40
10.5
100
AcDbArc
 50
181.45999
 51
275.3757
  0
CIRCLE
  5
7D4
100
AcDbEntity
  8
0
  6
CONTINUOUS
 62
     7
100
AcDbCircle
 10
-140.755533
 20
-86.858143
 30
0.0
 40
3.5
  0
ARC
  5
7D5
100
AcDbEntity
  8
0
  6
CONTINUOUS
 62
     7
100
AcDbCircle
 10
-139.491632
 20
-111.788688
 30
0.0
 40
0.3
100
AcDbArc
 50
24.624
 51
144.624
  0
ARC
  5
7D6
100
AcDbEntity
  8
0
  6
CONTINUOUS
 62
     7
100
AcDbCircle
 10
-140.755651
 20
-132.311168
 30
0.0
 40
10.0
100
AcDbArc
 50
204.624
 51
24.624
  0
ARC
  5
7D7
100
AcDbEntity
  8
0
  6
CONTINUOUS
 62
     7
100
AcDbCircle
 10
-151.172193
 20
-109.584628
 30
0.0
 40
10.5
100
AcDbArc
 50
230.70829
 51
324.624
  0
CIRCLE
  5
7D8
100
AcDbEntity
  8
0
  6
CONTINUOUS
 62
     7
100
AcDbCircle
 10
-151.172193
 20
-109.584628
 30
0.0
 40
3.5
  0
ARC
  5
7D9
100
AcDbEntity
  8
0
  6
CONTINUOUS
 62
     7
100
AcDbCircle
 10
-139.034463
 20
-142.973138
 30
0.0
 40
0.3
100
AcDbArc
 50
99.17029
 51
253.08599
  0
ARC
  5
7DA
100
AcDbEntity
  8
0
  6
CONTINUOUS
 62
     7
100
AcDbCircle
 10
-140.755533
 20
-86.858143
 30
0.0
 40
10.0
100
AcDbArc
 50
106.9143
 51
286.91431
  0
ARC
  5
7DB
100
AcDbEntity
  8
0
  6
CONTINUOUS
 62
     7
100
AcDbCircle
 10
-120.588139
 20
-90.863906
 30
0.0
 40
0.3
100
AcDbArc
 50
286.9143
 51
46.914298
  0
ARC
  5
7DC
100
AcDbEntity
  8
0
  6
CONTINUOUS
 62
     7
100
AcDbCircle
 10
-124.202394
 20
-71.685817
 30
0.0
 40
0.3
100
AcDbArc
 50
312.99859
 51
106.9143
  0
CIRCLE
  5
7DD
100
AcDbEntity
  8
0
  6
CONTINUOUS
 62
     7
100
AcDbCircle
 10
-91.837007
 20
-79.584618
 30
0.0
 40
3.5
  0
ARC
  5
7DE
100
AcDbEntity
  8
0
  6
CONTINUOUS
 62
     7
100
AcDbCircle
 10
-91.837007
 20
-79.584618
 30
0.0
 40
10.5
100
AcDbArc
 50
116.0843
 51
210.0
  0
ARC
  5
7DF
100
AcDbEntity
  8
0
  6
CONTINUOUS
 62
     7
100
AcDbCircle
 10
-116.837007
 20
-79.584618
 30
0.0
 40
10.0
100
AcDbArc
 50
90.000003
 51
270.0
  0
ARC
  5
7E0
100
AcDbEntity
  8
0
  6
CONTINUOUS
 62
     7
100
AcDbCircle
 10
-98.707475
 20
-89.284618
 30
0.0
 40
0.3
100
AcDbArc
 50
270.0
 51
30.000001
  0
ARC
  5
7E1
100
AcDbEntity
  8
0
  6
CONTINUOUS
 62
     7
100
AcDbCircle
 10
-96.585691
 20
-69.884618
 30
0.0
 40
0.3
100
AcDbArc
 50
296.08429
 51
90.000003
  0
ARC
  5
7E2
100
AcDbEntity
  8
0
  6
CENTER
 62
     7
100
AcDbCircle
 10
-121.172201
 20
-109.584618
 30
0.0
 40
30.0
100
AcDbArc
 50
90.000003
 51
270.0
  0
ARC
  5
7E3
100
AcDbEntity
  8
0
  6
CONTINUOUS
 62
     7
100
AcDbCircle
 10
-131.360303
 20
-125.029638
 30
0.0
 40
0.3
100
AcDbArc
 50
73.086002
 51
193.08601
  0
ARC
  5
7E4
100
AcDbEntity
  8
0
  6
CONTINUOUS
 62
     7
100
AcDbCircle
 10
-116.837088
 20
-139.584568
 30
0.0
 40
10.0
100
AcDbArc
 50
253.086
 51
73.086002
  0
ARC
  5
7E5
100
AcDbEntity
  8
0
  6
CONTINUOUS
 62
     7
100
AcDbCircle
 10
-140.755651
 20
-132.311168
 30
0.0
 40
10.5
100
AcDbArc
 50
279.17029
 51
13.086
  0
CIRCLE
  5
7E6
100
AcDbEntity
  8
0
  6
CONTINUOUS
 62
     7
100
AcDbCircle
 10
-140.755651
 20
-132.311168
 30
0.0
 40
3.5
  0
ARC
  5
7E7
100
AcDbEntity
  8
0
  6
CONTINUOUS
 62
     7
100
AcDbCircle
 10
-91.837088
 20
-139.584568
 30
0.0
 40
10.0
100
AcDbArc
 50
270.0
 51
90.000003
  0
ARC
  5
7E8
100
AcDbEntity
  8
0
  6
CONTINUOUS
 62
     7
100
AcDbCircle
 10
-112.088404
 20
-149.284568
 30
0.0
 40
0.3
100
AcDbArc
 50
116.0843
 51
270.0
  0
ARC
  5
7E9
100
AcDbEntity
  8
0
  6
CONTINUOUS
 62
     7
100
AcDbCircle
 10
-109.966619
 20
-129.884568
 30
0.0
 40
0.3
100
AcDbArc
 50
90.000003
 51
210.0
  0
ARC
  5
7EA
100
AcDbEntity
  8
0
  6
CONTINUOUS
 62
     7
100
AcDbCircle
 10
-116.837088
 20
-139.584568
 30
0.0
 40
10.5
100
AcDbArc
 50
296.08429
 51
30.000001
  0
CIRCLE
  5
7EB
100
AcDbEntity
  8
0
  6
CONTINUOUS
 62
     7
100
AcDbCircle
 10
-116.837088
 20
-139.584568
 30
0.0
 40
3.5
  0
POINT
  5
7EC
100
AcDbEntity
  8
0
  6
CONTINUOUS
 62
     7
100
AcDbPoint
 10
-91.837007
 20
-184.584618
 30
0.0
  0
POINT
  5
7ED
100
AcDbEntity
  8
0
  6
CONTINUOUS
 62
     7
100
AcDbPoint
 10
-74.837087
 20
-184.584618
 30
0.0
  0
LINE
  5
7EE
100
AcDbEntity
  8
0
  6
CONTINUOUS
 62
     7
100
AcDbLine
 10
-87.388323
 20
-197.584618
 30
0.0
 11
-161.172189
 21
-197.584618
 31
0.0
  0
LINE
  5
7EF
100
AcDbEntity
  8
0
  6
CENTER
 62
     7
100
AcDbLine
 10
-74.837087
 20
-184.584618
 30
0.0
 11
-168.172189
 21
-184.584618
 31
0.0
  0
LINE
  5
7F0
100
AcDbEntity
  8
0
  6
CENTER
 62
     7
100
AcDbLine
 10
-91.837007
 20
-164.584618
 30
0.0
 11
-91.837007
 21
-204.584618
 31
0.0
  0
LINE
  5
7F1
100
AcDbEntity
  8
0
  6
CONTINUOUS
 62
     7
100
AcDbLine
 10
-87.388323
 20
-171.584618
 30
0.0
 11
-161.172189
 21
-171.584618
 31
0.0
  0
LINE
  5
7F2
100
AcDbEntity
  8
0
  6
CENTER
 62
     7
100
AcDbLine
 10
-116.837007
 20
-164.584618
 30
0.0
 11
-116.837007
 21
-204.584618
 31
0.0
  0
LINE
  5
7F3
100
AcDbEntity
  8
0
  6
CONTINUOUS
 62
     7
100
AcDbLine
 10
-87.388323
 20
-174.584618
 30
0.0
 11
-96.285772
 21
-174.584618
 31
0.0
  0
LINE
  5
7F4
100
AcDbEntity
  8
0
  6
CONTINUOUS
 62
     7
100
AcDbLine
 10
-87.388323
 20
-194.584618
 30
0.0
 11
-96.285772
 21
-194.584618
 31
0.0
  0
LINE
  5
7F5
100
AcDbEntity
  8
0
  6
CONTINUOUS
 62
     7
100
AcDbLine
 10
-96.285772
 20
-177.584618
 30
0.0
 11
-101.437007
 21
-177.584618
 31
0.0
  0
LINE
  5
7F6
100
AcDbEntity
  8
0
  6
CONTINUOUS
 62
     7
100
AcDbLine
 10
-96.285772
 20
-191.584618
 30
0.0
 11
-101.437007
 21
-191.584618
 31
0.0
  0
LINE
  5
7F7
100
AcDbEntity
  8
0
  6
CONTINUOUS
 62
     7
100
AcDbLine
 10
-101.437087
 20
-173.084618
 30
0.0
 11
-107.237088
 21
-173.084618
 31
0.0
  0
LINE
  5
7F8
100
AcDbEntity
  8
0
  6
CONTINUOUS
 62
     7
100
AcDbLine
 10
-101.437087
 20
-196.084618
 30
0.0
 11
-107.237088
 21
-196.084618
 31
0.0
  0
LINE
  5
7F9
100
AcDbEntity
  8
0
  6
CONTINUOUS
 62
     7
100
AcDbLine
 10
-101.437087
 20
-172.484618
 30
0.0
 11
-107.237088
 21
-172.484618
 31
0.0
  0
LINE
  5
7FA
100
AcDbEntity
  8
0
  6
CONTINUOUS
 62
     7
100
AcDbLine
 10
-101.437087
 20
-196.684618
 30
0.0
 11
-107.237088
 21
-196.684618
 31
0.0
  0
LINE
  5
7FB
100
AcDbEntity
  8
0
  6
CENTER
 62
     7
100
AcDbLine
 10
-99.437007
 20
-175.334618
 30
0.0
 11
-109.237007
 21
-175.334618
 31
0.0
  0
LINE
  5
7FC
100
AcDbEntity
  8
0
  6
CONTINUOUS
 62
     7
100
AcDbLine
 10
-99.337088
 20
-177.584618
 30
0.0
 11
-99.337088
 21
-191.584618
 31
0.0
  0
LINE
  5
7FD
100
AcDbEntity
  8
0
  6
CONTINUOUS
 62
     7
100
AcDbLine
 10
-107.237088
 20
-191.584618
 30
0.0
 11
-107.237088
 21
-196.684618
 31
0.0
  0
LINE
  5
7FE
100
AcDbEntity
  8
0
  6
CONTINUOUS
 62
     7
100
AcDbLine
 10
-101.437087
 20
-191.584618
 30
0.0
 11
-101.437087
 21
-196.684618
 31
0.0
  0
LINE
  5
7FF
100
AcDbEntity
  8
0
  6
CONTINUOUS
 62
     7
100
AcDbLine
 10
-112.388405
 20
-171.584618
 30
0.0
 11
-112.388405
 21
-174.584618
 31
0.0
  0
LINE
  5
800
100
AcDbEntity
  8
0
  6
CENTER
 62
     7
100
AcDbLine
 10
-99.437007
 20
-193.834618
 30
0.0
 11
-109.237007
 21
-193.834618
 31
0.0
  0
LINE
  5
801
100
AcDbEntity
  8
0
  6
CONTINUOUS
 62
     7
100
AcDbLine
 10
-112.388405
 20
-194.584618
 30
0.0
 11
-124.002695
 21
-194.584618
 31
0.0
  0
LINE
  5
802
100
AcDbEntity
  8
0
  6
CONTINUOUS
 62
     7
100
AcDbLine
 10
-107.237088
 20
-177.584618
 30
0.0
 11
-128.931177
 21
-177.584618
 31
0.0
  0
LINE
  5
803
100
AcDbEntity
  8
0
  6
CONTINUOUS
 62
     7
100
AcDbLine
 10
-107.237088
 20
-191.584618
 30
0.0
 11
-128.931177
 21
-191.584618
 31
0.0
  0
LINE
  5
804
100
AcDbEntity
  8
0
  6
CONTINUOUS
 62
     7
100
AcDbLine
 10
-112.388405
 20
-194.584618
 30
0.0
 11
-112.388405
 21
-197.584618
 31
0.0
  0
LINE
  5
805
100
AcDbEntity
  8
0
  6
CONTINUOUS
 62
     7
100
AcDbLine
 10
-109.337088
 20
-177.584618
 30
0.0
 11
-109.337088
 21
-191.584618
 31
0.0
  0
LINE
  5
806
100
AcDbEntity
  8
0
  6
CONTINUOUS
 62
     7
100
AcDbLine
 10
-112.388405
 20
-174.584618
 30
0.0
 11
-124.002695
 21
-174.584618
 31
0.0
  0
LINE
  5
807
100
AcDbEntity
  8
0
  6
CONTINUOUS
 62
     7
100
AcDbLine
 10
-107.237088
 20
-172.484618
 30
0.0
 11
-107.237088
 21
-177.584618
 31
0.0
  0
LINE
  5
808
100
AcDbEntity
  8
0
  6
CONTINUOUS
 62
     7
100
AcDbLine
 10
-101.437087
 20
-172.484618
 30
0.0
 11
-101.437087
 21
-177.584618
 31
0.0
  0
LINE
  5
809
100
AcDbEntity
  8
0
  6
CONTINUOUS
 62
     7
100
AcDbLine
 10
-96.285772
 20
-174.584618
 30
0.0
 11
-96.285772
 21
-177.584618
 31
0.0
  0
LINE
  5
80A
100
AcDbEntity
  8
0
  6
CONTINUOUS
 62
     7
100
AcDbLine
 10
-96.285772
 20
-191.584618
 30
0.0
 11
-96.285772
 21
-194.584618
 31
0.0
  0
LINE
  5
80B
100
AcDbEntity
  8
0
  6
CONTINUOUS
 62
     7
100
AcDbLine
 10
-161.172189
 20
-191.584618
 30
0.0
 11
-161.172189
 21
-197.584618
 31
0.0
  0
LINE
  5
80C
100
AcDbEntity
  8
0
  6
CONTINUOUS
 62
     7
100
AcDbLine
 10
-158.409212
 20
-194.584618
 30
0.0
 11
-158.409212
 21
-197.584618
 31
0.0
  0
LINE
  5
80D
100
AcDbEntity
  8
0
  6
CONTINUOUS
 62
     7
100
AcDbLine
 10
-156.262857
 20
-191.584618
 30
0.0
 11
-156.262857
 21
-196.684618
 31
0.0
  0
LINE
  5
80E
100
AcDbEntity
  8
0
  6
CONTINUOUS
 62
     7
100
AcDbLine
 10
-153.846219
 20
-191.584618
 30
0.0
 11
-153.846219
 21
-196.684618
 31
0.0
  0
LINE
  5
80F
100
AcDbEntity
  8
0
  6
CONTINUOUS
 62
     7
100
AcDbLine
 10
-151.699865
 20
-191.584618
 30
0.0
 11
-151.699865
 21
-194.584618
 31
0.0
  0
LINE
  5
810
100
AcDbEntity
  8
0
  6
CONTINUOUS
 62
     7
100
AcDbLine
 10
-139.408765
 20
-194.584618
 30
0.0
 11
-139.408765
 21
-197.584618
 31
0.0
  0
LINE
  5
811
100
AcDbEntity
  8
0
  6
CONTINUOUS
 62
     7
100
AcDbLine
 10
-134.480283
 20
-191.584618
 30
0.0
 11
-134.480283
 21
-196.684618
 31
0.0
  0
LINE
  5
812
100
AcDbEntity
  8
0
  6
CONTINUOUS
 62
     7
100
AcDbLine
 10
-128.931177
 20
-191.584618
 30
0.0
 11
-128.931177
 21
-196.684618
 31
0.0
  0
LINE
  5
813
100
AcDbEntity
  8
0
  6
CONTINUOUS
 62
     7
100
AcDbLine
 10
-124.002695
 20
-191.584618
 30
0.0
 11
-124.002695
 21
-194.584618
 31
0.0
  0
LINE
  5
814
100
AcDbEntity
  8
0
  6
CONTINUOUS
 62
     7
100
AcDbLine
 10
-139.408765
 20
-171.584618
 30
0.0
 11
-139.408765
 21
-174.584618
 31
0.0
  0
LINE
  5
815
100
AcDbEntity
  8
0
  6
CONTINUOUS
 62
     7
100
AcDbLine
 10
-161.172189
 20
-171.584618
 30
0.0
 11
-161.172189
 21
-177.584618
 31
0.0
  0
LINE
  5
816
100
AcDbEntity
  8
0
  6
CONTINUOUS
 62
     7
100
AcDbLine
 10
-158.409212
 20
-171.584618
 30
0.0
 11
-158.409212
 21
-174.584618
 31
0.0
  0
LINE
  5
817
100
AcDbEntity
  8
0
  6
CONTINUOUS
 62
     7
100
AcDbLine
 10
-157.137849
 20
-177.584618
 30
0.0
 11
-157.137849
 21
-191.584618
 31
0.0
  0
LINE
  5
818
100
AcDbEntity
  8
0
  6
CONTINUOUS
 62
     7
100
AcDbLine
 10
-156.262857
 20
-172.484618
 30
0.0
 11
-156.262857
 21
-177.584618
 31
0.0
  0
LINE
  5
819
100
AcDbEntity
  8
0
  6
CONTINUOUS
 62
     7
100
AcDbLine
 10
-153.846219
 20
-172.484618
 30
0.0
 11
-153.846219
 21
-177.584618
 31
0.0
  0
LINE
  5
81A
100
AcDbEntity
  8
0
  6
CONTINUOUS
 62
     7
100
AcDbLine
 10
-152.971231
 20
-177.584618
 30
0.0
 11
-152.971231
 21
-191.584618
 31
0.0
  0
LINE
  5
81B
100
AcDbEntity
  8
0
  6
CONTINUOUS
 62
     7
100
AcDbLine
 10
-151.699865
 20
-174.584618
 30
0.0
 11
-151.699865
 21
-177.584618
 31
0.0
  0
LINE
  5
81C
100
AcDbEntity
  8
0
  6
CONTINUOUS
 62
     7
100
AcDbLine
 10
-139.408765
 20
-171.584618
 30
0.0
 11
-139.408765
 21
-174.584618
 31
0.0
  0
LINE
  5
81D
100
AcDbEntity
  8
0
  6
CONTINUOUS
 62
     7
100
AcDbLine
 10
-136.489442
 20
-177.584618
 30
0.0
 11
-136.489442
 21
-191.584618
 31
0.0
  0
LINE
  5
81E
100
AcDbEntity
  8
0
  6
CONTINUOUS
 62
     7
100
AcDbLine
 10
-124.002695
 20
-174.584618
 30
0.0
 11
-124.002695
 21
-177.584618
 31
0.0
  0
LINE
  5
81F
100
AcDbEntity
  8
0
  6
CENTER
 62
     7
100
AcDbLine
 10
-151.172193
 20
-164.584618
 30
0.0
 11
-151.172193
 21
-204.584618
 31
0.0
  0
LINE
  5
820
100
AcDbEntity
  8
0
  6
CONTINUOUS
 62
     7
100
AcDbLine
 10
-126.922018
 20
-177.584618
 30
0.0
 11
-126.922018
 21
-191.584618
 31
0.0
  0
LINE
  5
821
100
AcDbEntity
  8
0
  6
CENTER
 62
     7
100
AcDbLine
 10
-140.755651
 20
-164.584618
 30
0.0
 11
-140.755651
 21
-204.584618
 31
0.0
  0
LINE
  5
822
100
AcDbEntity
  8
0
  6
CONTINUOUS
 62
     7
100
AcDbLine
 10
-128.931177
 20
-172.484618
 30
0.0
 11
-128.931177
 21
-177.584618
 31
0.0
  0
LINE
  5
823
100
AcDbEntity
  8
0
  6
CONTINUOUS
 62
     7
100
AcDbLine
 10
-134.480283
 20
-172.484618
 30
0.0
 11
-134.480283
 21
-177.584618
 31
0.0
  0
LINE
  5
824
100
AcDbEntity
  8
0
  6
CONTINUOUS
 62
     7
100
AcDbLine
 10
-134.480283
 20
-191.584618
 30
0.0
 11
-153.846219
 21
-191.584618
 31
0.0
  0
LINE
  5
825
100
AcDbEntity
  8
0
  6
CONTINUOUS
 62
     7
100
AcDbLine
 10
-139.408765
 20
-194.584618
 30
0.0
 11
-151.699865
 21
-194.584618
 31
0.0
  0
LINE
  5
826
100
AcDbEntity
  8
0
  6
CONTINUOUS
 62
     7
100
AcDbLine
 10
-158.409212
 20
-194.584618
 30
0.0
 11
-161.172189
 21
-194.584618
 31
0.0
  0
LINE
  5
827
100
AcDbEntity
  8
0
  6
CONTINUOUS
 62
     7
100
AcDbLine
 10
-156.262857
 20
-191.584618
 30
0.0
 11
-161.172189
 21
-191.584618
 31
0.0
  0
LINE
  5
828
100
AcDbEntity
  8
0
  6
CONTINUOUS
 62
     7
100
AcDbLine
 10
-156.262857
 20
-177.584618
 30
0.0
 11
-161.172189
 21
-177.584618
 31
0.0
  0
LINE
  5
829
100
AcDbEntity
  8
0
  6
CONTINUOUS
 62
     7
100
AcDbLine
 10
-158.409212
 20
-174.584618
 30
0.0
 11
-161.172189
 21
-174.584618
 31
0.0
  0
LINE
  5
82A
100
AcDbEntity
  8
0
  6
CONTINUOUS
 62
     7
100
AcDbLine
 10
-134.480283
 20
-177.584618
 30
0.0
 11
-153.846219
 21
-177.584618
 31
0.0
  0
LINE
  5
82B
100
AcDbEntity
  8
0
  6
CONTINUOUS
 62
     7
100
AcDbLine
 10
-139.408765
 20
-174.584618
 30
0.0
 11
-151.699865
 21
-174.584618
 31
0.0
  0
LINE
  5
82C
100
AcDbEntity
  8
0
  6
CONTINUOUS
 62
     7
100
AcDbLine
 10
-153.846219
 20
-173.084618
 30
0.0
 11
-156.262857
 21
-173.084618
 31
0.0
  0
LINE
  5
82D
100
AcDbEntity
  8
0
  6
CONTINUOUS
 62
     7
100
AcDbLine
 10
-153.846219
 20
-172.484618
 30
0.0
 11
-156.262857
 21
-172.484618
 31
0.0
  0
LINE
  5
82E
100
AcDbEntity
  8
0
  6
CONTINUOUS
 62
     7
100
AcDbLine
 10
-128.931177
 20
-173.084618
 30
0.0
 11
-134.480283
 21
-173.084618
 31
0.0
  0
LINE
  5
82F
100
AcDbEntity
  8
0
  6
CONTINUOUS
 62
     7
100
AcDbLine
 10
-128.931177
 20
-172.484618
 30
0.0
 11
-134.480283
 21
-172.484618
 31
0.0
  0
LINE
  5
830
100
AcDbEntity
  8
0
  6
CONTINUOUS
 62
     7
100
AcDbLine
 10
-128.931177
 20
-196.084618
 30
0.0
 11
-134.480283
 21
-196.084618
 31
0.0
  0
LINE
  5
831
100
AcDbEntity
  8
0
  6
CONTINUOUS
 62
     7
100
AcDbLine
 10
-128.931177
 20
-196.684618
 30
0.0
 11
-134.480283
 21
-196.684618
 31
0.0
  0
LINE
  5
832
100
AcDbEntity
  8
0
  6
CONTINUOUS
 62
     7
100
AcDbLine
 10
-153.846219
 20
-196.684618
 30
0.0
 11
-156.262857
 21
-196.684618
 31
0.0
  0
LINE
  5
833
100
AcDbEntity
  8
0
  6
CONTINUOUS
 62
     7
100
AcDbLine
 10
-153.846219
 20
-196.084618
 30
0.0
 11
-156.262857
 21
-196.084618
 31
0.0
  0
LINE
  5
834
100
AcDbEntity
  8
0
  6
CONTINUOUS
 62
     7
100
AcDbLine
 10
-109.837007
 20
-177.584618
 30
0.0
 11
-109.837007
 21
-191.584618
 31
0.0
  0
LINE
  5
835
100
AcDbEntity
  8
0
  6
CONTINUOUS
 62
     7
100
AcDbLine
 10
-98.837007
 20
-177.584618
 30
0.0
 11
-98.837007
 21
-191.584618
 31
0.0
  0
POINT
  5
836
100
AcDbEntity
  8
0
  6
CONTINUOUS
 62
     7
100
AcDbPoint
 10
120.0
 20
-109.0
 30
0.0
  0
POINT
  5
837
100
AcDbEntity
  8
0
  6
CONTINUOUS
 62
     7
100
AcDbPoint
 10
140.0
 20
-109.0
 30
0.0
  0
LINE
  5
838
100
AcDbEntity
  8
0
  6
CENTER
 62
     7
100
AcDbLine
 10
100.0
 20
-154.0
 30
0.0
 11
140.0
 21
-154.0
 31
0.0
  0
LINE
  5
839
100
AcDbEntity
  8
0
  6
CONTINUOUS
 62
     7
100
AcDbLine
 10
107.9
 20
-56.85284
 30
0.0
 11
107.9
 21
-55.836651
 31
0.0
  0
LINE
  5
83A
100
AcDbEntity
  8
0
  6
CONTINUOUS
 62
     7
100
AcDbLine
 10
130.0
 20
-116.05144
 30
0.0
 11
130.0
 21
-101.94862
 31
0.0
  0
LINE
  5
83B
100
AcDbEntity
  8
0
  6
CONTINUOUS
 62
     7
100
AcDbLine
 10
130.0
 20
-54.934113
 30
0.0
 11
130.0
 21
-54.0
 31
0.0
  0
LINE
  5
83C
100
AcDbEntity
  8
0
  6
CONTINUOUS
 62
     7
100
AcDbLine
 10
110.0
 20
-54.934113
 30
0.0
 11
110.0
 21
-54.0
 31
0.0
  0
LINE
  5
83D
100
AcDbEntity
  8
0
  6
CONTINUOUS
 62
     7
100
AcDbLine
 10
113.0
 20
-121.00002
 30
0.0
 11
113.0
 21
-97.000031
 31
0.0
  0
LINE
  5
83E
100
AcDbEntity
  8
0
  6
CONTINUOUS
 62
     7
100
AcDbLine
 10
127.0
 20
-121.00002
 30
0.0
 11
127.0
 21
-97.000031
 31
0.0
  0
LINE
  5
83F
100
AcDbEntity
  8
0
  6
CONTINUOUS
 62
     7
100
AcDbLine
 10
110.0
 20
-116.05144
 30
0.0
 11
110.0
 21
-101.94862
 31
0.0
  0
LINE
  5
840
100
AcDbEntity
  8
0
  6
CONTINUOUS
 62
     7
100
AcDbLine
 10
113.0
 20
-55.836651
 30
0.0
 11
113.0
 21
-54.0
 31
0.0
  0
LINE
  5
841
100
AcDbEntity
  8
0
  6
CONTINUOUS
 62
     7
100
AcDbLine
 10
108.5
 20
-56.85284
 30
0.0
 11
108.5
 21
-55.836651
 31
0.0
  0
LINE
  5
842
100
AcDbEntity
  8
0
  6
CONTINUOUS
 62
     7
100
AcDbLine
 10
107.9
 20
-162.16346
 30
0.0
 11
107.9
 21
-161.14722
 31
0.0
  0
LINE
  5
843
100
AcDbEntity
  8
0
  6
CONTINUOUS
 62
     7
100
AcDbLine
 10
132.1
 20
-162.16346
 30
0.0
 11
132.1
 21
-161.14722
 31
0.0
  0
LINE
  5
844
100
AcDbEntity
  8
0
  6
CONTINUOUS
 62
     7
100
AcDbLine
 10
108.5
 20
-162.16346
 30
0.0
 11
108.5
 21
-161.14722
 31
0.0
  0
LINE
  5
845
100
AcDbEntity
  8
0
  6
CONTINUOUS
 62
     7
100
AcDbLine
 10
131.5
 20
-162.16346
 30
0.0
 11
131.5
 21
-161.14722
 31
0.0
  0
LINE
  5
846
100
AcDbEntity
  8
0
  6
CONTINUOUS
 62
     7
100
AcDbLine
 10
113.0
 20
-164.0
 30
0.0
 11
113.0
 21
-162.16346
 31
0.0
  0
LINE
  5
847
100
AcDbEntity
  8
0
  6
CONTINUOUS
 62
     7
100
AcDbLine
 10
127.0
 20
-164.0
 30
0.0
 11
127.0
 21
-162.16346
 31
0.0
  0
LINE
  5
848
100
AcDbEntity
  8
0
  6
CONTINUOUS
 62
     7
100
AcDbLine
 10
110.0
 20
-164.0
 30
0.0
 11
110.0
 21
-163.06603
 31
0.0
  0
LINE
  5
849
100
AcDbEntity
  8
0
  6
CONTINUOUS
 62
     7
100
AcDbLine
 10
130.0
 20
-164.0
 30
0.0
 11
130.0
 21
-163.06603
 31
0.0
  0
LINE
  5
84A
100
AcDbEntity
  8
0
  6
CENTER
 62
     7
100
AcDbLine
 10
140.0
 20
-109.0
 30
0.0
 11
100.0
 21
-109.0
 31
0.0
  0
LINE
  5
84B
100
AcDbEntity
  8
0
  6
CONTINUOUS
 62
     7
100
AcDbLine
 10
133.0
 20
-164.0
 30
0.0
 11
133.0
 21
-54.0
 31
0.0
  0
LINE
  5
84C
100
AcDbEntity
  8
0
  6
CENTER
 62
     7
100
AcDbLine
 10
120.0
 20
-171.0
 30
0.0
 11
120.0
 21
-47.0
 31
0.0
  0
LINE
  5
84D
100
AcDbEntity
  8
0
  6
CONTINUOUS
 62
     7
100
AcDbLine
 10
107.0
 20
-164.0
 30
0.0
 11
107.0
 21
-54.0
 31
0.0
  0
LINE
  5
84E
100
AcDbEntity
  8
0
  6
CONTINUOUS
 62
     7
100
AcDbLine
 10
113.0
 20
-118.98267
 30
0.0
 11
127.0
 21
-118.98267
 31
0.0
  0
LINE
  5
84F
100
AcDbEntity
  8
0
  6
CONTINUOUS
 62
     7
100
AcDbLine
 10
107.9
 20
-121.00002
 30
0.0
 11
113.0
 21
-121.00002
 31
0.0
  0
LINE
  5
850
100
AcDbEntity
  8
0
  6
CONTINUOUS
 62
     7
100
AcDbLine
 10
107.0
 20
-116.05144
 30
0.0
 11
110.0
 21
-116.05144
 31
0.0
  0
LINE
  5
851
100
AcDbEntity
  8
0
  6
CONTINUOUS
 62
     7
100
AcDbLine
 10
107.9
 20
-126.57175
 30
0.0
 11
113.0
 21
-126.57175
 31
0.0
  0
LINE
  5
852
100
AcDbEntity
  8
0
  6
CONTINUOUS
 62
     7
100
AcDbLine
 10
113.0
 20
-128.5891
 30
0.0
 11
127.0
 21
-128.5891
 31
0.0
  0
LINE
  5
853
100
AcDbEntity
  8
0
  6
CONTINUOUS
 62
     7
100
AcDbLine
 10
110.0
 20
-131.52033
 30
0.0
 11
113.0
 21
-131.52033
 31
0.0
  0
LINE
  5
854
100
AcDbEntity
  8
0
  6
CONTINUOUS
 62
     7
100
AcDbLine
 10
107.0
 20
-143.44673
 30
0.0
 11
110.0
 21
-143.44673
 31
0.0
  0
LINE
  5
855
100
AcDbEntity
  8
0
  6
CONTINUOUS
 62
     7
100
AcDbLine
 10
113.0
 20
-145.47326
 30
0.0
 11
127.0
 21
-145.47326
 31
0.0
  0
LINE
  5
856
100
AcDbEntity
  8
0
  6
CONTINUOUS
 62
     7
100
AcDbLine
 10
107.9
 20
-146.86797
 30
0.0
 11
113.0
 21
-146.86797
 31
0.0
  0
LINE
  5
857
100
AcDbEntity
  8
0
  6
CONTINUOUS
 62
     7
100
AcDbLine
 10
107.9
 20
-150.72002
 30
0.0
 11
113.0
 21
-150.72002
 31
0.0
  0
LINE
  5
858
100
AcDbEntity
  8
0
  6
CONTINUOUS
 62
     7
100
AcDbLine
 10
113.0
 20
-152.11473
 30
0.0
 11
127.0
 21
-152.11473
 31
0.0
  0
LINE
  5
859
100
AcDbEntity
  8
0
  6
CONTINUOUS
 62
     7
100
AcDbLine
 10
110.0
 20
-154.14126
 30
0.0
 11
113.0
 21
-154.14126
 31
0.0
  0
LINE
  5
85A
100
AcDbEntity
  8
0
  6
CONTINUOUS
 62
     7
100
AcDbLine
 10
107.0
 20
-160.24465
 30
0.0
 11
110.0
 21
-160.24465
 31
0.0
  0
LINE
  5
85B
100
AcDbEntity
  8
0
  6
CONTINUOUS
 62
     7
100
AcDbLine
 10
113.0
 20
-160.77928
 30
0.0
 11
127.0
 21
-160.77928
 31
0.0
  0
LINE
  5
85C
100
AcDbEntity
  8
0
  6
CONTINUOUS
 62
     7
100
AcDbLine
 10
107.9
 20
-161.14722
 30
0.0
 11
113.0
 21
-161.14722
 31
0.0
  0
LINE
  5
85D
100
AcDbEntity
  8
0
  6
CONTINUOUS
 62
     7
100
AcDbLine
 10
107.9
 20
-162.16346
 30
0.0
 11
113.0
 21
-162.16346
 31
0.0
  0
LINE
  5
85E
100
AcDbEntity
  8
0
  6
CONTINUOUS
 62
     7
100
AcDbLine
 10
113.0
 20
-162.5314
 30
0.0
 11
127.0
 21
-162.5314
 31
0.0
  0
LINE
  5
85F
100
AcDbEntity
  8
0
  6
CONTINUOUS
 62
     7
100
AcDbLine
 10
110.0
 20
-163.06603
 30
0.0
 11
113.0
 21
-163.06603
 31
0.0
  0
LINE
  5
860
100
AcDbEntity
  8
0
  6
CONTINUOUS
 62
     7
100
AcDbLine
 10
110.0
 20
-101.94862
 30
0.0
 11
113.0
 21
-101.94862
 31
0.0
  0
LINE
  5
861
100
AcDbEntity
  8
0
  6
CONTINUOUS
 62
     7
100
AcDbLine
 10
113.0
 20
-99.017387
 30
0.0
 11
127.0
 21
-99.017387
 31
0.0
  0
LINE
  5
862
100
AcDbEntity
  8
0
  6
CONTINUOUS
 62
     7
100
AcDbLine
 10
107.9
 20
-97.000031
 30
0.0
 11
113.0
 21
-97.000031
 31
0.0
  0
LINE
  5
863
100
AcDbEntity
  8
0
  6
CONTINUOUS
 62
     7
100
AcDbLine
 10
107.9
 20
-91.428288
 30
0.0
 11
113.0
 21
-91.428288
 31
0.0
  0
LINE
  5
864
100
AcDbEntity
  8
0
  6
CONTINUOUS
 62
     7
100
AcDbLine
 10
113.0
 20
-89.410933
 30
0.0
 11
127.0
 21
-89.410933
 31
0.0
  0
LINE
  5
865
100
AcDbEntity
  8
0
  6
CONTINUOUS
 62
     7
100
AcDbLine
 10
107.0
 20
-86.4797
 30
0.0
 11
110.0
 21
-86.4797
 31
0.0
  0
LINE
  5
866
100
AcDbEntity
  8
0
  6
CONTINUOUS
 62
     7
100
AcDbLine
 10
110.0
 20
-74.553265
 30
0.0
 11
113.0
 21
-74.553265
 31
0.0
  0
LINE
  5
867
100
AcDbEntity
  8
0
  6
CONTINUOUS
 62
     7
100
AcDbLine
 10
107.9
 20
-71.132019
 30
0.0
 11
113.0
 21
-71.132019
 31
0.0
  0
LINE
  5
868
100
AcDbEntity
  8
0
  6
CONTINUOUS
 62
     7
100
AcDbLine
 10
113.0
 20
-72.526733
 30
0.0
 11
127.0
 21
-72.526733
 31
0.0
  0
LINE
  5
869
100
AcDbEntity
  8
0
  6
CONTINUOUS
 62
     7
100
AcDbLine
 10
107.9
 20
-67.279953
 30
0.0
 11
113.0
 21
-67.279953
 31
0.0
  0
LINE
  5
86A
100
AcDbEntity
  8
0
  6
CONTINUOUS
 62
     7
100
AcDbLine
 10
113.0
 20
-65.885239
 30
0.0
 11
127.0
 21
-65.885239
 31
0.0
  0
LINE
  5
86B
100
AcDbEntity
  8
0
  6
CONTINUOUS
 62
     7
100
AcDbLine
 10
107.0
 20
-63.858711
 30
0.0
 11
110.0
 21
-63.858711
 31
0.0
  0
LINE
  5
86C
100
AcDbEntity
  8
0
  6
CONTINUOUS
 62
     7
100
AcDbLine
 10
110.0
 20
-57.755379
 30
0.0
 11
113.0
 21
-57.755379
 31
0.0
  0
LINE
  5
86D
100
AcDbEntity
  8
0
  6
CONTINUOUS
 62
     7
100
AcDbLine
 10
113.0
 20
-57.220772
 30
0.0
 11
127.0
 21
-57.220772
 31
0.0
  0
LINE
  5
86E
100
AcDbEntity
  8
0
  6
CONTINUOUS
 62
     7
100
AcDbLine
 10
107.9
 20
-56.85284
 30
0.0
 11
113.0
 21
-56.85284
 31
0.0
  0
LINE
  5
86F
100
AcDbEntity
  8
0
  6
CONTINUOUS
 62
     7
100
AcDbLine
 10
107.9
 20
-55.836651
 30
0.0
 11
113.0
 21
-55.836651
 31
0.0
  0
LINE
  5
870
100
AcDbEntity
  8
0
  6
CONTINUOUS
 62
     7
100
AcDbLine
 10
113.0
 20
-55.468719
 30
0.0
 11
127.0
 21
-55.468719
 31
0.0
  0
LINE
  5
871
100
AcDbEntity
  8
0
  6
CONTINUOUS
 62
     7
100
AcDbLine
 10
107.0
 20
-54.934113
 30
0.0
 11
110.0
 21
-54.934113
 31
0.0
  0
LINE
  5
872
100
AcDbEntity
  8
0
  6
CONTINUOUS
 62
     7
100
AcDbLine
 10
107.0
 20
-164.0
 30
0.0
 11
133.0
 21
-164.0
 31
0.0
  0
LINE
  5
873
100
AcDbEntity
  8
0
  6
CONTINUOUS
 62
     7
100
AcDbLine
 10
127.0
 20
-163.06603
 30
0.0
 11
130.0
 21
-163.06603
 31
0.0
  0
LINE
  5
874
100
AcDbEntity
  8
0
  6
CONTINUOUS
 62
     7
100
AcDbLine
 10
127.0
 20
-162.16346
 30
0.0
 11
132.1
 21
-162.16346
 31
0.0
  0
LINE
  5
875
100
AcDbEntity
  8
0
  6
CONTINUOUS
 62
     7
100
AcDbLine
 10
127.0
 20
-161.14722
 30
0.0
 11
132.1
 21
-161.14722
 31
0.0
  0
LINE
  5
876
100
AcDbEntity
  8
0
  6
CONTINUOUS
 62
     7
100
AcDbLine
 10
130.0
 20
-160.24465
 30
0.0
 11
133.0
 21
-160.24465
 31
0.0
  0
LINE
  5
877
100
AcDbEntity
  8
0
  6
CONTINUOUS
 62
     7
100
AcDbLine
 10
127.0
 20
-154.14126
 30
0.0
 11
130.0
 21
-154.14126
 31
0.0
  0
LINE
  5
878
100
AcDbEntity
  8
0
  6
CONTINUOUS
 62
     7
100
AcDbLine
 10
127.0
 20
-150.72002
 30
0.0
 11
132.1
 21
-150.72002
 31
0.0
  0
LINE
  5
879
100
AcDbEntity
  8
0
  6
CONTINUOUS
 62
     7
100
AcDbLine
 10
127.0
 20
-146.86797
 30
0.0
 11
132.1
 21
-146.86797
 31
0.0
  0
LINE
  5
87A
100
AcDbEntity
  8
0
  6
CONTINUOUS
 62
     7
100
AcDbLine
 10
130.0
 20
-143.44673
 30
0.0
 11
133.0
 21
-143.44673
 31
0.0
  0
LINE
  5
87B
100
AcDbEntity
  8
0
  6
CONTINUOUS
 62
     7
100
AcDbLine
 10
127.0
 20
-131.52033
 30
0.0
 11
130.0
 21
-131.52033
 31
0.0
  0
LINE
  5
87C
100
AcDbEntity
  8
0
  6
CONTINUOUS
 62
     7
100
AcDbLine
 10
127.0
 20
-126.57175
 30
0.0
 11
132.1
 21
-126.57175
 31
0.0
  0
LINE
  5
87D
100
AcDbEntity
  8
0
  6
CONTINUOUS
 62
     7
100
AcDbLine
 10
127.0
 20
-121.00002
 30
0.0
 11
132.1
 21
-121.00002
 31
0.0
  0
LINE
  5
87E
100
AcDbEntity
  8
0
  6
CONTINUOUS
 62
     7
100
AcDbLine
 10
130.0
 20
-116.05144
 30
0.0
 11
133.0
 21
-116.05144
 31
0.0
  0
LINE
  5
87F
100
AcDbEntity
  8
0
  6
CONTINUOUS
 62
     7
100
AcDbLine
 10
127.0
 20
-101.94862
 30
0.0
 11
130.0
 21
-101.94862
 31
0.0
  0
LINE
  5
880
100
AcDbEntity
  8
0
  6
CONTINUOUS
 62
     7
100
AcDbLine
 10
127.0
 20
-97.000031
 30
0.0
 11
132.1
 21
-97.000031
 31
0.0
  0
LINE
  5
881
100
AcDbEntity
  8
0
  6
CONTINUOUS
 62
     7
100
AcDbLine
 10
127.0
 20
-91.428288
 30
0.0
 11
132.1
 21
-91.428288
 31
0.0
  0
LINE
  5
882
100
AcDbEntity
  8
0
  6
CONTINUOUS
 62
     7
100
AcDbLine
 10
130.0
 20
-86.4797
 30
0.0
 11
133.0
 21
-86.4797
 31
0.0
  0
LINE
  5
883
100
AcDbEntity
  8
0
  6
CONTINUOUS
 62
     7
100
AcDbLine
 10
127.0
 20
-74.553265
 30
0.0
 11
130.0
 21
-74.553265
 31
0.0
  0
LINE
  5
884
100
AcDbEntity
  8
0
  6
CONTINUOUS
 62
     7
100
AcDbLine
 10
127.0
 20
-71.132019
 30
0.0
 11
132.1
 21
-71.132019
 31
0.0
  0
LINE
  5
885
100
AcDbEntity
  8
0
  6
CONTINUOUS
 62
     7
100
AcDbLine
 10
127.0
 20
-67.279953
 30
0.0
 11
132.1
 21
-67.279953
 31
0.0
  0
LINE
  5
886
100
AcDbEntity
  8
0
  6
CONTINUOUS
 62
     7
100
AcDbLine
 10
130.0
 20
-63.858711
 30
0.0
 11
133.0
 21
-63.858711
 31
0.0
  0
LINE
  5
887
100
AcDbEntity
  8
0
  6
CONTINUOUS
 62
     7
100
AcDbLine
 10
127.0
 20
-57.755379
 30
0.0
 11
130.0
 21
-57.755379
 31
0.0
  0
LINE
  5
888
100
AcDbEntity
  8
0
  6
CONTINUOUS
 62
     7
100
AcDbLine
 10
127.0
 20
-56.85284
 30
0.0
 11
132.1
 21
-56.85284
 31
0.0
  0
LINE
  5
889
100
AcDbEntity
  8
0
  6
CONTINUOUS
 62
     7
100
AcDbLine
 10
127.0
 20
-55.836651
 30
0.0
 11
132.1
 21
-55.836651
 31
0.0
  0
LINE
  5
88A
100
AcDbEntity
  8
0
  6
CONTINUOUS
 62
     7
100
AcDbLine
 10
130.0
 20
-54.934113
 30
0.0
 11
133.0
 21
-54.934113
 31
0.0
  0
LINE
  5
88B
100
AcDbEntity
  8
0
  6
CONTINUOUS
 62
     7
100
AcDbLine
 10
107.0
 20
-54.0
 30
0.0
 11
133.0
 21
-54.0
 31
0.0
  0
LINE
  5
88C
100
AcDbEntity
  8
0
  6
CONTINUOUS
 62
     7
100
AcDbLine
 10
127.0
 20
-55.836651
 30
0.0
 11
127.0
 21
-54.0
 31
0.0
  0
LINE
  5
88D
100
AcDbEntity
  8
0
  6
CONTINUOUS
 62
     7
100
AcDbLine
 10
132.1
 20
-56.85284
 30
0.0
 11
132.1
 21
-55.836651
 31
0.0
  0
LINE
  5
88E
100
AcDbEntity
  8
0
  6
CONTINUOUS
 62
     7
100
AcDbLine
 10
131.5
 20
-56.85284
 30
0.0
 11
131.5
 21
-55.836651
 31
0.0
  0
LINE
  5
88F
100
AcDbEntity
  8
0
  6
CONTINUOUS
 62
     7
100
AcDbLine
 10
113.0
 20
-146.86797
 30
0.0
 11
113.0
 21
-126.57175
 31
0.0
  0
LINE
  5
890
100
AcDbEntity
  8
0
  6
CONTINUOUS
 62
     7
100
AcDbLine
 10
110.0
 20
-143.44673
 30
0.0
 11
110.0
 21
-131.52033
 31
0.0
  0
LINE
  5
891
100
AcDbEntity
  8
0
  6
CONTINUOUS
 62
     7
100
AcDbLine
 10
127.0
 20
-146.86797
 30
0.0
 11
127.0
 21
-126.57175
 31
0.0
  0
LINE
  5
892
100
AcDbEntity
  8
0
  6
CONTINUOUS
 62
     7
100
AcDbLine
 10
130.0
 20
-143.44673
 30
0.0
 11
130.0
 21
-131.52033
 31
0.0
  0
LINE
  5
893
100
AcDbEntity
  8
0
  6
CONTINUOUS
 62
     7
100
AcDbLine
 10
107.9
 20
-126.57175
 30
0.0
 11
107.9
 21
-121.00002
 31
0.0
  0
LINE
  5
894
100
AcDbEntity
  8
0
  6
CONTINUOUS
 62
     7
100
AcDbLine
 10
108.5
 20
-126.57175
 30
0.0
 11
108.5
 21
-121.00002
 31
0.0
  0
LINE
  5
895
100
AcDbEntity
  8
0
  6
CONTINUOUS
 62
     7
100
AcDbLine
 10
131.5
 20
-126.57175
 30
0.0
 11
131.5
 21
-121.00002
 31
0.0
  0
LINE
  5
896
100
AcDbEntity
  8
0
  6
CONTINUOUS
 62
     7
100
AcDbLine
 10
132.1
 20
-126.57175
 30
0.0
 11
132.1
 21
-121.00002
 31
0.0
  0
LINE
  5
897
100
AcDbEntity
  8
0
  6
CONTINUOUS
 62
     7
100
AcDbLine
 10
132.1
 20
-71.132019
 30
0.0
 11
132.1
 21
-67.279953
 31
0.0
  0
LINE
  5
898
100
AcDbEntity
  8
0
  6
CONTINUOUS
 62
     7
100
AcDbLine
 10
131.5
 20
-71.132019
 30
0.0
 11
131.5
 21
-67.279953
 31
0.0
  0
LINE
  5
899
100
AcDbEntity
  8
0
  6
CONTINUOUS
 62
     7
100
AcDbLine
 10
108.5
 20
-71.132019
 30
0.0
 11
108.5
 21
-67.279953
 31
0.0
  0
LINE
  5
89A
100
AcDbEntity
  8
0
  6
CONTINUOUS
 62
     7
100
AcDbLine
 10
107.9
 20
-71.132019
 30
0.0
 11
107.9
 21
-67.279953
 31
0.0
  0
LINE
  5
89B
100
AcDbEntity
  8
0
  6
CONTINUOUS
 62
     7
100
AcDbLine
 10
130.0
 20
-63.858711
 30
0.0
 11
130.0
 21
-57.755379
 31
0.0
  0
LINE
  5
89C
100
AcDbEntity
  8
0
  6
CONTINUOUS
 62
     7
100
AcDbLine
 10
127.0
 20
-67.279953
 30
0.0
 11
127.0
 21
-56.85284
 31
0.0
  0
LINE
  5
89D
100
AcDbEntity
  8
0
  6
CONTINUOUS
 62
     7
100
AcDbLine
 10
113.0
 20
-67.279953
 30
0.0
 11
113.0
 21
-56.85284
 31
0.0
  0
LINE
  5
89E
100
AcDbEntity
  8
0
  6
CONTINUOUS
 62
     7
100
AcDbLine
 10
110.0
 20
-63.858711
 30
0.0
 11
110.0
 21
-57.755379
 31
0.0
  0
LINE
  5
89F
100
AcDbEntity
  8
0
  6
CONTINUOUS
 62
     7
100
AcDbLine
 10
107.9
 20
-150.72002
 30
0.0
 11
107.9
 21
-146.86797
 31
0.0
  0
LINE
  5
8A0
100
AcDbEntity
  8
0
  6
CONTINUOUS
 62
     7
100
AcDbLine
 10
108.5
 20
-150.72002
 30
0.0
 11
108.5
 21
-146.86797
 31
0.0
  0
LINE
  5
8A1
100
AcDbEntity
  8
0
  6
CONTINUOUS
 62
     7
100
AcDbLine
 10
131.5
 20
-150.72002
 30
0.0
 11
131.5
 21
-146.86797
 31
0.0
  0
LINE
  5
8A2
100
AcDbEntity
  8
0
  6
CONTINUOUS
 62
     7
100
AcDbLine
 10
132.1
 20
-150.72002
 30
0.0
 11
132.1
 21
-146.86797
 31
0.0
  0
LINE
  5
8A3
100
AcDbEntity
  8
0
  6
CONTINUOUS
 62
     7
100
AcDbLine
 10
110.0
 20
-160.24465
 30
0.0
 11
110.0
 21
-154.14126
 31
0.0
  0
LINE
  5
8A4
100
AcDbEntity
  8
0
  6
CONTINUOUS
 62
     7
100
AcDbLine
 10
113.0
 20
-161.14722
 30
0.0
 11
113.0
 21
-150.72002
 31
0.0
  0
LINE
  5
8A5
100
AcDbEntity
  8
0
  6
CONTINUOUS
 62
     7
100
AcDbLine
 10
127.0
 20
-161.14722
 30
0.0
 11
127.0
 21
-150.72002
 31
0.0
  0
LINE
  5
8A6
100
AcDbEntity
  8
0
  6
CONTINUOUS
 62
     7
100
AcDbLine
 10
130.0
 20
-160.24465
 30
0.0
 11
130.0
 21
-154.14126
 31
0.0
  0
LINE
  5
8A7
100
AcDbEntity
  8
0
  6
CONTINUOUS
 62
     7
100
AcDbLine
 10
132.1
 20
-97.000031
 30
0.0
 11
132.1
 21
-91.428288
 31
0.0
  0
LINE
  5
8A8
100
AcDbEntity
  8
0
  6
CONTINUOUS
 62
     7
100
AcDbLine
 10
131.5
 20
-97.000031
 30
0.0
 11
131.5
 21
-91.428288
 31
0.0
  0
LINE
  5
8A9
100
AcDbEntity
  8
0
  6
CONTINUOUS
 62
     7
100
AcDbLine
 10
130.0
 20
-86.4797
 30
0.0
 11
130.0
 21
-74.553265
 31
0.0
  0
LINE
  5
8AA
100
AcDbEntity
  8
0
  6
CONTINUOUS
 62
     7
100
AcDbLine
 10
127.0
 20
-91.428288
 30
0.0
 11
127.0
 21
-71.132019
 31
0.0
  0
LINE
  5
8AB
100
AcDbEntity
  8
0
  6
CONTINUOUS
 62
     7
100
AcDbLine
 10
113.0
 20
-91.428288
 30
0.0
 11
113.0
 21
-71.132019
 31
0.0
  0
LINE
  5
8AC
100
AcDbEntity
  8
0
  6
CONTINUOUS
 62
     7
100
AcDbLine
 10
110.0
 20
-86.4797
 30
0.0
 11
110.0
 21
-74.553265
 31
0.0
  0
LINE
  5
8AD
100
AcDbEntity
  8
0
  6
CONTINUOUS
 62
     7
100
AcDbLine
 10
108.5
 20
-97.000031
 30
0.0
 11
108.5
 21
-91.428288
 31
0.0
  0
LINE
  5
8AE
100
AcDbEntity
  8
0
  6
CONTINUOUS
 62
     7
100
AcDbLine
 10
107.9
 20
-97.000031
 30
0.0
 11
107.9
 21
-91.428288
 31
0.0
  0
LINE
  5
8AF
100
AcDbEntity
  8
0
  6
CENTER
 62
     7
100
AcDbLine
 10
100.0
 20
-68.380119
 30
0.0
 11
140.0
 21
-68.380119
 31
0.0
  0
LINE
  5
8B0
100
AcDbEntity
  8
0
  6
CENTER
 62
     7
100
AcDbLine
 10
100.0
 20
-84.983866
 30
0.0
 11
140.0
 21
-84.983866
 31
0.0
  0
LINE
  5
8B1
100
AcDbEntity
  8
0
  6
CENTER
 62
     7
100
AcDbLine
 10
100.0
 20
-133.01613
 30
0.0
 11
140.0
 21
-133.01613
 31
0.0
  0
LINE
  5
8B2
100
AcDbEntity
  8
0
  6
CENTER
 62
     7
100
AcDbLine
 10
100.0
 20
-64.0
 30
0.0
 11
140.0
 21
-64.0
 31
0.0
  0
LINE
  5
8B3
100
AcDbEntity
  8
0
  6
CENTER
 62
     7
100
AcDbLine
 10
100.0
 20
-149.61988
 30
0.0
 11
140.0
 21
-149.61988
 31
0.0
  0
POINT
  5
8B4
100
AcDbEntity
  8
0
  6
CONTINUOUS
 62
     7
100
AcDbPoint
 10
270.0
 20
-9.0
 30
0.0
  0
POINT
  5
8B5
100
AcDbEntity
  8
0
  6
CONTINUOUS
 62
     7
100
AcDbPoint
 10
287.0
 20
-9.0
 30
0.0
  0
LINE
  5
8B6
100
AcDbEntity
  8
0
  6
CONTINUOUS
 62
     7
100
AcDbLine
 10
235.86396
 20
-2.0
 30
0.0
 11
235.86396
 21
-16.0
 31
0.0
  0
LINE
  5
8B7
100
AcDbEntity
  8
0
  6
CONTINUOUS
 62
     7
100
AcDbLine
 10
249.44868
 20
1.0
 30
0.0
 11
249.44868
 21
-2.0
 31
0.0
  0
LINE
  5
8B8
100
AcDbEntity
  8
0
  6
CONTINUOUS
 62
     7
100
AcDbLine
 10
238.86808
 20
4.0
 30
0.0
 11
238.86808
 21
1.0
 31
0.0
  0
LINE
  5
8B9
100
AcDbEntity
  8
0
  6
CONTINUOUS
 62
     7
100
AcDbLine
 10
249.44868
 20
-16.0
 30
0.0
 11
249.44868
 21
-19.0
 31
0.0
  0
LINE
  5
8BA
100
AcDbEntity
  8
0
  6
CONTINUOUS
 62
     7
100
AcDbLine
 10
254.6
 20
-16.0
 30
0.0
 11
254.6
 21
-21.1
 31
0.0
  0
LINE
  5
8BB
100
AcDbEntity
  8
0
  6
CONTINUOUS
 62
     7
100
AcDbLine
 10
260.4
 20
-16.0
 30
0.0
 11
260.4
 21
-21.1
 31
0.0
  0
LINE
  5
8BC
100
AcDbEntity
  8
0
  6
CONTINUOUS
 62
     7
100
AcDbLine
 10
265.5514
 20
-19.0
 30
0.0
 11
274.4486
 21
-19.0
 31
0.0
  0
LINE
  5
8BD
100
AcDbEntity
  8
0
  6
CONTINUOUS
 62
     7
100
AcDbLine
 10
262.5
 20
-2.0
 30
0.0
 11
262.5
 21
-16.0
 31
0.0
  0
LINE
  5
8BE
100
AcDbEntity
  8
0
  6
CONTINUOUS
 62
     7
100
AcDbLine
 10
265.55132
 20
4.0
 30
0.0
 11
265.55132
 21
1.0
 31
0.0
  0
LINE
  5
8BF
100
AcDbEntity
  8
0
  6
CONTINUOUS
 62
     7
100
AcDbLine
 10
260.40008
 20
-2.0
 30
0.0
 11
274.4486
 21
-2.0
 31
0.0
  0
LINE
  5
8C0
100
AcDbEntity
  8
0
  6
CONTINUOUS
 62
     7
100
AcDbLine
 10
260.40008
 20
-16.0
 30
0.0
 11
274.4486
 21
-16.0
 31
0.0
  0
LINE
  5
8C1
100
AcDbEntity
  8
0
  6
CONTINUOUS
 62
     7
100
AcDbLine
 10
265.5514
 20
1.0
 30
0.0
 11
274.4486
 21
1.0
 31
0.0
  0
LINE
  5
8C2
100
AcDbEntity
  8
0
  6
CENTER
 62
     7
100
AcDbLine
 10
252.6
 20
0.25
 30
0.0
 11
262.4
 21
0.25
 31
0.0
  0
LINE
  5
8C3
100
AcDbEntity
  8
0
  6
CONTINUOUS
 62
     7
100
AcDbLine
 10
265.55132
 20
-19.0
 30
0.0
 11
265.55132
 21
-22.0
 31
0.0
  0
LINE
  5
8C4
100
AcDbEntity
  8
0
  6
CONTINUOUS
 62
     7
100
AcDbLine
 10
254.6
 20
3.1
 30
0.0
 11
254.6
 21
-2.0
 31
0.0
  0
LINE
  5
8C5
100
AcDbEntity
  8
0
  6
CONTINUOUS
 62
     7
100
AcDbLine
 10
260.4
 20
3.1
 30
0.0
 11
260.4
 21
-2.0
 31
0.0
  0
LINE
  5
8C6
100
AcDbEntity
  8
0
  6
CONTINUOUS
 62
     7
100
AcDbLine
 10
252.5
 20
-2.0
 30
0.0
 11
252.5
 21
-16.0
 31
0.0
  0
LINE
  5
8C7
100
AcDbEntity
  8
0
  6
CENTER
 62
     7
100
AcDbLine
 10
252.6
 20
-18.25
 30
0.0
 11
262.4
 21
-18.25
 31
0.0
  0
LINE
  5
8C8
100
AcDbEntity
  8
0
  6
CONTINUOUS
 62
     7
100
AcDbLine
 10
187.81248
 20
3.1
 30
0.0
 11
189.42359
 21
3.1
 31
0.0
  0
LINE
  5
8C9
100
AcDbEntity
  8
0
  6
CONTINUOUS
 62
     7
100
AcDbLine
 10
187.81248
 20
-21.1
 30
0.0
 11
189.42359
 21
-21.1
 31
0.0
  0
LINE
  5
8CA
100
AcDbEntity
  8
0
  6
CONTINUOUS
 62
     7
100
AcDbLine
 10
187.81248
 20
2.5
 30
0.0
 11
189.42359
 21
2.5
 31
0.0
  0
LINE
  5
8CB
100
AcDbEntity
  8
0
  6
CONTINUOUS
 62
     7
100
AcDbLine
 10
187.81248
 20
-20.5
 30
0.0
 11
189.42359
 21
-20.5
 31
0.0
  0
LINE
  5
8CC
100
AcDbEntity
  8
0
  6
CONTINUOUS
 62
     7
100
AcDbLine
 10
184.75227
 20
-2.0
 30
0.0
 11
187.81248
 21
-2.0
 31
0.0
  0
LINE
  5
8CD
100
AcDbEntity
  8
0
  6
CONTINUOUS
 62
     7
100
AcDbLine
 10
184.75227
 20
-16.0
 30
0.0
 11
187.81248
 21
-16.0
 31
0.0
  0
LINE
  5
8CE
100
AcDbEntity
  8
0
  6
CONTINUOUS
 62
     7
100
AcDbLine
 10
184.75227
 20
1.0
 30
0.0
 11
186.38157
 21
1.0
 31
0.0
  0
LINE
  5
8CF
100
AcDbEntity
  8
0
  6
CONTINUOUS
 62
     7
100
AcDbLine
 10
184.75227
 20
-19.0
 30
0.0
 11
186.38157
 21
-19.0
 31
0.0
  0
LINE
  5
8D0
100
AcDbEntity
  8
0
  6
CENTER
 62
     7
100
AcDbLine
 10
270.0
 20
-29.0
 30
0.0
 11
270.0
 21
11.0
 31
0.0
  0
LINE
  5
8D1
100
AcDbEntity
  8
0
  6
CONTINUOUS
 62
     7
100
AcDbLine
 10
184.75227
 20
-22.0
 30
0.0
 11
265.5514
 21
-22.0
 31
0.0
  0
LINE
  5
8D2
100
AcDbEntity
  8
0
  6
CENTER
 62
     7
100
AcDbLine
 10
245.0
 20
-29.0
 30
0.0
 11
245.0
 21
11.0
 31
0.0
  0
LINE
  5
8D3
100
AcDbEntity
  8
0
  6
CENTER
 62
     7
100
AcDbLine
 10
177.75227
 20
-9.0
 30
0.0
 11
287.0
 21
-9.0
 31
0.0
  0
LINE
  5
8D4
100
AcDbEntity
  8
0
  6
CONTINUOUS
 62
     7
100
AcDbLine
 10
184.75227
 20
4.0
 30
0.0
 11
265.5514
 21
4.0
 31
0.0
  0
LINE
  5
8D5
100
AcDbEntity
  8
0
  6
CENTER
 62
     7
100
AcDbLine
 10
220.3867
 20
-29.0
 30
0.0
 11
220.3867
 21
11.0
 31
0.0
  0
LINE
  5
8D6
100
AcDbEntity
  8
0
  6
CENTER
 62
     7
100
AcDbLine
 10
194.75227
 20
-29.0
 30
0.0
 11
194.75227
 21
11.0
 31
0.0
  0
LINE
  5
8D7
100
AcDbEntity
  8
0
  6
CENTER
 62
     7
100
AcDbLine
 10
201.69672
 20
-29.0
 30
0.0
 11
201.69672
 21
11.0
 31
0.0
  0
LINE
  5
8D8
100
AcDbEntity
  8
0
  6
CONTINUOUS
 62
     7
100
AcDbLine
 10
233.79644
 20
3.1
 30
0.0
 11
233.79644
 21
-2.0
 31
0.0
  0
LINE
  5
8D9
100
AcDbEntity
  8
0
  6
CONTINUOUS
 62
     7
100
AcDbLine
 10
228.08615
 20
3.1
 30
0.0
 11
228.08615
 21
-2.0
 31
0.0
  0
LINE
  5
8DA
100
AcDbEntity
  8
0
  6
CONTINUOUS
 62
     7
100
AcDbLine
 10
226.01864
 20
-2.0
 30
0.0
 11
226.01864
 21
-16.0
 31
0.0
  0
LINE
  5
8DB
100
AcDbEntity
  8
0
  6
CONTINUOUS
 62
     7
100
AcDbLine
 10
223.01452
 20
1.0
 30
0.0
 11
223.01452
 21
-2.0
 31
0.0
  0
LINE
  5
8DC
100
AcDbEntity
  8
0
  6
CONTINUOUS
 62
     7
100
AcDbLine
 10
210.41937
 20
4.0
 30
0.0
 11
210.41937
 21
1.0
 31
0.0
  0
LINE
  5
8DD
100
AcDbEntity
  8
0
  6
CONTINUOUS
 62
     7
100
AcDbLine
 10
208.13821
 20
-2.0
 30
0.0
 11
208.13821
 21
-16.0
 31
0.0
  0
LINE
  5
8DE
100
AcDbEntity
  8
0
  6
CONTINUOUS
 62
     7
100
AcDbLine
 10
206.56824
 20
3.1
 30
0.0
 11
206.56824
 21
-2.0
 31
0.0
  0
LINE
  5
8DF
100
AcDbEntity
  8
0
  6
CONTINUOUS
 62
     7
100
AcDbLine
 10
202.23217
 20
3.1
 30
0.0
 11
202.23217
 21
-2.0
 31
0.0
  0
LINE
  5
8E0
100
AcDbEntity
  8
0
  6
CONTINUOUS
 62
     7
100
AcDbLine
 10
200.66221
 20
-2.0
 30
0.0
 11
200.66221
 21
-16.0
 31
0.0
  0
LINE
  5
8E1
100
AcDbEntity
  8
0
  6
CONTINUOUS
 62
     7
100
AcDbLine
 10
198.38104
 20
1.0
 30
0.0
 11
198.38104
 21
-2.0
 31
0.0
  0
LINE
  5
8E2
100
AcDbEntity
  8
0
  6
CONTINUOUS
 62
     7
100
AcDbLine
 10
190.85452
 20
4.0
 30
0.0
 11
190.85452
 21
1.0
 31
0.0
  0
LINE
  5
8E3
100
AcDbEntity
  8
0
  6
CONTINUOUS
 62
     7
100
AcDbLine
 10
190.00693
 20
-2.0
 30
0.0
 11
190.00693
 21
-16.0
 31
0.0
  0
LINE
  5
8E4
100
AcDbEntity
  8
0
  6
CONTINUOUS
 62
     7
100
AcDbLine
 10
189.42359
 20
3.1
 30
0.0
 11
189.42359
 21
-2.0
 31
0.0
  0
LINE
  5
8E5
100
AcDbEntity
  8
0
  6
CONTINUOUS
 62
     7
100
AcDbLine
 10
187.81248
 20
3.1
 30
0.0
 11
187.81248
 21
-2.0
 31
0.0
  0
LINE
  5
8E6
100
AcDbEntity
  8
0
  6
CONTINUOUS
 62
     7
100
AcDbLine
 10
187.22916
 20
-2.0
 30
0.0
 11
187.22916
 21
-16.0
 31
0.0
  0
LINE
  5
8E7
100
AcDbEntity
  8
0
  6
CONTINUOUS
 62
     7
100
AcDbLine
 10
186.38157
 20
1.0
 30
0.0
 11
186.38157
 21
-2.0
 31
0.0
  0
LINE
  5
8E8
100
AcDbEntity
  8
0
  6
CONTINUOUS
 62
     7
100
AcDbLine
 10
184.75227
 20
4.0
 30
0.0
 11
184.75227
 21
-2.0
 31
0.0
  0
LINE
  5
8E9
100
AcDbEntity
  8
0
  6
CONTINUOUS
 62
     7
100
AcDbLine
 10
238.86808
 20
-19.0
 30
0.0
 11
238.86808
 21
-22.0
 31
0.0
  0
LINE
  5
8EA
100
AcDbEntity
  8
0
  6
CONTINUOUS
 62
     7
100
AcDbLine
 10
233.79644
 20
-16.0
 30
0.0
 11
233.79644
 21
-21.1
 31
0.0
  0
LINE
  5
8EB
100
AcDbEntity
  8
0
  6
CONTINUOUS
 62
     7
100
AcDbLine
 10
228.08615
 20
-16.0
 30
0.0
 11
228.08615
 21
-21.1
 31
0.0
  0
LINE
  5
8EC
100
AcDbEntity
  8
0
  6
CONTINUOUS
 62
     7
100
AcDbLine
 10
223.01452
 20
-16.0
 30
0.0
 11
223.01452
 21
-19.0
 31
0.0
  0
LINE
  5
8ED
100
AcDbEntity
  8
0
  6
CONTINUOUS
 62
     7
100
AcDbLine
 10
210.41937
 20
-19.0
 30
0.0
 11
210.41937
 21
-22.0
 31
0.0
  0
LINE
  5
8EE
100
AcDbEntity
  8
0
  6
CONTINUOUS
 62
     7
100
AcDbLine
 10
206.56824
 20
-16.0
 30
0.0
 11
206.56824
 21
-21.1
 31
0.0
  0
LINE
  5
8EF
100
AcDbEntity
  8
0
  6
CONTINUOUS
 62
     7
100
AcDbLine
 10
202.23217
 20
-16.0
 30
0.0
 11
202.23217
 21
-21.1
 31
0.0
  0
LINE
  5
8F0
100
AcDbEntity
  8
0
  6
CONTINUOUS
 62
     7
100
AcDbLine
 10
198.38104
 20
-16.0
 30
0.0
 11
198.38104
 21
-19.0
 31
0.0
  0
LINE
  5
8F1
100
AcDbEntity
  8
0
  6
CONTINUOUS
 62
     7
100
AcDbLine
 10
190.85452
 20
-19.0
 30
0.0
 11
190.85452
 21
-22.0
 31
0.0
  0
LINE
  5
8F2
100
AcDbEntity
  8
0
  6
CONTINUOUS
 62
     7
100
AcDbLine
 10
189.42359
 20
-16.0
 30
0.0
 11
189.42359
 21
-21.1
 31
0.0
  0
LINE
  5
8F3
100
AcDbEntity
  8
0
  6
CONTINUOUS
 62
     7
100
AcDbLine
 10
187.81248
 20
-16.0
 30
0.0
 11
187.81248
 21
-21.1
 31
0.0
  0
LINE
  5
8F4
100
AcDbEntity
  8
0
  6
CONTINUOUS
 62
     7
100
AcDbLine
 10
186.38157
 20
-16.0
 30
0.0
 11
186.38157
 21
-19.0
 31
0.0
  0
LINE
  5
8F5
100
AcDbEntity
  8
0
  6
CONTINUOUS
 62
     7
100
AcDbLine
 10
184.75227
 20
-16.0
 30
0.0
 11
184.75227
 21
-22.0
 31
0.0
  0
LINE
  5
8F6
100
AcDbEntity
  8
0
  6
CONTINUOUS
 62
     7
100
AcDbLine
 10
189.42359
 20
-2.0
 30
0.0
 11
202.23217
 21
-2.0
 31
0.0
  0
LINE
  5
8F7
100
AcDbEntity
  8
0
  6
CONTINUOUS
 62
     7
100
AcDbLine
 10
190.85452
 20
1.0
 30
0.0
 11
198.38104
 21
1.0
 31
0.0
  0
LINE
  5
8F8
100
AcDbEntity
  8
0
  6
CONTINUOUS
 62
     7
100
AcDbLine
 10
206.56824
 20
-2.0
 30
0.0
 11
228.08615
 21
-2.0
 31
0.0
  0
LINE
  5
8F9
100
AcDbEntity
  8
0
  6
CONTINUOUS
 62
     7
100
AcDbLine
 10
210.41937
 20
1.0
 30
0.0
 11
223.01452
 21
1.0
 31
0.0
  0
LINE
  5
8FA
100
AcDbEntity
  8
0
  6
CONTINUOUS
 62
     7
100
AcDbLine
 10
233.79644
 20
-2.0
 30
0.0
 11
254.6
 21
-2.0
 31
0.0
  0
LINE
  5
8FB
100
AcDbEntity
  8
0
  6
CONTINUOUS
 62
     7
100
AcDbLine
 10
238.86808
 20
1.0
 30
0.0
 11
249.44876
 21
1.0
 31
0.0
  0
LINE
  5
8FC
100
AcDbEntity
  8
0
  6
CONTINUOUS
 62
     7
100
AcDbLine
 10
233.79644
 20
-16.0
 30
0.0
 11
254.6
 21
-16.0
 31
0.0
  0
LINE
  5
8FD
100
AcDbEntity
  8
0
  6
CONTINUOUS
 62
     7
100
AcDbLine
 10
238.86808
 20
-19.0
 30
0.0
 11
249.44876
 21
-19.0
 31
0.0
  0
LINE
  5
8FE
100
AcDbEntity
  8
0
  6
CONTINUOUS
 62
     7
100
AcDbLine
 10
206.56824
 20
-16.0
 30
0.0
 11
228.08615
 21
-16.0
 31
0.0
  0
LINE
  5
8FF
100
AcDbEntity
  8
0
  6
CONTINUOUS
 62
     7
100
AcDbLine
 10
210.41937
 20
-19.0
 30
0.0
 11
223.01452
 21
-19.0
 31
0.0
  0
LINE
  5
900
100
AcDbEntity
  8
0
  6
CONTINUOUS
 62
     7
100
AcDbLine
 10
189.42359
 20
-16.0
 30
0.0
 11
202.23217
 21
-16.0
 31
0.0
  0
LINE
  5
901
100
AcDbEntity
  8
0
  6
CONTINUOUS
 62
     7
100
AcDbLine
 10
190.85452
 20
-19.0
 30
0.0
 11
198.38104
 21
-19.0
 31
0.0
  0
LINE
  5
902
100
AcDbEntity
  8
0
  6
CONTINUOUS
 62
     7
100
AcDbLine
 10
254.6
 20
3.1
 30
0.0
 11
260.40008
 21
3.1
 31
0.0
  0
LINE
  5
903
100
AcDbEntity
  8
0
  6
CONTINUOUS
 62
     7
100
AcDbLine
 10
254.6
 20
2.5
 30
0.0
 11
260.40008
 21
2.5
 31
0.0
  0
LINE
  5
904
100
AcDbEntity
  8
0
  6
CONTINUOUS
 62
     7
100
AcDbLine
 10
228.08615
 20
3.1
 30
0.0
 11
233.79644
 21
3.1
 31
0.0
  0
LINE
  5
905
100
AcDbEntity
  8
0
  6
CONTINUOUS
 62
     7
100
AcDbLine
 10
228.08615
 20
2.5
 30
0.0
 11
233.79644
 21
2.5
 31
0.0
  0
LINE
  5
906
100
AcDbEntity
  8
0
  6
CONTINUOUS
 62
     7
100
AcDbLine
 10
202.23217
 20
3.1
 30
0.0
 11
206.56824
 21
3.1
 31
0.0
  0
LINE
  5
907
100
AcDbEntity
  8
0
  6
CONTINUOUS
 62
     7
100
AcDbLine
 10
202.23217
 20
2.5
 30
0.0
 11
206.56824
 21
2.5
 31
0.0
  0
LINE
  5
908
100
AcDbEntity
  8
0
  6
CONTINUOUS
 62
     7
100
AcDbLine
 10
202.23217
 20
-20.5
 30
0.0
 11
206.56824
 21
-20.5
 31
0.0
  0
LINE
  5
909
100
AcDbEntity
  8
0
  6
CONTINUOUS
 62
     7
100
AcDbLine
 10
202.23217
 20
-21.1
 30
0.0
 11
206.56824
 21
-21.1
 31
0.0
  0
LINE
  5
90A
100
AcDbEntity
  8
0
  6
CONTINUOUS
 62
     7
100
AcDbLine
 10
228.08615
 20
-20.5
 30
0.0
 11
233.79644
 21
-20.5
 31
0.0
  0
LINE
  5
90B
100
AcDbEntity
  8
0
  6
CONTINUOUS
 62
     7
100
AcDbLine
 10
228.08615
 20
-21.1
 30
0.0
 11
233.79644
 21
-21.1
 31
0.0
  0
LINE
  5
90C
100
AcDbEntity
  8
0
  6
CONTINUOUS
 62
     7
100
AcDbLine
 10
254.6
 20
-20.5
 30
0.0
 11
260.40008
 21
-20.5
 31
0.0
  0
LINE
  5
90D
100
AcDbEntity
  8
0
  6
CONTINUOUS
 62
     7
100
AcDbLine
 10
254.6
 20
-21.1
 30
0.0
 11
260.40008
 21
-21.1
 31
0.0
  0
LINE
  5
90E
100
AcDbEntity
  8
0
  6
CONTINUOUS
 62
     7
100
AcDbLine
 10
252.0
 20
-16.0
 30
0.0
 11
252.0
 21
-2.0
 31
0.0
  0
LINE
  5
90F
100
AcDbEntity
  8
0
  6
CONTINUOUS
 62
     7
100
AcDbLine
 10
263.0
 20
-16.0
 30
0.0
 11
263.0
 21
-2.0
 31
0.0
  0
POINT
  5
910
100
AcDbEntity
  8
0
  6
CONTINUOUS
 62
     7
100
AcDbPoint
 10
270.0
 20
-64.0
 30
0.0
  0
POINT
  5
911
100
AcDbEntity
  8
0
  6
CONTINUOUS
 62
     7
100
AcDbPoint
 10
287.0
 20
-64.0
 30
0.0
  0
LINE
  5
912
100
AcDbEntity
  8
0
  6
CENTER
 62
     7
100
AcDbLine
 10
177.75227
 20
-109.0
 30
0.0
 11
287.0
 21
-109.0
 31
0.0
  0
LINE
  5
913
100
AcDbEntity
  8
0
  6
CENTER
 62
     7
100
AcDbLine
 10
239.75227
 20
-64.0
 30
0.0
 11
287.0
 21
-64.0
 31
0.0
  0
LINE
  5
914
100
AcDbEntity
  8
0
  6
CENTER
 62
     7
100
AcDbLine
 10
239.75227
 20
-47.0
 30
0.0
 11
239.75227
 21
-171.0
 31
0.0
  0
LINE
  5
915
100
AcDbEntity
  8
0
  6
CENTER
 62
     7
100
AcDbLine
 10
239.75227
 20
-154.0
 30
0.0
 11
287.0
 21
-154.0
 31
0.0
  0
LINE
  5
916
100
AcDbEntity
  8
0
  6
CENTER
 62
     7
100
AcDbLine
 10
245.0
 20
-58.5
 30
0.0
 11
245.0
 21
-69.5
 31
0.0
  0
LINE
  5
917
100
AcDbEntity
  8
0
  6
CONTINUOUS
 62
     7
100
AcDbLine
 10
208.33819
 20
-92.459852
 30
0.0
 11
224.91786
 21
-77.730885
 31
0.0
  0
LINE
  5
918
100
AcDbEntity
  8
0
  6
CENTER
 62
     7
100
AcDbLine
 10
275.5
 20
-154.0
 30
0.0
 11
264.5
 21
-154.0
 31
0.0
  0
LINE
  5
919
100
AcDbEntity
  8
0
  6
CENTER
 62
     7
100
AcDbLine
 10
270.0
 20
-159.5
 30
0.0
 11
270.0
 21
-148.5
 31
0.0
  0
LINE
  5
91A
100
AcDbEntity
  8
0
  6
CONTINUOUS
 62
     7
100
AcDbLine
 10
270.0
 20
-164.0
 30
0.0
 11
244.93949
 21
-164.0
 31
0.0
  0
LINE
  5
91B
100
AcDbEntity
  8
0
  6
CONTINUOUS
 62
     7
100
AcDbLine
 10
270.0
 20
-144.0
 30
0.0
 11
245.88183
 21
-144.0
 31
0.0
  0
LINE
  5
91C
100
AcDbEntity
  8
0
  6
CONTINUOUS
 62
     7
100
AcDbLine
 10
251.61066
 20
-144.45
 30
0.0
 11
254.09327
 21
-148.75
 31
0.0
  0
LINE
  5
91D
100
AcDbEntity
  8
0
  6
CONTINUOUS
 62
     7
100
AcDbLine
 10
247.0
 20
-156.87228
 30
0.0
 11
247.0
 21
-151.12772
 31
0.0
  0
LINE
  5
91E
100
AcDbEntity
  8
0
  6
CENTER
 62
     7
100
AcDbLine
 10
250.5
 20
-154.0
 30
0.0
 11
239.5
 21
-154.0
 31
0.0
  0
LINE
  5
91F
100
AcDbEntity
  8
0
  6
CENTER
 62
     7
100
AcDbLine
 10
245.0
 20
-159.5
 30
0.0
 11
245.0
 21
-148.5
 31
0.0
  0
LINE
  5
920
100
AcDbEntity
  8
0
  6
CONTINUOUS
 62
     7
100
AcDbLine
 10
245.0
 20
-54.0
 30
0.0
 11
270.0
 21
-54.0
 31
0.0
  0
LINE
  5
921
100
AcDbEntity
  8
0
  6
CONTINUOUS
 62
     7
100
AcDbLine
 10
245.0
 20
-74.0
 30
0.0
 11
270.0
 21
-74.0
 31
0.0
  0
LINE
  5
922
100
AcDbEntity
  8
0
  6
CONTINUOUS
 62
     7
100
AcDbLine
 10
263.38934
 20
-73.55
 30
0.0
 11
260.90673
 21
-69.25
 31
0.0
  0
LINE
  5
923
100
AcDbEntity
  8
0
  6
CONTINUOUS
 62
     7
100
AcDbLine
 10
268.0
 20
-61.127719
 30
0.0
 11
268.0
 21
-66.872281
 31
0.0
  0
LINE
  5
924
100
AcDbEntity
  8
0
  6
CENTER
 62
     7
100
AcDbLine
 10
264.5
 20
-64.0
 30
0.0
 11
275.5
 21
-64.0
 31
0.0
  0
LINE
  5
925
100
AcDbEntity
  8
0
  6
CENTER
 62
     7
100
AcDbLine
 10
270.0
 20
-58.5
 30
0.0
 11
270.0
 21
-69.5
 31
0.0
  0
LINE
  5
926
100
AcDbEntity
  8
0
  6
CONTINUOUS
 62
     7
100
AcDbLine
 10
218.63465
 20
-58.534811
 30
0.0
 11
243.24795
 21
-54.154681
 31
0.0
  0
LINE
  5
927
100
AcDbEntity
  8
0
  6
CONTINUOUS
 62
     7
100
AcDbLine
 10
222.13875
 20
-78.22545
 30
0.0
 11
245.88285
 21
-74.0
 31
0.0
  0
LINE
  5
928
100
AcDbEntity
  8
0
  6
CONTINUOUS
 62
     7
100
AcDbLine
 10
240.1648
 20
-74.560503
 30
0.0
 11
236.96722
 21
-70.761982
 31
0.0
  0
LINE
  5
929
100
AcDbEntity
  8
0
  6
CONTINUOUS
 62
     7
100
AcDbLine
 10
242.5277
 20
-61.522558
 30
0.0
 11
243.53417
 21
-67.178263
 31
0.0
  0
LINE
  5
92A
100
AcDbEntity
  8
0
  6
CONTINUOUS
 62
     7
100
AcDbLine
 10
195.05521
 20
-77.507856
 30
0.0
 11
213.7452
 21
-60.904125
 31
0.0
  0
LINE
  5
92B
100
AcDbEntity
  8
0
  6
CONTINUOUS
 62
     7
100
AcDbLine
 10
221.7872
 20
-79.910166
 30
0.0
 11
217.07536
 21
-78.344307
 31
0.0
  0
LINE
  5
92C
100
AcDbEntity
  8
0
  6
CONTINUOUS
 62
     7
100
AcDbLine
 10
216.98388
 20
-67.561098
 30
0.0
 11
220.79913
 21
-71.855734
 31
0.0
  0
LINE
  5
92D
100
AcDbEntity
  8
0
  6
CONTINUOUS
 62
     7
100
AcDbLine
 10
185.14582
 20
-106.22223
 30
0.0
 11
192.08553
 21
-82.222454
 31
0.0
  0
LINE
  5
92E
100
AcDbEntity
  8
0
  6
CONTINUOUS
 62
     7
100
AcDbLine
 10
204.35873
 20
-111.77777
 30
0.0
 11
210.49996
 21
-90.539394
 31
0.0
  0
LINE
  5
92F
100
AcDbEntity
  8
0
  6
CONTINUOUS
 62
     7
100
AcDbLine
 10
209.03459
 20
-93.987141
 30
0.0
 11
204.2142
 21
-95.177603
 31
0.0
  0
LINE
  5
930
100
AcDbEntity
  8
0
  6
CONTINUOUS
 62
     7
100
AcDbLine
 10
198.38191
 20
-86.107302
 30
0.0
 11
203.90041
 21
-87.703012
 31
0.0
  0
LINE
  5
931
100
AcDbEntity
  8
0
  6
CONTINUOUS
 62
     7
100
AcDbLine
 10
192.09044
 20
-135.79393
 30
0.0
 11
185.14584
 21
-111.77784
 31
0.0
  0
LINE
  5
932
100
AcDbEntity
  8
0
  6
CONTINUOUS
 62
     7
100
AcDbLine
 10
211.30331
 20
-130.23824
 30
0.0
 11
205.16196
 21
-108.99998
 31
0.0
  0
LINE
  5
933
100
AcDbEntity
  8
0
  6
CONTINUOUS
 62
     7
100
AcDbLine
 10
205.76275
 20
-112.69765
 30
0.0
 11
202.32162
 21
-116.27702
 31
0.0
  0
LINE
  5
934
100
AcDbEntity
  8
0
  6
CONTINUOUS
 62
     7
100
AcDbLine
 10
192.5486
 20
-111.71916
 30
0.0
 11
198.06707
 21
-110.12341
 31
0.0
  0
LINE
  5
935
100
AcDbEntity
  8
0
  6
CONTINUOUS
 62
     7
100
AcDbLine
 10
213.74526
 20
-157.09585
 30
0.0
 11
195.05531
 21
-140.4922
 31
0.0
  0
LINE
  5
936
100
AcDbEntity
  8
0
  6
CONTINUOUS
 62
     7
100
AcDbLine
 10
227.02822
 20
-142.14382
 30
0.0
 11
210.50016
 21
-127.46075
 31
0.0
  0
LINE
  5
937
100
AcDbEntity
  8
0
  6
CONTINUOUS
 62
     7
100
AcDbLine
 10
212.98146
 20
-130.267
 30
0.0
 11
211.98163
 21
-135.13051
 31
0.0
  0
LINE
  5
938
100
AcDbEntity
  8
0
  6
CONTINUOUS
 62
     7
100
AcDbLine
 10
201.28429
 20
-136.49175
 30
0.0
 11
205.09954
 21
-132.19711
 31
0.0
  0
LINE
  5
939
100
AcDbEntity
  8
0
  6
CENTER
 62
     7
100
AcDbLine
 10
200.25227
 20
-109.0
 30
0.0
 11
189.25227
 21
-109.0
 31
0.0
  0
LINE
  5
93A
100
AcDbEntity
  8
0
  6
CENTER
 62
     7
100
AcDbLine
 10
201.69672
 20
-79.483866
 30
0.0
 11
201.69672
 21
-90.483866
 31
0.0
  0
LINE
  5
93B
100
AcDbEntity
  8
0
  6
CENTER
 62
     7
100
AcDbLine
 10
225.8867
 20
-68.380119
 30
0.0
 11
214.8867
 21
-68.380119
 31
0.0
  0
LINE
  5
93C
100
AcDbEntity
  8
0
  6
CENTER
 62
     7
100
AcDbLine
 10
220.3867
 20
-62.880119
 30
0.0
 11
220.3867
 21
-73.880119
 31
0.0
  0
LINE
  5
93D
100
AcDbEntity
  8
0
  6
CONTINUOUS
 62
     7
100
AcDbLine
 10
243.24784
 20
-163.84549
 30
0.0
 11
218.63461
 21
-159.46519
 31
0.0
  0
LINE
  5
93E
100
AcDbEntity
  8
0
  6
CONTINUOUS
 62
     7
100
AcDbLine
 10
246.75209
 20
-144.15488
 30
0.0
 11
224.91801
 21
-140.26917
 31
0.0
  0
LINE
  5
93F
100
AcDbEntity
  8
0
  6
CONTINUOUS
 62
     7
100
AcDbLine
 10
228.56837
 20
-141.37588
 30
0.0
 11
230.25916
 21
-146.04434
 31
0.0
  0
LINE
  5
940
100
AcDbEntity
  8
0
  6
CONTINUOUS
 62
     7
100
AcDbLine
 10
221.8525
 20
-152.79816
 30
0.0
 11
222.85902
 21
-147.14246
 31
0.0
  0
LINE
  5
941
100
AcDbEntity
  8
0
  6
CENTER
 62
     7
100
AcDbLine
 10
250.5
 20
-64.0
 30
0.0
 11
239.5
 21
-64.0
 31
0.0
  0
LINE
  5
942
100
AcDbEntity
  8
0
  6
CENTER
 62
     7
100
AcDbLine
 10
207.19671
 20
-84.983866
 30
0.0
 11
196.19672
 21
-84.983866
 31
0.0
  0
LINE
  5
943
100
AcDbEntity
  8
0
  6
CENTER
 62
     7
100
AcDbLine
 10
194.75227
 20
-103.5
 30
0.0
 11
194.75227
 21
-114.5
 31
0.0
  0
LINE
  5
944
100
AcDbEntity
  8
0
  6
CENTER
 62
     7
100
AcDbLine
 10
207.19671
 20
-133.01614
 30
0.0
 11
196.19672
 21
-133.01614
 31
0.0
  0
LINE
  5
945
100
AcDbEntity
  8
0
  6
CENTER
 62
     7
100
AcDbLine
 10
201.69672
 20
-127.51613
 30
0.0
 11
201.69672
 21
-138.51614
 31
0.0
  0
LINE
  5
946
100
AcDbEntity
  8
0
  6
CENTER
 62
     7
100
AcDbLine
 10
225.8867
 20
-149.61988
 30
0.0
 11
214.8867
 21
-149.61988
 31
0.0
  0
LINE
  5
947
100
AcDbEntity
  8
0
  6
CENTER
 62
     7
100
AcDbLine
 10
220.3867
 20
-144.11988
 30
0.0
 11
220.3867
 21
-155.11988
 31
0.0
  0
ARC
  5
948
100
AcDbEntity
  8
0
  6
CONTINUOUS
 62
     7
100
AcDbCircle
 10
249.74868
 20
-163.7
 30
0.0
 40
0.3
100
AcDbArc
 50
116.0843
 51
270.0
  0
ARC
  5
949
100
AcDbEntity
  8
0
  6
CENTER
 62
     7
100
AcDbCircle
 10
239.75227
 20
-109.0
 30
0.0
 40
45.0
100
AcDbArc
 50
90.000003
 51
270.0
  0
ARC
  5
94A
100
AcDbEntity
  8
0
  6
CONTINUOUS
 62
     7
100
AcDbCircle
 10
238.62528
 20
-55.282034
 30
0.0
 40
0.3
100
AcDbArc
 50
306.17489
 51
100.0906
  0
CIRCLE
  5
94B
100
AcDbEntity
  8
0
  6
CONTINUOUS
 62
     7
100
AcDbCircle
 10
220.3867
 20
-68.380119
 30
0.0
 40
3.5
  0
ARC
  5
94C
100
AcDbEntity
  8
0
  6
CONTINUOUS
 62
     7
100
AcDbCircle
 10
220.3867
 20
-68.380119
 30
0.0
 40
10.5
100
AcDbArc
 50
157.70139
 51
251.61709
  0
ARC
  5
94D
100
AcDbEntity
  8
0
  6
CONTINUOUS
 62
     7
100
AcDbCircle
 10
221.69259
 20
-80.194855
 30
0.0
 40
0.3
100
AcDbArc
 50
311.6171
 51
71.617102
  0
ARC
  5
94E
100
AcDbEntity
  8
0
  6
CONTINUOUS
 62
     7
100
AcDbCircle
 10
201.6967
 20
-84.983852
 30
0.0
 40
10.0
100
AcDbArc
 50
131.6171
 51
311.61711
  0
ARC
  5
94F
100
AcDbEntity
  8
0
  6
CONTINUOUS
 62
     7
100
AcDbCircle
 10
251.87047
 20
-144.3
 30
0.0
 40
0.3
100
AcDbArc
 50
90.000003
 51
210.0
  0
ARC
  5
950
100
AcDbEntity
  8
0
  6
CONTINUOUS
 62
     7
100
AcDbCircle
 10
270.0
 20
-154.0
 30
0.0
 40
10.0
100
AcDbArc
 50
270.0
 51
90.000003
  0
ARC
  5
951
100
AcDbEntity
  8
0
  6
CONTINUOUS
 62
     7
100
AcDbCircle
 10
245.0
 20
-154.0
 30
0.0
 40
10.5
100
AcDbArc
 50
296.08429
 51
30.000001
  0
CIRCLE
  5
952
100
AcDbEntity
  8
0
  6
CONTINUOUS
 62
     7
100
AcDbCircle
 10
245.0
 20
-154.0
 30
0.0
 40
3.5
  0
ARC
  5
953
100
AcDbEntity
  8
0
  6
CONTINUOUS
 62
     7
100
AcDbCircle
 10
265.25132
 20
-54.3
 30
0.0
 40
0.3
100
AcDbArc
 50
296.08429
 51
90.000003
  0
ARC
  5
954
100
AcDbEntity
  8
0
  6
CONTINUOUS
 62
     7
100
AcDbCircle
 10
210.39434
 20
-64.282235
 30
0.0
 40
0.3
100
AcDbArc
 50
337.70139
 51
131.6171
  0
ARC
  5
955
100
AcDbEntity
  8
0
  6
CONTINUOUS
 62
     7
100
AcDbCircle
 10
263.12953
 20
-73.7
 30
0.0
 40
0.3
100
AcDbArc
 50
270.0
 51
30.000001
  0
ARC
  5
956
100
AcDbEntity
  8
0
  6
CONTINUOUS
 62
     7
100
AcDbCircle
 10
245.0
 20
-64.0
 30
0.0
 40
10.0
100
AcDbArc
 50
90.000003
 51
270.0
  0
ARC
  5
957
100
AcDbEntity
  8
0
  6
CONTINUOUS
 62
     7
100
AcDbCircle
 10
270.0
 20
-64.0
 30
0.0
 40
10.5
100
AcDbArc
 50
116.0843
 51
210.0
  0
CIRCLE
  5
958
100
AcDbEntity
  8
0
  6
CONTINUOUS
 62
     7
100
AcDbCircle
 10
270.0
 20
-64.0
 30
0.0
 40
3.5
  0
ARC
  5
959
100
AcDbEntity
  8
0
  6
CONTINUOUS
 62
     7
100
AcDbCircle
 10
239.9353
 20
-74.753701
 30
0.0
 40
0.3
100
AcDbArc
 50
280.0906
 51
40.090601
  0
ARC
  5
95A
100
AcDbEntity
  8
0
  6
CONTINUOUS
 62
     7
100
AcDbCircle
 10
220.3867
 20
-68.38013
 30
0.0
 40
10.0
100
AcDbArc
 50
100.0906
 51
280.09059
  0
ARC
  5
95B
100
AcDbEntity
  8
0
  6
CONTINUOUS
 62
     7
100
AcDbCircle
 10
245.0
 20
-64.0
 30
0.0
 40
10.5
100
AcDbArc
 50
126.17489
 51
220.09061
  0
CIRCLE
  5
95C
100
AcDbEntity
  8
0
  6
CONTINUOUS
 62
     7
100
AcDbCircle
 10
245.0
 20
-64.0
 30
0.0
 40
3.5
  0
ARC
  5
95D
100
AcDbEntity
  8
0
  6
CONTINUOUS
 62
     7
100
AcDbCircle
 10
191.05937
 20
-86.851227
 30
0.0
 40
0.3
100
AcDbArc
 50
9.956693
 51
163.8724
  0
ARC
  5
95E
100
AcDbEntity
  8
0
  6
CONTINUOUS
 62
     7
100
AcDbCircle
 10
209.10651
 20
-94.278391
 30
0.0
 40
0.3
100
AcDbArc
 50
343.8724
 51
103.8724
  0
ARC
  5
95F
100
AcDbEntity
  8
0
  6
CONTINUOUS
 62
     7
100
AcDbCircle
 10
194.75227
 20
-109.0
 30
0.0
 40
10.0
100
AcDbArc
 50
163.8724
 51
343.8724
  0
ARC
  5
960
100
AcDbEntity
  8
0
  6
CONTINUOUS
 62
     7
100
AcDbCircle
 10
186.75314
 20
-116.2563
 30
0.0
 40
0.3
100
AcDbArc
 50
42.212294
 51
196.12799
  0
ARC
  5
961
100
AcDbEntity
  8
0
  6
CONTINUOUS
 62
     7
100
AcDbCircle
 10
201.69672
 20
-84.983866
 30
0.0
 40
10.5
100
AcDbArc
 50
189.95669
 51
283.8724
  0
CIRCLE
  5
962
100
AcDbEntity
  8
0
  6
CONTINUOUS
 62
     7
100
AcDbCircle
 10
201.69672
 20
-84.983866
 30
0.0
 40
3.5
  0
ARC
  5
963
100
AcDbEntity
  8
0
  6
CONTINUOUS
 62
     7
100
AcDbCircle
 10
205.97902
 20
-112.90556
 30
0.0
 40
0.3
100
AcDbArc
 50
16.127999
 51
136.12801
  0
ARC
  5
964
100
AcDbEntity
  8
0
  6
CONTINUOUS
 62
     7
100
AcDbCircle
 10
201.69687
 20
-133.01609
 30
0.0
 40
10.0
100
AcDbArc
 50
196.128
 51
16.127999
  0
ARC
  5
965
100
AcDbEntity
  8
0
  6
CONTINUOUS
 62
     7
100
AcDbCircle
 10
198.8046
 20
-143.42169
 30
0.0
 40
0.3
100
AcDbArc
 50
74.467292
 51
228.383
  0
ARC
  5
966
100
AcDbEntity
  8
0
  6
CONTINUOUS
 62
     7
100
AcDbCircle
 10
194.75227
 20
-109.0
 30
0.0
 40
10.5
100
AcDbArc
 50
222.2123
 51
316.128
  0
CIRCLE
  5
967
100
AcDbEntity
  8
0
  6
CONTINUOUS
 62
     7
100
AcDbCircle
 10
194.75227
 20
-109.0
 30
0.0
 40
3.5
  0
ARC
  5
968
100
AcDbEntity
  8
0
  6
CONTINUOUS
 62
     7
100
AcDbCircle
 10
213.27532
 20
-130.32742
 30
0.0
 40
0.3
100
AcDbArc
 50
48.383001
 51
168.383
  0
ARC
  5
969
100
AcDbEntity
  8
0
  6
CONTINUOUS
 62
     7
100
AcDbCircle
 10
220.38674
 20
-149.61983
 30
0.0
 40
10.0
100
AcDbArc
 50
228.38301
 51
48.383001
  0
ARC
  5
96A
100
AcDbEntity
  8
0
  6
CONTINUOUS
 62
     7
100
AcDbCircle
 10
201.69672
 20
-133.01614
 30
0.0
 40
10.5
100
AcDbArc
 50
254.46729
 51
348.383
  0
CIRCLE
  5
96B
100
AcDbEntity
  8
0
  6
CONTINUOUS
 62
     7
100
AcDbCircle
 10
201.69672
 20
-133.01614
 30
0.0
 40
3.5
  0
ARC
  5
96C
100
AcDbEntity
  8
0
  6
CONTINUOUS
 62
     7
100
AcDbCircle
 10
223.36237
 20
-160.00185
 30
0.0
 40
0.3
100
AcDbArc
 50
105.99329
 51
259.909
  0
ARC
  5
96D
100
AcDbEntity
  8
0
  6
CONTINUOUS
 62
     7
100
AcDbCircle
 10
228.85044
 20
-141.27372
 30
0.0
 40
0.3
100
AcDbArc
 50
79.908999
 51
199.909
  0
ARC
  5
96E
100
AcDbEntity
  8
0
  6
CONTINUOUS
 62
     7
100
AcDbCircle
 10
244.99997
 20
-154.00018
 30
0.0
 40
10.0
100
AcDbArc
 50
259.909
 51
79.908999
  0
ARC
  5
96F
100
AcDbEntity
  8
0
  6
CONTINUOUS
 62
     7
100
AcDbCircle
 10
220.3867
 20
-149.61988
 30
0.0
 40
10.5
100
AcDbArc
 50
285.9933
 51
19.909001
  0
CIRCLE
  5
970
100
AcDbEntity
  8
0
  6
CONTINUOUS
 62
     7
100
AcDbCircle
 10
220.3867
 20
-149.61988
 30
0.0
 40
3.5
  0
POINT
  5
971
100
AcDbEntity
  8
0
  6
CONTINUOUS
 62
     7
100
AcDbPoint
 10
270.0
 20
-209.0
 30
0.0
  0
POINT
  5
972
100
AcDbEntity
  8
0
  6
CONTINUOUS
 62
     7
100
AcDbPoint
 10
287.0
 20
-209.0
 30
0.0
  0
LINE
  5
973
100
AcDbEntity
  8
0
  6
CENTER
 62
     7
100
AcDbLine
 10
177.75227
 20
-209.0
 30
0.0
 11
287.0
 21
-209.0
 31
0.0
  0
LINE
  5
974
100
AcDbEntity
  8
0
  6
CONTINUOUS
 62
     7
100
AcDbLine
 10
274.44868
 20
-222.0
 30
0.0
 11
184.75227
 21
-222.0
 31
0.0
  0
LINE
  5
975
100
AcDbEntity
  8
0
  6
CENTER
 62
     7
100
AcDbLine
 10
270.0
 20
-189.0
 30
0.0
 11
270.0
 21
-229.0
 31
0.0
  0
LINE
  5
976
100
AcDbEntity
  8
0
  6
CONTINUOUS
 62
     7
100
AcDbLine
 10
274.44868
 20
-196.0
 30
0.0
 11
184.75227
 21
-196.0
 31
0.0
  0
LINE
  5
977
100
AcDbEntity
  8
0
  6
CENTER
 62
     7
100
AcDbLine
 10
245.0
 20
-189.0
 30
0.0
 11
245.0
 21
-229.0
 31
0.0
  0
LINE
  5
978
100
AcDbEntity
  8
0
  6
CONTINUOUS
 62
     7
100
AcDbLine
 10
274.44868
 20
-199.0
 30
0.0
 11
265.55124
 21
-199.0
 31
0.0
  0
LINE
  5
979
100
AcDbEntity
  8
0
  6
CONTINUOUS
 62
     7
100
AcDbLine
 10
274.44868
 20
-219.0
 30
0.0
 11
265.55124
 21
-219.0
 31
0.0
  0
LINE
  5
97A
100
AcDbEntity
  8
0
  6
CONTINUOUS
 62
     7
100
AcDbLine
 10
265.55124
 20
-202.0
 30
0.0
 11
260.4
 21
-202.0
 31
0.0
  0
LINE
  5
97B
100
AcDbEntity
  8
0
  6
CONTINUOUS
 62
     7
100
AcDbLine
 10
265.55124
 20
-216.0
 30
0.0
 11
260.4
 21
-216.0
 31
0.0
  0
LINE
  5
97C
100
AcDbEntity
  8
0
  6
CONTINUOUS
 62
     7
100
AcDbLine
 10
260.39992
 20
-197.5
 30
0.0
 11
254.6
 21
-197.5
 31
0.0
  0
LINE
  5
97D
100
AcDbEntity
  8
0
  6
CONTINUOUS
 62
     7
100
AcDbLine
 10
260.39992
 20
-220.5
 30
0.0
 11
254.6
 21
-220.5
 31
0.0
  0
LINE
  5
97E
100
AcDbEntity
  8
0
  6
CONTINUOUS
 62
     7
100
AcDbLine
 10
260.39992
 20
-196.9
 30
0.0
 11
254.6
 21
-196.9
 31
0.0
  0
LINE
  5
97F
100
AcDbEntity
  8
0
  6
CONTINUOUS
 62
     7
100
AcDbLine
 10
260.39992
 20
-221.1
 30
0.0
 11
254.6
 21
-221.1
 31
0.0
  0
LINE
  5
980
100
AcDbEntity
  8
0
  6
CENTER
 62
     7
100
AcDbLine
 10
262.4
 20
-199.75
 30
0.0
 11
252.6
 21
-199.75
 31
0.0
  0
LINE
  5
981
100
AcDbEntity
  8
0
  6
CONTINUOUS
 62
     7
100
AcDbLine
 10
235.86386
 20
-202.0
 30
0.0
 11
235.86386
 21
-216.0
 31
0.0
  0
LINE
  5
982
100
AcDbEntity
  8
0
  6
CONTINUOUS
 62
     7
100
AcDbLine
 10
252.5
 20
-202.0
 30
0.0
 11
252.5
 21
-216.0
 31
0.0
  0
LINE
  5
983
100
AcDbEntity
  8
0
  6
CONTINUOUS
 62
     7
100
AcDbLine
 10
249.44868
 20
-196.0
 30
0.0
 11
249.44868
 21
-199.0
 31
0.0
  0
LINE
  5
984
100
AcDbEntity
  8
0
  6
CONTINUOUS
 62
     7
100
AcDbLine
 10
262.5
 20
-202.0
 30
0.0
 11
262.5
 21
-216.0
 31
0.0
  0
LINE
  5
985
100
AcDbEntity
  8
0
  6
CENTER
 62
     7
100
AcDbLine
 10
262.4
 20
-218.25
 30
0.0
 11
252.6
 21
-218.25
 31
0.0
  0
LINE
  5
986
100
AcDbEntity
  8
0
  6
CONTINUOUS
 62
     7
100
AcDbLine
 10
249.4486
 20
-219.0
 30
0.0
 11
238.86798
 21
-219.0
 31
0.0
  0
LINE
  5
987
100
AcDbEntity
  8
0
  6
CONTINUOUS
 62
     7
100
AcDbLine
 10
254.59992
 20
-202.0
 30
0.0
 11
233.79635
 21
-202.0
 31
0.0
  0
LINE
  5
988
100
AcDbEntity
  8
0
  6
CONTINUOUS
 62
     7
100
AcDbLine
 10
254.59992
 20
-216.0
 30
0.0
 11
233.79635
 21
-216.0
 31
0.0
  0
LINE
  5
989
100
AcDbEntity
  8
0
  6
CONTINUOUS
 62
     7
100
AcDbLine
 10
265.55132
 20
-199.0
 30
0.0
 11
265.55132
 21
-202.0
 31
0.0
  0
LINE
  5
98A
100
AcDbEntity
  8
0
  6
CONTINUOUS
 62
     7
100
AcDbLine
 10
260.4
 20
-196.9
 30
0.0
 11
260.4
 21
-202.0
 31
0.0
  0
LINE
  5
98B
100
AcDbEntity
  8
0
  6
CONTINUOUS
 62
     7
100
AcDbLine
 10
249.4486
 20
-199.0
 30
0.0
 11
238.86798
 21
-199.0
 31
0.0
  0
LINE
  5
98C
100
AcDbEntity
  8
0
  6
CONTINUOUS
 62
     7
100
AcDbLine
 10
254.6
 20
-196.9
 30
0.0
 11
254.6
 21
-202.0
 31
0.0
  0
LINE
  5
98D
100
AcDbEntity
  8
0
  6
CONTINUOUS
 62
     7
100
AcDbLine
 10
238.86798
 20
-199.0
 30
0.0
 11
238.86798
 21
-202.0
 31
0.0
  0
LINE
  5
98E
100
AcDbEntity
  8
0
  6
CONTINUOUS
 62
     7
100
AcDbLine
 10
233.79635
 20
-196.9
 30
0.0
 11
233.79635
 21
-202.0
 31
0.0
  0
LINE
  5
98F
100
AcDbEntity
  8
0
  6
CONTINUOUS
 62
     7
100
AcDbLine
 10
228.08607
 20
-196.9
 30
0.0
 11
228.08607
 21
-202.0
 31
0.0
  0
LINE
  5
990
100
AcDbEntity
  8
0
  6
CONTINUOUS
 62
     7
100
AcDbLine
 10
202.2322
 20
-196.9
 30
0.0
 11
202.2322
 21
-202.0
 31
0.0
  0
LINE
  5
991
100
AcDbEntity
  8
0
  6
CONTINUOUS
 62
     7
100
AcDbLine
 10
206.56829
 20
-196.9
 30
0.0
 11
206.56829
 21
-202.0
 31
0.0
  0
LINE
  5
992
100
AcDbEntity
  8
0
  6
CONTINUOUS
 62
     7
100
AcDbLine
 10
208.13825
 20
-202.0
 30
0.0
 11
208.13825
 21
-216.0
 31
0.0
  0
LINE
  5
993
100
AcDbEntity
  8
0
  6
CONTINUOUS
 62
     7
100
AcDbLine
 10
210.41942
 20
-199.0
 30
0.0
 11
210.41942
 21
-202.0
 31
0.0
  0
LINE
  5
994
100
AcDbEntity
  8
0
  6
CONTINUOUS
 62
     7
100
AcDbLine
 10
223.01445
 20
-196.0
 30
0.0
 11
223.01445
 21
-199.0
 31
0.0
  0
LINE
  5
995
100
AcDbEntity
  8
0
  6
CONTINUOUS
 62
     7
100
AcDbLine
 10
226.01856
 20
-202.0
 30
0.0
 11
226.01856
 21
-216.0
 31
0.0
  0
LINE
  5
996
100
AcDbEntity
  8
0
  6
CONTINUOUS
 62
     7
100
AcDbLine
 10
200.66224
 20
-202.0
 30
0.0
 11
200.66224
 21
-216.0
 31
0.0
  0
LINE
  5
997
100
AcDbEntity
  8
0
  6
CONTINUOUS
 62
     7
100
AcDbLine
 10
198.38107
 20
-196.0
 30
0.0
 11
198.38107
 21
-199.0
 31
0.0
  0
LINE
  5
998
100
AcDbEntity
  8
0
  6
CONTINUOUS
 62
     7
100
AcDbLine
 10
190.85466
 20
-199.0
 30
0.0
 11
190.85466
 21
-202.0
 31
0.0
  0
LINE
  5
999
100
AcDbEntity
  8
0
  6
CONTINUOUS
 62
     7
100
AcDbLine
 10
190.00706
 20
-202.0
 30
0.0
 11
190.00706
 21
-216.0
 31
0.0
  0
LINE
  5
99A
100
AcDbEntity
  8
0
  6
CONTINUOUS
 62
     7
100
AcDbLine
 10
189.42371
 20
-196.9
 30
0.0
 11
189.42371
 21
-202.0
 31
0.0
  0
LINE
  5
99B
100
AcDbEntity
  8
0
  6
CONTINUOUS
 62
     7
100
AcDbLine
 10
187.81256
 20
-196.9
 30
0.0
 11
187.81256
 21
-202.0
 31
0.0
  0
LINE
  5
99C
100
AcDbEntity
  8
0
  6
CONTINUOUS
 62
     7
100
AcDbLine
 10
187.22922
 20
-202.0
 30
0.0
 11
187.22922
 21
-216.0
 31
0.0
  0
LINE
  5
99D
100
AcDbEntity
  8
0
  6
CONTINUOUS
 62
     7
100
AcDbLine
 10
184.75227
 20
-196.0
 30
0.0
 11
184.75227
 21
-202.0
 31
0.0
  0
LINE
  5
99E
100
AcDbEntity
  8
0
  6
CONTINUOUS
 62
     7
100
AcDbLine
 10
228.08607
 20
-216.0
 30
0.0
 11
228.08607
 21
-221.1
 31
0.0
  0
LINE
  5
99F
100
AcDbEntity
  8
0
  6
CENTER
 62
     7
100
AcDbLine
 10
220.3867
 20
-189.0
 30
0.0
 11
220.3867
 21
-229.0
 31
0.0
  0
LINE
  5
9A0
100
AcDbEntity
  8
0
  6
CONTINUOUS
 62
     7
100
AcDbLine
 10
223.01445
 20
-219.0
 30
0.0
 11
223.01445
 21
-222.0
 31
0.0
  0
LINE
  5
9A1
100
AcDbEntity
  8
0
  6
CENTER
 62
     7
100
AcDbLine
 10
201.69672
 20
-189.0
 30
0.0
 11
201.69672
 21
-229.0
 31
0.0
  0
LINE
  5
9A2
100
AcDbEntity
  8
0
  6
CONTINUOUS
 62
     7
100
AcDbLine
 10
233.79635
 20
-216.0
 30
0.0
 11
233.79635
 21
-221.1
 31
0.0
  0
LINE
  5
9A3
100
AcDbEntity
  8
0
  6
CENTER
 62
     7
100
AcDbLine
 10
194.75227
 20
-189.0
 30
0.0
 11
194.75227
 21
-229.0
 31
0.0
  0
LINE
  5
9A4
100
AcDbEntity
  8
0
  6
CONTINUOUS
 62
     7
100
AcDbLine
 10
238.86798
 20
-216.0
 30
0.0
 11
238.86798
 21
-219.0
 31
0.0
  0
LINE
  5
9A5
100
AcDbEntity
  8
0
  6
CONTINUOUS
 62
     7
100
AcDbLine
 10
210.41942
 20
-216.0
 30
0.0
 11
210.41942
 21
-219.0
 31
0.0
  0
LINE
  5
9A6
100
AcDbEntity
  8
0
  6
CONTINUOUS
 62
     7
100
AcDbLine
 10
206.56829
 20
-216.0
 30
0.0
 11
206.56829
 21
-221.1
 31
0.0
  0
LINE
  5
9A7
100
AcDbEntity
  8
0
  6
CONTINUOUS
 62
     7
100
AcDbLine
 10
202.2322
 20
-216.0
 30
0.0
 11
202.2322
 21
-221.1
 31
0.0
  0
LINE
  5
9A8
100
AcDbEntity
  8
0
  6
CONTINUOUS
 62
     7
100
AcDbLine
 10
198.38107
 20
-219.0
 30
0.0
 11
198.38107
 21
-222.0
 31
0.0
  0
LINE
  5
9A9
100
AcDbEntity
  8
0
  6
CONTINUOUS
 62
     7
100
AcDbLine
 10
190.85466
 20
-216.0
 30
0.0
 11
190.85466
 21
-219.0
 31
0.0
  0
LINE
  5
9AA
100
AcDbEntity
  8
0
  6
CONTINUOUS
 62
     7
100
AcDbLine
 10
189.42371
 20
-216.0
 30
0.0
 11
189.42371
 21
-221.1
 31
0.0
  0
LINE
  5
9AB
100
AcDbEntity
  8
0
  6
CONTINUOUS
 62
     7
100
AcDbLine
 10
187.81256
 20
-216.0
 30
0.0
 11
187.81256
 21
-221.1
 31
0.0
  0
LINE
  5
9AC
100
AcDbEntity
  8
0
  6
CONTINUOUS
 62
     7
100
AcDbLine
 10
184.75227
 20
-216.0
 30
0.0
 11
184.75227
 21
-222.0
 31
0.0
  0
LINE
  5
9AD
100
AcDbEntity
  8
0
  6
CONTINUOUS
 62
     7
100
AcDbLine
 10
186.38161
 20
-196.0
 30
0.0
 11
186.38161
 21
-199.0
 31
0.0
  0
LINE
  5
9AE
100
AcDbEntity
  8
0
  6
CONTINUOUS
 62
     7
100
AcDbLine
 10
186.38161
 20
-219.0
 30
0.0
 11
186.38161
 21
-222.0
 31
0.0
  0
LINE
  5
9AF
100
AcDbEntity
  8
0
  6
CONTINUOUS
 62
     7
100
AcDbLine
 10
265.55132
 20
-216.0
 30
0.0
 11
265.55132
 21
-219.0
 31
0.0
  0
LINE
  5
9B0
100
AcDbEntity
  8
0
  6
CONTINUOUS
 62
     7
100
AcDbLine
 10
260.4
 20
-216.0
 30
0.0
 11
260.4
 21
-221.1
 31
0.0
  0
LINE
  5
9B1
100
AcDbEntity
  8
0
  6
CONTINUOUS
 62
     7
100
AcDbLine
 10
254.6
 20
-216.0
 30
0.0
 11
254.6
 21
-221.1
 31
0.0
  0
LINE
  5
9B2
100
AcDbEntity
  8
0
  6
CONTINUOUS
 62
     7
100
AcDbLine
 10
249.44868
 20
-219.0
 30
0.0
 11
249.44868
 21
-222.0
 31
0.0
  0
LINE
  5
9B3
100
AcDbEntity
  8
0
  6
CONTINUOUS
 62
     7
100
AcDbLine
 10
223.01445
 20
-199.0
 30
0.0
 11
210.41942
 21
-199.0
 31
0.0
  0
LINE
  5
9B4
100
AcDbEntity
  8
0
  6
CONTINUOUS
 62
     7
100
AcDbLine
 10
233.79635
 20
-197.5
 30
0.0
 11
228.08607
 21
-197.5
 31
0.0
  0
LINE
  5
9B5
100
AcDbEntity
  8
0
  6
CONTINUOUS
 62
     7
100
AcDbLine
 10
233.79635
 20
-196.9
 30
0.0
 11
228.08607
 21
-196.9
 31
0.0
  0
LINE
  5
9B6
100
AcDbEntity
  8
0
  6
CONTINUOUS
 62
     7
100
AcDbLine
 10
228.08607
 20
-202.0
 30
0.0
 11
206.56829
 21
-202.0
 31
0.0
  0
LINE
  5
9B7
100
AcDbEntity
  8
0
  6
CONTINUOUS
 62
     7
100
AcDbLine
 10
228.08607
 20
-216.0
 30
0.0
 11
206.56829
 21
-216.0
 31
0.0
  0
LINE
  5
9B8
100
AcDbEntity
  8
0
  6
CONTINUOUS
 62
     7
100
AcDbLine
 10
223.01445
 20
-219.0
 30
0.0
 11
210.41942
 21
-219.0
 31
0.0
  0
LINE
  5
9B9
100
AcDbEntity
  8
0
  6
CONTINUOUS
 62
     7
100
AcDbLine
 10
233.79635
 20
-220.5
 30
0.0
 11
228.08607
 21
-220.5
 31
0.0
  0
LINE
  5
9BA
100
AcDbEntity
  8
0
  6
CONTINUOUS
 62
     7
100
AcDbLine
 10
233.79635
 20
-221.1
 30
0.0
 11
228.08607
 21
-221.1
 31
0.0
  0
LINE
  5
9BB
100
AcDbEntity
  8
0
  6
CONTINUOUS
 62
     7
100
AcDbLine
 10
202.2322
 20
-202.0
 30
0.0
 11
189.42371
 21
-202.0
 31
0.0
  0
LINE
  5
9BC
100
AcDbEntity
  8
0
  6
CONTINUOUS
 62
     7
100
AcDbLine
 10
198.38107
 20
-199.0
 30
0.0
 11
190.85466
 21
-199.0
 31
0.0
  0
LINE
  5
9BD
100
AcDbEntity
  8
0
  6
CONTINUOUS
 62
     7
100
AcDbLine
 10
187.81256
 20
-202.0
 30
0.0
 11
184.75227
 21
-202.0
 31
0.0
  0
LINE
  5
9BE
100
AcDbEntity
  8
0
  6
CONTINUOUS
 62
     7
100
AcDbLine
 10
186.38161
 20
-199.0
 30
0.0
 11
184.75227
 21
-199.0
 31
0.0
  0
LINE
  5
9BF
100
AcDbEntity
  8
0
  6
CONTINUOUS
 62
     7
100
AcDbLine
 10
187.81256
 20
-216.0
 30
0.0
 11
184.75227
 21
-216.0
 31
0.0
  0
LINE
  5
9C0
100
AcDbEntity
  8
0
  6
CONTINUOUS
 62
     7
100
AcDbLine
 10
186.38161
 20
-219.0
 30
0.0
 11
184.75227
 21
-219.0
 31
0.0
  0
LINE
  5
9C1
100
AcDbEntity
  8
0
  6
CONTINUOUS
 62
     7
100
AcDbLine
 10
202.2322
 20
-216.0
 30
0.0
 11
189.42371
 21
-216.0
 31
0.0
  0
LINE
  5
9C2
100
AcDbEntity
  8
0
  6
CONTINUOUS
 62
     7
100
AcDbLine
 10
198.38107
 20
-219.0
 30
0.0
 11
190.85466
 21
-219.0
 31
0.0
  0
LINE
  5
9C3
100
AcDbEntity
  8
0
  6
CONTINUOUS
 62
     7
100
AcDbLine
 10
189.42371
 20
-220.5
 30
0.0
 11
187.81256
 21
-220.5
 31
0.0
  0
LINE
  5
9C4
100
AcDbEntity
  8
0
  6
CONTINUOUS
 62
     7
100
AcDbLine
 10
189.42371
 20
-221.1
 30
0.0
 11
187.81256
 21
-221.1
 31
0.0
  0
LINE
  5
9C5
100
AcDbEntity
  8
0
  6
CONTINUOUS
 62
     7
100
AcDbLine
 10
206.56829
 20
-220.5
 30
0.0
 11
202.2322
 21
-220.5
 31
0.0
  0
LINE
  5
9C6
100
AcDbEntity
  8
0
  6
CONTINUOUS
 62
     7
100
AcDbLine
 10
206.56829
 20
-221.1
 30
0.0
 11
202.2322
 21
-221.1
 31
0.0
  0
LINE
  5
9C7
100
AcDbEntity
  8
0
  6
CONTINUOUS
 62
     7
100
AcDbLine
 10
206.56829
 20
-197.5
 30
0.0
 11
202.2322
 21
-197.5
 31
0.0
  0
LINE
  5
9C8
100
AcDbEntity
  8
0
  6
CONTINUOUS
 62
     7
100
AcDbLine
 10
206.56829
 20
-196.9
 30
0.0
 11
202.2322
 21
-196.9
 31
0.0
  0
LINE
  5
9C9
100
AcDbEntity
  8
0
  6
CONTINUOUS
 62
     7
100
AcDbLine
 10
189.42371
 20
-196.9
 30
0.0
 11
187.81256
 21
-196.9
 31
0.0
  0
LINE
  5
9CA
100
AcDbEntity
  8
0
  6
CONTINUOUS
 62
     7
100
AcDbLine
 10
189.42371
 20
-197.5
 30
0.0
 11
187.81256
 21
-197.5
 31
0.0
  0
LINE
  5
9CB
100
AcDbEntity
  8
0
  6
CONTINUOUS
 62
     7
100
AcDbLine
 10
252.0
 20
-202.0
 30
0.0
 11
252.0
 21
-216.0
 31
0.0
  0
LINE
  5
9CC
100
AcDbEntity
  8
0
  6
CONTINUOUS
 62
     7
100
AcDbLine
 10
263.0
 20
-202.0
 30
0.0
 11
263.0
 21
-216.0
 31
0.0
  0
POINT
  5
9CD
100
AcDbEntity
  8
0
  6
CONTINUOUS
 62
     7
100
AcDbPoint
 10
-305.0
 20
-309.0
 30
0.0
  0
POINT
  5
9CE
100
AcDbEntity
  8
0
  6
CONTINUOUS
 62
     7
100
AcDbPoint
 10
-298.0
 20
-309.0
 30
0.0
  0
LINE
  5
9CF
100
AcDbEntity
  8
0
  6
CONTINUOUS
 62
     7
100
AcDbLine
 10
-295.0
 20
-296.0
 30
0.0
 11
-315.0
 21
-296.0
 31
0.0
  0
LINE
  5
9D0
100
AcDbEntity
  8
0
  6
CONTINUOUS
 62
     4
100
AcDbLine
 10
-295.3
 20
-302.0
 30
0.0
 11
-295.3
 21
-316.0
 31
0.0
  0
LINE
  5
9D1
100
AcDbEntity
  8
0
  6
CENTER
 62
     7
100
AcDbLine
 10
-297.5
 20
-322.8
 30
0.0
 11
-297.5
 21
-314.8
 31
0.0
  0
LINE
  5
9D2
100
AcDbEntity
  8
0
  6
CENTER
 62
     7
100
AcDbLine
 10
-288.0
 20
-309.0
 30
0.0
 11
-322.0
 21
-309.0
 31
0.0
  0
LINE
  5
9D3
100
AcDbEntity
  8
0
  6
CONTINUOUS
 62
     7
100
AcDbLine
 10
-312.0
 20
-302.0
 30
0.0
 11
-312.0
 21
-316.0
 31
0.0
  0
LINE
  5
9D4
100
AcDbEntity
  8
0
  6
CENTER
 62
     7
100
AcDbLine
 10
-297.5
 20
-295.2
 30
0.0
 11
-297.5
 21
-303.2
 31
0.0
  0
LINE
  5
9D5
100
AcDbEntity
  8
0
  6
CONTINUOUS
 62
     7
100
AcDbLine
 10
-315.0
 20
-296.0
 30
0.0
 11
-315.0
 21
-322.0
 31
0.0
  0
LINE
  5
9D6
100
AcDbEntity
  8
0
  6
CONTINUOUS
 62
     7
100
AcDbLine
 10
-295.0
 20
-302.0
 30
0.0
 11
-315.0
 21
-302.0
 31
0.0
  0
LINE
  5
9D7
100
AcDbEntity
  8
0
  6
CONTINUOUS
 62
     7
100
AcDbLine
 10
-295.0
 20
-316.0
 30
0.0
 11
-315.0
 21
-316.0
 31
0.0
  0
LINE
  5
9D8
100
AcDbEntity
  8
0
  6
CENTER
 62
     7
100
AcDbLine
 10
-293.5
 20
-318.8
 30
0.0
 11
-301.5
 21
-318.8
 31
0.0
  0
LINE
  5
9D9
100
AcDbEntity
  8
0
  6
CENTER
 62
     7
100
AcDbLine
 10
-293.5
 20
-299.2
 30
0.0
 11
-301.5
 21
-299.2
 31
0.0
  0
LINE
  5
9DA
100
AcDbEntity
  8
0
  6
CENTER
 62
     7
100
AcDbLine
 10
-305.0
 20
-289.0
 30
0.0
 11
-305.0
 21
-329.0
 31
0.0
  0
LINE
  5
9DB
100
AcDbEntity
  8
0
  6
CONTINUOUS
 62
     7
100
AcDbLine
 10
-295.0
 20
-322.0
 30
0.0
 11
-315.0
 21
-322.0
 31
0.0
  0
LINE
  5
9DC
100
AcDbEntity
  8
0
  6
DASHED
 62
     4
100
AcDbLine
 10
-277.9
 20
-296.99098
 30
0.0
 11
-297.5
 21
-296.99098
 31
0.0
  0
LINE
  5
9DD
100
AcDbEntity
  8
0
  6
CONTINUOUS
 62
     7
100
AcDbLine
 10
-295.0
 20
-296.0
 30
0.0
 11
-295.0
 21
-302.0
 31
0.0
  0
LINE
  5
9DE
100
AcDbEntity
  8
0
  6
CONTINUOUS
 62
     7
100
AcDbLine
 10
-295.0
 20
-316.0
 30
0.0
 11
-295.0
 21
-322.0
 31
0.0
  0
LINE
  5
9DF
100
AcDbEntity
  8
0
  6
CENTER
 62
     7
100
AcDbLine
 10
-277.9
 20
-295.2
 30
0.0
 11
-277.9
 21
-303.2
 31
0.0
  0
LINE
  5
9E0
100
AcDbEntity
  8
0
  6
CONTINUOUS
 62
     4
100
AcDbLine
 10
-298.0
 20
-302.0
 30
0.0
 11
-298.0
 21
-316.0
 31
0.0
  0
LINE
  5
9E1
100
AcDbEntity
  8
0
  6
CONTINUOUS
 62
     4
100
AcDbLine
 10
-297.3
 20
-302.0
 30
0.0
 11
-297.3
 21
-316.0
 31
0.0
  0
LINE
  5
9E2
100
AcDbEntity
  8
0
  6
DASHED
 62
     4
100
AcDbLine
 10
-296.64999
 20
-299.19098
 30
0.0
 11
-296.14899
 21
-299.68897
 31
0.0
  0
LINE
  5
9E3
100
AcDbEntity
  8
0
  6
DASHED
 62
     4
100
AcDbLine
 10
-294.7
 20
-296.99098
 30
0.0
 11
-294.7
 21
-297.26299
 31
0.0
  0
LINE
  5
9E4
100
AcDbEntity
  8
0
  6
DASHED
 62
     4
100
AcDbLine
 10
-299.2
 20
-297.795
 30
0.0
 11
-299.2
 21
-300.79097
 31
0.0
  0
LINE
  5
9E5
100
AcDbEntity
  8
0
  6
DASHED
 62
     4
100
AcDbLine
 10
-294.7
 20
-299.489
 30
0.0
 11
-294.7
 21
-299.68898
 31
0.0
  0
LINE
  5
9E6
100
AcDbEntity
  8
0
  6
DASHED
 62
     4
100
AcDbLine
 10
-297.763
 20
-299.99999
 30
0.0
 11
-297.888
 21
-301.39299
 31
0.0
  0
LINE
  5
9E7
100
AcDbEntity
  8
0
  6
DASHED
 62
     4
100
AcDbLine
 10
-297.88499
 20
-301.39098
 30
0.0
 11
-298.60001
 21
-301.39098
 31
0.0
  0
LINE
  5
9E8
100
AcDbEntity
  8
0
  6
DASHED
 62
     4
100
AcDbLine
 10
-281.29399
 20
-298.989
 30
0.0
 11
-294.2
 21
-298.989
 31
0.0
  0
LINE
  5
9E9
100
AcDbEntity
  8
0
  6
CENTER
 62
     7
100
AcDbLine
 10
-273.9
 20
-299.191
 30
0.0
 11
-281.9
 21
-299.191
 31
0.0
  0
LINE
  5
9EA
100
AcDbEntity
  8
0
  6
DASHED
 62
     4
100
AcDbLine
 10
-278.75002
 20
-299.191
 30
0.0
 11
-279.25101
 21
-299.68899
 31
0.0
  0
LINE
  5
9EB
100
AcDbEntity
  8
0
  6
DASHED
 62
     4
100
AcDbLine
 10
-280.7
 20
-296.99098
 30
0.0
 11
-280.7
 21
-297.26299
 31
0.0
  0
LINE
  5
9EC
100
AcDbEntity
  8
0
  6
DASHED
 62
     4
100
AcDbLine
 10
-276.2
 20
-297.795
 30
0.0
 11
-276.2
 21
-300.79097
 31
0.0
  0
LINE
  5
9ED
100
AcDbEntity
  8
0
  6
DASHED
 62
     4
100
AcDbLine
 10
-280.7
 20
-299.489
 30
0.0
 11
-280.7
 21
-299.68898
 31
0.0
  0
LINE
  5
9EE
100
AcDbEntity
  8
0
  6
DASHED
 62
     4
100
AcDbLine
 10
-277.637
 20
-299.99997
 30
0.0
 11
-277.512
 21
-301.393
 31
0.0
  0
LINE
  5
9EF
100
AcDbEntity
  8
0
  6
DASHED
 62
     4
100
AcDbLine
 10
-277.51501
 20
-301.39098
 30
0.0
 11
-276.80001
 21
-301.39098
 31
0.0
  0
LINE
  5
9F0
100
AcDbEntity
  8
0
  6
CONTINUOUS
 62
     7
100
AcDbLine
 10
-295.0
 20
-299.0
 30
0.0
 11
-315.0
 21
-299.0
 31
0.0
  0
LINE
  5
9F1
100
AcDbEntity
  8
0
  6
CONTINUOUS
 62
     7
100
AcDbLine
 10
-295.0
 20
-319.0
 30
0.0
 11
-315.0
 21
-319.0
 31
0.0
  0
LINE
  5
9F2
100
AcDbEntity
  8
0
  6
DASHED
 62
     4
100
AcDbLine
 10
-279.25101
 20
-299.68898
 30
0.0
 11
-296.14898
 21
-299.68898
 31
0.0
  0
ARC
  5
9F3
100
AcDbEntity
  8
0
  6
PHANTOM
 62
     5
100
AcDbCircle
 10
-297.498
 20
-299.18199
 30
0.0
 40
2.2
100
AcDbArc
 50
346.6253
 51
346.689
  0
ARC
  5
9F4
100
AcDbEntity
  8
0
  6
DASHED
 62
     4
100
AcDbCircle
 10
-297.5
 20
-299.191
 30
0.0
 40
2.2
100
AcDbArc
 50
89.998992
 51
140.59801
  0
ARC
  5
9F5
100
AcDbEntity
  8
0
  6
DASHED
 62
     4
100
AcDbCircle
 10
-297.5
 20
-299.191
 30
0.0
 40
3.4
100
AcDbArc
 50
3.412597
 51
34.560002
  0
ARC
  5
9F6
100
AcDbEntity
  8
0
  6
DASHED
 62
     4
100
AcDbCircle
 10
-298.60001
 20
-300.79097
 30
0.0
 40
0.6
100
AcDbArc
 50
179.99899
 51
270.00057
  0
ARC
  5
9F7
100
AcDbEntity
  8
0
  6
DASHED
 62
     4
100
AcDbCircle
 10
-294.2
 20
-299.489
 30
0.0
 40
0.5
100
AcDbArc
 50
90.000003
 51
180.00001
  0
ARC
  5
9F8
100
AcDbEntity
  8
0
  6
DASHED
 62
     4
100
AcDbCircle
 10
-297.5
 20
-299.191
 30
0.0
 40
0.85
100
AcDbArc
 50
0.000897
 51
251.99898
  0
ARC
  5
9F9
100
AcDbEntity
  8
0
  6
CONTINUOUS
 62
     7
100
AcDbCircle
 10
-297.47501
 20
-299.19698
 30
0.0
 40
2.2
100
AcDbArc
 50
256.193
 51
256.256
  0
ARC
  5
9FA
100
AcDbEntity
  8
0
  6
PHANTOM
 62
     5
100
AcDbCircle
 10
-277.89901
 20
-299.19499
 30
0.0
 40
2.2
100
AcDbArc
 50
192.962
 51
193.026
  0
ARC
  5
9FB
100
AcDbEntity
  8
0
  6
DASHED
 62
     4
100
AcDbCircle
 10
-277.9
 20
-299.191
 30
0.0
 40
2.2
100
AcDbArc
 50
39.400995
 51
90.000003
  0
ARC
  5
9FC
100
AcDbEntity
  8
0
  6
DASHED
 62
     4
100
AcDbCircle
 10
-277.9
 20
-299.191
 30
0.0
 40
3.4
100
AcDbArc
 50
145.439
 51
176.587
  0
ARC
  5
9FD
100
AcDbEntity
  8
0
  6
DASHED
 62
     4
100
AcDbCircle
 10
-276.80001
 20
-300.79097
 30
0.0
 40
0.6
100
AcDbArc
 50
270.00087
 51
0.000501
  0
ARC
  5
9FE
100
AcDbEntity
  8
0
  6
DASHED
 62
     4
100
AcDbCircle
 10
-281.2
 20
-299.489
 30
0.0
 40
0.5
100
AcDbArc
 50
0.000003
 51
90.000003
  0
ARC
  5
9FF
100
AcDbEntity
  8
0
  6
DASHED
 62
     4
100
AcDbCircle
 10
-277.9
 20
-299.191
 30
0.0
 40
0.85
100
AcDbArc
 50
287.9993
 51
179.99899
  0
POINT
  5
A00
100
AcDbEntity
  8
0
  6
CONTINUOUS
 62
     7
100
AcDbPoint
 10
-205.0
 20
-309.0
 30
0.0
  0
POINT
  5
A01
100
AcDbEntity
  8
0
  6
CONTINUOUS
 62
     7
100
AcDbPoint
 10
-188.0
 20
-309.0
 30
0.0
  0
LINE
  5
A02
100
AcDbEntity
  8
0
  6
CONTINUOUS
 62
     7
100
AcDbLine
 10
-212.0
 20
-302.0
 30
0.0
 11
-212.0
 21
-316.0
 31
0.0
  0
LINE
  5
A03
100
AcDbEntity
  8
0
  6
CONTINUOUS
 62
     7
100
AcDbLine
 10
-223.0
 20
-302.0
 30
0.0
 11
-223.0
 21
-316.0
 31
0.0
  0
LINE
  5
A04
100
AcDbEntity
  8
0
  6
CONTINUOUS
 62
     7
100
AcDbLine
 10
-240.0
 20
-322.0
 30
0.0
 11
-209.44868
 21
-322.0
 31
0.0
  0
LINE
  5
A05
100
AcDbEntity
  8
0
  6
CENTER
 62
     7
100
AcDbLine
 10
-247.0
 20
-309.0
 30
0.0
 11
-188.0
 21
-309.0
 31
0.0
  0
LINE
  5
A06
100
AcDbEntity
  8
0
  6
CENTER
 62
     7
100
AcDbLine
 10
-230.0
 20
-289.0
 30
0.0
 11
-230.0
 21
-329.0
 31
0.0
  0
LINE
  5
A07
100
AcDbEntity
  8
0
  6
CONTINUOUS
 62
     7
100
AcDbLine
 10
-240.0
 20
-296.0
 30
0.0
 11
-209.44868
 21
-296.0
 31
0.0
  0
LINE
  5
A08
100
AcDbEntity
  8
0
  6
CENTER
 62
     7
100
AcDbLine
 10
-205.0
 20
-289.0
 30
0.0
 11
-205.0
 21
-329.0
 31
0.0
  0
LINE
  5
A09
100
AcDbEntity
  8
0
  6
CONTINUOUS
 62
     7
100
AcDbLine
 10
-240.0
 20
-299.0
 30
0.0
 11
-225.55132
 21
-299.0
 31
0.0
  0
LINE
  5
A0A
100
AcDbEntity
  8
0
  6
CONTINUOUS
 62
     7
100
AcDbLine
 10
-240.0
 20
-319.0
 30
0.0
 11
-225.55132
 21
-319.0
 31
0.0
  0
LINE
  5
A0B
100
AcDbEntity
  8
0
  6
CONTINUOUS
 62
     7
100
AcDbLine
 10
-225.55132
 20
-302.0
 30
0.0
 11
-220.4
 21
-302.0
 31
0.0
  0
LINE
  5
A0C
100
AcDbEntity
  8
0
  6
CONTINUOUS
 62
     7
100
AcDbLine
 10
-225.55132
 20
-316.0
 30
0.0
 11
-220.4
 21
-316.0
 31
0.0
  0
LINE
  5
A0D
100
AcDbEntity
  8
0
  6
CONTINUOUS
 62
     4
100
AcDbLine
 10
-220.4
 20
-297.5
 30
0.0
 11
-214.6
 21
-297.5
 31
0.0
  0
LINE
  5
A0E
100
AcDbEntity
  8
0
  6
CONTINUOUS
 62
     4
100
AcDbLine
 10
-220.4
 20
-320.5
 30
0.0
 11
-214.6
 21
-320.5
 31
0.0
  0
LINE
  5
A0F
100
AcDbEntity
  8
0
  6
CONTINUOUS
 62
     7
100
AcDbLine
 10
-220.4
 20
-296.9
 30
0.0
 11
-214.6
 21
-296.9
 31
0.0
  0
LINE
  5
A10
100
AcDbEntity
  8
0
  6
CONTINUOUS
 62
     7
100
AcDbLine
 10
-220.4
 20
-321.1
 30
0.0
 11
-214.6
 21
-321.1
 31
0.0
  0
LINE
  5
A11
100
AcDbEntity
  8
0
  6
CENTER
 62
     7
100
AcDbLine
 10
-222.4
 20
-299.75
 30
0.0
 11
-212.6
 21
-299.75
 31
0.0
  0
LINE
  5
A12
100
AcDbEntity
  8
0
  6
CONTINUOUS
 62
     7
100
AcDbLine
 10
-214.6
 20
-296.9
 30
0.0
 11
-214.6
 21
-302.0
 31
0.0
  0
LINE
  5
A13
100
AcDbEntity
  8
0
  6
CONTINUOUS
 62
     7
100
AcDbLine
 10
-220.4
 20
-296.9
 30
0.0
 11
-220.4
 21
-302.0
 31
0.0
  0
LINE
  5
A14
100
AcDbEntity
  8
0
  6
CONTINUOUS
 62
     7
100
AcDbLine
 10
-220.4
 20
-316.0
 30
0.0
 11
-220.4
 21
-321.1
 31
0.0
  0
LINE
  5
A15
100
AcDbEntity
  8
0
  6
CONTINUOUS
 62
     7
100
AcDbLine
 10
-214.6
 20
-316.0
 30
0.0
 11
-214.6
 21
-321.1
 31
0.0
  0
LINE
  5
A16
100
AcDbEntity
  8
0
  6
CENTER
 62
     7
100
AcDbLine
 10
-222.4
 20
-318.25
 30
0.0
 11
-212.6
 21
-318.25
 31
0.0
  0
LINE
  5
A17
100
AcDbEntity
  8
0
  6
CONTINUOUS
 62
     7
100
AcDbLine
 10
-209.44868
 20
-319.0
 30
0.0
 11
-195.0
 21
-319.0
 31
0.0
  0
LINE
  5
A18
100
AcDbEntity
  8
0
  6
CONTINUOUS
 62
     7
100
AcDbLine
 10
-214.6
 20
-302.0
 30
0.0
 11
-195.0
 21
-302.0
 31
0.0
  0
LINE
  5
A19
100
AcDbEntity
  8
0
  6
CONTINUOUS
 62
     7
100
AcDbLine
 10
-214.6
 20
-316.0
 30
0.0
 11
-195.0
 21
-316.0
 31
0.0
  0
LINE
  5
A1A
100
AcDbEntity
  8
0
  6
CONTINUOUS
 62
     4
100
AcDbLine
 10
-222.5
 20
-302.0
 30
0.0
 11
-222.5
 21
-316.0
 31
0.0
  0
LINE
  5
A1B
100
AcDbEntity
  8
0
  6
CONTINUOUS
 62
     4
100
AcDbLine
 10
-212.5
 20
-302.0
 30
0.0
 11
-212.5
 21
-316.0
 31
0.0
  0
LINE
  5
A1C
100
AcDbEntity
  8
0
  6
CONTINUOUS
 62
     7
100
AcDbLine
 10
-209.44868
 20
-319.0
 30
0.0
 11
-209.44868
 21
-322.0
 31
0.0
  0
LINE
  5
A1D
100
AcDbEntity
  8
0
  6
CONTINUOUS
 62
     7
100
AcDbLine
 10
-209.44868
 20
-299.0
 30
0.0
 11
-195.0
 21
-299.0
 31
0.0
  0
LINE
  5
A1E
100
AcDbEntity
  8
0
  6
CONTINUOUS
 62
     7
100
AcDbLine
 10
-195.0
 20
-299.0
 30
0.0
 11
-195.0
 21
-302.0
 31
0.0
  0
LINE
  5
A1F
100
AcDbEntity
  8
0
  6
CONTINUOUS
 62
     7
100
AcDbLine
 10
-240.0
 20
-296.0
 30
0.0
 11
-240.0
 21
-299.0
 31
0.0
  0
LINE
  5
A20
100
AcDbEntity
  8
0
  6
CONTINUOUS
 62
     7
100
AcDbLine
 10
-240.0
 20
-319.0
 30
0.0
 11
-240.0
 21
-322.0
 31
0.0
  0
LINE
  5
A21
100
AcDbEntity
  8
0
  6
CONTINUOUS
 62
     7
100
AcDbLine
 10
-195.0
 20
-316.0
 30
0.0
 11
-195.0
 21
-319.0
 31
0.0
  0
LINE
  5
A22
100
AcDbEntity
  8
0
  6
CONTINUOUS
 62
     7
100
AcDbLine
 10
-201.5
 20
-297.52043
 30
0.0
 11
-201.5
 21
-299.0
 31
0.0
  0
LINE
  5
A23
100
AcDbEntity
  8
0
  6
CONTINUOUS
 62
     7
100
AcDbLine
 10
-208.5
 20
-296.2
 30
0.0
 11
-208.5
 21
-299.0
 31
0.0
  0
LINE
  5
A24
100
AcDbEntity
  8
0
  6
CONTINUOUS
 62
     7
100
AcDbLine
 10
-209.44868
 20
-296.0
 30
0.0
 11
-209.44868
 21
-299.0
 31
0.0
  0
LINE
  5
A25
100
AcDbEntity
  8
0
  6
CONTINUOUS
 62
     7
100
AcDbLine
 10
-225.55132
 20
-299.0
 30
0.0
 11
-225.55132
 21
-302.0
 31
0.0
  0
LINE
  5
A26
100
AcDbEntity
  8
0
  6
CONTINUOUS
 62
     7
100
AcDbLine
 10
-225.55132
 20
-316.0
 30
0.0
 11
-225.55132
 21
-319.0
 31
0.0
  0
LINE
  5
A27
100
AcDbEntity
  8
0
  6
CONTINUOUS
 62
     7
100
AcDbLine
 10
-207.0
 20
-296.2
 30
0.0
 11
-201.5
 21
-297.52043
 31
0.0
  0
LINE
  5
A28
100
AcDbEntity
  8
0
  6
CONTINUOUS
 62
     7
100
AcDbLine
 10
-208.5
 20
-321.8
 30
0.0
 11
-207.0
 21
-321.8
 31
0.0
  0
LINE
  5
A29
100
AcDbEntity
  8
0
  6
CONTINUOUS
 62
     7
100
AcDbLine
 10
-207.0
 20
-321.8
 30
0.0
 11
-201.5
 21
-320.47957
 31
0.0
  0
LINE
  5
A2A
100
AcDbEntity
  8
0
  6
CONTINUOUS
 62
     7
100
AcDbLine
 10
-208.5
 20
-321.8
 30
0.0
 11
-208.5
 21
-319.0
 31
0.0
  0
LINE
  5
A2B
100
AcDbEntity
  8
0
  6
CONTINUOUS
 62
     7
100
AcDbLine
 10
-201.5
 20
-320.47957
 30
0.0
 11
-201.5
 21
-319.0
 31
0.0
  0
LINE
  5
A2C
100
AcDbEntity
  8
0
  6
CONTINUOUS
 62
     7
100
AcDbLine
 10
-208.5
 20
-296.2
 30
0.0
 11
-207.0
 21
-296.2
 31
0.0
  0
LINE
  5
A2D
100
AcDbEntity
  8
0
  6
CONTINUOUS
 62
     4
100
AcDbLine
 10
-222.5
 20
-316.0
 30
0.0
 11
-220.4
 21
-316.0
 31
0.0
  0
LINE
  5
A2E
100
AcDbEntity
  8
0
  6
CONTINUOUS
 62
     4
100
AcDbLine
 10
-222.5
 20
-302.0
 30
0.0
 11
-220.4
 21
-302.0
 31
0.0
  0
LINE
  5
A2F
100
AcDbEntity
  8
0
  6
CONTINUOUS
 62
     4
100
AcDbLine
 10
-220.4
 20
-297.5
 30
0.0
 11
-220.4
 21
-302.0
 31
0.0
  0
LINE
  5
A30
100
AcDbEntity
  8
0
  6
CONTINUOUS
 62
     4
100
AcDbLine
 10
-214.6
 20
-297.5
 30
0.0
 11
-214.6
 21
-302.0
 31
0.0
  0
LINE
  5
A31
100
AcDbEntity
  8
0
  6
CONTINUOUS
 62
     4
100
AcDbLine
 10
-220.4
 20
-316.0
 30
0.0
 11
-220.4
 21
-320.5
 31
0.0
  0
LINE
  5
A32
100
AcDbEntity
  8
0
  6
CONTINUOUS
 62
     4
100
AcDbLine
 10
-214.6
 20
-316.0
 30
0.0
 11
-214.6
 21
-320.5
 31
0.0
  0
LINE
  5
A33
100
AcDbEntity
  8
0
  6
CONTINUOUS
 62
     4
100
AcDbLine
 10
-214.6
 20
-302.0
 30
0.0
 11
-212.5
 21
-302.0
 31
0.0
  0
LINE
  5
A34
100
AcDbEntity
  8
0
  6
CONTINUOUS
 62
     4
100
AcDbLine
 10
-214.6
 20
-316.0
 30
0.0
 11
-212.5
 21
-316.0
 31
0.0
  0
POINT
  5
A35
100
AcDbEntity
  8
0
  6
CONTINUOUS
 62
     7
100
AcDbPoint
 10
-205.0
 20
-359.0
 30
0.0
  0
POINT
  5
A36
100
AcDbEntity
  8
0
  6
CONTINUOUS
 62
     7
100
AcDbPoint
 10
-192.46
 20
-359.0
 30
0.0
  0
LINE
  5
A37
100
AcDbEntity
  8
0
  6
CONTINUOUS
 62
     7
100
AcDbLine
 10
-230.0
 20
-349.0
 30
0.0
 11
-205.0
 21
-349.0
 31
0.0
  0
LINE
  5
A38
100
AcDbEntity
  8
0
  6
CONTINUOUS
 62
     7
100
AcDbLine
 10
-230.0
 20
-369.0
 30
0.0
 11
-205.0
 21
-369.0
 31
0.0
  0
LINE
  5
A39
100
AcDbEntity
  8
0
  6
CONTINUOUS
 62
     7
100
AcDbLine
 10
-207.0
 20
-356.12772
 30
0.0
 11
-207.0
 21
-361.87228
 31
0.0
  0
LINE
  5
A3A
100
AcDbEntity
  8
0
  6
CONTINUOUS
 62
     7
100
AcDbLine
 10
-211.35085
 20
-369.0
 30
0.0
 11
-214.09327
 21
-364.25
 31
0.0
  0
LINE
  5
A3B
100
AcDbEntity
  8
0
  6
CENTER
 62
     7
100
AcDbLine
 10
-205.0
 20
-346.46
 30
0.0
 11
-205.0
 21
-371.54
 31
0.0
  0
LINE
  5
A3C
100
AcDbEntity
  8
0
  6
CENTER
 62
     7
100
AcDbLine
 10
-217.54
 20
-359.0
 30
0.0
 11
-192.46
 21
-359.0
 31
0.0
  0
LINE
  5
A3D
100
AcDbEntity
  8
0
  6
CENTER
 62
     7
100
AcDbLine
 10
-230.0
 20
-346.46
 30
0.0
 11
-230.0
 21
-371.54
 31
0.0
  0
LINE
  5
A3E
100
AcDbEntity
  8
0
  6
CENTER
 62
     7
100
AcDbLine
 10
-242.54
 20
-359.0
 30
0.0
 11
-217.46
 21
-359.0
 31
0.0
  0
ARC
  5
A3F
100
AcDbEntity
  8
0
  6
CONTINUOUS
 62
     7
100
AcDbCircle
 10
-205.0
 20
-359.0
 30
0.0
 40
10.5
100
AcDbArc
 50
116.0843
 51
210.0
  0
CIRCLE
  5
A40
100
AcDbEntity
  8
0
  6
CONTINUOUS
 62
     7
100
AcDbCircle
 10
-205.0
 20
-359.0
 30
0.0
 40
3.5
  0
ARC
  5
A41
100
AcDbEntity
  8
0
  6
CONTINUOUS
 62
     7
100
AcDbCircle
 10
-230.0
 20
-359.0
 30
0.0
 40
10.0
100
AcDbArc
 50
90.000003
 51
270.0
  0
CIRCLE
  5
A42
100
AcDbEntity
  8
0
  6
CONTINUOUS
 62
     7
100
AcDbCircle
 10
-230.0
 20
-359.0
 30
0.0
 40
3.5
  0
ARC
  5
A43
100
AcDbEntity
  8
0
  6
CONTINUOUS
 62
     7
100
AcDbCircle
 10
-205.0
 20
-359.0
 30
0.0
 40
10.0
100
AcDbArc
 50
270.0
 51
90.000003
  0
ARC
  5
A44
100
AcDbEntity
  8
0
  6
CONTINUOUS
 62
     7
100
AcDbCircle
 10
-209.74868
 20
-349.3
 30
0.0
 40
0.3
100
AcDbArc
 50
296.08429
 51
90.000003
  0
POINT
  5
A45
100
AcDbEntity
  8
0
  6
CONTINUOUS
 62
     7
100
AcDbPoint
 10
-205.0
 20
-409.0
 30
0.0
  0
POINT
  5
A46
100
AcDbEntity
  8
0
  6
CONTINUOUS
 62
     7
100
AcDbPoint
 10
-188.0
 20
-409.0
 30
0.0
  0
LINE
  5
A47
100
AcDbEntity
  8
0
  6
CONTINUOUS
 62
     7
100
AcDbLine
 10
-223.64915
 20
-416.0
 30
0.0
 11
-223.0
 21
-416.0
 31
0.0
  0
LINE
  5
A48
100
AcDbEntity
  8
0
  6
CONTINUOUS
 62
     7
100
AcDbLine
 10
-240.0
 20
-399.0
 30
0.0
 11
-223.64915
 21
-399.0
 31
0.0
  0
LINE
  5
A49
100
AcDbEntity
  8
0
  6
CENTER
 62
     7
100
AcDbLine
 10
-230.0
 20
-389.0
 30
0.0
 11
-230.0
 21
-429.0
 31
0.0
  0
LINE
  5
A4A
100
AcDbEntity
  8
0
  6
CONTINUOUS
 62
     7
100
AcDbLine
 10
-223.64915
 20
-402.0
 30
0.0
 11
-223.0
 21
-402.0
 31
0.0
  0
LINE
  5
A4B
100
AcDbEntity
  8
0
  6
CONTINUOUS
 62
     7
100
AcDbLine
 10
-240.0
 20
-419.0
 30
0.0
 11
-223.64915
 21
-419.0
 31
0.0
  0
LINE
  5
A4C
100
AcDbEntity
  8
0
  6
CENTER
 62
     7
100
AcDbLine
 10
-205.0
 20
-389.0
 30
0.0
 11
-205.0
 21
-429.0
 31
0.0
  0
LINE
  5
A4D
100
AcDbEntity
  8
0
  6
CONTINUOUS
 62
     7
100
AcDbLine
 10
-240.0
 20
-396.0
 30
0.0
 11
-211.35085
 21
-396.0
 31
0.0
  0
LINE
  5
A4E
100
AcDbEntity
  8
0
  6
CENTER
 62
     7
100
AcDbLine
 10
-247.0
 20
-409.0
 30
0.0
 11
-188.0
 21
-409.0
 31
0.0
  0
LINE
  5
A4F
100
AcDbEntity
  8
0
  6
CONTINUOUS
 62
     7
100
AcDbLine
 10
-240.0
 20
-422.0
 30
0.0
 11
-211.35085
 21
-422.0
 31
0.0
  0
LINE
  5
A50
100
AcDbEntity
  8
0
  6
CONTINUOUS
 62
     7
100
AcDbLine
 10
-211.35085
 20
-419.0
 30
0.0
 11
-195.0
 21
-419.0
 31
0.0
  0
LINE
  5
A51
100
AcDbEntity
  8
0
  6
CONTINUOUS
 62
     7
100
AcDbLine
 10
-212.0
 20
-402.0
 30
0.0
 11
-195.0
 21
-402.0
 31
0.0
  0
LINE
  5
A52
100
AcDbEntity
  8
0
  6
CONTINUOUS
 62
     7
100
AcDbLine
 10
-212.0
 20
-416.0
 30
0.0
 11
-195.0
 21
-416.0
 31
0.0
  0
LINE
  5
A53
100
AcDbEntity
  8
0
  6
CONTINUOUS
 62
     7
100
AcDbLine
 10
-211.35085
 20
-396.0
 30
0.0
 11
-211.35085
 21
-399.0
 31
0.0
  0
LINE
  5
A54
100
AcDbEntity
  8
0
  6
CONTINUOUS
 62
     7
100
AcDbLine
 10
-211.35085
 20
-399.0
 30
0.0
 11
-195.0
 21
-399.0
 31
0.0
  0
LINE
  5
A55
100
AcDbEntity
  8
0
  6
CONTINUOUS
 62
     7
100
AcDbLine
 10
-208.5
 20
-396.2
 30
0.0
 11
-207.0
 21
-396.2
 31
0.0
  0
LINE
  5
A56
100
AcDbEntity
  8
0
  6
CONTINUOUS
 62
     7
100
AcDbLine
 10
-201.5
 20
-397.52043
 30
0.0
 11
-201.5
 21
-399.0
 31
0.0
  0
LINE
  5
A57
100
AcDbEntity
  8
0
  6
CONTINUOUS
 62
     7
100
AcDbLine
 10
-201.5
 20
-419.0
 30
0.0
 11
-201.5
 21
-420.47957
 31
0.0
  0
LINE
  5
A58
100
AcDbEntity
  8
0
  6
CONTINUOUS
 62
     7
100
AcDbLine
 10
-240.0
 20
-396.0
 30
0.0
 11
-240.0
 21
-399.0
 31
0.0
  0
LINE
  5
A59
100
AcDbEntity
  8
0
  6
CONTINUOUS
 62
     7
100
AcDbLine
 10
-195.0
 20
-399.0
 30
0.0
 11
-195.0
 21
-402.0
 31
0.0
  0
LINE
  5
A5A
100
AcDbEntity
  8
0
  6
CONTINUOUS
 62
     7
100
AcDbLine
 10
-240.0
 20
-419.0
 30
0.0
 11
-240.0
 21
-422.0
 31
0.0
  0
LINE
  5
A5B
100
AcDbEntity
  8
0
  6
CONTINUOUS
 62
     7
100
AcDbLine
 10
-195.0
 20
-416.0
 30
0.0
 11
-195.0
 21
-419.0
 31
0.0
  0
LINE
  5
A5C
100
AcDbEntity
  8
0
  6
CONTINUOUS
 62
     7
100
AcDbLine
 10
-208.5
 20
-421.8
 30
0.0
 11
-207.0
 21
-421.8
 31
0.0
  0
LINE
  5
A5D
100
AcDbEntity
  8
0
  6
CONTINUOUS
 62
     7
100
AcDbLine
 10
-208.5
 20
-396.2
 30
0.0
 11
-208.5
 21
-399.0
 31
0.0
  0
LINE
  5
A5E
100
AcDbEntity
  8
0
  6
CONTINUOUS
 62
     7
100
AcDbLine
 10
-208.5
 20
-419.0
 30
0.0
 11
-208.5
 21
-421.8
 31
0.0
  0
LINE
  5
A5F
100
AcDbEntity
  8
0
  6
CONTINUOUS
 62
     7
100
AcDbLine
 10
-207.0
 20
-421.8
 30
0.0
 11
-201.5
 21
-420.47957
 31
0.0
  0
LINE
  5
A60
100
AcDbEntity
  8
0
  6
CONTINUOUS
 62
     7
100
AcDbLine
 10
-207.0
 20
-396.2
 30
0.0
 11
-201.5
 21
-397.52043
 31
0.0
  0
LINE
  5
A61
100
AcDbEntity
  8
0
  6
CONTINUOUS
 62
     7
100
AcDbLine
 10
-223.64915
 20
-416.0
 30
0.0
 11
-223.64915
 21
-419.0
 31
0.0
  0
LINE
  5
A62
100
AcDbEntity
  8
0
  6
CONTINUOUS
 62
     7
100
AcDbLine
 10
-211.35085
 20
-419.0
 30
0.0
 11
-211.35085
 21
-422.0
 31
0.0
  0
LINE
  5
A63
100
AcDbEntity
  8
0
  6
CONTINUOUS
 62
     7
100
AcDbLine
 10
-223.0
 20
-402.0
 30
0.0
 11
-223.0
 21
-416.0
 31
0.0
  0
LINE
  5
A64
100
AcDbEntity
  8
0
  6
CONTINUOUS
 62
     7
100
AcDbLine
 10
-212.0
 20
-402.0
 30
0.0
 11
-212.0
 21
-416.0
 31
0.0
  0
LINE
  5
A65
100
AcDbEntity
  8
0
  6
CONTINUOUS
 62
     7
100
AcDbLine
 10
-223.64915
 20
-399.0
 30
0.0
 11
-223.64915
 21
-402.0
 31
0.0
  0
POINT
  5
A66
100
AcDbEntity
  8
0
  6
CONTINUOUS
 62
     7
100
AcDbPoint
 10
-130.0
 20
-309.0
 30
0.0
  0
POINT
  5
A67
100
AcDbEntity
  8
0
  6
CONTINUOUS
 62
     7
100
AcDbPoint
 10
-123.0
 20
-309.0
 30
0.0
  0
LINE
  5
A68
100
AcDbEntity
  8
0
  6
CONTINUOUS
 62
     7
100
AcDbLine
 10
-140.0
 20
-296.0
 30
0.0
 11
-140.0
 21
-302.0
 31
0.0
  0
LINE
  5
A69
100
AcDbEntity
  8
0
  6
CONTINUOUS
 62
     4
100
AcDbLine
 10
-137.7
 20
-302.0
 30
0.0
 11
-137.7
 21
-316.0
 31
0.0
  0
LINE
  5
A6A
100
AcDbEntity
  8
0
  6
CENTER
 62
     7
100
AcDbLine
 10
-147.0
 20
-309.0
 30
0.0
 11
-113.0
 21
-309.0
 31
0.0
  0
LINE
  5
A6B
100
AcDbEntity
  8
0
  6
CENTER
 62
     7
100
AcDbLine
 10
-137.5
 20
-322.8
 30
0.0
 11
-137.5
 21
-314.8
 31
0.0
  0
LINE
  5
A6C
100
AcDbEntity
  8
0
  6
CONTINUOUS
 62
     4
100
AcDbLine
 10
-139.7
 20
-302.0
 30
0.0
 11
-139.7
 21
-316.0
 31
0.0
  0
LINE
  5
A6D
100
AcDbEntity
  8
0
  6
CENTER
 62
     7
100
AcDbLine
 10
-141.5
 20
-299.2
 30
0.0
 11
-133.5
 21
-299.2
 31
0.0
  0
LINE
  5
A6E
100
AcDbEntity
  8
0
  6
DASHED
 62
     4
100
AcDbLine
 10
-140.3
 20
-318.511
 30
0.0
 11
-140.3
 21
-318.31102
 31
0.0
  0
LINE
  5
A6F
100
AcDbEntity
  8
0
  6
CONTINUOUS
 62
     7
100
AcDbLine
 10
-140.0
 20
-299.3
 30
0.0
 11
-120.0
 21
-299.3
 31
0.0
  0
LINE
  5
A70
100
AcDbEntity
  8
0
  6
CENTER
 62
     7
100
AcDbLine
 10
-137.5
 20
-295.2
 30
0.0
 11
-137.5
 21
-303.2
 31
0.0
  0
LINE
  5
A71
100
AcDbEntity
  8
0
  6
CONTINUOUS
 62
     7
100
AcDbLine
 10
-120.0
 20
-296.0
 30
0.0
 11
-120.0
 21
-322.0
 31
0.0
  0
LINE
  5
A72
100
AcDbEntity
  8
0
  6
CONTINUOUS
 62
     4
100
AcDbLine
 10
-137.0
 20
-302.0
 30
0.0
 11
-137.0
 21
-316.0
 31
0.0
  0
LINE
  5
A73
100
AcDbEntity
  8
0
  6
DASHED
 62
     4
100
AcDbLine
 10
-138.35001
 20
-318.80902
 30
0.0
 11
-138.85101
 21
-318.31103
 31
0.0
  0
LINE
  5
A74
100
AcDbEntity
  8
0
  6
CONTINUOUS
 62
     7
100
AcDbLine
 10
-140.0
 20
-302.0
 30
0.0
 11
-120.0
 21
-302.0
 31
0.0
  0
LINE
  5
A75
100
AcDbEntity
  8
0
  6
CONTINUOUS
 62
     7
100
AcDbLine
 10
-140.0
 20
-316.0
 30
0.0
 11
-120.0
 21
-316.0
 31
0.0
  0
LINE
  5
A76
100
AcDbEntity
  8
0
  6
CENTER
 62
     7
100
AcDbLine
 10
-130.0
 20
-289.0
 30
0.0
 11
-130.0
 21
-329.0
 31
0.0
  0
LINE
  5
A77
100
AcDbEntity
  8
0
  6
DASHED
 62
     4
100
AcDbLine
 10
-137.11501
 20
-316.60902
 30
0.0
 11
-136.39999
 21
-316.60902
 31
0.0
  0
LINE
  5
A78
100
AcDbEntity
  8
0
  6
CONTINUOUS
 62
     7
100
AcDbLine
 10
-140.0
 20
-322.0
 30
0.0
 11
-120.0
 21
-322.0
 31
0.0
  0
LINE
  5
A79
100
AcDbEntity
  8
0
  6
DASHED
 62
     4
100
AcDbLine
 10
-135.8
 20
-320.205
 30
0.0
 11
-135.8
 21
-317.20903
 31
0.0
  0
LINE
  5
A7A
100
AcDbEntity
  8
0
  6
DASHED
 62
     4
100
AcDbLine
 10
-155.74898
 20
-318.31102
 30
0.0
 11
-138.85102
 21
-318.31102
 31
0.0
  0
LINE
  5
A7B
100
AcDbEntity
  8
0
  6
DASHED
 62
     4
100
AcDbLine
 10
-153.8
 20
-319.011
 30
0.0
 11
-140.8
 21
-319.011
 31
0.0
  0
LINE
  5
A7C
100
AcDbEntity
  8
0
  6
DASHED
 62
     4
100
AcDbLine
 10
-140.3
 20
-321.00902
 30
0.0
 11
-140.3
 21
-320.73701
 31
0.0
  0
LINE
  5
A7D
100
AcDbEntity
  8
0
  6
DASHED
 62
     4
100
AcDbLine
 10
-137.237
 20
-318.00001
 30
0.0
 11
-137.112
 21
-316.60701
 31
0.0
  0
LINE
  5
A7E
100
AcDbEntity
  8
0
  6
CONTINUOUS
 62
     7
100
AcDbLine
 10
-123.0
 20
-302.0
 30
0.0
 11
-123.0
 21
-316.0
 31
0.0
  0
LINE
  5
A7F
100
AcDbEntity
  8
0
  6
DASHED
 62
     4
100
AcDbLine
 10
-157.1
 20
-321.00902
 30
0.0
 11
-137.5
 21
-321.00902
 31
0.0
  0
LINE
  5
A80
100
AcDbEntity
  8
0
  6
CONTINUOUS
 62
     7
100
AcDbLine
 10
-140.0
 20
-296.0
 30
0.0
 11
-120.0
 21
-296.0
 31
0.0
  0
LINE
  5
A81
100
AcDbEntity
  8
0
  6
CONTINUOUS
 62
     7
100
AcDbLine
 10
-140.0
 20
-316.0
 30
0.0
 11
-140.0
 21
-322.0
 31
0.0
  0
LINE
  5
A82
100
AcDbEntity
  8
0
  6
CENTER
 62
     7
100
AcDbLine
 10
-141.5
 20
-318.8
 30
0.0
 11
-133.5
 21
-318.8
 31
0.0
  0
LINE
  5
A83
100
AcDbEntity
  8
0
  6
CONTINUOUS
 62
     7
100
AcDbLine
 10
-140.0
 20
-318.7
 30
0.0
 11
-120.0
 21
-318.7
 31
0.0
  0
LINE
  5
A84
100
AcDbEntity
  8
0
  6
DASHED
 62
     4
100
AcDbLine
 10
-154.3
 20
-318.511
 30
0.0
 11
-154.3
 21
-318.31102
 31
0.0
  0
LINE
  5
A85
100
AcDbEntity
  8
0
  6
DASHED
 62
     4
100
AcDbLine
 10
-156.24999
 20
-318.80902
 30
0.0
 11
-155.74899
 21
-318.31103
 31
0.0
  0
LINE
  5
A86
100
AcDbEntity
  8
0
  6
DASHED
 62
     4
100
AcDbLine
 10
-157.48499
 20
-316.60902
 30
0.0
 11
-158.20001
 21
-316.60902
 31
0.0
  0
LINE
  5
A87
100
AcDbEntity
  8
0
  6
DASHED
 62
     4
100
AcDbLine
 10
-158.8
 20
-320.205
 30
0.0
 11
-158.8
 21
-317.20903
 31
0.0
  0
LINE
  5
A88
100
AcDbEntity
  8
0
  6
DASHED
 62
     4
100
AcDbLine
 10
-154.3
 20
-321.00902
 30
0.0
 11
-154.3
 21
-320.73701
 31
0.0
  0
LINE
  5
A89
100
AcDbEntity
  8
0
  6
DASHED
 62
     4
100
AcDbLine
 10
-157.363
 20
-318.00001
 30
0.0
 11
-157.488
 21
-316.60701
 31
0.0
  0
LINE
  5
A8A
100
AcDbEntity
  8
0
  6
CENTER
 62
     7
100
AcDbLine
 10
-157.1
 20
-322.8
 30
0.0
 11
-157.1
 21
-314.8
 31
0.0
  0
LINE
  5
A8B
100
AcDbEntity
  8
0
  6
CENTER
 62
     7
100
AcDbLine
 10
-153.1
 20
-318.8
 30
0.0
 11
-161.1
 21
-318.8
 31
0.0
  0
ARC
  5
A8C
100
AcDbEntity
  8
0
  6
DASHED
 62
     4
100
AcDbCircle
 10
-140.8
 20
-318.511
 30
0.0
 40
0.5
100
AcDbArc
 50
270.0
 51
0.000001
  0
ARC
  5
A8D
100
AcDbEntity
  8
0
  6
DASHED
 62
     4
100
AcDbCircle
 10
-137.5
 20
-318.809
 30
0.0
 40
0.85
100
AcDbArc
 50
180.0009
 51
71.998991
  0
ARC
  5
A8E
100
AcDbEntity
  8
0
  6
CONTINUOUS
 62
     7
100
AcDbCircle
 10
-137.52499
 20
-299.19698
 30
0.0
 40
2.2
100
AcDbArc
 50
283.744
 51
283.807
  0
ARC
  5
A8F
100
AcDbEntity
  8
0
  6
PHANTOM
 62
     5
100
AcDbCircle
 10
-137.502
 20
-299.18199
 30
0.0
 40
2.2
100
AcDbArc
 50
193.311
 51
193.37471
  0
ARC
  5
A90
100
AcDbEntity
  8
0
  6
DASHED
 62
     4
100
AcDbCircle
 10
-137.5
 20
-318.809
 30
0.0
 40
2.2
100
AcDbArc
 50
269.99899
 51
320.598
  0
ARC
  5
A91
100
AcDbEntity
  8
0
  6
DASHED
 62
     4
100
AcDbCircle
 10
-137.5
 20
-318.809
 30
0.0
 40
3.4
100
AcDbArc
 50
183.4126
 51
214.56
  0
ARC
  5
A92
100
AcDbEntity
  8
0
  6
DASHED
 62
     4
100
AcDbCircle
 10
-136.39999
 20
-317.20903
 30
0.0
 40
0.6
100
AcDbArc
 50
359.999
 51
90.000583
  0
ARC
  5
A93
100
AcDbEntity
  8
0
  6
DASHED
 62
     4
100
AcDbCircle
 10
-153.8
 20
-318.511
 30
0.0
 40
0.5
100
AcDbArc
 50
180.00001
 51
270.0
  0
ARC
  5
A94
100
AcDbEntity
  8
0
  6
DASHED
 62
     4
100
AcDbCircle
 10
-157.1
 20
-318.809
 30
0.0
 40
0.85
100
AcDbArc
 50
108.00101
 51
359.99911
  0
ARC
  5
A95
100
AcDbEntity
  8
0
  6
DASHED
 62
     4
100
AcDbCircle
 10
-157.1
 20
-318.809
 30
0.0
 40
2.2
100
AcDbArc
 50
219.40199
 51
270.00101
  0
ARC
  5
A96
100
AcDbEntity
  8
0
  6
DASHED
 62
     4
100
AcDbCircle
 10
-157.1
 20
-318.809
 30
0.0
 40
3.4
100
AcDbArc
 50
325.44
 51
356.5874
  0
ARC
  5
A97
100
AcDbEntity
  8
0
  6
DASHED
 62
     4
100
AcDbCircle
 10
-158.20001
 20
-317.20903
 30
0.0
 40
0.6
100
AcDbArc
 50
89.999422
 51
180.001
  0
ENDSEC
  0
SECTION
  2
OBJECTS
  0
DICTIONARY
  5
C
100
AcDbDictionary
  3
ACAD_GROUP
350
D
  3
ACAD_MLINESTYLE
350
E
  0
DICTIONARY
  5
D
102
{ACAD_REACTORS
330
C
102
}
100
AcDbDictionary
  0
DICTIONARY
  5
E
102
{ACAD_REACTORS
330
C
102
}
100
AcDbDictionary
  3
STANDARD
350
1C
  0
MLINESTYLE
  5
1C
102
{ACAD_REACTORS
330
E
102
}
100
AcDbMlineStyle
  2
STANDARD
 70
     0
  3

 62
     0
 51
90.0
 52
90.0
 71
     2
 49
0.5
 62
   256
  6
BYLAYER
 49
-0.5
 62
   256
  6
BYLAYER
  0
ENDSEC
  0
EOF
