  0
SECTION
  2
HEADER
  9
$ACADVER
  1
AC1012
  9
$DWGCODEPAGE
  3
dos932
  9
$INSBASE
 10
0.0
 20
0.0
 30
0.0
  9
$EXTMIN
 10
-485.0
 20
-454.0
 30
0.0
  9
$EXTMAX
 10
485.0
 20
454.0
 30
0.0
  9
$LIMMIN
 10
0.0
 20
0.0
  9
$LIMMAX
 10
12.0
 20
9.0
  9
$ORTHOMODE
 70
     0
  9
$REGENMODE
 70
     1
  9
$FILLMODE
 70
     1
  9
$QTEXTMODE
 70
     0
  9
$MIRRTEXT
 70
     1
  9
$DRAGMODE
 70
     2
  9
$LTSCALE
 40
1.0
  9
$OSMODE
 70
     0
  9
$ATTMODE
 70
     1
  9
$TEXTSIZE
 40
0.2
  9
$TRACEWID
 40
0.05
  9
$TEXTSTYLE
  7
STANDARD
  9
$CLAYER
  8
0
  9
$CELTYPE
  6
CONTINUOUS
  9
$CECOLOR
 62
   256
  9
$CELTSCALE
 40
1.0
  9
$DELOBJ
 70
     1
  9
$DISPSILH
 70
     0
  9
$DIMSCALE
 40
1.0
  9
$DIMASZ
 40
0.18
  9
$DIMEXO
 40
0.0625
  9
$DIMDLI
 40
0.38
  9
$DIMRND
 40
0.0
  9
$DIMDLE
 40
0.0
  9
$DIMEXE
 40
0.18
  9
$DIMTP
 40
0.0
  9
$DIMTM
 40
0.0
  9
$DIMTXT
 40
0.18
  9
$DIMCEN
 40
0.09
  9
$DIMTSZ
 40
0.0
  9
$DIMTOL
 70
     0
  9
$DIMLIM
 70
     0
  9
$DIMTIH
 70
     1
  9
$DIMTOH
 70
     1
  9
$DIMSE1
 70
     0
  9
$DIMSE2
 70
     0
  9
$DIMTAD
 70
     0
  9
$DIMZIN
 70
     0
  9
$DIMBLK
  1

  9
$DIMASO
 70
     1
  9
$DIMSHO
 70
     1
  9
$DIMPOST
  1

  9
$DIMAPOST
  1

  9
$DIMALT
 70
     0
  9
$DIMALTD
 70
     2
  9
$DIMALTF
 40
25.4
  9
$DIMLFAC
 40
1.0
  9
$DIMTOFL
 70
     0
  9
$DIMTVP
 40
0.0
  9
$DIMTIX
 70
     0
  9
$DIMSOXD
 70
     0
  9
$DIMSAH
 70
     0
  9
$DIMBLK1
  1

  9
$DIMBLK2
  1

  9
$DIMSTYLE
  2
STANDARD
  9
$DIMCLRD
 70
     0
  9
$DIMCLRE
 70
     0
  9
$DIMCLRT
 70
     0
  9
$DIMTFAC
 40
1.0
  9
$DIMGAP
 40
0.09
  9
$DIMJUST
 70
     0
  9
$DIMSD1
 70
     0
  9
$DIMSD2
 70
     0
  9
$DIMTOLJ
 70
     1
  9
$DIMTZIN
 70
     0
  9
$DIMALTZ
 70
     0
  9
$DIMALTTZ
 70
     0
  9
$DIMFIT
 70
     3
  9
$DIMUPT
 70
     0
  9
$DIMUNIT
 70
     2
  9
$DIMDEC
 70
     4
  9
$DIMTDEC
 70
     4
  9
$DIMALTU
 70
     2
  9
$DIMALTTD
 70
     2
  9
$DIMTXSTY
  7
STANDARD
  9
$DIMAUNIT
 70
     0
  9
$LUNITS
 70
     2
  9
$LUPREC
 70
     4
  9
$SKETCHINC
 40
0.1
  9
$FILLETRAD
 40
0.0
  9
$AUNITS
 70
     0
  9
$AUPREC
 70
     0
  9
$MENU
  1
.
  9
$ELEVATION
 40
0.0
  9
$PELEVATION
 40
0.0
  9
$THICKNESS
 40
0.0
  9
$LIMCHECK
 70
     0
  9
$BLIPMODE
 70
     1
  9
$CHAMFERA
 40
0.0
  9
$CHAMFERB
 40
0.0
  9
$CHAMFERC
 40
0.0
  9
$CHAMFERD
 40
0.0
  9
$SKPOLY
 70
     0
  9
$TDCREATE
 40
0.0000000000
  9
$TDUPDATE
 40
2452163.547158912
  9
$TDINDWG
 40
0.0569908565
  9
$TDUSRTIMER
 40
0.0569908565
  9
$USRTIMER
 70
     1
  9
$ANGBASE
 50
0.0
  9
$ANGDIR
 70
     0
  9
$PDMODE
 70
     0
  9
$PDSIZE
 40
0.0
  9
$PLINEWID
 40
0.0
  9
$COORDS
 70
     1
  9
$SPLFRAME
 70
     0
  9
$SPLINETYPE
 70
     6
  9
$SPLINESEGS
 70
     8
  9
$ATTDIA
 70
     0
  9
$ATTREQ
 70
     1
  9
$HANDLING
 70
     1
  9
$HANDSEED
  5
9E9
  9
$SURFTAB1
 70
     6
  9
$SURFTAB2
 70
     6
  9
$SURFTYPE
 70
     6
  9
$SURFU
 70
     6
  9
$SURFV
 70
     6
  9
$UCSNAME
  2

  9
$UCSORG
 10
0.0
 20
0.0
 30
0.0
  9
$UCSXDIR
 10
1.0
 20
0.0
 30
0.0
  9
$UCSYDIR
 10
0.0
 20
1.0
 30
0.0
  9
$PUCSNAME
  2

  9
$PUCSORG
 10
0.0
 20
0.0
 30
0.0
  9
$PUCSXDIR
 10
1.0
 20
0.0
 30
0.0
  9
$PUCSYDIR
 10
0.0
 20
1.0
 30
0.0
  9
$USERI1
 70
     0
  9
$USERI2
 70
     0
  9
$USERI3
 70
     0
  9
$USERI4
 70
     0
  9
$USERI5
 70
     0
  9
$USERR1
 40
0.0
  9
$USERR2
 40
0.0
  9
$USERR3
 40
0.0
  9
$USERR4
 40
0.0
  9
$USERR5
 40
0.0
  9
$WORLDVIEW
 70
     1
  9
$SHADEDGE
 70
     3
  9
$SHADEDIF
 70
    70
  9
$TILEMODE
 70
     1
  9
$MAXACTVP
 70
    16
  9
$PINSBASE
 10
0.0
 20
0.0
 30
0.0
  9
$PLIMCHECK
 70
     0
  9
$PEXTMIN
 10
1.000000E+20
 20
1.000000E+20
 30
1.000000E+20
  9
$PEXTMAX
 10
-1.000000E+20
 20
-1.000000E+20
 30
-1.000000E+20
  9
$PLIMMIN
 10
0.0
 20
0.0
  9
$PLIMMAX
 10
12.0
 20
9.0
  9
$UNITMODE
 70
     0
  9
$VISRETAIN
 70
     0
  9
$PLINEGEN
 70
     0
  9
$PSLTSCALE
 70
     1
  9
$TREEDEPTH
 70
  3020
  9
$PICKSTYLE
 70
     1
  9
$CMLSTYLE
  2
STANDARD
  9
$CMLJUST
 70
     0
  9
$CMLSCALE
 40
1.0
  9
$SAVEIMAGES
 70
     0
  0
ENDSEC
  0
SECTION
  2
CLASSES
  0
ENDSEC
  0
SECTION
  2
TABLES
  0
TABLE
  2
VPORT
  5
8
100
AcDbSymbolTable
 70
     4
  0
VPORT
  5
9E8
100
AcDbSymbolTableRecord
100
AcDbViewportTableRecord
  2
*ACTIVE
 70
     0
 10
0.0
 20
0.0
 11
1.0
 21
1.0
 12
214.061702
 22
160.294936
 13
0.0
 23
0.0
 14
1.0
 24
1.0
 15
0.0
 25
0.0
 16
0.0
 26
0.0
 36
1.0
 17
0.0
 27
0.0
 37
0.0
 40
908.000025
 41
1.820976
 42
50.0
 43
0.0
 44
0.0
 50
0.0
 51
0.0
 71
     0
 72
   100
 73
     1
 74
     1
 75
     0
 76
     0
 77
     0
 78
     0
  0
ENDTAB
  0
TABLE
  2
LTYPE
  5
5
100
AcDbSymbolTable
 70
     5
  0
LTYPE
  5
13
100
AcDbSymbolTableRecord
100
AcDbLinetypeTableRecord
  2
BYBLOCK
 70
     0
  3

 72
    65
 73
     0
 40
0.0
  0
LTYPE
  5
14
100
AcDbSymbolTableRecord
100
AcDbLinetypeTableRecord
  2
BYLAYER
 70
     0
  3

 72
    65
 73
     0
 40
0.0
  0
LTYPE
  5
15
100
AcDbSymbolTableRecord
100
AcDbLinetypeTableRecord
  2
CONTINUOUS
 70
    64
  3
Solid line
 72
    65
 73
     0
 40
0.0
  0
LTYPE
  5
1E
100
AcDbSymbolTableRecord
100
AcDbLinetypeTableRecord
  2
DASHED
 70
    64
  3
__ __ __ __ __ __ __ __ __ __ __ __ __ __ __
 72
    65
 73
     2
 40
3.5
 49
2.0
 74
     0
 49
-1.5
 74
     0
  0
LTYPE
  5
1F
100
AcDbSymbolTableRecord
100
AcDbLinetypeTableRecord
  2
CENTER
 70
    64
  3
____ _ ____ _ ____ _ ____ _ ____ _ ____ _ ____
 72
    65
 73
     4
 40
17.5
 49
13.0
 74
     0
 49
-1.5
 74
     0
 49
1.5
 74
     0
 49
-1.5
 74
     0
  0
LTYPE
  5
20
100
AcDbSymbolTableRecord
100
AcDbLinetypeTableRecord
  2
PHANTOM
 70
    64
  3
_____ _ _ _____ _ _ _____ _ _ _____ _ _ ____  
 72
    65
 73
     6
 40
15.5
 49
8.0
 74
     0
 49
-1.5
 74
     0
 49
1.5
 74
     0
 49
-1.5
 74
     0
 49
1.5
 74
     0
 49
-1.5
 74
     0
  0
LTYPE
  5
21
100
AcDbSymbolTableRecord
100
AcDbLinetypeTableRecord
  2
DOT
 70
    64
  3
. . . . . . . . . . . . . . . . . . . . . . . .
 72
    65
 73
     2
 40
0.25
 49
0.0
 74
     0
 49
-0.25
 74
     0
  0
ENDTAB
  0
TABLE
  2
LAYER
  5
2
100
AcDbSymbolTable
 70
     1
  0
LAYER
  5
F
100
AcDbSymbolTableRecord
100
AcDbLayerTableRecord
  2
0
 70
     0
 62
     7
  6
CONTINUOUS
  0
ENDTAB
  0
TABLE
  2
STYLE
  5
3
100
AcDbSymbolTable
 70
     1
  0
STYLE
  5
10
100
AcDbSymbolTableRecord
100
AcDbTextStyleTableRecord
  2
STANDARD
 70
     0
 40
0.0
 41
1.0
 50
0.0
 71
     0
 42
0.2
  3
txt
  4

  0
ENDTAB
  0
TABLE
  2
VIEW
  5
6
100
AcDbSymbolTable
 70
     0
  0
ENDTAB
  0
TABLE
  2
UCS
  5
7
100
AcDbSymbolTable
 70
     0
  0
ENDTAB
  0
TABLE
  2
APPID
  5
9
100
AcDbSymbolTable
 70
     1
  0
APPID
  5
11
100
AcDbSymbolTableRecord
100
AcDbRegAppTableRecord
  2
ACAD
 70
     0
  0
ENDTAB
  0
TABLE
  2
DIMSTYLE
  5
A
100
AcDbSymbolTable
 70
     1
  0
DIMSTYLE
105
9E5
100
AcDbSymbolTableRecord
100
AcDbDimStyleTableRecord
  2
STANDARD
 70
     0
  3

  4

  5

  6

  7

 40
1.0
 41
0.18
 42
0.0625
 43
0.38
 44
0.18
 45
0.0
 46
0.0
 47
0.0
 48
0.0
140
0.18
141
0.09
142
0.0
143
25.4
144
1.0
145
0.0
146
1.0
147
0.09
 71
     0
 72
     0
 73
     1
 74
     1
 75
     0
 76
     0
 77
     0
 78
     0
170
     0
171
     2
172
     0
173
     0
174
     0
175
     0
176
     0
177
     0
178
     0
270
     2
271
     4
272
     4
273
     2
274
     2
340
10
275
     0
280
     0
281
     0
282
     0
283
     1
284
     0
285
     0
286
     0
287
     3
288
     0
  0
ENDTAB
  0
TABLE
  2
BLOCK_RECORD
  5
1
100
AcDbSymbolTable
 70
     0
  0
BLOCK_RECORD
  5
19
100
AcDbSymbolTableRecord
100
AcDbBlockTableRecord
  2
*MODEL_SPACE
  0
BLOCK_RECORD
  5
16
100
AcDbSymbolTableRecord
100
AcDbBlockTableRecord
  2
*PAPER_SPACE
  0
ENDTAB
  0
ENDSEC
  0
SECTION
  2
BLOCKS
  0
BLOCK
  5
1A
100
AcDbEntity
  8
0
100
AcDbBlockBegin
  2
*MODEL_SPACE
 70
     0
 10
0.0
 20
0.0
 30
0.0
  3
*MODEL_SPACE
  1

  0
ENDBLK
  5
1B
100
AcDbEntity
  8
0
100
AcDbBlockEnd
  0
BLOCK
  5
17
100
AcDbEntity
 67
     1
  8
0
100
AcDbBlockBegin
  2
*PAPER_SPACE
 70
     0
 10
0.0
 20
0.0
 30
0.0
  3
*PAPER_SPACE
  1

  0
ENDBLK
  5
18
100
AcDbEntity
 67
     1
  8
0
100
AcDbBlockEnd
  0
ENDSEC
  0
SECTION
  2
ENTITIES
  0
LINE
  5
22
100
AcDbEntity
  8
0
  6
CONTINUOUS
 62
     7
100
AcDbLine
 10
335.0
 20
446.0
 30
0.0
 11
485.0
 21
446.0
 31
0.0
  0
LINE
  5
23
100
AcDbEntity
  8
0
  6
CONTINUOUS
 62
     7
100
AcDbLine
 10
-395.0
 20
438.0
 30
0.0
 11
-395.0
 21
-106.0
 31
0.0
  0
LINE
  5
24
100
AcDbEntity
  8
0
  6
CONTINUOUS
 62
     7
100
AcDbLine
 10
-485.0
 20
438.0
 30
0.0
 11
485.0
 21
438.0
 31
0.0
  0
LINE
  5
25
100
AcDbEntity
  8
0
  6
CONTINUOUS
 62
     7
100
AcDbLine
 10
-485.0
 20
414.0
 30
0.0
 11
485.0
 21
414.0
 31
0.0
  0
LINE
  5
26
100
AcDbEntity
  8
0
  6
CONTINUOUS
 62
     7
100
AcDbLine
 10
-485.0
 20
430.0
 30
0.0
 11
485.0
 21
430.0
 31
0.0
  0
LINE
  5
27
100
AcDbEntity
  8
0
  6
CONTINUOUS
 62
     7
100
AcDbLine
 10
-485.0
 20
454.0
 30
0.0
 11
-485.0
 21
-454.0
 31
0.0
  0
LINE
  5
28
100
AcDbEntity
  8
0
  6
CONTINUOUS
 62
     7
100
AcDbLine
 10
-485.0
 20
422.0
 30
0.0
 11
485.0
 21
422.0
 31
0.0
  0
LINE
  5
29
100
AcDbEntity
  8
0
  6
CONTINUOUS
 62
     7
100
AcDbLine
 10
45.0
 20
422.0
 30
0.0
 11
45.0
 21
168.0
 31
0.0
  0
LINE
  5
2A
100
AcDbEntity
  8
0
  6
CONTINUOUS
 62
     7
100
AcDbLine
 10
-175.0
 20
414.0
 30
0.0
 11
-175.0
 21
168.0
 31
0.0
  0
LINE
  5
2B
100
AcDbEntity
  8
0
  6
CONTINUOUS
 62
     7
100
AcDbLine
 10
265.0
 20
414.0
 30
0.0
 11
265.0
 21
168.0
 31
0.0
  0
LINE
  5
2C
100
AcDbEntity
  8
0
  6
CONTINUOUS
 62
     7
100
AcDbLine
 10
-485.0
 20
406.0
 30
0.0
 11
485.0
 21
406.0
 31
0.0
  0
LINE
  5
2D
100
AcDbEntity
  8
0
  6
CONTINUOUS
 62
     7
100
AcDbLine
 10
485.0
 20
454.0
 30
0.0
 11
485.0
 21
-354.0
 31
0.0
  0
LINE
  5
2E
100
AcDbEntity
  8
0
  6
CONTINUOUS
 62
     7
100
AcDbLine
 10
-485.0
 20
454.0
 30
0.0
 11
485.0
 21
454.0
 31
0.0
  0
LINE
  5
2F
100
AcDbEntity
  8
0
  6
CONTINUOUS
 62
     7
100
AcDbLine
 10
-485.0
 20
168.0
 30
0.0
 11
485.0
 21
168.0
 31
0.0
  0
LINE
  5
30
100
AcDbEntity
  8
0
  6
CONTINUOUS
 62
     7
100
AcDbLine
 10
-485.0
 20
144.0
 30
0.0
 11
485.0
 21
144.0
 31
0.0
  0
LINE
  5
31
100
AcDbEntity
  8
0
  6
CONTINUOUS
 62
     7
100
AcDbLine
 10
-485.0
 20
160.0
 30
0.0
 11
485.0
 21
160.0
 31
0.0
  0
LINE
  5
32
100
AcDbEntity
  8
0
  6
CONTINUOUS
 62
     7
100
AcDbLine
 10
-485.0
 20
136.0
 30
0.0
 11
485.0
 21
136.0
 31
0.0
  0
LINE
  5
33
100
AcDbEntity
  8
0
  6
CONTINUOUS
 62
     7
100
AcDbLine
 10
-485.0
 20
152.0
 30
0.0
 11
485.0
 21
152.0
 31
0.0
  0
LINE
  5
34
100
AcDbEntity
  8
0
  6
CONTINUOUS
 62
     7
100
AcDbLine
 10
-485.0
 20
-106.0
 30
0.0
 11
485.0
 21
-106.0
 31
0.0
  0
LINE
  5
35
100
AcDbEntity
  8
0
  6
CONTINUOUS
 62
     7
100
AcDbLine
 10
-485.0
 20
-114.0
 30
0.0
 11
485.0
 21
-114.0
 31
0.0
  0
LINE
  5
36
100
AcDbEntity
  8
0
  6
CONTINUOUS
 62
     7
100
AcDbLine
 10
-485.0
 20
-454.0
 30
0.0
 11
115.0
 21
-454.0
 31
0.0
  0
LINE
  5
37
100
AcDbEntity
  8
0
  6
CONTINUOUS
 62
     7
100
AcDbLine
 10
-205.0
 20
-106.0
 30
0.0
 11
-205.0
 21
-454.0
 31
0.0
  0
LINE
  5
38
100
AcDbEntity
  8
0
  6
CONTINUOUS
 62
     7
100
AcDbLine
 10
115.0
 20
-354.0
 30
0.0
 11
485.0
 21
-354.0
 31
0.0
  0
LINE
  5
39
100
AcDbEntity
  8
0
  6
CONTINUOUS
 62
     7
100
AcDbLine
 10
115.0
 20
-106.0
 30
0.0
 11
115.0
 21
-454.0
 31
0.0
  0
LINE
  5
3A
100
AcDbEntity
  8
0
  6
CONTINUOUS
 62
     7
100
AcDbLine
 10
-175.0
 20
144.0
 30
0.0
 11
-175.0
 21
-106.0
 31
0.0
  0
LINE
  5
3B
100
AcDbEntity
  8
0
  6
CONTINUOUS
 62
     7
100
AcDbLine
 10
45.0
 20
152.0
 30
0.0
 11
45.0
 21
-106.0
 31
0.0
  0
LINE
  5
3C
100
AcDbEntity
  8
0
  6
CONTINUOUS
 62
     7
100
AcDbLine
 10
265.0
 20
144.0
 30
0.0
 11
265.0
 21
-106.0
 31
0.0
  0
LINE
  5
3D
100
AcDbEntity
  8
0
  6
CONTINUOUS
 62
     7
100
AcDbLine
 10
395.0
 20
454.0
 30
0.0
 11
395.0
 21
438.0
 31
0.0
  0
LINE
  5
3E
100
AcDbEntity
  8
0
  6
CONTINUOUS
 62
     7
100
AcDbLine
 10
335.0
 20
454.0
 30
0.0
 11
335.0
 21
438.0
 31
0.0
  0
LINE
  5
3F
100
AcDbEntity
  8
0
  6
CONTINUOUS
 62
     7
100
AcDbLine
 10
425.0
 20
454.0
 30
0.0
 11
425.0
 21
438.0
 31
0.0
  0
LINE
  5
40
100
AcDbEntity
  8
0
  6
CONTINUOUS
 62
     7
100
AcDbLine
 10
-385.0
 20
454.0
 30
0.0
 11
-385.0
 21
438.0
 31
0.0
  0
TEXT
  5
41
100
AcDbEntity
  8
0
  6
CONTINUOUS
 62
     7
100
AcDbText
 10
-466.743
 20
416.4
 30
0.0
 40
3.2
  1
Screwing position
 41
1.002863
100
AcDbText
  0
TEXT
  5
42
100
AcDbEntity
  8
0
  6
CONTINUOUS
 62
     7
100
AcDbText
 10
-458.743
 20
424.4
 30
0.0
 40
3.2
  1
Bracket type
 41
1.004089
100
AcDbText
  0
TEXT
  5
43
100
AcDbEntity
  8
0
  6
CONTINUOUS
 62
     7
100
AcDbText
 10
-444.343
 20
432.4
 30
0.0
 40
3.2
  1
use
 41
1.017891
100
AcDbText
  0
TEXT
  5
44
100
AcDbEntity
  8
0
  6
CONTINUOUS
 62
     7
100
AcDbText
 10
-310.143
 20
138.4
 30
0.0
 40
3.2
  1
Outside (PUM-204-HA)
 41
1.003045
100
AcDbText
  0
TEXT
  5
45
100
AcDbEntity
  8
0
  6
CONTINUOUS
 62
     7
100
AcDbText
 10
402.457
 20
448.4
 30
0.0
 40
3.2
  1
TITLE
 41
1.010223
100
AcDbText
  0
TEXT
  5
46
100
AcDbEntity
  8
0
  6
CONTINUOUS
 62
     7
100
AcDbText
 10
433.057
 20
448.4
 30
0.0
 40
3.2
  1
Plachain Ducts
 41
1.003491
100
AcDbText
  0
TEXT
  5
47
100
AcDbEntity
  8
0
  6
CONTINUOUS
 62
     7
100
AcDbText
 10
402.457
 20
440.4
 30
0.0
 40
3.2
  1
MODEL
 41
1.010223
100
AcDbText
  0
TEXT
  5
48
100
AcDbEntity
  8
0
  6
CONTINUOUS
 62
     7
100
AcDbText
 10
360.657
 20
440.4
 30
0.0
 40
3.2
  1
1:1
 41
1.017891
100
AcDbText
  0
TEXT
  5
49
100
AcDbEntity
  8
0
  6
CONTINUOUS
 62
     7
100
AcDbText
 10
439.457
 20
440.4
 30
0.0
 40
3.2
  1
PU204-38,-50
 41
1.004935
100
AcDbText
  0
TEXT
  5
4A
100
AcDbEntity
  8
0
  6
CONTINUOUS
 62
     7
100
AcDbText
 10
347.857
 20
448.4
 30
0.0
 40
3.2
  1
KOGANEI CORP.
 41
1.004473
100
AcDbText
  0
TEXT
  5
4B
100
AcDbEntity
  8
0
  6
CONTINUOUS
 62
     7
100
AcDbText
 10
-457.143
 20
408.4
 30
0.0
 40
3.2
  1
Orientation
 41
1.004473
100
AcDbText
  0
TEXT
  5
4C
100
AcDbEntity
  8
0
  6
CONTINUOUS
 62
     7
100
AcDbText
 10
-2.543
 20
424.4
 30
0.0
 40
3.2
  1
Hole type (for moving end) (M)
 41
1.001608
100
AcDbText
  0
TEXT
  5
4D
100
AcDbEntity
  8
0
  6
CONTINUOUS
 62
     7
100
AcDbText
 10
-444.343
 20
162.4
 30
0.0
 40
3.2
  1
use
 41
1.017891
100
AcDbText
  0
TEXT
  5
4E
100
AcDbEntity
  8
0
  6
CONTINUOUS
 62
     7
100
AcDbText
 10
-458.743
 20
154.4
 30
0.0
 40
3.2
  1
Bracket type
 41
1.004089
100
AcDbText
  0
TEXT
  5
4F
100
AcDbEntity
  8
0
  6
CONTINUOUS
 62
     7
100
AcDbText
 10
-466.743
 20
146.4
 30
0.0
 40
3.2
  1
Screwing position
 41
1.002863
100
AcDbText
  0
TEXT
  5
50
100
AcDbEntity
  8
0
  6
CONTINUOUS
 62
     7
100
AcDbText
 10
-457.143
 20
138.4
 30
0.0
 40
3.2
  1
Orientation
 41
1.004473
100
AcDbText
  0
TEXT
  5
51
100
AcDbEntity
  8
0
  6
CONTINUOUS
 62
     7
100
AcDbText
 10
-88.543
 20
138.4
 30
0.0
 40
3.2
  1
Inside (PUM-204-HA)
 41
1.003253
100
AcDbText
  0
TEXT
  5
52
100
AcDbEntity
  8
0
  6
CONTINUOUS
 62
     7
100
AcDbText
 10
-190.543
 20
146.4
 30
0.0
 40
3.2
  1
Inside (A)
 41
1.004935
100
AcDbText
  0
TEXT
  5
53
100
AcDbEntity
  8
0
  6
CONTINUOUS
 62
     7
100
AcDbText
 10
290.857
 20
-111.6
 30
0.0
 40
3.2
  1
1BLOCK
 41
1.008419
100
AcDbText
  0
TEXT
  5
54
100
AcDbEntity
  8
0
  6
CONTINUOUS
 62
     7
100
AcDbText
 10
-310.143
 20
408.4
 30
0.0
 40
3.2
  1
Outside (PUM-204-PA)
 41
1.003045
100
AcDbText
  0
TEXT
  5
55
100
AcDbEntity
  8
0
  6
CONTINUOUS
 62
     7
100
AcDbText
 10
-88.543
 20
408.4
 30
0.0
 40
3.2
  1
Inside (PUM-204-PB)
 41
1.003253
100
AcDbText
  0
TEXT
  5
56
100
AcDbEntity
  8
0
  6
CONTINUOUS
 62
     7
100
AcDbText
 10
-190.543
 20
416.4
 30
0.0
 40
3.2
  1
Inside (A)
 41
1.004935
100
AcDbText
  0
TEXT
  5
57
100
AcDbEntity
  8
0
  6
CONTINUOUS
 62
     7
100
AcDbText
 10
23.057
 20
432.4
 30
0.0
 40
3.2
  1
for moving end
 41
1.003491
100
AcDbText
  0
TEXT
  5
58
100
AcDbEntity
  8
0
  6
CONTINUOUS
 62
     7
100
AcDbText
 10
-2.543
 20
154.4
 30
0.0
 40
3.2
  1
Pivot type (for fixed end) (F)
 41
1.001608
100
AcDbText
  0
TEXT
  5
59
100
AcDbEntity
  8
0
  6
CONTINUOUS
 62
     7
100
AcDbText
 10
24.657
 20
162.4
 30
0.0
 40
3.2
  1
for fixed end
 41
1.003766
100
AcDbText
  0
TEXT
  5
5A
100
AcDbEntity
  8
0
  6
CONTINUOUS
 62
     7
100
AcDbText
 10
351.457
 20
138.4
 30
0.0
 40
3.2
  1
Inside (PUM-204-HAE)
 41
1.003253
100
AcDbText
  0
TEXT
  5
5B
100
AcDbEntity
  8
0
  6
CONTINUOUS
 62
     7
100
AcDbText
 10
129.857
 20
138.4
 30
0.0
 40
3.2
  1
Outside (PUM-204-HAE)
 41
1.003045
100
AcDbText
  0
TEXT
  5
5C
100
AcDbEntity
  8
0
  6
CONTINUOUS
 62
     7
100
AcDbText
 10
247.857
 20
146.4
 30
0.0
 40
3.2
  1
Outside (B)
 41
1.004473
100
AcDbText
  0
TEXT
  5
5D
100
AcDbEntity
  8
0
  6
CONTINUOUS
 62
     7
100
AcDbText
 10
-349.343
 20
-111.6
 30
0.0
 40
3.2
  1
PU204-38
 41
1.017891
100
AcDbText
  0
TEXT
  5
5E
100
AcDbEntity
  8
0
  6
CONTINUOUS
 62
     7
100
AcDbText
 10
351.457
 20
408.4
 30
0.0
 40
3.2
  1
Inside (PUM-204-PB)
 41
1.003253
100
AcDbText
  0
TEXT
  5
5F
100
AcDbEntity
  8
0
  6
CONTINUOUS
 62
     7
100
AcDbText
 10
129.857
 20
408.4
 30
0.0
 40
3.2
  1
Outside (PUM-204-PA)
 41
1.003045
100
AcDbText
  0
TEXT
  5
60
100
AcDbEntity
  8
0
  6
CONTINUOUS
 62
     7
100
AcDbText
 10
247.857
 20
416.4
 30
0.0
 40
3.2
  1
Outside (B)
 41
1.004473
100
AcDbText
  0
TEXT
  5
61
100
AcDbEntity
  8
0
  6
CONTINUOUS
 62
     7
100
AcDbText
 10
-49.343
 20
-111.6
 30
0.0
 40
3.2
  1
PU204-50
 41
1.017891
100
AcDbText
  0
TEXT
  5
62
100
AcDbEntity
  8
0
  6
CONTINUOUS
 62
     7
100
AcDbText
 10
-454.28594
 20
443.5
 30
0.0
 40
5.0
  1
PU204
 41
1.006223
100
AcDbText
  0
POINT
  5
63
100
AcDbEntity
  8
0
  6
CONTINUOUS
 62
     7
100
AcDbPoint
 10
-430.0
 20
363.0
 30
0.0
  0
POINT
  5
64
100
AcDbEntity
  8
0
  6
CONTINUOUS
 62
     7
100
AcDbPoint
 10
-417.69052
 20
363.0
 30
0.0
  0
LINE
  5
65
100
AcDbEntity
  8
0
  6
CONTINUOUS
 62
     7
100
AcDbLine
 10
-467.30948
 20
378.0
 30
0.0
 11
-456.69053
 21
378.0
 31
0.0
  0
LINE
  5
66
100
AcDbEntity
  8
0
  6
CENTER
 62
     7
100
AcDbLine
 10
-452.0
 20
377.0
 30
0.0
 11
-440.0
 21
377.0
 31
0.0
  0
LINE
  5
67
100
AcDbEntity
  8
0
  6
CONTINUOUS
 62
     7
100
AcDbLine
 10
-435.30947
 20
378.0
 30
0.0
 11
-424.69052
 21
378.0
 31
0.0
  0
LINE
  5
68
100
AcDbEntity
  8
0
  6
CONTINUOUS
 62
     7
100
AcDbLine
 10
-450.0
 20
381.19998
 30
0.0
 11
-442.0
 21
381.19998
 31
0.0
  0
LINE
  5
69
100
AcDbEntity
  8
0
  6
CONTINUOUS
 62
     7
100
AcDbLine
 10
-450.0
 20
381.19998
 30
0.0
 11
-450.0
 21
373.0
 31
0.0
  0
LINE
  5
6A
100
AcDbEntity
  8
0
  6
CONTINUOUS
 62
     7
100
AcDbLine
 10
-455.0
 20
353.0
 30
0.0
 11
-455.0
 21
373.0
 31
0.0
  0
LINE
  5
6B
100
AcDbEntity
  8
0
  6
CENTER
 62
     7
100
AcDbLine
 10
-452.0
 20
349.0
 30
0.0
 11
-440.0
 21
349.0
 31
0.0
  0
LINE
  5
6C
100
AcDbEntity
  8
0
  6
CONTINUOUS
 62
     7
100
AcDbLine
 10
-435.30947
 20
348.0
 30
0.0
 11
-424.69052
 21
348.0
 31
0.0
  0
LINE
  5
6D
100
AcDbEntity
  8
0
  6
CONTINUOUS
 62
     7
100
AcDbLine
 10
-442.0
 20
353.0
 30
0.0
 11
-424.69052
 21
353.0
 31
0.0
  0
LINE
  5
6E
100
AcDbEntity
  8
0
  6
CENTER
 62
     7
100
AcDbLine
 10
-474.30948
 20
363.0
 30
0.0
 11
-417.69052
 21
363.0
 31
0.0
  0
LINE
  5
6F
100
AcDbEntity
  8
0
  6
CONTINUOUS
 62
     7
100
AcDbLine
 10
-456.69053
 20
353.0
 30
0.0
 11
-456.69053
 21
348.0
 31
0.0
  0
LINE
  5
70
100
AcDbEntity
  8
0
  6
CONTINUOUS
 62
     7
100
AcDbLine
 10
-450.0
 20
344.79999
 30
0.0
 11
-442.0
 21
344.79999
 31
0.0
  0
LINE
  5
71
100
AcDbEntity
  8
0
  6
CENTER
 62
     7
100
AcDbLine
 10
-430.0
 20
336.0
 30
0.0
 11
-430.0
 21
390.0
 31
0.0
  0
LINE
  5
72
100
AcDbEntity
  8
0
  6
CONTINUOUS
 62
     7
100
AcDbLine
 10
-450.0
 20
344.79999
 30
0.0
 11
-450.0
 21
353.0
 31
0.0
  0
LINE
  5
73
100
AcDbEntity
  8
0
  6
CONTINUOUS
 62
     7
100
AcDbLine
 10
-442.0
 20
353.0
 30
0.0
 11
-442.0
 21
344.79999
 31
0.0
  0
LINE
  5
74
100
AcDbEntity
  8
0
  6
CONTINUOUS
 62
     7
100
AcDbLine
 10
-437.0
 20
373.0
 30
0.0
 11
-437.0
 21
353.0
 31
0.0
  0
LINE
  5
75
100
AcDbEntity
  8
0
  6
CONTINUOUS
 62
     7
100
AcDbLine
 10
-453.5
 20
373.0
 30
0.0
 11
-453.5
 21
353.0
 31
0.0
  0
LINE
  5
76
100
AcDbEntity
  8
0
  6
CONTINUOUS
 62
     7
100
AcDbLine
 10
-438.5
 20
373.0
 30
0.0
 11
-438.5
 21
353.0
 31
0.0
  0
LINE
  5
77
100
AcDbEntity
  8
0
  6
CONTINUOUS
 62
     7
100
AcDbLine
 10
-442.0
 20
381.19998
 30
0.0
 11
-442.0
 21
373.0
 31
0.0
  0
LINE
  5
78
100
AcDbEntity
  8
0
  6
CONTINUOUS
 62
     7
100
AcDbLine
 10
-456.69053
 20
373.0
 30
0.0
 11
-450.0
 21
373.0
 31
0.0
  0
LINE
  5
79
100
AcDbEntity
  8
0
  6
CONTINUOUS
 62
     7
100
AcDbLine
 10
-442.0
 20
373.0
 30
0.0
 11
-424.69052
 21
373.0
 31
0.0
  0
LINE
  5
7A
100
AcDbEntity
  8
0
  6
CONTINUOUS
 62
     7
100
AcDbLine
 10
-456.69053
 20
353.0
 30
0.0
 11
-450.0
 21
353.0
 31
0.0
  0
LINE
  5
7B
100
AcDbEntity
  8
0
  6
CONTINUOUS
 62
     7
100
AcDbLine
 10
-435.30947
 20
383.0
 30
0.0
 11
-467.30948
 21
383.0
 31
0.0
  0
LINE
  5
7C
100
AcDbEntity
  8
0
  6
CONTINUOUS
 62
     7
100
AcDbLine
 10
-435.30947
 20
343.0
 30
0.0
 11
-467.30948
 21
343.0
 31
0.0
  0
LINE
  5
7D
100
AcDbEntity
  8
0
  6
CENTER
 62
     7
100
AcDbLine
 10
-462.0
 20
336.0
 30
0.0
 11
-462.0
 21
390.0
 31
0.0
  0
LINE
  5
7E
100
AcDbEntity
  8
0
  6
CONTINUOUS
 62
     7
100
AcDbLine
 10
-467.30948
 20
348.0
 30
0.0
 11
-456.69053
 21
348.0
 31
0.0
  0
LINE
  5
7F
100
AcDbEntity
  8
0
  6
CONTINUOUS
 62
     7
100
AcDbLine
 10
-435.30947
 20
383.0
 30
0.0
 11
-435.30947
 21
378.0
 31
0.0
  0
LINE
  5
80
100
AcDbEntity
  8
0
  6
CONTINUOUS
 62
     7
100
AcDbLine
 10
-435.30947
 20
348.0
 30
0.0
 11
-435.30947
 21
343.0
 31
0.0
  0
LINE
  5
81
100
AcDbEntity
  8
0
  6
CONTINUOUS
 62
     7
100
AcDbLine
 10
-456.69053
 20
378.0
 30
0.0
 11
-456.69053
 21
373.0
 31
0.0
  0
LINE
  5
82
100
AcDbEntity
  8
0
  6
CONTINUOUS
 62
     7
100
AcDbLine
 10
-450.0
 20
380.5
 30
0.0
 11
-442.0
 21
380.5
 31
0.0
  0
LINE
  5
83
100
AcDbEntity
  8
0
  6
CONTINUOUS
 62
     7
100
AcDbLine
 10
-450.0
 20
345.5
 30
0.0
 11
-442.0
 21
345.5
 31
0.0
  0
POINT
  5
84
100
AcDbEntity
  8
0
  6
CONTINUOUS
 62
     7
100
AcDbPoint
 10
-430.0
 20
287.0
 30
0.0
  0
POINT
  5
85
100
AcDbEntity
  8
0
  6
CONTINUOUS
 62
     7
100
AcDbPoint
 10
-424.0
 20
287.0
 30
0.0
  0
LINE
  5
86
100
AcDbEntity
  8
0
  6
CONTINUOUS
 62
     7
100
AcDbLine
 10
-432.5
 20
283.877
 30
0.0
 11
-432.5
 21
290.12201
 31
0.0
  0
LINE
  5
87
100
AcDbEntity
  8
0
  6
CONTINUOUS
 62
     7
100
AcDbLine
 10
-462.0
 20
276.0
 30
0.0
 11
-430.0
 21
276.0
 31
0.0
  0
LINE
  5
88
100
AcDbEntity
  8
0
  6
CENTER
 62
     7
100
AcDbLine
 10
-462.0
 20
293.0
 30
0.0
 11
-462.0
 21
281.0
 31
0.0
  0
LINE
  5
89
100
AcDbEntity
  8
0
  6
CENTER
 62
     7
100
AcDbLine
 10
-436.0
 20
287.0
 30
0.0
 11
-424.0
 21
287.0
 31
0.0
  0
LINE
  5
8A
100
AcDbEntity
  8
0
  6
CONTINUOUS
 62
     7
100
AcDbLine
 10
-462.0
 20
298.0
 30
0.0
 11
-430.0
 21
298.0
 31
0.0
  0
LINE
  5
8B
100
AcDbEntity
  8
0
  6
CENTER
 62
     7
100
AcDbLine
 10
-430.0
 20
293.0
 30
0.0
 11
-430.0
 21
281.0
 31
0.0
  0
LINE
  5
8C
100
AcDbEntity
  8
0
  6
CENTER
 62
     7
100
AcDbLine
 10
-456.0
 20
287.0
 30
0.0
 11
-468.0
 21
287.0
 31
0.0
  0
LINE
  5
8D
100
AcDbEntity
  8
0
  6
CONTINUOUS
 62
     7
100
AcDbLine
 10
-438.74467
 20
279.53135
 30
0.0
 11
-436.43299
 21
276.82472
 31
0.0
  0
CIRCLE
  5
8E
100
AcDbEntity
  8
0
  6
CONTINUOUS
 62
     7
100
AcDbCircle
 10
-430.0
 20
287.0
 30
0.0
 40
4.0
  0
ARC
  5
8F
100
AcDbEntity
  8
0
  6
CONTINUOUS
 62
     7
100
AcDbCircle
 10
-436.8132
 20
276.5
 30
0.0
 40
0.5
100
AcDbArc
 50
270.0
 51
40.499999
  0
CIRCLE
  5
90
100
AcDbEntity
  8
0
  6
CONTINUOUS
 62
     7
100
AcDbCircle
 10
-430.0
 20
287.0
 30
0.0
 40
4.0
  0
ARC
  5
91
100
AcDbEntity
  8
0
  6
CONTINUOUS
 62
     7
100
AcDbCircle
 10
-462.0
 20
287.0
 30
0.0
 40
11.0
100
AcDbArc
 50
90.000003
 51
270.0
  0
ARC
  5
92
100
AcDbEntity
  8
0
  6
CONTINUOUS
 62
     7
100
AcDbCircle
 10
-430.0
 20
287.0
 30
0.0
 40
11.5
100
AcDbArc
 50
118.95503
 51
220.49999
  0
ARC
  5
93
100
AcDbEntity
  8
0
  6
CONTINUOUS
 62
     7
100
AcDbCircle
 10
-435.80947
 20
297.5
 30
0.0
 40
0.5
100
AcDbArc
 50
298.95503
 51
90.000003
  0
CIRCLE
  5
94
100
AcDbEntity
  8
0
  6
CONTINUOUS
 62
     7
100
AcDbCircle
 10
-430.0
 20
287.0
 30
0.0
 40
4.0
  0
CIRCLE
  5
95
100
AcDbEntity
  8
0
  6
CONTINUOUS
 62
     7
100
AcDbCircle
 10
-430.0
 20
287.0
 30
0.0
 40
4.0
  0
POINT
  5
96
100
AcDbEntity
  8
0
  6
CONTINUOUS
 62
     7
100
AcDbPoint
 10
-430.0
 20
211.0
 30
0.0
  0
POINT
  5
97
100
AcDbEntity
  8
0
  6
CONTINUOUS
 62
     7
100
AcDbPoint
 10
-417.69052
 20
211.0
 30
0.0
  0
LINE
  5
98
100
AcDbEntity
  8
0
  6
CONTINUOUS
 62
     7
100
AcDbLine
 10
-456.69053
 20
221.0
 30
0.0
 11
-455.0
 21
221.0
 31
0.0
  0
LINE
  5
99
100
AcDbEntity
  8
0
  6
CONTINUOUS
 62
     7
100
AcDbLine
 10
-437.0
 20
221.0
 30
0.0
 11
-437.0
 21
201.0
 31
0.0
  0
LINE
  5
9A
100
AcDbEntity
  8
0
  6
CENTER
 62
     7
100
AcDbLine
 10
-430.0
 20
184.0
 30
0.0
 11
-430.0
 21
238.0
 31
0.0
  0
LINE
  5
9B
100
AcDbEntity
  8
0
  6
CONTINUOUS
 62
     7
100
AcDbLine
 10
-456.69053
 20
201.0
 30
0.0
 11
-456.69053
 21
196.0
 31
0.0
  0
LINE
  5
9C
100
AcDbEntity
  8
0
  6
CENTER
 62
     7
100
AcDbLine
 10
-475.3132
 20
211.0
 30
0.0
 11
-417.69052
 21
211.0
 31
0.0
  0
LINE
  5
9D
100
AcDbEntity
  8
0
  6
CONTINUOUS
 62
     7
100
AcDbLine
 10
-437.0
 20
201.0
 30
0.0
 11
-424.69052
 21
201.0
 31
0.0
  0
LINE
  5
9E
100
AcDbEntity
  8
0
  6
CONTINUOUS
 62
     7
100
AcDbLine
 10
-436.3132
 20
196.0
 30
0.0
 11
-424.69052
 21
196.0
 31
0.0
  0
LINE
  5
9F
100
AcDbEntity
  8
0
  6
CONTINUOUS
 62
     7
100
AcDbLine
 10
-455.0
 20
201.0
 30
0.0
 11
-455.0
 21
221.0
 31
0.0
  0
LINE
  5
A0
100
AcDbEntity
  8
0
  6
CONTINUOUS
 62
     7
100
AcDbLine
 10
-436.3132
 20
226.0
 30
0.0
 11
-424.69052
 21
226.0
 31
0.0
  0
LINE
  5
A1
100
AcDbEntity
  8
0
  6
CONTINUOUS
 62
     7
100
AcDbLine
 10
-468.3132
 20
226.0
 30
0.0
 11
-456.69053
 21
226.0
 31
0.0
  0
LINE
  5
A2
100
AcDbEntity
  8
0
  6
CONTINUOUS
 62
     7
100
AcDbLine
 10
-437.0
 20
221.0
 30
0.0
 11
-424.69052
 21
221.0
 31
0.0
  0
LINE
  5
A3
100
AcDbEntity
  8
0
  6
CONTINUOUS
 62
     7
100
AcDbLine
 10
-456.69053
 20
201.0
 30
0.0
 11
-455.0
 21
201.0
 31
0.0
  0
LINE
  5
A4
100
AcDbEntity
  8
0
  6
CONTINUOUS
 62
     7
100
AcDbLine
 10
-436.3132
 20
231.0
 30
0.0
 11
-468.3132
 21
231.0
 31
0.0
  0
LINE
  5
A5
100
AcDbEntity
  8
0
  6
CONTINUOUS
 62
     7
100
AcDbLine
 10
-436.3132
 20
191.0
 30
0.0
 11
-468.3132
 21
191.0
 31
0.0
  0
LINE
  5
A6
100
AcDbEntity
  8
0
  6
CENTER
 62
     7
100
AcDbLine
 10
-462.0
 20
184.0
 30
0.0
 11
-462.0
 21
238.0
 31
0.0
  0
LINE
  5
A7
100
AcDbEntity
  8
0
  6
CONTINUOUS
 62
     7
100
AcDbLine
 10
-468.3132
 20
196.0
 30
0.0
 11
-456.69053
 21
196.0
 31
0.0
  0
LINE
  5
A8
100
AcDbEntity
  8
0
  6
CONTINUOUS
 62
     7
100
AcDbLine
 10
-456.69053
 20
226.0
 30
0.0
 11
-456.69053
 21
221.0
 31
0.0
  0
LINE
  5
A9
100
AcDbEntity
  8
0
  6
CONTINUOUS
 62
     7
100
AcDbLine
 10
-436.3132
 20
191.0
 30
0.0
 11
-436.3132
 21
196.0
 31
0.0
  0
LINE
  5
AA
100
AcDbEntity
  8
0
  6
CONTINUOUS
 62
     7
100
AcDbLine
 10
-436.3132
 20
226.0
 30
0.0
 11
-436.3132
 21
231.0
 31
0.0
  0
POINT
  5
AB
100
AcDbEntity
  8
0
  6
CONTINUOUS
 62
     7
100
AcDbPoint
 10
-315.0
 20
354.29999
 30
0.0
  0
POINT
  5
AC
100
AcDbEntity
  8
0
  6
CONTINUOUS
 62
     7
100
AcDbPoint
 10
-297.0
 20
354.29999
 30
0.0
  0
LINE
  5
AD
100
AcDbEntity
  8
0
  6
CENTER
 62
     7
100
AcDbLine
 10
-315.0
 20
359.19999
 30
0.0
 11
-315.0
 21
349.39999
 31
0.0
  0
LINE
  5
AE
100
AcDbEntity
  8
0
  6
CENTER
 62
     7
100
AcDbLine
 10
-297.0
 20
359.19999
 30
0.0
 11
-297.0
 21
349.39999
 31
0.0
  0
LINE
  5
AF
100
AcDbEntity
  8
0
  6
CENTER
 62
     7
100
AcDbLine
 10
-292.1
 20
354.29999
 30
0.0
 11
-301.9
 21
354.29999
 31
0.0
  0
LINE
  5
B0
100
AcDbEntity
  8
0
  6
CONTINUOUS
 62
     7
100
AcDbLine
 10
-338.30947
 20
346.29999
 30
0.0
 11
-290.0
 21
346.29999
 31
0.0
  0
LINE
  5
B1
100
AcDbEntity
  8
0
  6
CONTINUOUS
 62
     7
100
AcDbLine
 10
-319.0
 20
360.29999
 30
0.0
 11
-293.0
 21
360.29999
 31
0.0
  0
LINE
  5
B2
100
AcDbEntity
  8
0
  6
CONTINUOUS
 62
     7
100
AcDbLine
 10
-290.0
 20
346.29999
 30
0.0
 11
-290.0
 21
357.29999
 31
0.0
  0
LINE
  5
B3
100
AcDbEntity
  8
0
  6
CONTINUOUS
 62
     7
100
AcDbLine
 10
-290.0
 20
368.69999
 30
0.0
 11
-290.0
 21
379.69999
 31
0.0
  0
LINE
  5
B4
100
AcDbEntity
  8
0
  6
CONTINUOUS
 62
     7
100
AcDbLine
 10
-322.0
 20
368.69999
 30
0.0
 11
-322.0
 21
379.69999
 31
0.0
  0
LINE
  5
B5
100
AcDbEntity
  8
0
  6
CONTINUOUS
 62
     7
100
AcDbLine
 10
-338.30947
 20
348.29999
 30
0.0
 11
-322.0
 21
348.29999
 31
0.0
  0
LINE
  5
B6
100
AcDbEntity
  8
0
  6
CONTINUOUS
 62
     7
100
AcDbLine
 10
-338.30947
 20
377.69999
 30
0.0
 11
-322.0
 21
377.69999
 31
0.0
  0
LINE
  5
B7
100
AcDbEntity
  8
0
  6
CENTER
 62
     7
100
AcDbLine
 10
-310.1
 20
371.69999
 30
0.0
 11
-319.9
 21
371.69999
 31
0.0
  0
LINE
  5
B8
100
AcDbEntity
  8
0
  6
CONTINUOUS
 62
     7
100
AcDbLine
 10
-322.0
 20
346.29999
 30
0.0
 11
-322.0
 21
357.29999
 31
0.0
  0
LINE
  5
B9
100
AcDbEntity
  8
0
  6
CONTINUOUS
 62
     7
100
AcDbLine
 10
-338.30947
 20
379.69999
 30
0.0
 11
-290.0
 21
379.69999
 31
0.0
  0
LINE
  5
BA
100
AcDbEntity
  8
0
  6
CONTINUOUS
 62
     7
100
AcDbLine
 10
-319.0
 20
365.69999
 30
0.0
 11
-293.0
 21
365.69999
 31
0.0
  0
LINE
  5
BB
100
AcDbEntity
  8
0
  6
CENTER
 62
     7
100
AcDbLine
 10
-310.1
 20
354.29999
 30
0.0
 11
-319.9
 21
354.29999
 31
0.0
  0
LINE
  5
BC
100
AcDbEntity
  8
0
  6
CENTER
 62
     7
100
AcDbLine
 10
-315.0
 20
376.59999
 30
0.0
 11
-315.0
 21
366.79999
 31
0.0
  0
LINE
  5
BD
100
AcDbEntity
  8
0
  6
CONTINUOUS
 62
     7
100
AcDbLine
 10
-370.30948
 20
377.99999
 30
0.0
 11
-359.69053
 21
377.99999
 31
0.0
  0
LINE
  5
BE
100
AcDbEntity
  8
0
  6
CENTER
 62
     7
100
AcDbLine
 10
-355.0
 20
376.99999
 30
0.0
 11
-343.0
 21
376.99999
 31
0.0
  0
LINE
  5
BF
100
AcDbEntity
  8
0
  6
CONTINUOUS
 62
     7
100
AcDbLine
 10
-353.0
 20
381.19997
 30
0.0
 11
-345.0
 21
381.19997
 31
0.0
  0
LINE
  5
C0
100
AcDbEntity
  8
0
  6
CONTINUOUS
 62
     7
100
AcDbLine
 10
-353.0
 20
381.19997
 30
0.0
 11
-353.0
 21
372.99999
 31
0.0
  0
LINE
  5
C1
100
AcDbEntity
  8
0
  6
CONTINUOUS
 62
     7
100
AcDbLine
 10
-358.0
 20
352.99999
 30
0.0
 11
-358.0
 21
372.99999
 31
0.0
  0
LINE
  5
C2
100
AcDbEntity
  8
0
  6
CENTER
 62
     7
100
AcDbLine
 10
-355.0
 20
348.99999
 30
0.0
 11
-343.0
 21
348.99999
 31
0.0
  0
LINE
  5
C3
100
AcDbEntity
  8
0
  6
CONTINUOUS
 62
     7
100
AcDbLine
 10
-345.0
 20
352.99999
 30
0.0
 11
-322.0
 21
352.99999
 31
0.0
  0
LINE
  5
C4
100
AcDbEntity
  8
0
  6
CENTER
 62
     7
100
AcDbLine
 10
-377.30948
 20
362.99999
 30
0.0
 11
-320.6905
 21
362.99999
 31
0.0
  0
LINE
  5
C5
100
AcDbEntity
  8
0
  6
CONTINUOUS
 62
     7
100
AcDbLine
 10
-359.69053
 20
352.99999
 30
0.0
 11
-359.69053
 21
347.99999
 31
0.0
  0
LINE
  5
C6
100
AcDbEntity
  8
0
  6
CONTINUOUS
 62
     7
100
AcDbLine
 10
-353.0
 20
344.79998
 30
0.0
 11
-345.0
 21
344.79998
 31
0.0
  0
LINE
  5
C7
100
AcDbEntity
  8
0
  6
CENTER
 62
     7
100
AcDbLine
 10
-333.0
 20
335.99999
 30
0.0
 11
-333.0
 21
389.99999
 31
0.0
  0
LINE
  5
C8
100
AcDbEntity
  8
0
  6
CONTINUOUS
 62
     7
100
AcDbLine
 10
-353.0
 20
344.79998
 30
0.0
 11
-353.0
 21
352.99999
 31
0.0
  0
LINE
  5
C9
100
AcDbEntity
  8
0
  6
CONTINUOUS
 62
     7
100
AcDbLine
 10
-345.0
 20
352.99999
 30
0.0
 11
-345.0
 21
344.79998
 31
0.0
  0
LINE
  5
CA
100
AcDbEntity
  8
0
  6
CONTINUOUS
 62
     7
100
AcDbLine
 10
-340.0
 20
372.99999
 30
0.0
 11
-340.0
 21
352.99999
 31
0.0
  0
LINE
  5
CB
100
AcDbEntity
  8
0
  6
CONTINUOUS
 62
     7
100
AcDbLine
 10
-356.5
 20
372.99999
 30
0.0
 11
-356.5
 21
352.99999
 31
0.0
  0
LINE
  5
CC
100
AcDbEntity
  8
0
  6
CONTINUOUS
 62
     7
100
AcDbLine
 10
-341.5
 20
372.99999
 30
0.0
 11
-341.5
 21
352.99999
 31
0.0
  0
LINE
  5
CD
100
AcDbEntity
  8
0
  6
CONTINUOUS
 62
     7
100
AcDbLine
 10
-345.0
 20
381.19997
 30
0.0
 11
-345.0
 21
372.99999
 31
0.0
  0
LINE
  5
CE
100
AcDbEntity
  8
0
  6
CONTINUOUS
 62
     7
100
AcDbLine
 10
-359.69053
 20
372.99999
 30
0.0
 11
-353.0
 21
372.99999
 31
0.0
  0
LINE
  5
CF
100
AcDbEntity
  8
0
  6
CONTINUOUS
 62
     7
100
AcDbLine
 10
-345.0
 20
372.99999
 30
0.0
 11
-322.0
 21
372.99999
 31
0.0
  0
LINE
  5
D0
100
AcDbEntity
  8
0
  6
CONTINUOUS
 62
     7
100
AcDbLine
 10
-359.69053
 20
352.99999
 30
0.0
 11
-353.0
 21
352.99999
 31
0.0
  0
LINE
  5
D1
100
AcDbEntity
  8
0
  6
CONTINUOUS
 62
     7
100
AcDbLine
 10
-338.30947
 20
382.99999
 30
0.0
 11
-370.30948
 21
382.99999
 31
0.0
  0
LINE
  5
D2
100
AcDbEntity
  8
0
  6
CONTINUOUS
 62
     7
100
AcDbLine
 10
-338.30947
 20
342.99999
 30
0.0
 11
-370.30948
 21
342.99999
 31
0.0
  0
LINE
  5
D3
100
AcDbEntity
  8
0
  6
CENTER
 62
     7
100
AcDbLine
 10
-365.0
 20
335.99999
 30
0.0
 11
-365.0
 21
389.99999
 31
0.0
  0
LINE
  5
D4
100
AcDbEntity
  8
0
  6
CONTINUOUS
 62
     7
100
AcDbLine
 10
-370.30948
 20
347.99999
 30
0.0
 11
-359.69053
 21
347.99999
 31
0.0
  0
LINE
  5
D5
100
AcDbEntity
  8
0
  6
CONTINUOUS
 62
     7
100
AcDbLine
 10
-338.30947
 20
382.99999
 30
0.0
 11
-338.30947
 21
377.69999
 31
0.0
  0
LINE
  5
D6
100
AcDbEntity
  8
0
  6
CONTINUOUS
 62
     7
100
AcDbLine
 10
-338.30947
 20
348.29999
 30
0.0
 11
-338.30947
 21
342.99999
 31
0.0
  0
LINE
  5
D7
100
AcDbEntity
  8
0
  6
CONTINUOUS
 62
     7
100
AcDbLine
 10
-359.69053
 20
377.99999
 30
0.0
 11
-359.69053
 21
372.99999
 31
0.0
  0
LINE
  5
D8
100
AcDbEntity
  8
0
  6
CONTINUOUS
 62
     7
100
AcDbLine
 10
-353.0
 20
380.49999
 30
0.0
 11
-345.0
 21
380.49999
 31
0.0
  0
LINE
  5
D9
100
AcDbEntity
  8
0
  6
CONTINUOUS
 62
     7
100
AcDbLine
 10
-353.0
 20
345.49999
 30
0.0
 11
-345.0
 21
345.49999
 31
0.0
  0
LINE
  5
DA
100
AcDbEntity
  8
0
  6
CENTER
 62
     7
100
AcDbLine
 10
-292.1
 20
371.69999
 30
0.0
 11
-301.9
 21
371.69999
 31
0.0
  0
LINE
  5
DB
100
AcDbEntity
  8
0
  6
CENTER
 62
     7
100
AcDbLine
 10
-297.0
 20
376.59999
 30
0.0
 11
-297.0
 21
366.79999
 31
0.0
  0
CIRCLE
  5
DC
100
AcDbEntity
  8
0
  6
CONTINUOUS
 62
     7
100
AcDbCircle
 10
-315.0
 20
371.69999
 30
0.0
 40
2.9
  0
CIRCLE
  5
DD
100
AcDbEntity
  8
0
  6
CONTINUOUS
 62
     7
100
AcDbCircle
 10
-315.0
 20
354.29999
 30
0.0
 40
2.9
  0
CIRCLE
  5
DE
100
AcDbEntity
  8
0
  6
CONTINUOUS
 62
     7
100
AcDbCircle
 10
-297.0
 20
371.69999
 30
0.0
 40
2.9
  0
ARC
  5
DF
100
AcDbEntity
  8
0
  6
CONTINUOUS
 62
     7
100
AcDbCircle
 10
-319.0
 20
357.29999
 30
0.0
 40
3.0
100
AcDbArc
 50
90.000003
 51
180.00001
  0
CIRCLE
  5
E0
100
AcDbEntity
  8
0
  6
CONTINUOUS
 62
     7
100
AcDbCircle
 10
-297.0
 20
354.29999
 30
0.0
 40
2.9
  0
ARC
  5
E1
100
AcDbEntity
  8
0
  6
CONTINUOUS
 62
     7
100
AcDbCircle
 10
-293.0
 20
357.29999
 30
0.0
 40
3.0
100
AcDbArc
 50
0.0
 51
90.000003
  0
ARC
  5
E2
100
AcDbEntity
  8
0
  6
CONTINUOUS
 62
     7
100
AcDbCircle
 10
-319.0
 20
368.69999
 30
0.0
 40
3.0
100
AcDbArc
 50
179.99999
 51
270.0
  0
ARC
  5
E3
100
AcDbEntity
  8
0
  6
CONTINUOUS
 62
     7
100
AcDbCircle
 10
-293.0
 20
368.69999
 30
0.0
 40
3.0
100
AcDbArc
 50
270.0
 51
0.0
  0
POINT
  5
E4
100
AcDbEntity
  8
0
  6
CONTINUOUS
 62
     7
100
AcDbPoint
 10
-315.0
 20
298.0
 30
0.0
  0
POINT
  5
E5
100
AcDbEntity
  8
0
  6
CONTINUOUS
 62
     7
100
AcDbPoint
 10
-297.0
 20
298.0
 30
0.0
  0
LINE
  5
E6
100
AcDbEntity
  8
0
  6
CENTER
 62
     7
100
AcDbLine
 10
-333.0
 20
293.0
 30
0.0
 11
-333.0
 21
281.0
 31
0.0
  0
LINE
  5
E7
100
AcDbEntity
  8
0
  6
CONTINUOUS
 62
     7
100
AcDbLine
 10
-335.5
 20
283.877
 30
0.0
 11
-335.5
 21
290.12201
 31
0.0
  0
LINE
  5
E8
100
AcDbEntity
  8
0
  6
CONTINUOUS
 62
     7
100
AcDbLine
 10
-365.0
 20
276.0
 30
0.0
 11
-332.84601
 21
276.0
 31
0.0
  0
LINE
  5
E9
100
AcDbEntity
  8
0
  6
CONTINUOUS
 62
     7
100
AcDbLine
 10
-339.69901
 20
286.90001
 30
0.0
 11
-343.68301
 21
286.90001
 31
0.0
  0
LINE
  5
EA
100
AcDbEntity
  8
0
  6
CONTINUOUS
 62
     7
100
AcDbLine
 10
-342.66
 20
291.10001
 30
0.0
 11
-338.29901
 21
291.10001
 31
0.0
  0
LINE
  5
EB
100
AcDbEntity
  8
0
  6
DASHED
 62
     7
100
AcDbLine
 10
-322.0
 20
296.0
 30
0.0
 11
-290.0
 21
296.0
 31
0.0
  0
LINE
  5
EC
100
AcDbEntity
  8
0
  6
CENTER
 62
     7
100
AcDbLine
 10
-365.0
 20
293.0
 30
0.0
 11
-365.0
 21
281.0
 31
0.0
  0
LINE
  5
ED
100
AcDbEntity
  8
0
  6
CENTER
 62
     7
100
AcDbLine
 10
-339.0
 20
287.0
 30
0.0
 11
-327.0
 21
287.0
 31
0.0
  0
LINE
  5
EE
100
AcDbEntity
  8
0
  6
CONTINUOUS
 62
     7
100
AcDbLine
 10
-365.0
 20
298.0
 30
0.0
 11
-327.0
 21
298.0
 31
0.0
  0
LINE
  5
EF
100
AcDbEntity
  8
0
  6
CENTER
 62
     7
100
AcDbLine
 10
-359.0
 20
287.0
 30
0.0
 11
-371.0
 21
287.0
 31
0.0
  0
LINE
  5
F0
100
AcDbEntity
  8
0
  6
CONTINUOUS
 62
     7
100
AcDbLine
 10
-341.74467
 20
279.53135
 30
0.0
 11
-339.43299
 21
276.82472
 31
0.0
  0
LINE
  5
F1
100
AcDbEntity
  8
0
  6
CONTINUOUS
 62
     7
100
AcDbLine
 10
-329.05786
 20
276.67286
 30
0.0
 11
-297.34567
 21
288.30535
 31
0.0
  0
LINE
  5
F2
100
AcDbEntity
  8
0
  6
CENTER
 62
     7
100
AcDbLine
 10
-315.0
 20
303.0
 30
0.0
 11
-315.0
 21
291.0
 31
0.0
  0
LINE
  5
F3
100
AcDbEntity
  8
0
  6
DASHED
 62
     7
100
AcDbLine
 10
-322.0
 20
298.0
 30
0.0
 11
-322.0
 21
296.0
 31
0.0
  0
LINE
  5
F4
100
AcDbEntity
  8
0
  6
CONTINUOUS
 62
     7
100
AcDbLine
 10
-290.0
 20
298.0
 30
0.0
 11
-290.0
 21
296.0
 31
0.0
  0
LINE
  5
F5
100
AcDbEntity
  8
0
  6
CENTER
 62
     7
100
AcDbLine
 10
-297.0
 20
303.0
 30
0.0
 11
-297.0
 21
291.0
 31
0.0
  0
CIRCLE
  5
F6
100
AcDbEntity
  8
0
  6
CONTINUOUS
 62
     7
100
AcDbCircle
 10
-333.0
 20
287.0
 30
0.0
 40
4.0
  0
ARC
  5
F7
100
AcDbEntity
  8
0
  6
CONTINUOUS
 62
     7
100
AcDbCircle
 10
-332.84601
 20
287.0
 30
0.0
 40
11.0
100
AcDbArc
 50
270.0002
 51
290.1438
  0
ARC
  5
F8
100
AcDbEntity
  8
0
  6
CONTINUOUS
 62
     7
100
AcDbCircle
 10
-324.5
 20
298.0
 30
0.0
 40
2.5
100
AcDbArc
 50
179.99999
 51
0.00001
  0
ARC
  5
F9
100
AcDbEntity
  8
0
  6
CONTINUOUS
 62
     7
100
AcDbCircle
 10
-343.68301
 20
286.40001
 30
0.0
 40
0.5
100
AcDbArc
 50
90.000699
 51
183.215
  0
ARC
  5
FA
100
AcDbEntity
  8
0
  6
CONTINUOUS
 62
     7
100
AcDbCircle
 10
-333.0
 20
287.0
 30
0.0
 40
11.2
100
AcDbArc
 50
183.21453
 51
259.15594
  0
ARC
  5
FB
100
AcDbEntity
  8
0
  6
CONTINUOUS
 62
     7
100
AcDbCircle
 10
-333.0
 20
287.0
 30
0.0
 40
6.7
100
AcDbArc
 50
142.269
 51
180.85499
  0
ARC
  5
FC
100
AcDbEntity
  8
0
  6
CONTINUOUS
 62
     7
100
AcDbCircle
 10
-342.66
 20
291.60001
 30
0.0
 40
0.5
100
AcDbArc
 50
154.54
 51
270.0
  0
ARC
  5
FD
100
AcDbEntity
  8
0
  6
CONTINUOUS
 62
     7
100
AcDbCircle
 10
-333.0
 20
287.0
 30
0.0
 40
11.2
100
AcDbArc
 50
100.84406
 51
154.53664
  0
ARC
  5
FE
100
AcDbEntity
  8
0
  6
CONTINUOUS
 62
     7
100
AcDbCircle
 10
-299.79796
 20
298.0
 30
0.0
 40
10.0
100
AcDbArc
 50
284.19534
 51
348.46304
  0
CIRCLE
  5
FF
100
AcDbEntity
  8
0
  6
CONTINUOUS
 62
     7
100
AcDbCircle
 10
-333.0
 20
287.0
 30
0.0
 40
4.0
  0
ARC
  5
100
100
AcDbEntity
  8
0
  6
CONTINUOUS
 62
     7
100
AcDbCircle
 10
-339.8132
 20
276.5
 30
0.0
 40
0.5
100
AcDbArc
 50
270.0
 51
40.499999
  0
ARC
  5
101
100
AcDbEntity
  8
0
  6
CONTINUOUS
 62
     7
100
AcDbCircle
 10
-365.0
 20
287.0
 30
0.0
 40
11.0
100
AcDbArc
 50
90.000003
 51
270.0
  0
ARC
  5
102
100
AcDbEntity
  8
0
  6
CONTINUOUS
 62
     7
100
AcDbCircle
 10
-333.0
 20
287.0
 30
0.0
 40
11.5
100
AcDbArc
 50
118.95503
 51
220.49999
  0
ARC
  5
103
100
AcDbEntity
  8
0
  6
CONTINUOUS
 62
     7
100
AcDbCircle
 10
-338.80947
 20
297.5
 30
0.0
 40
0.5
100
AcDbArc
 50
298.95503
 51
90.000003
  0
CIRCLE
  5
104
100
AcDbEntity
  8
0
  6
CONTINUOUS
 62
     7
100
AcDbCircle
 10
-333.0
 20
287.0
 30
0.0
 40
4.0
  0
CIRCLE
  5
105
100
AcDbEntity
  8
0
  6
CONTINUOUS
 62
     7
100
AcDbCircle
 10
-333.0
 20
287.0
 30
0.0
 40
4.0
  0
POLYLINE
  5
106
100
AcDbEntity
  8
0
  6
CONTINUOUS
 62
     7
100
AcDb2dPolyline
 66
     1
 10
0.0
 20
0.0
 30
0.0
  0
VERTEX
  5
107
100
AcDbEntity
  8
0
  6
CONTINUOUS
 62
     7
100
AcDbVertex
100
AcDb2dVertex
 10
-322.0
 20
298.0
 30
0.0
  0
VERTEX
  5
108
100
AcDbEntity
  8
0
  6
CONTINUOUS
 62
     7
100
AcDbVertex
100
AcDb2dVertex
 10
-290.00002
 20
298.0
 30
0.0
  0
SEQEND
  5
109
100
AcDbEntity
  8
0
 62
     7
  0
POINT
  5
10A
100
AcDbEntity
  8
0
  6
CONTINUOUS
 62
     7
100
AcDbPoint
 10
-315.0
 20
219.7
 30
0.0
  0
POINT
  5
10B
100
AcDbEntity
  8
0
  6
CONTINUOUS
 62
     7
100
AcDbPoint
 10
-297.0
 20
219.7
 30
0.0
  0
LINE
  5
10C
100
AcDbEntity
  8
0
  6
CENTER
 62
     7
100
AcDbLine
 10
-297.0
 20
207.2
 30
0.0
 11
-297.0
 21
197.4
 31
0.0
  0
LINE
  5
10D
100
AcDbEntity
  8
0
  6
CENTER
 62
     7
100
AcDbLine
 10
-315.0
 20
207.2
 30
0.0
 11
-315.0
 21
197.4
 31
0.0
  0
LINE
  5
10E
100
AcDbEntity
  8
0
  6
CONTINUOUS
 62
     7
100
AcDbLine
 10
-319.0
 20
213.7
 30
0.0
 11
-293.0
 21
213.7
 31
0.0
  0
LINE
  5
10F
100
AcDbEntity
  8
0
  6
CONTINUOUS
 62
     7
100
AcDbLine
 10
-339.3132
 20
227.7
 30
0.0
 11
-290.0
 21
227.7
 31
0.0
  0
LINE
  5
110
100
AcDbEntity
  8
0
  6
CONTINUOUS
 62
     7
100
AcDbLine
 10
-322.0
 20
196.3
 30
0.0
 11
-322.0
 21
205.3
 31
0.0
  0
LINE
  5
111
100
AcDbEntity
  8
0
  6
CENTER
 62
     7
100
AcDbLine
 10
-292.1
 20
202.3
 30
0.0
 11
-301.9
 21
202.3
 31
0.0
  0
LINE
  5
112
100
AcDbEntity
  8
0
  6
CENTER
 62
     7
100
AcDbLine
 10
-310.1
 20
202.3
 30
0.0
 11
-319.9
 21
202.3
 31
0.0
  0
LINE
  5
113
100
AcDbEntity
  8
0
  6
CENTER
 62
     7
100
AcDbLine
 10
-297.0
 20
224.6
 30
0.0
 11
-297.0
 21
214.8
 31
0.0
  0
LINE
  5
114
100
AcDbEntity
  8
0
  6
CENTER
 62
     7
100
AcDbLine
 10
-315.0
 20
224.6
 30
0.0
 11
-315.0
 21
214.8
 31
0.0
  0
LINE
  5
115
100
AcDbEntity
  8
0
  6
CONTINUOUS
 62
     7
100
AcDbLine
 10
-359.69053
 20
226.0
 30
0.0
 11
-359.69053
 21
221.0
 31
0.0
  0
LINE
  5
116
100
AcDbEntity
  8
0
  6
CONTINUOUS
 62
     7
100
AcDbLine
 10
-371.3132
 20
196.0
 30
0.0
 11
-359.69053
 21
196.0
 31
0.0
  0
LINE
  5
117
100
AcDbEntity
  8
0
  6
CENTER
 62
     7
100
AcDbLine
 10
-365.0
 20
184.0
 30
0.0
 11
-365.0
 21
238.0
 31
0.0
  0
LINE
  5
118
100
AcDbEntity
  8
0
  6
CONTINUOUS
 62
     7
100
AcDbLine
 10
-339.3132
 20
191.0
 30
0.0
 11
-371.3132
 21
191.0
 31
0.0
  0
LINE
  5
119
100
AcDbEntity
  8
0
  6
CONTINUOUS
 62
     7
100
AcDbLine
 10
-339.3132
 20
231.0
 30
0.0
 11
-371.3132
 21
231.0
 31
0.0
  0
LINE
  5
11A
100
AcDbEntity
  8
0
  6
CONTINUOUS
 62
     7
100
AcDbLine
 10
-359.69053
 20
201.0
 30
0.0
 11
-358.0
 21
201.0
 31
0.0
  0
LINE
  5
11B
100
AcDbEntity
  8
0
  6
CONTINUOUS
 62
     7
100
AcDbLine
 10
-340.0
 20
221.0
 30
0.0
 11
-322.0
 21
221.0
 31
0.0
  0
LINE
  5
11C
100
AcDbEntity
  8
0
  6
CONTINUOUS
 62
     7
100
AcDbLine
 10
-371.3132
 20
226.0
 30
0.0
 11
-359.69053
 21
226.0
 31
0.0
  0
LINE
  5
11D
100
AcDbEntity
  8
0
  6
CONTINUOUS
 62
     7
100
AcDbLine
 10
-358.0
 20
201.0
 30
0.0
 11
-358.0
 21
221.0
 31
0.0
  0
LINE
  5
11E
100
AcDbEntity
  8
0
  6
CONTINUOUS
 62
     7
100
AcDbLine
 10
-340.0
 20
201.0
 30
0.0
 11
-322.0
 21
201.0
 31
0.0
  0
LINE
  5
11F
100
AcDbEntity
  8
0
  6
CENTER
 62
     7
100
AcDbLine
 10
-378.3132
 20
211.0
 30
0.0
 11
-319.6868
 21
211.0
 31
0.0
  0
LINE
  5
120
100
AcDbEntity
  8
0
  6
CONTINUOUS
 62
     7
100
AcDbLine
 10
-359.69053
 20
201.0
 30
0.0
 11
-359.69053
 21
196.0
 31
0.0
  0
LINE
  5
121
100
AcDbEntity
  8
0
  6
CENTER
 62
     7
100
AcDbLine
 10
-333.0
 20
184.0
 30
0.0
 11
-333.0
 21
238.0
 31
0.0
  0
LINE
  5
122
100
AcDbEntity
  8
0
  6
CONTINUOUS
 62
     7
100
AcDbLine
 10
-340.0
 20
221.0
 30
0.0
 11
-340.0
 21
201.0
 31
0.0
  0
LINE
  5
123
100
AcDbEntity
  8
0
  6
CONTINUOUS
 62
     7
100
AcDbLine
 10
-359.69053
 20
221.0
 30
0.0
 11
-358.0
 21
221.0
 31
0.0
  0
LINE
  5
124
100
AcDbEntity
  8
0
  6
CONTINUOUS
 62
     7
100
AcDbLine
 10
-290.0
 20
216.7
 30
0.0
 11
-290.0
 21
227.7
 31
0.0
  0
LINE
  5
125
100
AcDbEntity
  8
0
  6
CONTINUOUS
 62
     7
100
AcDbLine
 10
-290.0
 20
194.3
 30
0.0
 11
-290.0
 21
205.3
 31
0.0
  0
LINE
  5
126
100
AcDbEntity
  8
0
  6
CONTINUOUS
 62
     7
100
AcDbLine
 10
-322.0
 20
216.7
 30
0.0
 11
-322.0
 21
225.7
 31
0.0
  0
LINE
  5
127
100
AcDbEntity
  8
0
  6
CONTINUOUS
 62
     7
100
AcDbLine
 10
-339.3132
 20
225.7
 30
0.0
 11
-290.0
 21
225.7
 31
0.0
  0
LINE
  5
128
100
AcDbEntity
  8
0
  6
CONTINUOUS
 62
     7
100
AcDbLine
 10
-339.3132
 20
194.3
 30
0.0
 11
-290.0
 21
194.3
 31
0.0
  0
LINE
  5
129
100
AcDbEntity
  8
0
  6
CENTER
 62
     7
100
AcDbLine
 10
-292.1
 20
219.7
 30
0.0
 11
-301.9
 21
219.7
 31
0.0
  0
LINE
  5
12A
100
AcDbEntity
  8
0
  6
CONTINUOUS
 62
     7
100
AcDbLine
 10
-319.0
 20
208.3
 30
0.0
 11
-293.0
 21
208.3
 31
0.0
  0
LINE
  5
12B
100
AcDbEntity
  8
0
  6
CENTER
 62
     7
100
AcDbLine
 10
-310.1
 20
219.7
 30
0.0
 11
-319.9
 21
219.7
 31
0.0
  0
LINE
  5
12C
100
AcDbEntity
  8
0
  6
CONTINUOUS
 62
     7
100
AcDbLine
 10
-339.3132
 20
196.3
 30
0.0
 11
-290.0
 21
196.3
 31
0.0
  0
LINE
  5
12D
100
AcDbEntity
  8
0
  6
CONTINUOUS
 62
     7
100
AcDbLine
 10
-339.3132
 20
191.0
 30
0.0
 11
-339.3132
 21
196.3
 31
0.0
  0
LINE
  5
12E
100
AcDbEntity
  8
0
  6
CONTINUOUS
 62
     7
100
AcDbLine
 10
-339.3132
 20
225.7
 30
0.0
 11
-339.3132
 21
231.0
 31
0.0
  0
ARC
  5
12F
100
AcDbEntity
  8
0
  6
CONTINUOUS
 62
     7
100
AcDbCircle
 10
-293.0
 20
216.7
 30
0.0
 40
3.0
100
AcDbArc
 50
270.0
 51
0.0
  0
ARC
  5
130
100
AcDbEntity
  8
0
  6
CONTINUOUS
 62
     7
100
AcDbCircle
 10
-319.0
 20
216.7
 30
0.0
 40
3.0
100
AcDbArc
 50
179.99999
 51
270.0
  0
ARC
  5
131
100
AcDbEntity
  8
0
  6
CONTINUOUS
 62
     7
100
AcDbCircle
 10
-293.0
 20
205.3
 30
0.0
 40
3.0
100
AcDbArc
 50
0.0
 51
90.000003
  0
CIRCLE
  5
132
100
AcDbEntity
  8
0
  6
CONTINUOUS
 62
     7
100
AcDbCircle
 10
-297.0
 20
202.3
 30
0.0
 40
2.9
  0
ARC
  5
133
100
AcDbEntity
  8
0
  6
CONTINUOUS
 62
     7
100
AcDbCircle
 10
-319.0
 20
205.3
 30
0.0
 40
3.0
100
AcDbArc
 50
90.000003
 51
180.00001
  0
CIRCLE
  5
134
100
AcDbEntity
  8
0
  6
CONTINUOUS
 62
     7
100
AcDbCircle
 10
-297.0
 20
219.7
 30
0.0
 40
2.9
  0
CIRCLE
  5
135
100
AcDbEntity
  8
0
  6
CONTINUOUS
 62
     7
100
AcDbCircle
 10
-315.0
 20
202.3
 30
0.0
 40
2.9
  0
CIRCLE
  5
136
100
AcDbEntity
  8
0
  6
CONTINUOUS
 62
     7
100
AcDbCircle
 10
-315.0
 20
219.7
 30
0.0
 40
2.9
  0
POINT
  5
137
100
AcDbEntity
  8
0
  6
CONTINUOUS
 62
     7
100
AcDbPoint
 10
-230.0
 20
298.0
 30
0.0
  0
POINT
  5
138
100
AcDbEntity
  8
0
  6
CONTINUOUS
 62
     7
100
AcDbPoint
 10
-212.60004
 20
298.0
 30
0.0
  0
LINE
  5
139
100
AcDbEntity
  8
0
  6
CENTER
 62
     7
100
AcDbLine
 10
-230.0
 20
303.0
 30
0.0
 11
-230.0
 21
293.0
 31
0.0
  0
LINE
  5
13A
100
AcDbEntity
  8
0
  6
CENTER
 62
     7
100
AcDbLine
 10
-212.60004
 20
293.0
 30
0.0
 11
-212.60004
 21
303.0
 31
0.0
  0
LINE
  5
13B
100
AcDbEntity
  8
0
  6
CENTER
 62
     7
100
AcDbLine
 10
-248.30002
 20
287.0
 30
0.0
 11
-194.30002
 21
287.0
 31
0.0
  0
LINE
  5
13C
100
AcDbEntity
  8
0
  6
CONTINUOUS
 62
     7
100
AcDbLine
 10
-218.60004
 20
296.0
 30
0.0
 11
-218.60004
 21
298.0
 31
0.0
  0
LINE
  5
13D
100
AcDbEntity
  8
0
  6
CONTINUOUS
 62
     7
100
AcDbLine
 10
-224.0
 20
298.0
 30
0.0
 11
-224.0
 21
296.0
 31
0.0
  0
LINE
  5
13E
100
AcDbEntity
  8
0
  6
CONTINUOUS
 62
     7
100
AcDbLine
 10
-228.80002
 20
280.0
 30
0.0
 11
-213.80002
 21
280.0
 31
0.0
  0
LINE
  5
13F
100
AcDbEntity
  8
0
  6
CONTINUOUS
 62
     7
100
AcDbLine
 10
-231.30002
 20
296.0
 30
0.0
 11
-231.30002
 21
276.0
 31
0.0
  0
LINE
  5
140
100
AcDbEntity
  8
0
  6
CONTINUOUS
 62
     7
100
AcDbLine
 10
-241.30002
 20
298.0
 30
0.0
 11
-241.30002
 21
276.0
 31
0.0
  0
LINE
  5
141
100
AcDbEntity
  8
0
  6
CONTINUOUS
 62
     7
100
AcDbLine
 10
-224.0
 20
298.0
 30
0.0
 11
-241.30002
 21
298.0
 31
0.0
  0
LINE
  5
142
100
AcDbEntity
  8
0
  6
CONTINUOUS
 62
     7
100
AcDbLine
 10
-238.0
 20
298.0
 30
0.0
 11
-238.0
 21
276.0
 31
0.0
  0
LINE
  5
143
100
AcDbEntity
  8
0
  6
CONTINUOUS
 62
     7
100
AcDbLine
 10
-211.30002
 20
276.0
 30
0.0
 11
-211.30002
 21
296.0
 31
0.0
  0
LINE
  5
144
100
AcDbEntity
  8
0
  6
CONTINUOUS
 62
     7
100
AcDbLine
 10
-201.30002
 20
276.0
 30
0.0
 11
-201.30002
 21
298.0
 31
0.0
  0
LINE
  5
145
100
AcDbEntity
  8
0
  6
CONTINUOUS
 62
     7
100
AcDbLine
 10
-204.60004
 20
276.0
 30
0.0
 11
-204.60004
 21
298.0
 31
0.0
  0
LINE
  5
146
100
AcDbEntity
  8
0
  6
CONTINUOUS
 62
     7
100
AcDbLine
 10
-224.0
 20
296.0
 30
0.0
 11
-236.0
 21
296.0
 31
0.0
  0
LINE
  5
147
100
AcDbEntity
  8
0
  6
CONTINUOUS
 62
     7
100
AcDbLine
 10
-206.60004
 20
296.0
 30
0.0
 11
-218.60004
 21
296.0
 31
0.0
  0
LINE
  5
148
100
AcDbEntity
  8
0
  6
CONTINUOUS
 62
     7
100
AcDbLine
 10
-211.30002
 20
294.0
 30
0.0
 11
-231.30002
 21
294.0
 31
0.0
  0
LINE
  5
149
100
AcDbEntity
  8
0
  6
CENTER
 62
     7
100
AcDbLine
 10
-221.30002
 20
305.0
 30
0.0
 11
-221.30002
 21
269.0
 31
0.0
  0
LINE
  5
14A
100
AcDbEntity
  8
0
  6
CONTINUOUS
 62
     7
100
AcDbLine
 10
-218.60004
 20
297.5
 30
0.0
 11
-224.0
 21
297.5
 31
0.0
  0
LINE
  5
14B
100
AcDbEntity
  8
0
  6
CONTINUOUS
 62
     7
100
AcDbLine
 10
-206.60004
 20
276.0
 30
0.0
 11
-206.60004
 21
296.0
 31
0.0
  0
LINE
  5
14C
100
AcDbEntity
  8
0
  6
CONTINUOUS
 62
     7
100
AcDbLine
 10
-236.0
 20
296.0
 30
0.0
 11
-236.0
 21
276.0
 31
0.0
  0
LINE
  5
14D
100
AcDbEntity
  8
0
  6
CONTINUOUS
 62
     7
100
AcDbLine
 10
-201.30002
 20
298.0
 30
0.0
 11
-218.60004
 21
298.0
 31
0.0
  0
LINE
  5
14E
100
AcDbEntity
  8
0
  6
CONTINUOUS
 62
     7
100
AcDbLine
 10
-241.30002
 20
276.0
 30
0.0
 11
-201.30002
 21
276.0
 31
0.0
  0
ARC
  5
14F
100
AcDbEntity
  8
0
  6
CONTINUOUS
 62
     7
100
AcDbCircle
 10
-228.80002
 20
282.5
 30
0.0
 40
2.5
100
AcDbArc
 50
180.00001
 51
270.0
  0
ARC
  5
150
100
AcDbEntity
  8
0
  6
CONTINUOUS
 62
     7
100
AcDbCircle
 10
-213.80002
 20
282.5
 30
0.0
 40
2.5
100
AcDbArc
 50
270.0
 51
0.0
  0
POINT
  5
151
100
AcDbEntity
  8
0
  6
CONTINUOUS
 62
     7
100
AcDbPoint
 10
-100.0
 20
354.29999
 30
0.0
  0
POINT
  5
152
100
AcDbEntity
  8
0
  6
CONTINUOUS
 62
     7
100
AcDbPoint
 10
-82.0
 20
354.29999
 30
0.0
  0
LINE
  5
153
100
AcDbEntity
  8
0
  6
CONTINUOUS
 62
     7
100
AcDbLine
 10
-130.0
 20
372.99999
 30
0.0
 11
-107.0
 21
372.99999
 31
0.0
  0
LINE
  5
154
100
AcDbEntity
  8
0
  6
CONTINUOUS
 62
     7
100
AcDbLine
 10
-138.0
 20
345.49999
 30
0.0
 11
-130.0
 21
345.49999
 31
0.0
  0
LINE
  5
155
100
AcDbEntity
  8
0
  6
CONTINUOUS
 62
     7
100
AcDbLine
 10
-138.0
 20
380.49999
 30
0.0
 11
-130.0
 21
380.49999
 31
0.0
  0
LINE
  5
156
100
AcDbEntity
  8
0
  6
CONTINUOUS
 62
     7
100
AcDbLine
 10
-144.69053
 20
377.99999
 30
0.0
 11
-144.69053
 21
372.99999
 31
0.0
  0
LINE
  5
157
100
AcDbEntity
  8
0
  6
CONTINUOUS
 62
     7
100
AcDbLine
 10
-144.69053
 20
372.99999
 30
0.0
 11
-138.0
 21
372.99999
 31
0.0
  0
LINE
  5
158
100
AcDbEntity
  8
0
  6
CONTINUOUS
 62
     7
100
AcDbLine
 10
-130.0
 20
381.19997
 30
0.0
 11
-130.0
 21
372.99999
 31
0.0
  0
LINE
  5
159
100
AcDbEntity
  8
0
  6
CONTINUOUS
 62
     7
100
AcDbLine
 10
-126.5
 20
372.99999
 30
0.0
 11
-126.5
 21
352.99999
 31
0.0
  0
LINE
  5
15A
100
AcDbEntity
  8
0
  6
CONTINUOUS
 62
     7
100
AcDbLine
 10
-141.5
 20
372.99999
 30
0.0
 11
-141.5
 21
352.99999
 31
0.0
  0
LINE
  5
15B
100
AcDbEntity
  8
0
  6
CONTINUOUS
 62
     7
100
AcDbLine
 10
-125.0
 20
372.99999
 30
0.0
 11
-125.0
 21
352.99999
 31
0.0
  0
LINE
  5
15C
100
AcDbEntity
  8
0
  6
CONTINUOUS
 62
     7
100
AcDbLine
 10
-130.0
 20
352.99999
 30
0.0
 11
-130.0
 21
344.79998
 31
0.0
  0
LINE
  5
15D
100
AcDbEntity
  8
0
  6
CONTINUOUS
 62
     7
100
AcDbLine
 10
-138.0
 20
344.79998
 30
0.0
 11
-138.0
 21
352.99999
 31
0.0
  0
LINE
  5
15E
100
AcDbEntity
  8
0
  6
CENTER
 62
     7
100
AcDbLine
 10
-118.0
 20
335.99999
 30
0.0
 11
-118.0
 21
389.99999
 31
0.0
  0
LINE
  5
15F
100
AcDbEntity
  8
0
  6
CONTINUOUS
 62
     7
100
AcDbLine
 10
-138.0
 20
344.79998
 30
0.0
 11
-130.0
 21
344.79998
 31
0.0
  0
LINE
  5
160
100
AcDbEntity
  8
0
  6
CONTINUOUS
 62
     7
100
AcDbLine
 10
-144.69053
 20
352.99999
 30
0.0
 11
-144.69053
 21
347.99999
 31
0.0
  0
LINE
  5
161
100
AcDbEntity
  8
0
  6
CENTER
 62
     7
100
AcDbLine
 10
-162.3095
 20
362.99999
 30
0.0
 11
-105.6905
 21
362.99999
 31
0.0
  0
LINE
  5
162
100
AcDbEntity
  8
0
  6
CONTINUOUS
 62
     7
100
AcDbLine
 10
-130.0
 20
352.99999
 30
0.0
 11
-107.0
 21
352.99999
 31
0.0
  0
LINE
  5
163
100
AcDbEntity
  8
0
  6
CENTER
 62
     7
100
AcDbLine
 10
-140.0
 20
348.99999
 30
0.0
 11
-128.0
 21
348.99999
 31
0.0
  0
LINE
  5
164
100
AcDbEntity
  8
0
  6
CONTINUOUS
 62
     7
100
AcDbLine
 10
-143.0
 20
352.99999
 30
0.0
 11
-143.0
 21
372.99999
 31
0.0
  0
LINE
  5
165
100
AcDbEntity
  8
0
  6
CONTINUOUS
 62
     7
100
AcDbLine
 10
-138.0
 20
381.19997
 30
0.0
 11
-138.0
 21
372.99999
 31
0.0
  0
LINE
  5
166
100
AcDbEntity
  8
0
  6
CONTINUOUS
 62
     7
100
AcDbLine
 10
-138.0
 20
381.19997
 30
0.0
 11
-130.0
 21
381.19997
 31
0.0
  0
LINE
  5
167
100
AcDbEntity
  8
0
  6
CENTER
 62
     7
100
AcDbLine
 10
-140.0
 20
376.99999
 30
0.0
 11
-128.0
 21
376.99999
 31
0.0
  0
LINE
  5
168
100
AcDbEntity
  8
0
  6
CONTINUOUS
 62
     7
100
AcDbLine
 10
-155.30948
 20
377.99999
 30
0.0
 11
-144.69053
 21
377.99999
 31
0.0
  0
LINE
  5
169
100
AcDbEntity
  8
0
  6
CENTER
 62
     7
100
AcDbLine
 10
-82.0
 20
359.19999
 30
0.0
 11
-82.0
 21
349.39999
 31
0.0
  0
LINE
  5
16A
100
AcDbEntity
  8
0
  6
CENTER
 62
     7
100
AcDbLine
 10
-95.1
 20
354.29999
 30
0.0
 11
-104.9
 21
354.29999
 31
0.0
  0
LINE
  5
16B
100
AcDbEntity
  8
0
  6
CONTINUOUS
 62
     7
100
AcDbLine
 10
-104.0
 20
365.69999
 30
0.0
 11
-78.0
 21
365.69999
 31
0.0
  0
LINE
  5
16C
100
AcDbEntity
  8
0
  6
CONTINUOUS
 62
     7
100
AcDbLine
 10
-123.30947
 20
379.69999
 30
0.0
 11
-75.0
 21
379.69999
 31
0.0
  0
LINE
  5
16D
100
AcDbEntity
  8
0
  6
CONTINUOUS
 62
     7
100
AcDbLine
 10
-107.0
 20
348.29999
 30
0.0
 11
-107.0
 21
357.29999
 31
0.0
  0
LINE
  5
16E
100
AcDbEntity
  8
0
  6
CENTER
 62
     7
100
AcDbLine
 10
-77.1
 20
354.29999
 30
0.0
 11
-86.9
 21
354.29999
 31
0.0
  0
LINE
  5
16F
100
AcDbEntity
  8
0
  6
CENTER
 62
     7
100
AcDbLine
 10
-100.0
 20
359.19999
 30
0.0
 11
-100.0
 21
349.39999
 31
0.0
  0
LINE
  5
170
100
AcDbEntity
  8
0
  6
CONTINUOUS
 62
     7
100
AcDbLine
 10
-123.30947
 20
377.69999
 30
0.0
 11
-75.0
 21
377.69999
 31
0.0
  0
LINE
  5
171
100
AcDbEntity
  8
0
  6
CONTINUOUS
 62
     7
100
AcDbLine
 10
-123.30947
 20
348.29999
 30
0.0
 11
-75.0
 21
348.29999
 31
0.0
  0
LINE
  5
172
100
AcDbEntity
  8
0
  6
CONTINUOUS
 62
     7
100
AcDbLine
 10
-123.30947
 20
348.29999
 30
0.0
 11
-123.30947
 21
342.99999
 31
0.0
  0
LINE
  5
173
100
AcDbEntity
  8
0
  6
CONTINUOUS
 62
     7
100
AcDbLine
 10
-107.0
 20
368.69999
 30
0.0
 11
-107.0
 21
377.69999
 31
0.0
  0
LINE
  5
174
100
AcDbEntity
  8
0
  6
CONTINUOUS
 62
     7
100
AcDbLine
 10
-123.30947
 20
382.99999
 30
0.0
 11
-123.30947
 21
377.69999
 31
0.0
  0
LINE
  5
175
100
AcDbEntity
  8
0
  6
CONTINUOUS
 62
     7
100
AcDbLine
 10
-155.30948
 20
347.99999
 30
0.0
 11
-144.69053
 21
347.99999
 31
0.0
  0
LINE
  5
176
100
AcDbEntity
  8
0
  6
CONTINUOUS
 62
     7
100
AcDbLine
 10
-75.0
 20
368.69999
 30
0.0
 11
-75.0
 21
379.69999
 31
0.0
  0
LINE
  5
177
100
AcDbEntity
  8
0
  6
CENTER
 62
     7
100
AcDbLine
 10
-150.0
 20
335.99999
 30
0.0
 11
-150.0
 21
389.99999
 31
0.0
  0
LINE
  5
178
100
AcDbEntity
  8
0
  6
CONTINUOUS
 62
     7
100
AcDbLine
 10
-123.30947
 20
342.99999
 30
0.0
 11
-155.30948
 21
342.99999
 31
0.0
  0
LINE
  5
179
100
AcDbEntity
  8
0
  6
CONTINUOUS
 62
     7
100
AcDbLine
 10
-123.30947
 20
382.99999
 30
0.0
 11
-155.30948
 21
382.99999
 31
0.0
  0
LINE
  5
17A
100
AcDbEntity
  8
0
  6
CONTINUOUS
 62
     7
100
AcDbLine
 10
-144.69053
 20
352.99999
 30
0.0
 11
-138.0
 21
352.99999
 31
0.0
  0
LINE
  5
17B
100
AcDbEntity
  8
0
  6
CONTINUOUS
 62
     7
100
AcDbLine
 10
-75.0
 20
346.29999
 30
0.0
 11
-75.0
 21
357.29999
 31
0.0
  0
LINE
  5
17C
100
AcDbEntity
  8
0
  6
CONTINUOUS
 62
     7
100
AcDbLine
 10
-104.0
 20
360.29999
 30
0.0
 11
-78.0
 21
360.29999
 31
0.0
  0
LINE
  5
17D
100
AcDbEntity
  8
0
  6
CONTINUOUS
 62
     7
100
AcDbLine
 10
-123.30947
 20
346.29999
 30
0.0
 11
-75.0
 21
346.29999
 31
0.0
  0
LINE
  5
17E
100
AcDbEntity
  8
0
  6
CENTER
 62
     7
100
AcDbLine
 10
-95.1
 20
371.69999
 30
0.0
 11
-104.9
 21
371.69999
 31
0.0
  0
LINE
  5
17F
100
AcDbEntity
  8
0
  6
CENTER
 62
     7
100
AcDbLine
 10
-77.1
 20
371.69999
 30
0.0
 11
-86.9
 21
371.69999
 31
0.0
  0
LINE
  5
180
100
AcDbEntity
  8
0
  6
CENTER
 62
     7
100
AcDbLine
 10
-82.0
 20
376.59999
 30
0.0
 11
-82.0
 21
366.79999
 31
0.0
  0
LINE
  5
181
100
AcDbEntity
  8
0
  6
CENTER
 62
     7
100
AcDbLine
 10
-100.0
 20
376.59999
 30
0.0
 11
-100.0
 21
366.79999
 31
0.0
  0
ARC
  5
182
100
AcDbEntity
  8
0
  6
CONTINUOUS
 62
     7
100
AcDbCircle
 10
-78.0
 20
368.69999
 30
0.0
 40
3.0
100
AcDbArc
 50
270.0
 51
0.0
  0
ARC
  5
183
100
AcDbEntity
  8
0
  6
CONTINUOUS
 62
     7
100
AcDbCircle
 10
-104.0
 20
368.69999
 30
0.0
 40
3.0
100
AcDbArc
 50
179.99999
 51
270.0
  0
ARC
  5
184
100
AcDbEntity
  8
0
  6
CONTINUOUS
 62
     7
100
AcDbCircle
 10
-78.0
 20
357.29999
 30
0.0
 40
3.0
100
AcDbArc
 50
0.0
 51
90.000003
  0
CIRCLE
  5
185
100
AcDbEntity
  8
0
  6
CONTINUOUS
 62
     7
100
AcDbCircle
 10
-82.0
 20
354.29999
 30
0.0
 40
2.9
  0
ARC
  5
186
100
AcDbEntity
  8
0
  6
CONTINUOUS
 62
     7
100
AcDbCircle
 10
-104.0
 20
357.29999
 30
0.0
 40
3.0
100
AcDbArc
 50
90.000003
 51
180.00001
  0
CIRCLE
  5
187
100
AcDbEntity
  8
0
  6
CONTINUOUS
 62
     7
100
AcDbCircle
 10
-82.0
 20
371.69999
 30
0.0
 40
2.9
  0
CIRCLE
  5
188
100
AcDbEntity
  8
0
  6
CONTINUOUS
 62
     7
100
AcDbCircle
 10
-100.0
 20
354.29999
 30
0.0
 40
2.9
  0
CIRCLE
  5
189
100
AcDbEntity
  8
0
  6
CONTINUOUS
 62
     7
100
AcDbCircle
 10
-100.0
 20
371.69999
 30
0.0
 40
2.9
  0
POINT
  5
18A
100
AcDbEntity
  8
0
  6
CONTINUOUS
 62
     7
100
AcDbPoint
 10
-100.0
 20
276.0
 30
0.0
  0
POINT
  5
18B
100
AcDbEntity
  8
0
  6
CONTINUOUS
 62
     7
100
AcDbPoint
 10
-82.0
 20
276.0
 30
0.0
  0
LINE
  5
18C
100
AcDbEntity
  8
0
  6
CONTINUOUS
 62
     7
100
AcDbLine
 10
-75.0
 20
276.0
 30
0.0
 11
-75.0
 21
278.0
 31
0.0
  0
LINE
  5
18D
100
AcDbEntity
  8
0
  6
DASHED
 62
     7
100
AcDbLine
 10
-107.0
 20
276.0
 30
0.0
 11
-107.0
 21
278.0
 31
0.0
  0
LINE
  5
18E
100
AcDbEntity
  8
0
  6
CENTER
 62
     7
100
AcDbLine
 10
-100.0
 20
271.0
 30
0.0
 11
-100.0
 21
283.0
 31
0.0
  0
LINE
  5
18F
100
AcDbEntity
  8
0
  6
CONTINUOUS
 62
     7
100
AcDbLine
 10
-114.05786
 20
297.32714
 30
0.0
 11
-82.345673
 21
285.69465
 31
0.0
  0
LINE
  5
190
100
AcDbEntity
  8
0
  6
CONTINUOUS
 62
     7
100
AcDbLine
 10
-126.74467
 20
279.53135
 30
0.0
 11
-124.43299
 21
276.82472
 31
0.0
  0
LINE
  5
191
100
AcDbEntity
  8
0
  6
CENTER
 62
     7
100
AcDbLine
 10
-144.0
 20
287.0
 30
0.0
 11
-156.0
 21
287.0
 31
0.0
  0
LINE
  5
192
100
AcDbEntity
  8
0
  6
CONTINUOUS
 62
     7
100
AcDbLine
 10
-150.0
 20
298.0
 30
0.0
 11
-117.84601
 21
298.0
 31
0.0
  0
LINE
  5
193
100
AcDbEntity
  8
0
  6
CENTER
 62
     7
100
AcDbLine
 10
-124.0
 20
287.0
 30
0.0
 11
-112.0
 21
287.0
 31
0.0
  0
LINE
  5
194
100
AcDbEntity
  8
0
  6
CENTER
 62
     7
100
AcDbLine
 10
-150.0
 20
293.0
 30
0.0
 11
-150.0
 21
281.0
 31
0.0
  0
LINE
  5
195
100
AcDbEntity
  8
0
  6
DASHED
 62
     7
100
AcDbLine
 10
-107.0
 20
278.0
 30
0.0
 11
-75.0
 21
278.0
 31
0.0
  0
LINE
  5
196
100
AcDbEntity
  8
0
  6
CONTINUOUS
 62
     7
100
AcDbLine
 10
-127.66
 20
291.10001
 30
0.0
 11
-123.29901
 21
291.10001
 31
0.0
  0
LINE
  5
197
100
AcDbEntity
  8
0
  6
CONTINUOUS
 62
     7
100
AcDbLine
 10
-124.69901
 20
286.90001
 30
0.0
 11
-128.68301
 21
286.90001
 31
0.0
  0
LINE
  5
198
100
AcDbEntity
  8
0
  6
CONTINUOUS
 62
     7
100
AcDbLine
 10
-150.0
 20
276.0
 30
0.0
 11
-112.0
 21
276.0
 31
0.0
  0
LINE
  5
199
100
AcDbEntity
  8
0
  6
CONTINUOUS
 62
     7
100
AcDbLine
 10
-120.5
 20
290.123
 30
0.0
 11
-120.5
 21
283.87799
 31
0.0
  0
LINE
  5
19A
100
AcDbEntity
  8
0
  6
CENTER
 62
     7
100
AcDbLine
 10
-118.0
 20
281.0
 30
0.0
 11
-118.0
 21
293.0
 31
0.0
  0
LINE
  5
19B
100
AcDbEntity
  8
0
  6
CENTER
 62
     7
100
AcDbLine
 10
-82.0
 20
271.0
 30
0.0
 11
-82.0
 21
283.0
 31
0.0
  0
CIRCLE
  5
19C
100
AcDbEntity
  8
0
  6
CONTINUOUS
 62
     7
100
AcDbCircle
 10
-118.0
 20
287.0
 30
0.0
 40
4.0
  0
CIRCLE
  5
19D
100
AcDbEntity
  8
0
  6
CONTINUOUS
 62
     7
100
AcDbCircle
 10
-118.0
 20
287.0
 30
0.0
 40
4.0
  0
ARC
  5
19E
100
AcDbEntity
  8
0
  6
CONTINUOUS
 62
     7
100
AcDbCircle
 10
-123.80947
 20
297.5
 30
0.0
 40
0.5
100
AcDbArc
 50
298.95503
 51
90.000003
  0
ARC
  5
19F
100
AcDbEntity
  8
0
  6
CONTINUOUS
 62
     7
100
AcDbCircle
 10
-118.0
 20
287.0
 30
0.0
 40
11.5
100
AcDbArc
 50
118.95503
 51
220.49999
  0
ARC
  5
1A0
100
AcDbEntity
  8
0
  6
CONTINUOUS
 62
     7
100
AcDbCircle
 10
-150.0
 20
287.0
 30
0.0
 40
11.0
100
AcDbArc
 50
90.000003
 51
270.0
  0
ARC
  5
1A1
100
AcDbEntity
  8
0
  6
CONTINUOUS
 62
     7
100
AcDbCircle
 10
-124.8132
 20
276.5
 30
0.0
 40
0.5
100
AcDbArc
 50
270.0
 51
40.499999
  0
CIRCLE
  5
1A2
100
AcDbEntity
  8
0
  6
CONTINUOUS
 62
     7
100
AcDbCircle
 10
-118.0
 20
287.0
 30
0.0
 40
4.0
  0
ARC
  5
1A3
100
AcDbEntity
  8
0
  6
CONTINUOUS
 62
     7
100
AcDbCircle
 10
-84.797959
 20
276.0
 30
0.0
 40
10.0
100
AcDbArc
 50
11.536959
 51
75.804656
  0
ARC
  5
1A4
100
AcDbEntity
  8
0
  6
CONTINUOUS
 62
     7
100
AcDbCircle
 10
-118.0
 20
287.0
 30
0.0
 40
11.2
100
AcDbArc
 50
100.84406
 51
154.53664
  0
ARC
  5
1A5
100
AcDbEntity
  8
0
  6
CONTINUOUS
 62
     7
100
AcDbCircle
 10
-127.66
 20
291.60001
 30
0.0
 40
0.5
100
AcDbArc
 50
154.54
 51
270.0
  0
ARC
  5
1A6
100
AcDbEntity
  8
0
  6
CONTINUOUS
 62
     7
100
AcDbCircle
 10
-118.0
 20
287.0
 30
0.0
 40
6.7
100
AcDbArc
 50
142.269
 51
180.85499
  0
ARC
  5
1A7
100
AcDbEntity
  8
0
  6
CONTINUOUS
 62
     7
100
AcDbCircle
 10
-118.0
 20
287.0
 30
0.0
 40
11.2
100
AcDbArc
 50
183.21453
 51
259.15594
  0
ARC
  5
1A8
100
AcDbEntity
  8
0
  6
CONTINUOUS
 62
     7
100
AcDbCircle
 10
-128.68301
 20
286.40001
 30
0.0
 40
0.5
100
AcDbArc
 50
90.000699
 51
183.215
  0
ARC
  5
1A9
100
AcDbEntity
  8
0
  6
CONTINUOUS
 62
     7
100
AcDbCircle
 10
-109.5
 20
276.0
 30
0.0
 40
2.5
100
AcDbArc
 50
0.0
 51
180.00001
  0
ARC
  5
1AA
100
AcDbEntity
  8
0
  6
CONTINUOUS
 62
     7
100
AcDbCircle
 10
-117.84601
 20
287.0
 30
0.0
 40
11.0
100
AcDbArc
 50
69.856197
 51
89.999798
  0
CIRCLE
  5
1AB
100
AcDbEntity
  8
0
  6
CONTINUOUS
 62
     7
100
AcDbCircle
 10
-118.0
 20
287.0
 30
0.0
 40
4.0
  0
POLYLINE
  5
1AC
100
AcDbEntity
  8
0
  6
CONTINUOUS
 62
     7
100
AcDb2dPolyline
 66
     1
 10
0.0
 20
0.0
 30
0.0
  0
VERTEX
  5
1AD
100
AcDbEntity
  8
0
  6
CONTINUOUS
 62
     7
100
AcDbVertex
100
AcDb2dVertex
 10
-107.0
 20
276.0
 30
0.0
  0
VERTEX
  5
1AE
100
AcDbEntity
  8
0
  6
CONTINUOUS
 62
     7
100
AcDbVertex
100
AcDb2dVertex
 10
-75.000015
 20
276.0
 30
0.0
  0
SEQEND
  5
1AF
100
AcDbEntity
  8
0
 62
     7
  0
POINT
  5
1B0
100
AcDbEntity
  8
0
  6
CONTINUOUS
 62
     7
100
AcDbPoint
 10
-100.0
 20
219.7
 30
0.0
  0
POINT
  5
1B1
100
AcDbEntity
  8
0
  6
CONTINUOUS
 62
     7
100
AcDbPoint
 10
-82.0
 20
219.7
 30
0.0
  0
LINE
  5
1B2
100
AcDbEntity
  8
0
  6
CONTINUOUS
 62
     7
100
AcDbLine
 10
-124.3132
 20
196.3
 30
0.0
 11
-107.0
 21
196.3
 31
0.0
  0
LINE
  5
1B3
100
AcDbEntity
  8
0
  6
CENTER
 62
     7
100
AcDbLine
 10
-100.0
 20
224.6
 30
0.0
 11
-100.0
 21
214.8
 31
0.0
  0
LINE
  5
1B4
100
AcDbEntity
  8
0
  6
CONTINUOUS
 62
     7
100
AcDbLine
 10
-104.0
 20
208.3
 30
0.0
 11
-78.0
 21
208.3
 31
0.0
  0
LINE
  5
1B5
100
AcDbEntity
  8
0
  6
CENTER
 62
     7
100
AcDbLine
 10
-82.0
 20
224.6
 30
0.0
 11
-82.0
 21
214.8
 31
0.0
  0
LINE
  5
1B6
100
AcDbEntity
  8
0
  6
CONTINUOUS
 62
     7
100
AcDbLine
 10
-124.3132
 20
194.3
 30
0.0
 11
-75.0
 21
194.3
 31
0.0
  0
LINE
  5
1B7
100
AcDbEntity
  8
0
  6
CONTINUOUS
 62
     7
100
AcDbLine
 10
-124.3132
 20
225.7
 30
0.0
 11
-107.0
 21
225.7
 31
0.0
  0
LINE
  5
1B8
100
AcDbEntity
  8
0
  6
CONTINUOUS
 62
     7
100
AcDbLine
 10
-107.0
 20
216.7
 30
0.0
 11
-107.0
 21
227.7
 31
0.0
  0
LINE
  5
1B9
100
AcDbEntity
  8
0
  6
CONTINUOUS
 62
     7
100
AcDbLine
 10
-75.0
 20
194.3
 30
0.0
 11
-75.0
 21
205.3
 31
0.0
  0
LINE
  5
1BA
100
AcDbEntity
  8
0
  6
CONTINUOUS
 62
     7
100
AcDbLine
 10
-75.0
 20
216.7
 30
0.0
 11
-75.0
 21
227.7
 31
0.0
  0
LINE
  5
1BB
100
AcDbEntity
  8
0
  6
CONTINUOUS
 62
     7
100
AcDbLine
 10
-144.69053
 20
221.0
 30
0.0
 11
-143.0
 21
221.0
 31
0.0
  0
LINE
  5
1BC
100
AcDbEntity
  8
0
  6
CONTINUOUS
 62
     7
100
AcDbLine
 10
-125.0
 20
221.0
 30
0.0
 11
-125.0
 21
201.0
 31
0.0
  0
LINE
  5
1BD
100
AcDbEntity
  8
0
  6
CENTER
 62
     7
100
AcDbLine
 10
-118.0
 20
184.0
 30
0.0
 11
-118.0
 21
238.0
 31
0.0
  0
LINE
  5
1BE
100
AcDbEntity
  8
0
  6
CONTINUOUS
 62
     7
100
AcDbLine
 10
-144.69053
 20
201.0
 30
0.0
 11
-144.69053
 21
196.0
 31
0.0
  0
LINE
  5
1BF
100
AcDbEntity
  8
0
  6
CENTER
 62
     7
100
AcDbLine
 10
-163.3132
 20
211.0
 30
0.0
 11
-104.6868
 21
211.0
 31
0.0
  0
LINE
  5
1C0
100
AcDbEntity
  8
0
  6
CONTINUOUS
 62
     7
100
AcDbLine
 10
-125.0
 20
201.0
 30
0.0
 11
-107.0
 21
201.0
 31
0.0
  0
LINE
  5
1C1
100
AcDbEntity
  8
0
  6
CONTINUOUS
 62
     7
100
AcDbLine
 10
-143.0
 20
201.0
 30
0.0
 11
-143.0
 21
221.0
 31
0.0
  0
LINE
  5
1C2
100
AcDbEntity
  8
0
  6
CONTINUOUS
 62
     7
100
AcDbLine
 10
-156.3132
 20
226.0
 30
0.0
 11
-144.69053
 21
226.0
 31
0.0
  0
LINE
  5
1C3
100
AcDbEntity
  8
0
  6
CONTINUOUS
 62
     7
100
AcDbLine
 10
-125.0
 20
221.0
 30
0.0
 11
-107.0
 21
221.0
 31
0.0
  0
LINE
  5
1C4
100
AcDbEntity
  8
0
  6
CONTINUOUS
 62
     7
100
AcDbLine
 10
-144.69053
 20
201.0
 30
0.0
 11
-143.0
 21
201.0
 31
0.0
  0
LINE
  5
1C5
100
AcDbEntity
  8
0
  6
CONTINUOUS
 62
     7
100
AcDbLine
 10
-124.3132
 20
231.0
 30
0.0
 11
-156.3132
 21
231.0
 31
0.0
  0
LINE
  5
1C6
100
AcDbEntity
  8
0
  6
CONTINUOUS
 62
     7
100
AcDbLine
 10
-124.3132
 20
191.0
 30
0.0
 11
-156.3132
 21
191.0
 31
0.0
  0
LINE
  5
1C7
100
AcDbEntity
  8
0
  6
CENTER
 62
     7
100
AcDbLine
 10
-150.0
 20
184.0
 30
0.0
 11
-150.0
 21
238.0
 31
0.0
  0
LINE
  5
1C8
100
AcDbEntity
  8
0
  6
CONTINUOUS
 62
     7
100
AcDbLine
 10
-156.3132
 20
196.0
 30
0.0
 11
-144.69053
 21
196.0
 31
0.0
  0
LINE
  5
1C9
100
AcDbEntity
  8
0
  6
CONTINUOUS
 62
     7
100
AcDbLine
 10
-144.69053
 20
226.0
 30
0.0
 11
-144.69053
 21
221.0
 31
0.0
  0
LINE
  5
1CA
100
AcDbEntity
  8
0
  6
CENTER
 62
     7
100
AcDbLine
 10
-95.1
 20
219.7
 30
0.0
 11
-104.9
 21
219.7
 31
0.0
  0
LINE
  5
1CB
100
AcDbEntity
  8
0
  6
CENTER
 62
     7
100
AcDbLine
 10
-77.1
 20
219.7
 30
0.0
 11
-86.9
 21
219.7
 31
0.0
  0
LINE
  5
1CC
100
AcDbEntity
  8
0
  6
CENTER
 62
     7
100
AcDbLine
 10
-95.1
 20
202.3
 30
0.0
 11
-104.9
 21
202.3
 31
0.0
  0
LINE
  5
1CD
100
AcDbEntity
  8
0
  6
CENTER
 62
     7
100
AcDbLine
 10
-77.1
 20
202.3
 30
0.0
 11
-86.9
 21
202.3
 31
0.0
  0
LINE
  5
1CE
100
AcDbEntity
  8
0
  6
CONTINUOUS
 62
     7
100
AcDbLine
 10
-107.0
 20
194.3
 30
0.0
 11
-107.0
 21
205.3
 31
0.0
  0
LINE
  5
1CF
100
AcDbEntity
  8
0
  6
CONTINUOUS
 62
     7
100
AcDbLine
 10
-124.3132
 20
227.7
 30
0.0
 11
-75.0
 21
227.7
 31
0.0
  0
LINE
  5
1D0
100
AcDbEntity
  8
0
  6
CONTINUOUS
 62
     7
100
AcDbLine
 10
-104.0
 20
213.7
 30
0.0
 11
-78.0
 21
213.7
 31
0.0
  0
LINE
  5
1D1
100
AcDbEntity
  8
0
  6
CENTER
 62
     7
100
AcDbLine
 10
-100.0
 20
207.2
 30
0.0
 11
-100.0
 21
197.4
 31
0.0
  0
LINE
  5
1D2
100
AcDbEntity
  8
0
  6
CENTER
 62
     7
100
AcDbLine
 10
-82.0
 20
207.2
 30
0.0
 11
-82.0
 21
197.4
 31
0.0
  0
LINE
  5
1D3
100
AcDbEntity
  8
0
  6
CONTINUOUS
 62
     7
100
AcDbLine
 10
-124.3132
 20
191.0
 30
0.0
 11
-124.3132
 21
196.3
 31
0.0
  0
LINE
  5
1D4
100
AcDbEntity
  8
0
  6
CONTINUOUS
 62
     7
100
AcDbLine
 10
-124.3132
 20
225.7
 30
0.0
 11
-124.3132
 21
231.0
 31
0.0
  0
CIRCLE
  5
1D5
100
AcDbEntity
  8
0
  6
CONTINUOUS
 62
     7
100
AcDbCircle
 10
-100.0
 20
219.7
 30
0.0
 40
2.9
  0
CIRCLE
  5
1D6
100
AcDbEntity
  8
0
  6
CONTINUOUS
 62
     7
100
AcDbCircle
 10
-100.0
 20
202.3
 30
0.0
 40
2.9
  0
CIRCLE
  5
1D7
100
AcDbEntity
  8
0
  6
CONTINUOUS
 62
     7
100
AcDbCircle
 10
-82.0
 20
219.7
 30
0.0
 40
2.9
  0
ARC
  5
1D8
100
AcDbEntity
  8
0
  6
CONTINUOUS
 62
     7
100
AcDbCircle
 10
-104.0
 20
205.3
 30
0.0
 40
3.0
100
AcDbArc
 50
90.000003
 51
180.00001
  0
CIRCLE
  5
1D9
100
AcDbEntity
  8
0
  6
CONTINUOUS
 62
     7
100
AcDbCircle
 10
-82.0
 20
202.3
 30
0.0
 40
2.9
  0
ARC
  5
1DA
100
AcDbEntity
  8
0
  6
CONTINUOUS
 62
     7
100
AcDbCircle
 10
-78.0
 20
205.3
 30
0.0
 40
3.0
100
AcDbArc
 50
0.0
 51
90.000003
  0
ARC
  5
1DB
100
AcDbEntity
  8
0
  6
CONTINUOUS
 62
     7
100
AcDbCircle
 10
-104.0
 20
216.7
 30
0.0
 40
3.0
100
AcDbArc
 50
179.99999
 51
270.0
  0
ARC
  5
1DC
100
AcDbEntity
  8
0
  6
CONTINUOUS
 62
     7
100
AcDbCircle
 10
-78.0
 20
216.7
 30
0.0
 40
3.0
100
AcDbArc
 50
270.0
 51
0.0
  0
POINT
  5
1DD
100
AcDbEntity
  8
0
  6
CONTINUOUS
 62
     7
100
AcDbPoint
 10
-10.0
 20
276.0
 30
0.0
  0
POINT
  5
1DE
100
AcDbEntity
  8
0
  6
CONTINUOUS
 62
     7
100
AcDbPoint
 10
7.39996
 20
276.0
 30
0.0
  0
LINE
  5
1DF
100
AcDbEntity
  8
0
  6
CENTER
 62
     7
100
AcDbLine
 10
7.39996
 20
281.0
 30
0.0
 11
7.39996
 21
271.0
 31
0.0
  0
LINE
  5
1E0
100
AcDbEntity
  8
0
  6
CENTER
 62
     7
100
AcDbLine
 10
-10.0
 20
281.0
 30
0.0
 11
-10.0
 21
271.0
 31
0.0
  0
LINE
  5
1E1
100
AcDbEntity
  8
0
  6
CONTINUOUS
 62
     7
100
AcDbLine
 10
-4.0
 20
278.0
 30
0.0
 11
-4.0
 21
276.0
 31
0.0
  0
LINE
  5
1E2
100
AcDbEntity
  8
0
  6
CONTINUOUS
 62
     7
100
AcDbLine
 10
1.39996
 20
276.0
 30
0.0
 11
1.39996
 21
278.0
 31
0.0
  0
LINE
  5
1E3
100
AcDbEntity
  8
0
  6
CONTINUOUS
 62
     7
100
AcDbLine
 10
1.39996
 20
278.0
 30
0.0
 11
13.39996
 21
278.0
 31
0.0
  0
LINE
  5
1E4
100
AcDbEntity
  8
0
  6
CONTINUOUS
 62
     7
100
AcDbLine
 10
-16.0
 20
278.0
 30
0.0
 11
-4.0
 21
278.0
 31
0.0
  0
LINE
  5
1E5
100
AcDbEntity
  8
0
  6
CONTINUOUS
 62
     7
100
AcDbLine
 10
-18.0
 20
298.0
 30
0.0
 11
-18.0
 21
276.0
 31
0.0
  0
LINE
  5
1E6
100
AcDbEntity
  8
0
  6
CONTINUOUS
 62
     7
100
AcDbLine
 10
15.39996
 20
276.0
 30
0.0
 11
15.39996
 21
298.0
 31
0.0
  0
LINE
  5
1E7
100
AcDbEntity
  8
0
  6
CONTINUOUS
 62
     7
100
AcDbLine
 10
-8.80002
 20
280.0
 30
0.0
 11
6.19998
 21
280.0
 31
0.0
  0
LINE
  5
1E8
100
AcDbEntity
  8
0
  6
CONTINUOUS
 62
     7
100
AcDbLine
 10
-21.30002
 20
276.0
 30
0.0
 11
18.69998
 21
276.0
 31
0.0
  0
LINE
  5
1E9
100
AcDbEntity
  8
0
  6
CENTER
 62
     7
100
AcDbLine
 10
-28.30002
 20
287.0
 30
0.0
 11
25.699982
 21
287.0
 31
0.0
  0
LINE
  5
1EA
100
AcDbEntity
  8
0
  6
CONTINUOUS
 62
     7
100
AcDbLine
 10
-11.30002
 20
298.0
 30
0.0
 11
-11.30002
 21
278.0
 31
0.0
  0
LINE
  5
1EB
100
AcDbEntity
  8
0
  6
CONTINUOUS
 62
     7
100
AcDbLine
 10
-21.30002
 20
298.0
 30
0.0
 11
-21.30002
 21
276.0
 31
0.0
  0
LINE
  5
1EC
100
AcDbEntity
  8
0
  6
CONTINUOUS
 62
     7
100
AcDbLine
 10
8.69998
 20
278.0
 30
0.0
 11
8.69998
 21
298.0
 31
0.0
  0
LINE
  5
1ED
100
AcDbEntity
  8
0
  6
CONTINUOUS
 62
     7
100
AcDbLine
 10
18.69998
 20
276.0
 30
0.0
 11
18.69998
 21
298.0
 31
0.0
  0
LINE
  5
1EE
100
AcDbEntity
  8
0
  6
CONTINUOUS
 62
     7
100
AcDbLine
 10
-16.0
 20
298.0
 30
0.0
 11
-16.0
 21
278.0
 31
0.0
  0
LINE
  5
1EF
100
AcDbEntity
  8
0
  6
CONTINUOUS
 62
     7
100
AcDbLine
 10
13.39996
 20
278.0
 30
0.0
 11
13.39996
 21
298.0
 31
0.0
  0
LINE
  5
1F0
100
AcDbEntity
  8
0
  6
CONTINUOUS
 62
     7
100
AcDbLine
 10
8.69998
 20
297.5
 30
0.0
 11
-11.30002
 21
297.5
 31
0.0
  0
LINE
  5
1F1
100
AcDbEntity
  8
0
  6
CENTER
 62
     7
100
AcDbLine
 10
-1.30002
 20
305.0
 30
0.0
 11
-1.30002
 21
269.0
 31
0.0
  0
LINE
  5
1F2
100
AcDbEntity
  8
0
  6
CONTINUOUS
 62
     7
100
AcDbLine
 10
8.730955
 20
294.0
 30
0.0
 11
-11.30002
 21
294.0
 31
0.0
  0
LINE
  5
1F3
100
AcDbEntity
  8
0
  6
CONTINUOUS
 62
     7
100
AcDbLine
 10
18.69998
 20
298.0
 30
0.0
 11
8.69998
 21
298.0
 31
0.0
  0
LINE
  5
1F4
100
AcDbEntity
  8
0
  6
CONTINUOUS
 62
     7
100
AcDbLine
 10
-11.30002
 20
298.0
 30
0.0
 11
-21.30002
 21
298.0
 31
0.0
  0
ARC
  5
1F5
100
AcDbEntity
  8
0
  6
CONTINUOUS
 62
     7
100
AcDbCircle
 10
-8.80002
 20
282.5
 30
0.0
 40
2.5
100
AcDbArc
 50
180.00001
 51
270.0
  0
ARC
  5
1F6
100
AcDbEntity
  8
0
  6
CONTINUOUS
 62
     7
100
AcDbCircle
 10
6.19998
 20
282.5
 30
0.0
 40
2.5
100
AcDbArc
 50
270.0
 51
0.0
  0
ARC
  5
1F7
100
AcDbEntity
  8
0
  6
PHANTOM
 62
     5
100
AcDbCircle
 10
-14.80002
 20
297.99001
 30
0.0
 40
0.5
100
AcDbArc
 50
179.998
 51
221.746
  0
POINT
  5
1F8
100
AcDbEntity
  8
0
  6
CONTINUOUS
 62
     7
100
AcDbPoint
 10
120.0
 20
340.29999
 30
0.0
  0
POINT
  5
1F9
100
AcDbEntity
  8
0
  6
CONTINUOUS
 62
     7
100
AcDbPoint
 10
138.0
 20
340.29999
 30
0.0
  0
LINE
  5
1FA
100
AcDbEntity
  8
0
  6
CENTER
 62
     7
100
AcDbLine
 10
138.0
 20
380.79999
 30
0.0
 11
138.0
 21
390.59999
 31
0.0
  0
LINE
  5
1FB
100
AcDbEntity
  8
0
  6
CENTER
 62
     7
100
AcDbLine
 10
142.9
 20
385.69999
 30
0.0
 11
133.1
 21
385.69999
 31
0.0
  0
LINE
  5
1FC
100
AcDbEntity
  8
0
  6
CONTINUOUS
 62
     7
100
AcDbLine
 10
82.0
 20
345.49999
 30
0.0
 11
90.0
 21
345.49999
 31
0.0
  0
LINE
  5
1FD
100
AcDbEntity
  8
0
  6
CONTINUOUS
 62
     7
100
AcDbLine
 10
82.0
 20
380.49999
 30
0.0
 11
90.0
 21
380.49999
 31
0.0
  0
LINE
  5
1FE
100
AcDbEntity
  8
0
  6
CONTINUOUS
 62
     7
100
AcDbLine
 10
75.309475
 20
377.99999
 30
0.0
 11
75.309475
 21
372.99999
 31
0.0
  0
LINE
  5
1FF
100
AcDbEntity
  8
0
  6
CONTINUOUS
 62
     7
100
AcDbLine
 10
96.690525
 20
348.29999
 30
0.0
 11
96.690525
 21
342.99999
 31
0.0
  0
LINE
  5
200
100
AcDbEntity
  8
0
  6
CONTINUOUS
 62
     7
100
AcDbLine
 10
96.690525
 20
382.99999
 30
0.0
 11
96.690525
 21
377.69999
 31
0.0
  0
LINE
  5
201
100
AcDbEntity
  8
0
  6
CONTINUOUS
 62
     7
100
AcDbLine
 10
64.690521
 20
347.99999
 30
0.0
 11
75.309475
 21
347.99999
 31
0.0
  0
LINE
  5
202
100
AcDbEntity
  8
0
  6
CENTER
 62
     7
100
AcDbLine
 10
70.0
 20
335.99999
 30
0.0
 11
70.0
 21
389.99999
 31
0.0
  0
LINE
  5
203
100
AcDbEntity
  8
0
  6
CONTINUOUS
 62
     7
100
AcDbLine
 10
96.690525
 20
342.99999
 30
0.0
 11
64.690521
 21
342.99999
 31
0.0
  0
LINE
  5
204
100
AcDbEntity
  8
0
  6
CONTINUOUS
 62
     7
100
AcDbLine
 10
96.690525
 20
382.99999
 30
0.0
 11
64.690521
 21
382.99999
 31
0.0
  0
LINE
  5
205
100
AcDbEntity
  8
0
  6
CONTINUOUS
 62
     7
100
AcDbLine
 10
75.309475
 20
352.99999
 30
0.0
 11
82.0
 21
352.99999
 31
0.0
  0
LINE
  5
206
100
AcDbEntity
  8
0
  6
CONTINUOUS
 62
     7
100
AcDbLine
 10
90.0
 20
372.99999
 30
0.0
 11
113.0
 21
372.99999
 31
0.0
  0
LINE
  5
207
100
AcDbEntity
  8
0
  6
CONTINUOUS
 62
     7
100
AcDbLine
 10
75.309475
 20
372.99999
 30
0.0
 11
82.0
 21
372.99999
 31
0.0
  0
LINE
  5
208
100
AcDbEntity
  8
0
  6
CONTINUOUS
 62
     7
100
AcDbLine
 10
90.0
 20
381.19997
 30
0.0
 11
90.0
 21
372.99999
 31
0.0
  0
LINE
  5
209
100
AcDbEntity
  8
0
  6
CONTINUOUS
 62
     7
100
AcDbLine
 10
93.5
 20
372.99999
 30
0.0
 11
93.5
 21
352.99999
 31
0.0
  0
LINE
  5
20A
100
AcDbEntity
  8
0
  6
CONTINUOUS
 62
     7
100
AcDbLine
 10
78.5
 20
372.99999
 30
0.0
 11
78.5
 21
352.99999
 31
0.0
  0
LINE
  5
20B
100
AcDbEntity
  8
0
  6
CONTINUOUS
 62
     7
100
AcDbLine
 10
95.0
 20
372.99999
 30
0.0
 11
95.0
 21
352.99999
 31
0.0
  0
LINE
  5
20C
100
AcDbEntity
  8
0
  6
CONTINUOUS
 62
     7
100
AcDbLine
 10
90.0
 20
352.99999
 30
0.0
 11
90.0
 21
344.79998
 31
0.0
  0
LINE
  5
20D
100
AcDbEntity
  8
0
  6
CONTINUOUS
 62
     7
100
AcDbLine
 10
82.0
 20
344.79998
 30
0.0
 11
82.0
 21
352.99999
 31
0.0
  0
LINE
  5
20E
100
AcDbEntity
  8
0
  6
CENTER
 62
     7
100
AcDbLine
 10
102.0
 20
335.99999
 30
0.0
 11
102.0
 21
389.99999
 31
0.0
  0
LINE
  5
20F
100
AcDbEntity
  8
0
  6
CONTINUOUS
 62
     7
100
AcDbLine
 10
82.0
 20
344.79998
 30
0.0
 11
90.0
 21
344.79998
 31
0.0
  0
LINE
  5
210
100
AcDbEntity
  8
0
  6
CONTINUOUS
 62
     7
100
AcDbLine
 10
75.309475
 20
352.99999
 30
0.0
 11
75.309475
 21
347.99999
 31
0.0
  0
LINE
  5
211
100
AcDbEntity
  8
0
  6
CENTER
 62
     7
100
AcDbLine
 10
57.690498
 20
362.99999
 30
0.0
 11
114.3095
 21
362.99999
 31
0.0
  0
LINE
  5
212
100
AcDbEntity
  8
0
  6
CONTINUOUS
 62
     7
100
AcDbLine
 10
90.0
 20
352.99999
 30
0.0
 11
113.0
 21
352.99999
 31
0.0
  0
LINE
  5
213
100
AcDbEntity
  8
0
  6
CENTER
 62
     7
100
AcDbLine
 10
80.0
 20
348.99999
 30
0.0
 11
92.0
 21
348.99999
 31
0.0
  0
LINE
  5
214
100
AcDbEntity
  8
0
  6
CONTINUOUS
 62
     7
100
AcDbLine
 10
77.0
 20
352.99999
 30
0.0
 11
77.0
 21
372.99999
 31
0.0
  0
LINE
  5
215
100
AcDbEntity
  8
0
  6
CONTINUOUS
 62
     7
100
AcDbLine
 10
82.0
 20
381.19997
 30
0.0
 11
82.0
 21
372.99999
 31
0.0
  0
LINE
  5
216
100
AcDbEntity
  8
0
  6
CONTINUOUS
 62
     7
100
AcDbLine
 10
82.0
 20
381.19997
 30
0.0
 11
90.0
 21
381.19997
 31
0.0
  0
LINE
  5
217
100
AcDbEntity
  8
0
  6
CENTER
 62
     7
100
AcDbLine
 10
80.0
 20
376.99999
 30
0.0
 11
92.0
 21
376.99999
 31
0.0
  0
LINE
  5
218
100
AcDbEntity
  8
0
  6
CONTINUOUS
 62
     7
100
AcDbLine
 10
64.690521
 20
377.99999
 30
0.0
 11
75.309475
 21
377.99999
 31
0.0
  0
LINE
  5
219
100
AcDbEntity
  8
0
  6
CENTER
 62
     7
100
AcDbLine
 10
120.0
 20
380.79999
 30
0.0
 11
120.0
 21
390.59999
 31
0.0
  0
LINE
  5
21A
100
AcDbEntity
  8
0
  6
CONTINUOUS
 62
     7
100
AcDbLine
 10
145.0
 20
337.29999
 30
0.0
 11
145.0
 21
348.29999
 31
0.0
  0
LINE
  5
21B
100
AcDbEntity
  8
0
  6
CONTINUOUS
 62
     7
100
AcDbLine
 10
116.0
 20
391.69999
 30
0.0
 11
142.0
 21
391.69999
 31
0.0
  0
LINE
  5
21C
100
AcDbEntity
  8
0
  6
CONTINUOUS
 62
     7
100
AcDbLine
 10
113.0
 20
337.29999
 30
0.0
 11
113.0
 21
352.99999
 31
0.0
  0
LINE
  5
21D
100
AcDbEntity
  8
0
  6
CONTINUOUS
 62
     7
100
AcDbLine
 10
96.690525
 20
379.69999
 30
0.0
 11
113.0
 21
379.69999
 31
0.0
  0
LINE
  5
21E
100
AcDbEntity
  8
0
  6
CENTER
 62
     7
100
AcDbLine
 10
124.9
 20
340.29999
 30
0.0
 11
115.1
 21
340.29999
 31
0.0
  0
LINE
  5
21F
100
AcDbEntity
  8
0
  6
CENTER
 62
     7
100
AcDbLine
 10
124.9
 20
385.69999
 30
0.0
 11
115.1
 21
385.69999
 31
0.0
  0
LINE
  5
220
100
AcDbEntity
  8
0
  6
CONTINUOUS
 62
     7
100
AcDbLine
 10
96.690525
 20
377.69999
 30
0.0
 11
145.0
 21
377.69999
 31
0.0
  0
LINE
  5
221
100
AcDbEntity
  8
0
  6
CONTINUOUS
 62
     7
100
AcDbLine
 10
96.690525
 20
348.29999
 30
0.0
 11
145.0
 21
348.29999
 31
0.0
  0
LINE
  5
222
100
AcDbEntity
  8
0
  6
CONTINUOUS
 62
     7
100
AcDbLine
 10
116.0
 20
334.29999
 30
0.0
 11
142.0
 21
334.29999
 31
0.0
  0
LINE
  5
223
100
AcDbEntity
  8
0
  6
CONTINUOUS
 62
     7
100
AcDbLine
 10
113.0
 20
388.69999
 30
0.0
 11
113.0
 21
372.99999
 31
0.0
  0
LINE
  5
224
100
AcDbEntity
  8
0
  6
CONTINUOUS
 62
     7
100
AcDbLine
 10
145.0
 20
388.69999
 30
0.0
 11
145.0
 21
377.69999
 31
0.0
  0
LINE
  5
225
100
AcDbEntity
  8
0
  6
CONTINUOUS
 62
     7
100
AcDbLine
 10
96.690525
 20
346.29999
 30
0.0
 11
113.0
 21
346.29999
 31
0.0
  0
LINE
  5
226
100
AcDbEntity
  8
0
  6
CENTER
 62
     7
100
AcDbLine
 10
120.0
 20
345.19999
 30
0.0
 11
120.0
 21
335.39999
 31
0.0
  0
LINE
  5
227
100
AcDbEntity
  8
0
  6
CENTER
 62
     7
100
AcDbLine
 10
142.9
 20
340.29999
 30
0.0
 11
133.1
 21
340.29999
 31
0.0
  0
LINE
  5
228
100
AcDbEntity
  8
0
  6
CENTER
 62
     7
100
AcDbLine
 10
138.0
 20
345.19999
 30
0.0
 11
138.0
 21
335.39999
 31
0.0
  0
ARC
  5
229
100
AcDbEntity
  8
0
  6
CONTINUOUS
 62
     7
100
AcDbCircle
 10
142.0
 20
388.69999
 30
0.0
 40
3.0
100
AcDbArc
 50
0.0
 51
90.000003
  0
ARC
  5
22A
100
AcDbEntity
  8
0
  6
CONTINUOUS
 62
     7
100
AcDbCircle
 10
116.0
 20
388.69999
 30
0.0
 40
3.0
100
AcDbArc
 50
90.000003
 51
180.00001
  0
CIRCLE
  5
22B
100
AcDbEntity
  8
0
  6
CONTINUOUS
 62
     7
100
AcDbCircle
 10
120.0
 20
340.29999
 30
0.0
 40
2.9
  0
CIRCLE
  5
22C
100
AcDbEntity
  8
0
  6
CONTINUOUS
 62
     7
100
AcDbCircle
 10
138.0
 20
340.29999
 30
0.0
 40
2.9
  0
CIRCLE
  5
22D
100
AcDbEntity
  8
0
  6
CONTINUOUS
 62
     7
100
AcDbCircle
 10
138.0
 20
385.69999
 30
0.0
 40
2.9
  0
CIRCLE
  5
22E
100
AcDbEntity
  8
0
  6
CONTINUOUS
 62
     7
100
AcDbCircle
 10
120.0
 20
385.69999
 30
0.0
 40
2.9
  0
ARC
  5
22F
100
AcDbEntity
  8
0
  6
CONTINUOUS
 62
     7
100
AcDbCircle
 10
116.0
 20
337.29999
 30
0.0
 40
3.0
100
AcDbArc
 50
179.99999
 51
270.0
  0
ARC
  5
230
100
AcDbEntity
  8
0
  6
CONTINUOUS
 62
     7
100
AcDbCircle
 10
142.0
 20
337.29999
 30
0.0
 40
3.0
100
AcDbArc
 50
270.0
 51
0.0
  0
POINT
  5
231
100
AcDbEntity
  8
0
  6
CONTINUOUS
 62
     7
100
AcDbPoint
 10
120.0
 20
298.0
 30
0.0
  0
POINT
  5
232
100
AcDbEntity
  8
0
  6
CONTINUOUS
 62
     7
100
AcDbPoint
 10
138.0
 20
298.0
 30
0.0
  0
LINE
  5
233
100
AcDbEntity
  8
0
  6
CENTER
 62
     7
100
AcDbLine
 10
138.0
 20
303.0
 30
0.0
 11
138.0
 21
291.0
 31
0.0
  0
LINE
  5
234
100
AcDbEntity
  8
0
  6
CONTINUOUS
 62
     7
100
AcDbLine
 10
145.0
 20
298.0
 30
0.0
 11
145.0
 21
296.0
 31
0.0
  0
LINE
  5
235
100
AcDbEntity
  8
0
  6
CONTINUOUS
 62
     7
100
AcDbLine
 10
113.0
 20
298.0
 30
0.0
 11
113.0
 21
296.0
 31
0.0
  0
LINE
  5
236
100
AcDbEntity
  8
0
  6
CENTER
 62
     7
100
AcDbLine
 10
120.0
 20
303.0
 30
0.0
 11
120.0
 21
291.0
 31
0.0
  0
LINE
  5
237
100
AcDbEntity
  8
0
  6
CONTINUOUS
 62
     7
100
AcDbLine
 10
105.94214
 20
276.67286
 30
0.0
 11
137.65433
 21
288.30535
 31
0.0
  0
LINE
  5
238
100
AcDbEntity
  8
0
  6
CONTINUOUS
 62
     7
100
AcDbLine
 10
93.255329
 20
279.53135
 30
0.0
 11
95.567005
 21
276.82472
 31
0.0
  0
LINE
  5
239
100
AcDbEntity
  8
0
  6
CENTER
 62
     7
100
AcDbLine
 10
76.0
 20
287.0
 30
0.0
 11
64.0
 21
287.0
 31
0.0
  0
LINE
  5
23A
100
AcDbEntity
  8
0
  6
CONTINUOUS
 62
     7
100
AcDbLine
 10
70.0
 20
298.0
 30
0.0
 11
108.0
 21
298.0
 31
0.0
  0
LINE
  5
23B
100
AcDbEntity
  8
0
  6
CENTER
 62
     7
100
AcDbLine
 10
96.0
 20
287.0
 30
0.0
 11
108.0
 21
287.0
 31
0.0
  0
LINE
  5
23C
100
AcDbEntity
  8
0
  6
CENTER
 62
     7
100
AcDbLine
 10
70.0
 20
293.0
 30
0.0
 11
70.0
 21
281.0
 31
0.0
  0
LINE
  5
23D
100
AcDbEntity
  8
0
  6
CONTINUOUS
 62
     7
100
AcDbLine
 10
113.0
 20
296.0
 30
0.0
 11
145.0
 21
296.0
 31
0.0
  0
LINE
  5
23E
100
AcDbEntity
  8
0
  6
CONTINUOUS
 62
     7
100
AcDbLine
 10
92.339996
 20
291.10001
 30
0.0
 11
96.700989
 21
291.10001
 31
0.0
  0
LINE
  5
23F
100
AcDbEntity
  8
0
  6
CONTINUOUS
 62
     7
100
AcDbLine
 10
95.300995
 20
286.90001
 30
0.0
 11
91.316986
 21
286.90001
 31
0.0
  0
LINE
  5
240
100
AcDbEntity
  8
0
  6
CONTINUOUS
 62
     7
100
AcDbLine
 10
70.0
 20
276.0
 30
0.0
 11
102.15399
 21
276.0
 31
0.0
  0
LINE
  5
241
100
AcDbEntity
  8
0
  6
CONTINUOUS
 62
     7
100
AcDbLine
 10
99.5
 20
283.877
 30
0.0
 11
99.5
 21
290.12201
 31
0.0
  0
LINE
  5
242
100
AcDbEntity
  8
0
  6
CENTER
 62
     7
100
AcDbLine
 10
102.0
 20
293.0
 30
0.0
 11
102.0
 21
281.0
 31
0.0
  0
CIRCLE
  5
243
100
AcDbEntity
  8
0
  6
CONTINUOUS
 62
     7
100
AcDbCircle
 10
102.0
 20
287.0
 30
0.0
 40
4.0
  0
CIRCLE
  5
244
100
AcDbEntity
  8
0
  6
CONTINUOUS
 62
     7
100
AcDbCircle
 10
102.0
 20
287.0
 30
0.0
 40
4.0
  0
ARC
  5
245
100
AcDbEntity
  8
0
  6
CONTINUOUS
 62
     7
100
AcDbCircle
 10
96.190525
 20
297.5
 30
0.0
 40
0.5
100
AcDbArc
 50
298.95503
 51
90.000003
  0
ARC
  5
246
100
AcDbEntity
  8
0
  6
CONTINUOUS
 62
     7
100
AcDbCircle
 10
102.0
 20
287.0
 30
0.0
 40
11.5
100
AcDbArc
 50
118.95503
 51
220.49999
  0
ARC
  5
247
100
AcDbEntity
  8
0
  6
CONTINUOUS
 62
     7
100
AcDbCircle
 10
70.0
 20
287.0
 30
0.0
 40
11.0
100
AcDbArc
 50
90.000003
 51
270.0
  0
ARC
  5
248
100
AcDbEntity
  8
0
  6
CONTINUOUS
 62
     7
100
AcDbCircle
 10
95.186804
 20
276.5
 30
0.0
 40
0.5
100
AcDbArc
 50
270.0
 51
40.499999
  0
CIRCLE
  5
249
100
AcDbEntity
  8
0
  6
CONTINUOUS
 62
     7
100
AcDbCircle
 10
102.0
 20
287.0
 30
0.0
 40
4.0
  0
ARC
  5
24A
100
AcDbEntity
  8
0
  6
CONTINUOUS
 62
     7
100
AcDbCircle
 10
135.20204
 20
298.0
 30
0.0
 40
10.0
100
AcDbArc
 50
284.19534
 51
348.46304
  0
ARC
  5
24B
100
AcDbEntity
  8
0
  6
CONTINUOUS
 62
     7
100
AcDbCircle
 10
102.0
 20
287.0
 30
0.0
 40
11.2
100
AcDbArc
 50
100.84406
 51
154.53664
  0
ARC
  5
24C
100
AcDbEntity
  8
0
  6
CONTINUOUS
 62
     7
100
AcDbCircle
 10
92.339996
 20
291.60001
 30
0.0
 40
0.5
100
AcDbArc
 50
154.54
 51
270.0
  0
ARC
  5
24D
100
AcDbEntity
  8
0
  6
CONTINUOUS
 62
     7
100
AcDbCircle
 10
102.0
 20
287.0
 30
0.0
 40
6.7
100
AcDbArc
 50
142.269
 51
180.85499
  0
ARC
  5
24E
100
AcDbEntity
  8
0
  6
CONTINUOUS
 62
     7
100
AcDbCircle
 10
102.0
 20
287.0
 30
0.0
 40
11.2
100
AcDbArc
 50
183.21453
 51
259.15594
  0
ARC
  5
24F
100
AcDbEntity
  8
0
  6
CONTINUOUS
 62
     7
100
AcDbCircle
 10
91.316986
 20
286.40001
 30
0.0
 40
0.5
100
AcDbArc
 50
90.000699
 51
183.215
  0
ARC
  5
250
100
AcDbEntity
  8
0
  6
CONTINUOUS
 62
     7
100
AcDbCircle
 10
110.5
 20
298.0
 30
0.0
 40
2.5
100
AcDbArc
 50
179.99999
 51
0.00001
  0
ARC
  5
251
100
AcDbEntity
  8
0
  6
CONTINUOUS
 62
     7
100
AcDbCircle
 10
102.15399
 20
287.0
 30
0.0
 40
11.0
100
AcDbArc
 50
270.0002
 51
290.1438
  0
CIRCLE
  5
252
100
AcDbEntity
  8
0
  6
CONTINUOUS
 62
     7
100
AcDbCircle
 10
102.0
 20
287.0
 30
0.0
 40
4.0
  0
POLYLINE
  5
253
100
AcDbEntity
  8
0
  6
CONTINUOUS
 62
     7
100
AcDb2dPolyline
 66
     1
 10
0.0
 20
0.0
 30
0.0
  0
VERTEX
  5
254
100
AcDbEntity
  8
0
  6
CONTINUOUS
 62
     7
100
AcDbVertex
100
AcDb2dVertex
 10
113.0
 20
298.0
 30
0.0
  0
VERTEX
  5
255
100
AcDbEntity
  8
0
  6
CONTINUOUS
 62
     7
100
AcDbVertex
100
AcDb2dVertex
 10
144.99998
 20
298.0
 30
0.0
  0
SEQEND
  5
256
100
AcDbEntity
  8
0
 62
     7
  0
POINT
  5
257
100
AcDbEntity
  8
0
  6
CONTINUOUS
 62
     7
100
AcDbPoint
 10
120.0
 20
233.7
 30
0.0
  0
POINT
  5
258
100
AcDbEntity
  8
0
  6
CONTINUOUS
 62
     7
100
AcDbPoint
 10
138.0
 20
233.7
 30
0.0
  0
LINE
  5
259
100
AcDbEntity
  8
0
  6
CONTINUOUS
 62
     7
100
AcDbLine
 10
113.0
 20
196.3
 30
0.0
 11
113.0
 21
201.0
 31
0.0
  0
LINE
  5
25A
100
AcDbEntity
  8
0
  6
CONTINUOUS
 62
     7
100
AcDbLine
 10
113.0
 20
225.7
 30
0.0
 11
113.0
 21
221.0
 31
0.0
  0
LINE
  5
25B
100
AcDbEntity
  8
0
  6
CENTER
 62
     7
100
AcDbLine
 10
124.9
 20
188.3
 30
0.0
 11
115.1
 21
188.3
 31
0.0
  0
LINE
  5
25C
100
AcDbEntity
  8
0
  6
CONTINUOUS
 62
     7
100
AcDbLine
 10
116.0
 20
239.7
 30
0.0
 11
142.0
 21
239.7
 31
0.0
  0
LINE
  5
25D
100
AcDbEntity
  8
0
  6
CENTER
 62
     7
100
AcDbLine
 10
142.9
 20
188.3
 30
0.0
 11
133.1
 21
188.3
 31
0.0
  0
LINE
  5
25E
100
AcDbEntity
  8
0
  6
CONTINUOUS
 62
     7
100
AcDbLine
 10
95.6868
 20
227.7
 30
0.0
 11
145.0
 21
227.7
 31
0.0
  0
LINE
  5
25F
100
AcDbEntity
  8
0
  6
CONTINUOUS
 62
     7
100
AcDbLine
 10
113.0
 20
185.3
 30
0.0
 11
113.0
 21
194.3
 31
0.0
  0
LINE
  5
260
100
AcDbEntity
  8
0
  6
CONTINUOUS
 62
     7
100
AcDbLine
 10
145.0
 20
185.3
 30
0.0
 11
145.0
 21
196.3
 31
0.0
  0
LINE
  5
261
100
AcDbEntity
  8
0
  6
CENTER
 62
     7
100
AcDbLine
 10
120.0
 20
193.2
 30
0.0
 11
120.0
 21
183.4
 31
0.0
  0
LINE
  5
262
100
AcDbEntity
  8
0
  6
CENTER
 62
     7
100
AcDbLine
 10
138.0
 20
193.2
 30
0.0
 11
138.0
 21
183.4
 31
0.0
  0
LINE
  5
263
100
AcDbEntity
  8
0
  6
CONTINUOUS
 62
     7
100
AcDbLine
 10
116.0
 20
182.3
 30
0.0
 11
142.0
 21
182.3
 31
0.0
  0
LINE
  5
264
100
AcDbEntity
  8
0
  6
CENTER
 62
     7
100
AcDbLine
 10
138.0
 20
228.8
 30
0.0
 11
138.0
 21
238.6
 31
0.0
  0
LINE
  5
265
100
AcDbEntity
  8
0
  6
CENTER
 62
     7
100
AcDbLine
 10
120.0
 20
228.8
 30
0.0
 11
120.0
 21
238.6
 31
0.0
  0
LINE
  5
266
100
AcDbEntity
  8
0
  6
CONTINUOUS
 62
     7
100
AcDbLine
 10
75.309475
 20
226.0
 30
0.0
 11
75.309475
 21
221.0
 31
0.0
  0
LINE
  5
267
100
AcDbEntity
  8
0
  6
CONTINUOUS
 62
     7
100
AcDbLine
 10
63.686798
 20
196.0
 30
0.0
 11
75.309475
 21
196.0
 31
0.0
  0
LINE
  5
268
100
AcDbEntity
  8
0
  6
CENTER
 62
     7
100
AcDbLine
 10
70.0
 20
184.0
 30
0.0
 11
70.0
 21
238.0
 31
0.0
  0
LINE
  5
269
100
AcDbEntity
  8
0
  6
CONTINUOUS
 62
     7
100
AcDbLine
 10
95.6868
 20
191.0
 30
0.0
 11
63.686798
 21
191.0
 31
0.0
  0
LINE
  5
26A
100
AcDbEntity
  8
0
  6
CONTINUOUS
 62
     7
100
AcDbLine
 10
95.6868
 20
231.0
 30
0.0
 11
63.686798
 21
231.0
 31
0.0
  0
LINE
  5
26B
100
AcDbEntity
  8
0
  6
CONTINUOUS
 62
     7
100
AcDbLine
 10
75.309475
 20
201.0
 30
0.0
 11
77.0
 21
201.0
 31
0.0
  0
LINE
  5
26C
100
AcDbEntity
  8
0
  6
CONTINUOUS
 62
     7
100
AcDbLine
 10
95.0
 20
221.0
 30
0.0
 11
113.0
 21
221.0
 31
0.0
  0
LINE
  5
26D
100
AcDbEntity
  8
0
  6
CONTINUOUS
 62
     7
100
AcDbLine
 10
63.686798
 20
226.0
 30
0.0
 11
75.309475
 21
226.0
 31
0.0
  0
LINE
  5
26E
100
AcDbEntity
  8
0
  6
CONTINUOUS
 62
     7
100
AcDbLine
 10
77.0
 20
201.0
 30
0.0
 11
77.0
 21
221.0
 31
0.0
  0
LINE
  5
26F
100
AcDbEntity
  8
0
  6
CONTINUOUS
 62
     7
100
AcDbLine
 10
95.0
 20
201.0
 30
0.0
 11
113.0
 21
201.0
 31
0.0
  0
LINE
  5
270
100
AcDbEntity
  8
0
  6
CENTER
 62
     7
100
AcDbLine
 10
56.686798
 20
211.0
 30
0.0
 11
115.3132
 21
211.0
 31
0.0
  0
LINE
  5
271
100
AcDbEntity
  8
0
  6
CONTINUOUS
 62
     7
100
AcDbLine
 10
75.309475
 20
201.0
 30
0.0
 11
75.309475
 21
196.0
 31
0.0
  0
LINE
  5
272
100
AcDbEntity
  8
0
  6
CENTER
 62
     7
100
AcDbLine
 10
102.0
 20
189.0
 30
0.0
 11
102.0
 21
233.0
 31
0.0
  0
LINE
  5
273
100
AcDbEntity
  8
0
  6
CONTINUOUS
 62
     7
100
AcDbLine
 10
95.0
 20
221.0
 30
0.0
 11
95.0
 21
201.0
 31
0.0
  0
LINE
  5
274
100
AcDbEntity
  8
0
  6
CONTINUOUS
 62
     7
100
AcDbLine
 10
75.309475
 20
221.0
 30
0.0
 11
77.0
 21
221.0
 31
0.0
  0
LINE
  5
275
100
AcDbEntity
  8
0
  6
CONTINUOUS
 62
     7
100
AcDbLine
 10
145.0
 20
236.7
 30
0.0
 11
145.0
 21
225.7
 31
0.0
  0
LINE
  5
276
100
AcDbEntity
  8
0
  6
CONTINUOUS
 62
     7
100
AcDbLine
 10
113.0
 20
236.7
 30
0.0
 11
113.0
 21
227.7
 31
0.0
  0
LINE
  5
277
100
AcDbEntity
  8
0
  6
CONTINUOUS
 62
     7
100
AcDbLine
 10
95.6868
 20
225.7
 30
0.0
 11
145.0
 21
225.7
 31
0.0
  0
LINE
  5
278
100
AcDbEntity
  8
0
  6
CONTINUOUS
 62
     7
100
AcDbLine
 10
95.6868
 20
194.3
 30
0.0
 11
145.0
 21
194.3
 31
0.0
  0
LINE
  5
279
100
AcDbEntity
  8
0
  6
CENTER
 62
     7
100
AcDbLine
 10
142.9
 20
233.7
 30
0.0
 11
133.1
 21
233.7
 31
0.0
  0
LINE
  5
27A
100
AcDbEntity
  8
0
  6
CENTER
 62
     7
100
AcDbLine
 10
124.9
 20
233.7
 30
0.0
 11
115.1
 21
233.7
 31
0.0
  0
LINE
  5
27B
100
AcDbEntity
  8
0
  6
CONTINUOUS
 62
     7
100
AcDbLine
 10
95.6868
 20
196.3
 30
0.0
 11
145.0
 21
196.3
 31
0.0
  0
LINE
  5
27C
100
AcDbEntity
  8
0
  6
CONTINUOUS
 62
     7
100
AcDbLine
 10
95.6868
 20
191.0
 30
0.0
 11
95.6868
 21
196.3
 31
0.0
  0
LINE
  5
27D
100
AcDbEntity
  8
0
  6
CONTINUOUS
 62
     7
100
AcDbLine
 10
95.6868
 20
221.0
 30
0.0
 11
95.6868
 21
231.0
 31
0.0
  0
LINE
  5
27E
100
AcDbEntity
  8
0
  6
CENTER
 62
     7
100
AcDbLine
 10
102.0
 20
184.0
 30
0.0
 11
102.0
 21
238.0
 31
0.0
  0
CIRCLE
  5
27F
100
AcDbEntity
  8
0
  6
CONTINUOUS
 62
     7
100
AcDbCircle
 10
120.0
 20
188.3
 30
0.0
 40
2.9
  0
ARC
  5
280
100
AcDbEntity
  8
0
  6
CONTINUOUS
 62
     7
100
AcDbCircle
 10
142.0
 20
236.7
 30
0.0
 40
3.0
100
AcDbArc
 50
0.0
 51
90.000003
  0
ARC
  5
281
100
AcDbEntity
  8
0
  6
CONTINUOUS
 62
     7
100
AcDbCircle
 10
116.0
 20
236.7
 30
0.0
 40
3.0
100
AcDbArc
 50
90.000003
 51
180.00001
  0
CIRCLE
  5
282
100
AcDbEntity
  8
0
  6
CONTINUOUS
 62
     7
100
AcDbCircle
 10
138.0
 20
233.7
 30
0.0
 40
2.9
  0
CIRCLE
  5
283
100
AcDbEntity
  8
0
  6
CONTINUOUS
 62
     7
100
AcDbCircle
 10
138.0
 20
188.3
 30
0.0
 40
2.9
  0
ARC
  5
284
100
AcDbEntity
  8
0
  6
CONTINUOUS
 62
     7
100
AcDbCircle
 10
116.0
 20
185.3
 30
0.0
 40
3.0
100
AcDbArc
 50
179.99999
 51
270.0
  0
CIRCLE
  5
285
100
AcDbEntity
  8
0
  6
CONTINUOUS
 62
     7
100
AcDbCircle
 10
120.0
 20
233.7
 30
0.0
 40
2.9
  0
ARC
  5
286
100
AcDbEntity
  8
0
  6
CONTINUOUS
 62
     7
100
AcDbCircle
 10
142.0
 20
185.3
 30
0.0
 40
3.0
100
AcDbArc
 50
270.0
 51
0.0
  0
POINT
  5
287
100
AcDbEntity
  8
0
  6
CONTINUOUS
 62
     7
100
AcDbPoint
 10
185.0
 20
298.0
 30
0.0
  0
POINT
  5
288
100
AcDbEntity
  8
0
  6
CONTINUOUS
 62
     7
100
AcDbPoint
 10
230.39996
 20
298.0
 30
0.0
  0
LINE
  5
289
100
AcDbEntity
  8
0
  6
CENTER
 62
     7
100
AcDbLine
 10
230.39996
 20
293.0
 30
0.0
 11
230.39996
 21
303.0
 31
0.0
  0
LINE
  5
28A
100
AcDbEntity
  8
0
  6
CONTINUOUS
 62
     7
100
AcDbLine
 10
236.39996
 20
296.0
 30
0.0
 11
236.39996
 21
298.0
 31
0.0
  0
LINE
  5
28B
100
AcDbEntity
  8
0
  6
CONTINUOUS
 62
     7
100
AcDbLine
 10
191.0
 20
296.0
 30
0.0
 11
191.0
 21
276.0
 31
0.0
  0
LINE
  5
28C
100
AcDbEntity
  8
0
  6
CONTINUOUS
 62
     7
100
AcDbLine
 10
224.39996
 20
276.0
 30
0.0
 11
224.39996
 21
296.0
 31
0.0
  0
LINE
  5
28D
100
AcDbEntity
  8
0
  6
CONTINUOUS
 62
     7
100
AcDbLine
 10
200.19998
 20
280.0
 30
0.0
 11
215.19998
 21
280.0
 31
0.0
  0
LINE
  5
28E
100
AcDbEntity
  8
0
  6
CONTINUOUS
 62
     7
100
AcDbLine
 10
187.69998
 20
276.0
 30
0.0
 11
227.69998
 21
276.0
 31
0.0
  0
LINE
  5
28F
100
AcDbEntity
  8
0
  6
CENTER
 62
     7
100
AcDbLine
 10
180.69998
 20
287.0
 30
0.0
 11
234.69998
 21
287.0
 31
0.0
  0
LINE
  5
290
100
AcDbEntity
  8
0
  6
CONTINUOUS
 62
     7
100
AcDbLine
 10
197.69998
 20
298.0
 30
0.0
 11
197.69998
 21
276.0
 31
0.0
  0
LINE
  5
291
100
AcDbEntity
  8
0
  6
CONTINUOUS
 62
     7
100
AcDbLine
 10
187.69998
 20
296.0
 30
0.0
 11
187.69998
 21
276.0
 31
0.0
  0
LINE
  5
292
100
AcDbEntity
  8
0
  6
CONTINUOUS
 62
     7
100
AcDbLine
 10
217.69998
 20
276.0
 30
0.0
 11
217.69998
 21
298.0
 31
0.0
  0
LINE
  5
293
100
AcDbEntity
  8
0
  6
CONTINUOUS
 62
     7
100
AcDbLine
 10
227.69998
 20
276.0
 30
0.0
 11
227.69998
 21
296.0
 31
0.0
  0
LINE
  5
294
100
AcDbEntity
  8
0
  6
CONTINUOUS
 62
     7
100
AcDbLine
 10
236.39996
 20
298.0
 30
0.0
 11
217.69998
 21
298.0
 31
0.0
  0
LINE
  5
295
100
AcDbEntity
  8
0
  6
CONTINUOUS
 62
     7
100
AcDbLine
 10
193.0
 20
298.0
 30
0.0
 11
193.0
 21
276.0
 31
0.0
  0
LINE
  5
296
100
AcDbEntity
  8
0
  6
CONTINUOUS
 62
     7
100
AcDbLine
 10
191.0
 20
296.0
 30
0.0
 11
179.0
 21
296.0
 31
0.0
  0
LINE
  5
297
100
AcDbEntity
  8
0
  6
CONTINUOUS
 62
     7
100
AcDbLine
 10
222.39996
 20
276.0
 30
0.0
 11
222.39996
 21
298.0
 31
0.0
  0
LINE
  5
298
100
AcDbEntity
  8
0
  6
CONTINUOUS
 62
     7
100
AcDbLine
 10
217.69998
 20
297.5
 30
0.0
 11
197.69998
 21
297.5
 31
0.0
  0
LINE
  5
299
100
AcDbEntity
  8
0
  6
CENTER
 62
     7
100
AcDbLine
 10
207.69998
 20
305.0
 30
0.0
 11
207.69998
 21
269.0
 31
0.0
  0
LINE
  5
29A
100
AcDbEntity
  8
0
  6
CONTINUOUS
 62
     7
100
AcDbLine
 10
217.73096
 20
294.0
 30
0.0
 11
197.69998
 21
294.0
 31
0.0
  0
LINE
  5
29B
100
AcDbEntity
  8
0
  6
CONTINUOUS
 62
     7
100
AcDbLine
 10
179.0
 20
298.0
 30
0.0
 11
179.0
 21
296.0
 31
0.0
  0
LINE
  5
29C
100
AcDbEntity
  8
0
  6
CONTINUOUS
 62
     7
100
AcDbLine
 10
236.39996
 20
296.0
 30
0.0
 11
224.39996
 21
296.0
 31
0.0
  0
LINE
  5
29D
100
AcDbEntity
  8
0
  6
CENTER
 62
     7
100
AcDbLine
 10
185.0
 20
303.0
 30
0.0
 11
185.0
 21
293.0
 31
0.0
  0
LINE
  5
29E
100
AcDbEntity
  8
0
  6
CONTINUOUS
 62
     7
100
AcDbLine
 10
197.69998
 20
298.0
 30
0.0
 11
179.0
 21
298.0
 31
0.0
  0
ARC
  5
29F
100
AcDbEntity
  8
0
  6
CONTINUOUS
 62
     7
100
AcDbCircle
 10
200.19998
 20
282.5
 30
0.0
 40
2.5
100
AcDbArc
 50
180.00001
 51
270.0
  0
ARC
  5
2A0
100
AcDbEntity
  8
0
  6
CONTINUOUS
 62
     7
100
AcDbCircle
 10
215.19998
 20
282.5
 30
0.0
 40
2.5
100
AcDbArc
 50
270.0
 51
0.0
  0
ARC
  5
2A1
100
AcDbEntity
  8
0
  6
PHANTOM
 62
     5
100
AcDbCircle
 10
194.19998
 20
297.99001
 30
0.0
 40
0.5
100
AcDbArc
 50
179.998
 51
221.746
  0
POINT
  5
2A2
100
AcDbEntity
  8
0
  6
CONTINUOUS
 62
     7
100
AcDbPoint
 10
340.0
 20
340.29999
 30
0.0
  0
POINT
  5
2A3
100
AcDbEntity
  8
0
  6
CONTINUOUS
 62
     7
100
AcDbPoint
 10
358.0
 20
340.29999
 30
0.0
  0
LINE
  5
2A4
100
AcDbEntity
  8
0
  6
CONTINUOUS
 62
     7
100
AcDbLine
 10
333.0
 20
377.69999
 30
0.0
 11
333.0
 21
372.99999
 31
0.0
  0
LINE
  5
2A5
100
AcDbEntity
  8
0
  6
CONTINUOUS
 62
     7
100
AcDbLine
 10
333.0
 20
348.29999
 30
0.0
 11
333.0
 21
352.99999
 31
0.0
  0
LINE
  5
2A6
100
AcDbEntity
  8
0
  6
CENTER
 62
     7
100
AcDbLine
 10
358.0
 20
345.19999
 30
0.0
 11
358.0
 21
335.39999
 31
0.0
  0
LINE
  5
2A7
100
AcDbEntity
  8
0
  6
CENTER
 62
     7
100
AcDbLine
 10
362.9
 20
340.29999
 30
0.0
 11
353.1
 21
340.29999
 31
0.0
  0
LINE
  5
2A8
100
AcDbEntity
  8
0
  6
CENTER
 62
     7
100
AcDbLine
 10
340.0
 20
345.19999
 30
0.0
 11
340.0
 21
335.39999
 31
0.0
  0
LINE
  5
2A9
100
AcDbEntity
  8
0
  6
CONTINUOUS
 62
     7
100
AcDbLine
 10
316.69053
 20
346.29999
 30
0.0
 11
365.0
 21
346.29999
 31
0.0
  0
LINE
  5
2AA
100
AcDbEntity
  8
0
  6
CONTINUOUS
 62
     7
100
AcDbLine
 10
365.0
 20
388.69999
 30
0.0
 11
365.0
 21
377.69999
 31
0.0
  0
LINE
  5
2AB
100
AcDbEntity
  8
0
  6
CONTINUOUS
 62
     7
100
AcDbLine
 10
333.0
 20
388.69999
 30
0.0
 11
333.0
 21
379.69999
 31
0.0
  0
LINE
  5
2AC
100
AcDbEntity
  8
0
  6
CONTINUOUS
 62
     7
100
AcDbLine
 10
336.0
 20
334.29999
 30
0.0
 11
362.0
 21
334.29999
 31
0.0
  0
LINE
  5
2AD
100
AcDbEntity
  8
0
  6
CONTINUOUS
 62
     7
100
AcDbLine
 10
316.69053
 20
348.29999
 30
0.0
 11
365.0
 21
348.29999
 31
0.0
  0
LINE
  5
2AE
100
AcDbEntity
  8
0
  6
CONTINUOUS
 62
     7
100
AcDbLine
 10
316.69053
 20
377.69999
 30
0.0
 11
365.0
 21
377.69999
 31
0.0
  0
LINE
  5
2AF
100
AcDbEntity
  8
0
  6
CENTER
 62
     7
100
AcDbLine
 10
344.9
 20
385.69999
 30
0.0
 11
335.1
 21
385.69999
 31
0.0
  0
LINE
  5
2B0
100
AcDbEntity
  8
0
  6
CENTER
 62
     7
100
AcDbLine
 10
344.9
 20
340.29999
 30
0.0
 11
335.1
 21
340.29999
 31
0.0
  0
LINE
  5
2B1
100
AcDbEntity
  8
0
  6
CONTINUOUS
 62
     7
100
AcDbLine
 10
316.69053
 20
379.69999
 30
0.0
 11
365.0
 21
379.69999
 31
0.0
  0
LINE
  5
2B2
100
AcDbEntity
  8
0
  6
CONTINUOUS
 62
     7
100
AcDbLine
 10
333.0
 20
337.29999
 30
0.0
 11
333.0
 21
346.29999
 31
0.0
  0
LINE
  5
2B3
100
AcDbEntity
  8
0
  6
CONTINUOUS
 62
     7
100
AcDbLine
 10
336.0
 20
391.69999
 30
0.0
 11
362.0
 21
391.69999
 31
0.0
  0
LINE
  5
2B4
100
AcDbEntity
  8
0
  6
CONTINUOUS
 62
     7
100
AcDbLine
 10
365.0
 20
337.29999
 30
0.0
 11
365.0
 21
348.29999
 31
0.0
  0
LINE
  5
2B5
100
AcDbEntity
  8
0
  6
CENTER
 62
     7
100
AcDbLine
 10
340.0
 20
380.79999
 30
0.0
 11
340.0
 21
390.59999
 31
0.0
  0
LINE
  5
2B6
100
AcDbEntity
  8
0
  6
CONTINUOUS
 62
     7
100
AcDbLine
 10
284.69052
 20
377.99999
 30
0.0
 11
295.30947
 21
377.99999
 31
0.0
  0
LINE
  5
2B7
100
AcDbEntity
  8
0
  6
CENTER
 62
     7
100
AcDbLine
 10
300.0
 20
376.99999
 30
0.0
 11
312.0
 21
376.99999
 31
0.0
  0
LINE
  5
2B8
100
AcDbEntity
  8
0
  6
CONTINUOUS
 62
     7
100
AcDbLine
 10
302.0
 20
381.19997
 30
0.0
 11
310.0
 21
381.19997
 31
0.0
  0
LINE
  5
2B9
100
AcDbEntity
  8
0
  6
CONTINUOUS
 62
     7
100
AcDbLine
 10
302.0
 20
381.19997
 30
0.0
 11
302.0
 21
372.99999
 31
0.0
  0
LINE
  5
2BA
100
AcDbEntity
  8
0
  6
CONTINUOUS
 62
     7
100
AcDbLine
 10
297.0
 20
352.99999
 30
0.0
 11
297.0
 21
372.99999
 31
0.0
  0
LINE
  5
2BB
100
AcDbEntity
  8
0
  6
CENTER
 62
     7
100
AcDbLine
 10
300.0
 20
348.99999
 30
0.0
 11
312.0
 21
348.99999
 31
0.0
  0
LINE
  5
2BC
100
AcDbEntity
  8
0
  6
CONTINUOUS
 62
     7
100
AcDbLine
 10
310.0
 20
352.99999
 30
0.0
 11
333.0
 21
352.99999
 31
0.0
  0
LINE
  5
2BD
100
AcDbEntity
  8
0
  6
CENTER
 62
     7
100
AcDbLine
 10
277.6905
 20
362.99999
 30
0.0
 11
334.3095
 21
362.99999
 31
0.0
  0
LINE
  5
2BE
100
AcDbEntity
  8
0
  6
CONTINUOUS
 62
     7
100
AcDbLine
 10
295.30947
 20
352.99999
 30
0.0
 11
295.30947
 21
347.99999
 31
0.0
  0
LINE
  5
2BF
100
AcDbEntity
  8
0
  6
CONTINUOUS
 62
     7
100
AcDbLine
 10
302.0
 20
344.79998
 30
0.0
 11
310.0
 21
344.79998
 31
0.0
  0
LINE
  5
2C0
100
AcDbEntity
  8
0
  6
CENTER
 62
     7
100
AcDbLine
 10
322.0
 20
335.99999
 30
0.0
 11
322.0
 21
389.99999
 31
0.0
  0
LINE
  5
2C1
100
AcDbEntity
  8
0
  6
CONTINUOUS
 62
     7
100
AcDbLine
 10
302.0
 20
344.79998
 30
0.0
 11
302.0
 21
352.99999
 31
0.0
  0
LINE
  5
2C2
100
AcDbEntity
  8
0
  6
CONTINUOUS
 62
     7
100
AcDbLine
 10
310.0
 20
352.99999
 30
0.0
 11
310.0
 21
344.79998
 31
0.0
  0
LINE
  5
2C3
100
AcDbEntity
  8
0
  6
CONTINUOUS
 62
     7
100
AcDbLine
 10
315.0
 20
372.99999
 30
0.0
 11
315.0
 21
352.99999
 31
0.0
  0
LINE
  5
2C4
100
AcDbEntity
  8
0
  6
CONTINUOUS
 62
     7
100
AcDbLine
 10
298.5
 20
372.99999
 30
0.0
 11
298.5
 21
352.99999
 31
0.0
  0
LINE
  5
2C5
100
AcDbEntity
  8
0
  6
CONTINUOUS
 62
     7
100
AcDbLine
 10
313.5
 20
372.99999
 30
0.0
 11
313.5
 21
352.99999
 31
0.0
  0
LINE
  5
2C6
100
AcDbEntity
  8
0
  6
CONTINUOUS
 62
     7
100
AcDbLine
 10
310.0
 20
381.19997
 30
0.0
 11
310.0
 21
372.99999
 31
0.0
  0
LINE
  5
2C7
100
AcDbEntity
  8
0
  6
CONTINUOUS
 62
     7
100
AcDbLine
 10
295.30947
 20
372.99999
 30
0.0
 11
302.0
 21
372.99999
 31
0.0
  0
LINE
  5
2C8
100
AcDbEntity
  8
0
  6
CONTINUOUS
 62
     7
100
AcDbLine
 10
310.0
 20
372.99999
 30
0.0
 11
333.0
 21
372.99999
 31
0.0
  0
LINE
  5
2C9
100
AcDbEntity
  8
0
  6
CONTINUOUS
 62
     7
100
AcDbLine
 10
295.30947
 20
352.99999
 30
0.0
 11
302.0
 21
352.99999
 31
0.0
  0
LINE
  5
2CA
100
AcDbEntity
  8
0
  6
CONTINUOUS
 62
     7
100
AcDbLine
 10
316.69053
 20
382.99999
 30
0.0
 11
284.69052
 21
382.99999
 31
0.0
  0
LINE
  5
2CB
100
AcDbEntity
  8
0
  6
CONTINUOUS
 62
     7
100
AcDbLine
 10
316.69053
 20
342.99999
 30
0.0
 11
284.69052
 21
342.99999
 31
0.0
  0
LINE
  5
2CC
100
AcDbEntity
  8
0
  6
CENTER
 62
     7
100
AcDbLine
 10
290.0
 20
335.99999
 30
0.0
 11
290.0
 21
389.99999
 31
0.0
  0
LINE
  5
2CD
100
AcDbEntity
  8
0
  6
CONTINUOUS
 62
     7
100
AcDbLine
 10
284.69052
 20
347.99999
 30
0.0
 11
295.30947
 21
347.99999
 31
0.0
  0
LINE
  5
2CE
100
AcDbEntity
  8
0
  6
CONTINUOUS
 62
     7
100
AcDbLine
 10
316.69053
 20
382.99999
 30
0.0
 11
316.69053
 21
377.69999
 31
0.0
  0
LINE
  5
2CF
100
AcDbEntity
  8
0
  6
CONTINUOUS
 62
     7
100
AcDbLine
 10
316.69053
 20
348.29999
 30
0.0
 11
316.69053
 21
342.99999
 31
0.0
  0
LINE
  5
2D0
100
AcDbEntity
  8
0
  6
CONTINUOUS
 62
     7
100
AcDbLine
 10
295.30947
 20
377.99999
 30
0.0
 11
295.30947
 21
372.99999
 31
0.0
  0
LINE
  5
2D1
100
AcDbEntity
  8
0
  6
CONTINUOUS
 62
     7
100
AcDbLine
 10
302.0
 20
380.49999
 30
0.0
 11
310.0
 21
380.49999
 31
0.0
  0
LINE
  5
2D2
100
AcDbEntity
  8
0
  6
CONTINUOUS
 62
     7
100
AcDbLine
 10
302.0
 20
345.49999
 30
0.0
 11
310.0
 21
345.49999
 31
0.0
  0
LINE
  5
2D3
100
AcDbEntity
  8
0
  6
CENTER
 62
     7
100
AcDbLine
 10
362.9
 20
385.69999
 30
0.0
 11
353.1
 21
385.69999
 31
0.0
  0
LINE
  5
2D4
100
AcDbEntity
  8
0
  6
CENTER
 62
     7
100
AcDbLine
 10
358.0
 20
380.79999
 30
0.0
 11
358.0
 21
390.59999
 31
0.0
  0
ARC
  5
2D5
100
AcDbEntity
  8
0
  6
CONTINUOUS
 62
     7
100
AcDbCircle
 10
362.0
 20
337.29999
 30
0.0
 40
3.0
100
AcDbArc
 50
270.0
 51
0.0
  0
ARC
  5
2D6
100
AcDbEntity
  8
0
  6
CONTINUOUS
 62
     7
100
AcDbCircle
 10
336.0
 20
337.29999
 30
0.0
 40
3.0
100
AcDbArc
 50
179.99999
 51
270.0
  0
CIRCLE
  5
2D7
100
AcDbEntity
  8
0
  6
CONTINUOUS
 62
     7
100
AcDbCircle
 10
340.0
 20
385.69999
 30
0.0
 40
2.9
  0
CIRCLE
  5
2D8
100
AcDbEntity
  8
0
  6
CONTINUOUS
 62
     7
100
AcDbCircle
 10
358.0
 20
385.69999
 30
0.0
 40
2.9
  0
CIRCLE
  5
2D9
100
AcDbEntity
  8
0
  6
CONTINUOUS
 62
     7
100
AcDbCircle
 10
358.0
 20
340.29999
 30
0.0
 40
2.9
  0
CIRCLE
  5
2DA
100
AcDbEntity
  8
0
  6
CONTINUOUS
 62
     7
100
AcDbCircle
 10
340.0
 20
340.29999
 30
0.0
 40
2.9
  0
ARC
  5
2DB
100
AcDbEntity
  8
0
  6
CONTINUOUS
 62
     7
100
AcDbCircle
 10
336.0
 20
388.69999
 30
0.0
 40
3.0
100
AcDbArc
 50
90.000003
 51
180.00001
  0
ARC
  5
2DC
100
AcDbEntity
  8
0
  6
CONTINUOUS
 62
     7
100
AcDbCircle
 10
362.0
 20
388.69999
 30
0.0
 40
3.0
100
AcDbArc
 50
0.0
 51
90.000003
  0
POINT
  5
2DD
100
AcDbEntity
  8
0
  6
CONTINUOUS
 62
     7
100
AcDbPoint
 10
340.0
 20
233.7
 30
0.0
  0
POINT
  5
2DE
100
AcDbEntity
  8
0
  6
CONTINUOUS
 62
     7
100
AcDbPoint
 10
358.0
 20
233.7
 30
0.0
  0
LINE
  5
2DF
100
AcDbEntity
  8
0
  6
CENTER
 62
     7
100
AcDbLine
 10
362.9
 20
233.7
 30
0.0
 11
353.1
 21
233.7
 31
0.0
  0
LINE
  5
2E0
100
AcDbEntity
  8
0
  6
CONTINUOUS
 62
     7
100
AcDbLine
 10
315.6868
 20
194.3
 30
0.0
 11
333.0
 21
194.3
 31
0.0
  0
LINE
  5
2E1
100
AcDbEntity
  8
0
  6
CONTINUOUS
 62
     7
100
AcDbLine
 10
315.6868
 20
225.7
 30
0.0
 11
365.0
 21
225.7
 31
0.0
  0
LINE
  5
2E2
100
AcDbEntity
  8
0
  6
CONTINUOUS
 62
     7
100
AcDbLine
 10
333.0
 20
236.7
 30
0.0
 11
333.0
 21
221.0
 31
0.0
  0
LINE
  5
2E3
100
AcDbEntity
  8
0
  6
CONTINUOUS
 62
     7
100
AcDbLine
 10
365.0
 20
236.7
 30
0.0
 11
365.0
 21
225.7
 31
0.0
  0
LINE
  5
2E4
100
AcDbEntity
  8
0
  6
CONTINUOUS
 62
     7
100
AcDbLine
 10
295.30947
 20
221.0
 30
0.0
 11
297.0
 21
221.0
 31
0.0
  0
LINE
  5
2E5
100
AcDbEntity
  8
0
  6
CONTINUOUS
 62
     7
100
AcDbLine
 10
315.0
 20
221.0
 30
0.0
 11
315.0
 21
201.0
 31
0.0
  0
LINE
  5
2E6
100
AcDbEntity
  8
0
  6
CENTER
 62
     7
100
AcDbLine
 10
322.0
 20
184.0
 30
0.0
 11
322.0
 21
238.0
 31
0.0
  0
LINE
  5
2E7
100
AcDbEntity
  8
0
  6
CONTINUOUS
 62
     7
100
AcDbLine
 10
295.30947
 20
201.0
 30
0.0
 11
295.30947
 21
196.0
 31
0.0
  0
LINE
  5
2E8
100
AcDbEntity
  8
0
  6
CENTER
 62
     7
100
AcDbLine
 10
276.6868
 20
211.0
 30
0.0
 11
335.3132
 21
211.0
 31
0.0
  0
LINE
  5
2E9
100
AcDbEntity
  8
0
  6
CONTINUOUS
 62
     7
100
AcDbLine
 10
315.0
 20
201.0
 30
0.0
 11
333.0
 21
201.0
 31
0.0
  0
LINE
  5
2EA
100
AcDbEntity
  8
0
  6
CONTINUOUS
 62
     7
100
AcDbLine
 10
297.0
 20
201.0
 30
0.0
 11
297.0
 21
221.0
 31
0.0
  0
LINE
  5
2EB
100
AcDbEntity
  8
0
  6
CONTINUOUS
 62
     7
100
AcDbLine
 10
283.6868
 20
226.0
 30
0.0
 11
295.30947
 21
226.0
 31
0.0
  0
LINE
  5
2EC
100
AcDbEntity
  8
0
  6
CONTINUOUS
 62
     7
100
AcDbLine
 10
315.0
 20
221.0
 30
0.0
 11
333.0
 21
221.0
 31
0.0
  0
LINE
  5
2ED
100
AcDbEntity
  8
0
  6
CONTINUOUS
 62
     7
100
AcDbLine
 10
295.30947
 20
201.0
 30
0.0
 11
297.0
 21
201.0
 31
0.0
  0
LINE
  5
2EE
100
AcDbEntity
  8
0
  6
CONTINUOUS
 62
     7
100
AcDbLine
 10
315.6868
 20
231.0
 30
0.0
 11
283.6868
 21
231.0
 31
0.0
  0
LINE
  5
2EF
100
AcDbEntity
  8
0
  6
CONTINUOUS
 62
     7
100
AcDbLine
 10
315.6868
 20
191.0
 30
0.0
 11
283.6868
 21
191.0
 31
0.0
  0
LINE
  5
2F0
100
AcDbEntity
  8
0
  6
CENTER
 62
     7
100
AcDbLine
 10
290.0
 20
184.0
 30
0.0
 11
290.0
 21
238.0
 31
0.0
  0
LINE
  5
2F1
100
AcDbEntity
  8
0
  6
CONTINUOUS
 62
     7
100
AcDbLine
 10
283.6868
 20
196.0
 30
0.0
 11
295.30947
 21
196.0
 31
0.0
  0
LINE
  5
2F2
100
AcDbEntity
  8
0
  6
CONTINUOUS
 62
     7
100
AcDbLine
 10
295.30947
 20
226.0
 30
0.0
 11
295.30947
 21
221.0
 31
0.0
  0
LINE
  5
2F3
100
AcDbEntity
  8
0
  6
CENTER
 62
     7
100
AcDbLine
 10
340.0
 20
228.8
 30
0.0
 11
340.0
 21
238.6
 31
0.0
  0
LINE
  5
2F4
100
AcDbEntity
  8
0
  6
CENTER
 62
     7
100
AcDbLine
 10
358.0
 20
228.8
 30
0.0
 11
358.0
 21
238.6
 31
0.0
  0
LINE
  5
2F5
100
AcDbEntity
  8
0
  6
CONTINUOUS
 62
     7
100
AcDbLine
 10
336.0
 20
182.3
 30
0.0
 11
362.0
 21
182.3
 31
0.0
  0
LINE
  5
2F6
100
AcDbEntity
  8
0
  6
CENTER
 62
     7
100
AcDbLine
 10
358.0
 20
193.2
 30
0.0
 11
358.0
 21
183.4
 31
0.0
  0
LINE
  5
2F7
100
AcDbEntity
  8
0
  6
CENTER
 62
     7
100
AcDbLine
 10
340.0
 20
193.2
 30
0.0
 11
340.0
 21
183.4
 31
0.0
  0
LINE
  5
2F8
100
AcDbEntity
  8
0
  6
CONTINUOUS
 62
     7
100
AcDbLine
 10
365.0
 20
185.3
 30
0.0
 11
365.0
 21
196.3
 31
0.0
  0
LINE
  5
2F9
100
AcDbEntity
  8
0
  6
CONTINUOUS
 62
     7
100
AcDbLine
 10
333.0
 20
185.3
 30
0.0
 11
333.0
 21
201.0
 31
0.0
  0
LINE
  5
2FA
100
AcDbEntity
  8
0
  6
CONTINUOUS
 62
     7
100
AcDbLine
 10
315.6868
 20
227.7
 30
0.0
 11
333.0
 21
227.7
 31
0.0
  0
LINE
  5
2FB
100
AcDbEntity
  8
0
  6
CENTER
 62
     7
100
AcDbLine
 10
362.9
 20
188.3
 30
0.0
 11
353.1
 21
188.3
 31
0.0
  0
LINE
  5
2FC
100
AcDbEntity
  8
0
  6
CONTINUOUS
 62
     7
100
AcDbLine
 10
336.0
 20
239.7
 30
0.0
 11
362.0
 21
239.7
 31
0.0
  0
LINE
  5
2FD
100
AcDbEntity
  8
0
  6
CENTER
 62
     7
100
AcDbLine
 10
344.9
 20
188.3
 30
0.0
 11
335.1
 21
188.3
 31
0.0
  0
LINE
  5
2FE
100
AcDbEntity
  8
0
  6
CENTER
 62
     7
100
AcDbLine
 10
344.9
 20
233.7
 30
0.0
 11
335.1
 21
233.7
 31
0.0
  0
LINE
  5
2FF
100
AcDbEntity
  8
0
  6
CONTINUOUS
 62
     7
100
AcDbLine
 10
315.6868
 20
196.3
 30
0.0
 11
365.0
 21
196.3
 31
0.0
  0
LINE
  5
300
100
AcDbEntity
  8
0
  6
CONTINUOUS
 62
     7
100
AcDbLine
 10
315.6868
 20
191.0
 30
0.0
 11
315.6868
 21
196.3
 31
0.0
  0
LINE
  5
301
100
AcDbEntity
  8
0
  6
CONTINUOUS
 62
     7
100
AcDbLine
 10
315.6868
 20
225.7
 30
0.0
 11
315.6868
 21
231.0
 31
0.0
  0
ARC
  5
302
100
AcDbEntity
  8
0
  6
CONTINUOUS
 62
     7
100
AcDbCircle
 10
362.0
 20
185.3
 30
0.0
 40
3.0
100
AcDbArc
 50
270.0
 51
0.0
  0
CIRCLE
  5
303
100
AcDbEntity
  8
0
  6
CONTINUOUS
 62
     7
100
AcDbCircle
 10
340.0
 20
233.7
 30
0.0
 40
2.9
  0
ARC
  5
304
100
AcDbEntity
  8
0
  6
CONTINUOUS
 62
     7
100
AcDbCircle
 10
336.0
 20
185.3
 30
0.0
 40
3.0
100
AcDbArc
 50
179.99999
 51
270.0
  0
CIRCLE
  5
305
100
AcDbEntity
  8
0
  6
CONTINUOUS
 62
     7
100
AcDbCircle
 10
358.0
 20
188.3
 30
0.0
 40
2.9
  0
CIRCLE
  5
306
100
AcDbEntity
  8
0
  6
CONTINUOUS
 62
     7
100
AcDbCircle
 10
358.0
 20
233.7
 30
0.0
 40
2.9
  0
ARC
  5
307
100
AcDbEntity
  8
0
  6
CONTINUOUS
 62
     7
100
AcDbCircle
 10
336.0
 20
236.7
 30
0.0
 40
3.0
100
AcDbArc
 50
90.000003
 51
180.00001
  0
ARC
  5
308
100
AcDbEntity
  8
0
  6
CONTINUOUS
 62
     7
100
AcDbCircle
 10
362.0
 20
236.7
 30
0.0
 40
3.0
100
AcDbArc
 50
0.0
 51
90.000003
  0
CIRCLE
  5
309
100
AcDbEntity
  8
0
  6
CONTINUOUS
 62
     7
100
AcDbCircle
 10
340.0
 20
188.3
 30
0.0
 40
2.9
  0
POINT
  5
30A
100
AcDbEntity
  8
0
  6
CONTINUOUS
 62
     7
100
AcDbPoint
 10
340.0
 20
276.0
 30
0.0
  0
POINT
  5
30B
100
AcDbEntity
  8
0
  6
CONTINUOUS
 62
     7
100
AcDbPoint
 10
358.0
 20
276.0
 30
0.0
  0
LINE
  5
30C
100
AcDbEntity
  8
0
  6
CENTER
 62
     7
100
AcDbLine
 10
358.0
 20
271.0
 30
0.0
 11
358.0
 21
283.0
 31
0.0
  0
LINE
  5
30D
100
AcDbEntity
  8
0
  6
CENTER
 62
     7
100
AcDbLine
 10
322.0
 20
281.0
 30
0.0
 11
322.0
 21
293.0
 31
0.0
  0
LINE
  5
30E
100
AcDbEntity
  8
0
  6
CONTINUOUS
 62
     7
100
AcDbLine
 10
319.5
 20
290.123
 30
0.0
 11
319.5
 21
283.87799
 31
0.0
  0
LINE
  5
30F
100
AcDbEntity
  8
0
  6
CONTINUOUS
 62
     7
100
AcDbLine
 10
290.0
 20
276.0
 30
0.0
 11
328.0
 21
276.0
 31
0.0
  0
LINE
  5
310
100
AcDbEntity
  8
0
  6
CONTINUOUS
 62
     7
100
AcDbLine
 10
315.30099
 20
286.90001
 30
0.0
 11
311.31699
 21
286.90001
 31
0.0
  0
LINE
  5
311
100
AcDbEntity
  8
0
  6
CONTINUOUS
 62
     7
100
AcDbLine
 10
312.34
 20
291.10001
 30
0.0
 11
316.70099
 21
291.10001
 31
0.0
  0
LINE
  5
312
100
AcDbEntity
  8
0
  6
CONTINUOUS
 62
     7
100
AcDbLine
 10
333.0
 20
278.0
 30
0.0
 11
365.0
 21
278.0
 31
0.0
  0
LINE
  5
313
100
AcDbEntity
  8
0
  6
CENTER
 62
     7
100
AcDbLine
 10
290.0
 20
293.0
 30
0.0
 11
290.0
 21
281.0
 31
0.0
  0
LINE
  5
314
100
AcDbEntity
  8
0
  6
CENTER
 62
     7
100
AcDbLine
 10
316.0
 20
287.0
 30
0.0
 11
328.0
 21
287.0
 31
0.0
  0
LINE
  5
315
100
AcDbEntity
  8
0
  6
CONTINUOUS
 62
     7
100
AcDbLine
 10
290.0
 20
298.0
 30
0.0
 11
322.15399
 21
298.0
 31
0.0
  0
LINE
  5
316
100
AcDbEntity
  8
0
  6
CENTER
 62
     7
100
AcDbLine
 10
296.0
 20
287.0
 30
0.0
 11
284.0
 21
287.0
 31
0.0
  0
LINE
  5
317
100
AcDbEntity
  8
0
  6
CONTINUOUS
 62
     7
100
AcDbLine
 10
313.25533
 20
279.53135
 30
0.0
 11
315.56701
 21
276.82472
 31
0.0
  0
LINE
  5
318
100
AcDbEntity
  8
0
  6
CONTINUOUS
 62
     7
100
AcDbLine
 10
325.94214
 20
297.32714
 30
0.0
 11
357.65433
 21
285.69465
 31
0.0
  0
LINE
  5
319
100
AcDbEntity
  8
0
  6
CENTER
 62
     7
100
AcDbLine
 10
340.0
 20
271.0
 30
0.0
 11
340.0
 21
283.0
 31
0.0
  0
LINE
  5
31A
100
AcDbEntity
  8
0
  6
CONTINUOUS
 62
     7
100
AcDbLine
 10
333.0
 20
276.0
 30
0.0
 11
333.0
 21
278.0
 31
0.0
  0
LINE
  5
31B
100
AcDbEntity
  8
0
  6
CONTINUOUS
 62
     7
100
AcDbLine
 10
365.0
 20
276.0
 30
0.0
 11
365.0
 21
278.0
 31
0.0
  0
CIRCLE
  5
31C
100
AcDbEntity
  8
0
  6
CONTINUOUS
 62
     7
100
AcDbCircle
 10
322.0
 20
287.0
 30
0.0
 40
4.0
  0
ARC
  5
31D
100
AcDbEntity
  8
0
  6
CONTINUOUS
 62
     7
100
AcDbCircle
 10
322.15399
 20
287.0
 30
0.0
 40
11.0
100
AcDbArc
 50
69.856197
 51
89.999798
  0
ARC
  5
31E
100
AcDbEntity
  8
0
  6
CONTINUOUS
 62
     7
100
AcDbCircle
 10
330.5
 20
276.0
 30
0.0
 40
2.5
100
AcDbArc
 50
0.0
 51
180.00001
  0
ARC
  5
31F
100
AcDbEntity
  8
0
  6
CONTINUOUS
 62
     7
100
AcDbCircle
 10
311.31699
 20
286.40001
 30
0.0
 40
0.5
100
AcDbArc
 50
90.000699
 51
183.215
  0
ARC
  5
320
100
AcDbEntity
  8
0
  6
CONTINUOUS
 62
     7
100
AcDbCircle
 10
322.0
 20
287.0
 30
0.0
 40
11.2
100
AcDbArc
 50
183.21453
 51
259.15594
  0
ARC
  5
321
100
AcDbEntity
  8
0
  6
CONTINUOUS
 62
     7
100
AcDbCircle
 10
322.0
 20
287.0
 30
0.0
 40
6.7
100
AcDbArc
 50
142.269
 51
180.85499
  0
ARC
  5
322
100
AcDbEntity
  8
0
  6
CONTINUOUS
 62
     7
100
AcDbCircle
 10
312.34
 20
291.60001
 30
0.0
 40
0.5
100
AcDbArc
 50
154.54
 51
270.0
  0
ARC
  5
323
100
AcDbEntity
  8
0
  6
CONTINUOUS
 62
     7
100
AcDbCircle
 10
322.0
 20
287.0
 30
0.0
 40
11.2
100
AcDbArc
 50
100.84406
 51
154.53664
  0
ARC
  5
324
100
AcDbEntity
  8
0
  6
CONTINUOUS
 62
     7
100
AcDbCircle
 10
355.20204
 20
276.0
 30
0.0
 40
10.0
100
AcDbArc
 50
11.536959
 51
75.804656
  0
CIRCLE
  5
325
100
AcDbEntity
  8
0
  6
CONTINUOUS
 62
     7
100
AcDbCircle
 10
322.0
 20
287.0
 30
0.0
 40
4.0
  0
ARC
  5
326
100
AcDbEntity
  8
0
  6
CONTINUOUS
 62
     7
100
AcDbCircle
 10
315.1868
 20
276.5
 30
0.0
 40
0.5
100
AcDbArc
 50
270.0
 51
40.499999
  0
ARC
  5
327
100
AcDbEntity
  8
0
  6
CONTINUOUS
 62
     7
100
AcDbCircle
 10
290.0
 20
287.0
 30
0.0
 40
11.0
100
AcDbArc
 50
90.000003
 51
270.0
  0
ARC
  5
328
100
AcDbEntity
  8
0
  6
CONTINUOUS
 62
     7
100
AcDbCircle
 10
322.0
 20
287.0
 30
0.0
 40
11.5
100
AcDbArc
 50
118.95503
 51
220.49999
  0
ARC
  5
329
100
AcDbEntity
  8
0
  6
CONTINUOUS
 62
     7
100
AcDbCircle
 10
316.19053
 20
297.5
 30
0.0
 40
0.5
100
AcDbArc
 50
298.95503
 51
90.000003
  0
CIRCLE
  5
32A
100
AcDbEntity
  8
0
  6
CONTINUOUS
 62
     7
100
AcDbCircle
 10
322.0
 20
287.0
 30
0.0
 40
4.0
  0
CIRCLE
  5
32B
100
AcDbEntity
  8
0
  6
CONTINUOUS
 62
     7
100
AcDbCircle
 10
322.0
 20
287.0
 30
0.0
 40
4.0
  0
POLYLINE
  5
32C
100
AcDbEntity
  8
0
  6
CONTINUOUS
 62
     7
100
AcDb2dPolyline
 66
     1
 10
0.0
 20
0.0
 30
0.0
  0
VERTEX
  5
32D
100
AcDbEntity
  8
0
  6
CONTINUOUS
 62
     7
100
AcDbVertex
100
AcDb2dVertex
 10
333.0
 20
276.0
 30
0.0
  0
VERTEX
  5
32E
100
AcDbEntity
  8
0
  6
CONTINUOUS
 62
     7
100
AcDbVertex
100
AcDb2dVertex
 10
364.99998
 20
276.0
 30
0.0
  0
SEQEND
  5
32F
100
AcDbEntity
  8
0
 62
     7
  0
POINT
  5
330
100
AcDbEntity
  8
0
  6
CONTINUOUS
 62
     7
100
AcDbPoint
 10
410.0
 20
276.0
 30
0.0
  0
POINT
  5
331
100
AcDbEntity
  8
0
  6
CONTINUOUS
 62
     7
100
AcDbPoint
 10
455.39996
 20
276.0
 30
0.0
  0
LINE
  5
332
100
AcDbEntity
  8
0
  6
CENTER
 62
     7
100
AcDbLine
 10
410.0
 20
271.0
 30
0.0
 11
410.0
 21
281.0
 31
0.0
  0
LINE
  5
333
100
AcDbEntity
  8
0
  6
CONTINUOUS
 62
     7
100
AcDbLine
 10
461.39996
 20
278.0
 30
0.0
 11
449.39996
 21
278.0
 31
0.0
  0
LINE
  5
334
100
AcDbEntity
  8
0
  6
CONTINUOUS
 62
     7
100
AcDbLine
 10
404.0
 20
276.0
 30
0.0
 11
404.0
 21
278.0
 31
0.0
  0
LINE
  5
335
100
AcDbEntity
  8
0
  6
CONTINUOUS
 62
     7
100
AcDbLine
 10
442.73096
 20
294.0
 30
0.0
 11
422.69998
 21
294.0
 31
0.0
  0
LINE
  5
336
100
AcDbEntity
  8
0
  6
CENTER
 62
     7
100
AcDbLine
 10
432.69998
 20
305.0
 30
0.0
 11
432.69998
 21
269.0
 31
0.0
  0
LINE
  5
337
100
AcDbEntity
  8
0
  6
CONTINUOUS
 62
     7
100
AcDbLine
 10
442.69998
 20
297.5
 30
0.0
 11
422.69998
 21
297.5
 31
0.0
  0
LINE
  5
338
100
AcDbEntity
  8
0
  6
CONTINUOUS
 62
     7
100
AcDbLine
 10
447.39996
 20
298.0
 30
0.0
 11
447.39996
 21
276.0
 31
0.0
  0
LINE
  5
339
100
AcDbEntity
  8
0
  6
CONTINUOUS
 62
     7
100
AcDbLine
 10
416.0
 20
278.0
 30
0.0
 11
404.0
 21
278.0
 31
0.0
  0
LINE
  5
33A
100
AcDbEntity
  8
0
  6
CONTINUOUS
 62
     7
100
AcDbLine
 10
418.0
 20
276.0
 30
0.0
 11
418.0
 21
298.0
 31
0.0
  0
LINE
  5
33B
100
AcDbEntity
  8
0
  6
CONTINUOUS
 62
     7
100
AcDbLine
 10
461.39996
 20
276.0
 30
0.0
 11
404.0
 21
276.0
 31
0.0
  0
LINE
  5
33C
100
AcDbEntity
  8
0
  6
CONTINUOUS
 62
     7
100
AcDbLine
 10
452.69998
 20
278.0
 30
0.0
 11
452.69998
 21
298.0
 31
0.0
  0
LINE
  5
33D
100
AcDbEntity
  8
0
  6
CONTINUOUS
 62
     7
100
AcDbLine
 10
442.69998
 20
276.0
 30
0.0
 11
442.69998
 21
298.0
 31
0.0
  0
LINE
  5
33E
100
AcDbEntity
  8
0
  6
CONTINUOUS
 62
     7
100
AcDbLine
 10
412.69998
 20
298.0
 30
0.0
 11
412.69998
 21
278.0
 31
0.0
  0
LINE
  5
33F
100
AcDbEntity
  8
0
  6
CONTINUOUS
 62
     7
100
AcDbLine
 10
422.69998
 20
298.0
 30
0.0
 11
422.69998
 21
276.0
 31
0.0
  0
LINE
  5
340
100
AcDbEntity
  8
0
  6
CENTER
 62
     7
100
AcDbLine
 10
405.69998
 20
287.0
 30
0.0
 11
459.69998
 21
287.0
 31
0.0
  0
LINE
  5
341
100
AcDbEntity
  8
0
  6
CONTINUOUS
 62
     7
100
AcDbLine
 10
425.19998
 20
280.0
 30
0.0
 11
440.19998
 21
280.0
 31
0.0
  0
LINE
  5
342
100
AcDbEntity
  8
0
  6
CONTINUOUS
 62
     7
100
AcDbLine
 10
449.39996
 20
298.0
 30
0.0
 11
449.39996
 21
278.0
 31
0.0
  0
LINE
  5
343
100
AcDbEntity
  8
0
  6
CONTINUOUS
 62
     7
100
AcDbLine
 10
416.0
 20
278.0
 30
0.0
 11
416.0
 21
298.0
 31
0.0
  0
LINE
  5
344
100
AcDbEntity
  8
0
  6
CONTINUOUS
 62
     7
100
AcDbLine
 10
461.39996
 20
278.0
 30
0.0
 11
461.39996
 21
276.0
 31
0.0
  0
LINE
  5
345
100
AcDbEntity
  8
0
  6
CENTER
 62
     7
100
AcDbLine
 10
455.39996
 20
281.0
 30
0.0
 11
455.39996
 21
271.0
 31
0.0
  0
LINE
  5
346
100
AcDbEntity
  8
0
  6
CONTINUOUS
 62
     7
100
AcDbLine
 10
412.69998
 20
298.0
 30
0.0
 11
422.69998
 21
298.0
 31
0.0
  0
LINE
  5
347
100
AcDbEntity
  8
0
  6
CONTINUOUS
 62
     7
100
AcDbLine
 10
442.69998
 20
298.0
 30
0.0
 11
452.69998
 21
298.0
 31
0.0
  0
ARC
  5
348
100
AcDbEntity
  8
0
  6
CONTINUOUS
 62
     7
100
AcDbCircle
 10
440.19998
 20
282.5
 30
0.0
 40
2.5
100
AcDbArc
 50
270.0
 51
0.0
  0
ARC
  5
349
100
AcDbEntity
  8
0
  6
CONTINUOUS
 62
     7
100
AcDbCircle
 10
425.19998
 20
282.5
 30
0.0
 40
2.5
100
AcDbArc
 50
180.00001
 51
270.0
  0
POINT
  5
34A
100
AcDbEntity
  8
0
  6
CONTINUOUS
 62
     7
100
AcDbPoint
 10
-430.0
 20
91.0
 30
0.0
  0
POINT
  5
34B
100
AcDbEntity
  8
0
  6
CONTINUOUS
 62
     7
100
AcDbPoint
 10
-416.6868
 20
91.0
 30
0.0
  0
LINE
  5
34C
100
AcDbEntity
  8
0
  6
CONTINUOUS
 62
     7
100
AcDbLine
 10
-423.6868
 20
106.0
 30
0.0
 11
-435.30948
 21
106.0
 31
0.0
  0
LINE
  5
34D
100
AcDbEntity
  8
0
  6
CENTER
 62
     7
100
AcDbLine
 10
-430.0
 20
118.0
 30
0.0
 11
-430.0
 21
64.0
 31
0.0
  0
LINE
  5
34E
100
AcDbEntity
  8
0
  6
CONTINUOUS
 62
     7
100
AcDbLine
 10
-455.6868
 20
111.0
 30
0.0
 11
-423.6868
 21
111.0
 31
0.0
  0
LINE
  5
34F
100
AcDbEntity
  8
0
  6
CONTINUOUS
 62
     7
100
AcDbLine
 10
-455.6868
 20
71.0
 30
0.0
 11
-423.6868
 21
71.0
 31
0.0
  0
LINE
  5
350
100
AcDbEntity
  8
0
  6
CONTINUOUS
 62
     7
100
AcDbLine
 10
-435.30948
 20
101.0
 30
0.0
 11
-437.0
 21
101.0
 31
0.0
  0
LINE
  5
351
100
AcDbEntity
  8
0
  6
CONTINUOUS
 62
     7
100
AcDbLine
 10
-455.0
 20
81.0
 30
0.0
 11
-467.30948
 21
81.0
 31
0.0
  0
LINE
  5
352
100
AcDbEntity
  8
0
  6
CONTINUOUS
 62
     7
100
AcDbLine
 10
-423.6868
 20
76.0
 30
0.0
 11
-435.30948
 21
76.0
 31
0.0
  0
LINE
  5
353
100
AcDbEntity
  8
0
  6
CONTINUOUS
 62
     7
100
AcDbLine
 10
-455.6868
 20
76.0
 30
0.0
 11
-467.30948
 21
76.0
 31
0.0
  0
LINE
  5
354
100
AcDbEntity
  8
0
  6
CONTINUOUS
 62
     7
100
AcDbLine
 10
-437.0
 20
101.0
 30
0.0
 11
-437.0
 21
81.0
 31
0.0
  0
LINE
  5
355
100
AcDbEntity
  8
0
  6
CONTINUOUS
 62
     7
100
AcDbLine
 10
-455.6868
 20
106.0
 30
0.0
 11
-467.30948
 21
106.0
 31
0.0
  0
LINE
  5
356
100
AcDbEntity
  8
0
  6
CONTINUOUS
 62
     7
100
AcDbLine
 10
-455.0
 20
101.0
 30
0.0
 11
-467.30948
 21
101.0
 31
0.0
  0
LINE
  5
357
100
AcDbEntity
  8
0
  6
CENTER
 62
     7
100
AcDbLine
 10
-416.6868
 20
91.0
 30
0.0
 11
-474.30948
 21
91.0
 31
0.0
  0
LINE
  5
358
100
AcDbEntity
  8
0
  6
CENTER
 62
     7
100
AcDbLine
 10
-462.0
 20
118.0
 30
0.0
 11
-462.0
 21
64.0
 31
0.0
  0
LINE
  5
359
100
AcDbEntity
  8
0
  6
CONTINUOUS
 62
     7
100
AcDbLine
 10
-455.0
 20
81.0
 30
0.0
 11
-455.0
 21
101.0
 31
0.0
  0
LINE
  5
35A
100
AcDbEntity
  8
0
  6
CONTINUOUS
 62
     7
100
AcDbLine
 10
-435.30948
 20
81.0
 30
0.0
 11
-437.0
 21
81.0
 31
0.0
  0
LINE
  5
35B
100
AcDbEntity
  8
0
  6
CONTINUOUS
 62
     7
100
AcDbLine
 10
-435.30948
 20
106.0
 30
0.0
 11
-435.30948
 21
101.0
 31
0.0
  0
LINE
  5
35C
100
AcDbEntity
  8
0
  6
CONTINUOUS
 62
     7
100
AcDbLine
 10
-435.30948
 20
81.0
 30
0.0
 11
-435.30948
 21
76.0
 31
0.0
  0
LINE
  5
35D
100
AcDbEntity
  8
0
  6
CONTINUOUS
 62
     7
100
AcDbLine
 10
-455.6868
 20
111.0
 30
0.0
 11
-455.6868
 21
106.0
 31
0.0
  0
LINE
  5
35E
100
AcDbEntity
  8
0
  6
CONTINUOUS
 62
     7
100
AcDbLine
 10
-455.6868
 20
76.0
 30
0.0
 11
-455.6868
 21
71.0
 31
0.0
  0
POINT
  5
35F
100
AcDbEntity
  8
0
  6
CONTINUOUS
 62
     7
100
AcDbPoint
 10
-430.0
 20
15.0
 30
0.0
  0
POINT
  5
360
100
AcDbEntity
  8
0
  6
CONTINUOUS
 62
     7
100
AcDbPoint
 10
-424.0
 20
15.0
 30
0.0
  0
LINE
  5
361
100
AcDbEntity
  8
0
  6
CONTINUOUS
 62
     7
100
AcDbLine
 10
-453.25533
 20
7.531347
 30
0.0
 11
-455.56701
 21
4.824723
 31
0.0
  0
LINE
  5
362
100
AcDbEntity
  8
0
  6
CENTER
 62
     7
100
AcDbLine
 10
-436.0
 20
15.0
 30
0.0
 11
-424.0
 21
15.0
 31
0.0
  0
LINE
  5
363
100
AcDbEntity
  8
0
  6
CENTER
 62
     7
100
AcDbLine
 10
-462.0
 20
21.0
 30
0.0
 11
-462.0
 21
9.0
 31
0.0
  0
LINE
  5
364
100
AcDbEntity
  8
0
  6
CONTINUOUS
 62
     7
100
AcDbLine
 10
-430.0
 20
26.0
 30
0.0
 11
-462.0
 21
26.0
 31
0.0
  0
LINE
  5
365
100
AcDbEntity
  8
0
  6
CENTER
 62
     7
100
AcDbLine
 10
-456.0
 20
15.0
 30
0.0
 11
-468.0
 21
15.0
 31
0.0
  0
LINE
  5
366
100
AcDbEntity
  8
0
  6
CENTER
 62
     7
100
AcDbLine
 10
-430.0
 20
21.0
 30
0.0
 11
-430.0
 21
9.0
 31
0.0
  0
LINE
  5
367
100
AcDbEntity
  8
0
  6
CONTINUOUS
 62
     7
100
AcDbLine
 10
-430.0
 20
4.0
 30
0.0
 11
-462.0
 21
4.0
 31
0.0
  0
LINE
  5
368
100
AcDbEntity
  8
0
  6
CONTINUOUS
 62
     7
100
AcDbLine
 10
-459.5
 20
11.876999
 30
0.0
 11
-459.5
 21
18.122009
 31
0.0
  0
CIRCLE
  5
369
100
AcDbEntity
  8
0
  6
CONTINUOUS
 62
     7
100
AcDbCircle
 10
-462.0
 20
15.0
 30
0.0
 40
4.0
  0
CIRCLE
  5
36A
100
AcDbEntity
  8
0
  6
CONTINUOUS
 62
     7
100
AcDbCircle
 10
-462.0
 20
15.0
 30
0.0
 40
4.0
  0
ARC
  5
36B
100
AcDbEntity
  8
0
  6
CONTINUOUS
 62
     7
100
AcDbCircle
 10
-456.19053
 20
25.5
 30
0.0
 40
0.5
100
AcDbArc
 50
90.000003
 51
241.04497
  0
ARC
  5
36C
100
AcDbEntity
  8
0
  6
CONTINUOUS
 62
     7
100
AcDbCircle
 10
-462.0
 20
15.0
 30
0.0
 40
11.5
100
AcDbArc
 50
319.5
 51
61.044973
  0
ARC
  5
36D
100
AcDbEntity
  8
0
  6
CONTINUOUS
 62
     7
100
AcDbCircle
 10
-430.0
 20
15.0
 30
0.0
 40
11.0
100
AcDbArc
 50
270.0
 51
89.999996
  0
CIRCLE
  5
36E
100
AcDbEntity
  8
0
  6
CONTINUOUS
 62
     7
100
AcDbCircle
 10
-462.0
 20
15.0
 30
0.0
 40
4.0
  0
ARC
  5
36F
100
AcDbEntity
  8
0
  6
CONTINUOUS
 62
     7
100
AcDbCircle
 10
-455.1868
 20
4.5
 30
0.0
 40
0.5
100
AcDbArc
 50
139.5
 51
270.0
  0
CIRCLE
  5
370
100
AcDbEntity
  8
0
  6
CONTINUOUS
 62
     7
100
AcDbCircle
 10
-462.0
 20
15.0
 30
0.0
 40
4.0
  0
POINT
  5
371
100
AcDbEntity
  8
0
  6
CONTINUOUS
 62
     7
100
AcDbPoint
 10
-430.0
 20
-61.0
 30
0.0
  0
POINT
  5
372
100
AcDbEntity
  8
0
  6
CONTINUOUS
 62
     7
100
AcDbPoint
 10
-417.69052
 20
-61.0
 30
0.0
  0
LINE
  5
373
100
AcDbEntity
  8
0
  6
CONTINUOUS
 62
     7
100
AcDbLine
 10
-424.69052
 20
-76.0
 30
0.0
 11
-435.30947
 21
-76.0
 31
0.0
  0
LINE
  5
374
100
AcDbEntity
  8
0
  6
CENTER
 62
     7
100
AcDbLine
 10
-440.0
 20
-75.0
 30
0.0
 11
-452.0
 21
-75.0
 31
0.0
  0
LINE
  5
375
100
AcDbEntity
  8
0
  6
CONTINUOUS
 62
     7
100
AcDbLine
 10
-456.69053
 20
-76.0
 30
0.0
 11
-467.30948
 21
-76.0
 31
0.0
  0
LINE
  5
376
100
AcDbEntity
  8
0
  6
CONTINUOUS
 62
     7
100
AcDbLine
 10
-442.0
 20
-79.199982
 30
0.0
 11
-450.0
 21
-79.199982
 31
0.0
  0
LINE
  5
377
100
AcDbEntity
  8
0
  6
CONTINUOUS
 62
     7
100
AcDbLine
 10
-442.0
 20
-79.199982
 30
0.0
 11
-442.0
 21
-71.0
 31
0.0
  0
LINE
  5
378
100
AcDbEntity
  8
0
  6
CONTINUOUS
 62
     7
100
AcDbLine
 10
-437.0
 20
-51.0
 30
0.0
 11
-437.0
 21
-71.0
 31
0.0
  0
LINE
  5
379
100
AcDbEntity
  8
0
  6
CENTER
 62
     7
100
AcDbLine
 10
-440.0
 20
-47.0
 30
0.0
 11
-452.0
 21
-47.0
 31
0.0
  0
LINE
  5
37A
100
AcDbEntity
  8
0
  6
CONTINUOUS
 62
     7
100
AcDbLine
 10
-456.69053
 20
-46.0
 30
0.0
 11
-467.30948
 21
-46.0
 31
0.0
  0
LINE
  5
37B
100
AcDbEntity
  8
0
  6
CONTINUOUS
 62
     7
100
AcDbLine
 10
-450.0
 20
-51.0
 30
0.0
 11
-467.30948
 21
-51.0
 31
0.0
  0
LINE
  5
37C
100
AcDbEntity
  8
0
  6
CENTER
 62
     7
100
AcDbLine
 10
-417.69052
 20
-61.0
 30
0.0
 11
-474.30948
 21
-61.0
 31
0.0
  0
LINE
  5
37D
100
AcDbEntity
  8
0
  6
CONTINUOUS
 62
     7
100
AcDbLine
 10
-435.30947
 20
-51.0
 30
0.0
 11
-435.30947
 21
-46.0
 31
0.0
  0
LINE
  5
37E
100
AcDbEntity
  8
0
  6
CONTINUOUS
 62
     7
100
AcDbLine
 10
-442.0
 20
-42.799988
 30
0.0
 11
-450.0
 21
-42.799988
 31
0.0
  0
LINE
  5
37F
100
AcDbEntity
  8
0
  6
CENTER
 62
     7
100
AcDbLine
 10
-462.0
 20
-34.0
 30
0.0
 11
-462.0
 21
-88.0
 31
0.0
  0
LINE
  5
380
100
AcDbEntity
  8
0
  6
CONTINUOUS
 62
     7
100
AcDbLine
 10
-442.0
 20
-42.799988
 30
0.0
 11
-442.0
 21
-51.0
 31
0.0
  0
LINE
  5
381
100
AcDbEntity
  8
0
  6
CONTINUOUS
 62
     7
100
AcDbLine
 10
-450.0
 20
-51.0
 30
0.0
 11
-450.0
 21
-42.799988
 31
0.0
  0
LINE
  5
382
100
AcDbEntity
  8
0
  6
CONTINUOUS
 62
     7
100
AcDbLine
 10
-455.0
 20
-71.0
 30
0.0
 11
-455.0
 21
-51.0
 31
0.0
  0
LINE
  5
383
100
AcDbEntity
  8
0
  6
CONTINUOUS
 62
     7
100
AcDbLine
 10
-438.5
 20
-71.0
 30
0.0
 11
-438.5
 21
-51.0
 31
0.0
  0
LINE
  5
384
100
AcDbEntity
  8
0
  6
CONTINUOUS
 62
     7
100
AcDbLine
 10
-453.5
 20
-71.0
 30
0.0
 11
-453.5
 21
-51.0
 31
0.0
  0
LINE
  5
385
100
AcDbEntity
  8
0
  6
CONTINUOUS
 62
     7
100
AcDbLine
 10
-450.0
 20
-79.199982
 30
0.0
 11
-450.0
 21
-71.0
 31
0.0
  0
LINE
  5
386
100
AcDbEntity
  8
0
  6
CONTINUOUS
 62
     7
100
AcDbLine
 10
-435.30947
 20
-71.0
 30
0.0
 11
-442.0
 21
-71.0
 31
0.0
  0
LINE
  5
387
100
AcDbEntity
  8
0
  6
CONTINUOUS
 62
     7
100
AcDbLine
 10
-450.0
 20
-71.0
 30
0.0
 11
-467.30948
 21
-71.0
 31
0.0
  0
LINE
  5
388
100
AcDbEntity
  8
0
  6
CONTINUOUS
 62
     7
100
AcDbLine
 10
-435.30947
 20
-51.0
 30
0.0
 11
-442.0
 21
-51.0
 31
0.0
  0
LINE
  5
389
100
AcDbEntity
  8
0
  6
CONTINUOUS
 62
     7
100
AcDbLine
 10
-456.69053
 20
-81.0
 30
0.0
 11
-424.69052
 21
-81.0
 31
0.0
  0
LINE
  5
38A
100
AcDbEntity
  8
0
  6
CONTINUOUS
 62
     7
100
AcDbLine
 10
-456.69053
 20
-41.0
 30
0.0
 11
-424.69052
 21
-41.0
 31
0.0
  0
LINE
  5
38B
100
AcDbEntity
  8
0
  6
CENTER
 62
     7
100
AcDbLine
 10
-430.0
 20
-34.0
 30
0.0
 11
-430.0
 21
-88.0
 31
0.0
  0
LINE
  5
38C
100
AcDbEntity
  8
0
  6
CONTINUOUS
 62
     7
100
AcDbLine
 10
-424.69052
 20
-46.0
 30
0.0
 11
-435.30947
 21
-46.0
 31
0.0
  0
LINE
  5
38D
100
AcDbEntity
  8
0
  6
CONTINUOUS
 62
     7
100
AcDbLine
 10
-456.69053
 20
-81.0
 30
0.0
 11
-456.69053
 21
-76.0
 31
0.0
  0
LINE
  5
38E
100
AcDbEntity
  8
0
  6
CONTINUOUS
 62
     7
100
AcDbLine
 10
-456.69053
 20
-46.0
 30
0.0
 11
-456.69053
 21
-41.0
 31
0.0
  0
LINE
  5
38F
100
AcDbEntity
  8
0
  6
CONTINUOUS
 62
     7
100
AcDbLine
 10
-435.30947
 20
-76.0
 30
0.0
 11
-435.30947
 21
-71.0
 31
0.0
  0
LINE
  5
390
100
AcDbEntity
  8
0
  6
CONTINUOUS
 62
     7
100
AcDbLine
 10
-442.0
 20
-78.5
 30
0.0
 11
-450.0
 21
-78.5
 31
0.0
  0
LINE
  5
391
100
AcDbEntity
  8
0
  6
CONTINUOUS
 62
     7
100
AcDbLine
 10
-442.0
 20
-43.5
 30
0.0
 11
-450.0
 21
-43.5
 31
0.0
  0
POINT
  5
392
100
AcDbEntity
  8
0
  6
CONTINUOUS
 62
     7
100
AcDbPoint
 10
-315.0
 20
84.0
 30
0.0
  0
POINT
  5
393
100
AcDbEntity
  8
0
  6
CONTINUOUS
 62
     7
100
AcDbPoint
 10
-297.0
 20
84.0
 30
0.0
  0
LINE
  5
394
100
AcDbEntity
  8
0
  6
CONTINUOUS
 62
     7
100
AcDbLine
 10
-338.30947
 20
76.0
 30
0.0
 11
-338.30947
 21
81.0
 31
0.0
  0
LINE
  5
395
100
AcDbEntity
  8
0
  6
CONTINUOUS
 62
     7
100
AcDbLine
 10
-338.30947
 20
81.0
 30
0.0
 11
-340.0
 21
81.0
 31
0.0
  0
LINE
  5
396
100
AcDbEntity
  8
0
  6
CONTINUOUS
 62
     7
100
AcDbLine
 10
-358.0
 20
81.0
 30
0.0
 11
-358.0
 21
101.0
 31
0.0
  0
LINE
  5
397
100
AcDbEntity
  8
0
  6
CENTER
 62
     7
100
AcDbLine
 10
-365.0
 20
118.0
 30
0.0
 11
-365.0
 21
64.0
 31
0.0
  0
LINE
  5
398
100
AcDbEntity
  8
0
  6
CONTINUOUS
 62
     7
100
AcDbLine
 10
-338.30947
 20
101.0
 30
0.0
 11
-338.30947
 21
106.0
 31
0.0
  0
LINE
  5
399
100
AcDbEntity
  8
0
  6
CENTER
 62
     7
100
AcDbLine
 10
-320.6905
 20
91.0
 30
0.0
 11
-377.30948
 21
91.0
 31
0.0
  0
LINE
  5
39A
100
AcDbEntity
  8
0
  6
CONTINUOUS
 62
     7
100
AcDbLine
 10
-358.0
 20
101.0
 30
0.0
 11
-370.30948
 21
101.0
 31
0.0
  0
LINE
  5
39B
100
AcDbEntity
  8
0
  6
CONTINUOUS
 62
     7
100
AcDbLine
 10
-358.6868
 20
106.0
 30
0.0
 11
-370.30948
 21
106.0
 31
0.0
  0
LINE
  5
39C
100
AcDbEntity
  8
0
  6
CONTINUOUS
 62
     7
100
AcDbLine
 10
-340.0
 20
101.0
 30
0.0
 11
-340.0
 21
81.0
 31
0.0
  0
LINE
  5
39D
100
AcDbEntity
  8
0
  6
CONTINUOUS
 62
     7
100
AcDbLine
 10
-358.6868
 20
76.0
 30
0.0
 11
-370.30948
 21
76.0
 31
0.0
  0
LINE
  5
39E
100
AcDbEntity
  8
0
  6
CONTINUOUS
 62
     7
100
AcDbLine
 10
-327.69052
 20
76.0
 30
0.0
 11
-338.30947
 21
76.0
 31
0.0
  0
LINE
  5
39F
100
AcDbEntity
  8
0
  6
CONTINUOUS
 62
     7
100
AcDbLine
 10
-358.0
 20
81.0
 30
0.0
 11
-370.30948
 21
81.0
 31
0.0
  0
LINE
  5
3A0
100
AcDbEntity
  8
0
  6
CONTINUOUS
 62
     7
100
AcDbLine
 10
-338.30947
 20
101.0
 30
0.0
 11
-340.0
 21
101.0
 31
0.0
  0
LINE
  5
3A1
100
AcDbEntity
  8
0
  6
CONTINUOUS
 62
     7
100
AcDbLine
 10
-358.6868
 20
71.0
 30
0.0
 11
-322.0
 21
71.0
 31
0.0
  0
LINE
  5
3A2
100
AcDbEntity
  8
0
  6
CONTINUOUS
 62
     7
100
AcDbLine
 10
-358.6868
 20
111.0
 30
0.0
 11
-322.0
 21
111.0
 31
0.0
  0
LINE
  5
3A3
100
AcDbEntity
  8
0
  6
CENTER
 62
     7
100
AcDbLine
 10
-333.0
 20
118.0
 30
0.0
 11
-333.0
 21
64.0
 31
0.0
  0
LINE
  5
3A4
100
AcDbEntity
  8
0
  6
CONTINUOUS
 62
     7
100
AcDbLine
 10
-327.69052
 20
106.0
 30
0.0
 11
-338.30947
 21
106.0
 31
0.0
  0
LINE
  5
3A5
100
AcDbEntity
  8
0
  6
CONTINUOUS
 62
     7
100
AcDbLine
 10
-322.0
 20
106.0
 30
0.0
 11
-322.0
 21
111.0
 31
0.0
  0
LINE
  5
3A6
100
AcDbEntity
  8
0
  6
CONTINUOUS
 62
     7
100
AcDbLine
 10
-319.0
 20
92.0
 30
0.0
 11
-293.0
 21
92.0
 31
0.0
  0
LINE
  5
3A7
100
AcDbEntity
  8
0
  6
CONTINUOUS
 62
     7
100
AcDbLine
 10
-338.30947
 20
106.0
 30
0.0
 11
-290.0
 21
106.0
 31
0.0
  0
LINE
  5
3A8
100
AcDbEntity
  8
0
  6
CENTER
 62
     7
100
AcDbLine
 10
-297.0
 20
102.9
 30
0.0
 11
-297.0
 21
93.1
 31
0.0
  0
LINE
  5
3A9
100
AcDbEntity
  8
0
  6
CENTER
 62
     7
100
AcDbLine
 10
-315.0
 20
102.9
 30
0.0
 11
-315.0
 21
93.1
 31
0.0
  0
LINE
  5
3AA
100
AcDbEntity
  8
0
  6
CONTINUOUS
 62
     7
100
AcDbLine
 10
-290.0
 20
95.0
 30
0.0
 11
-290.0
 21
106.0
 31
0.0
  0
LINE
  5
3AB
100
AcDbEntity
  8
0
  6
CONTINUOUS
 62
     7
100
AcDbLine
 10
-322.0
 20
95.0
 30
0.0
 11
-322.0
 21
104.0
 31
0.0
  0
LINE
  5
3AC
100
AcDbEntity
  8
0
  6
CONTINUOUS
 62
     7
100
AcDbLine
 10
-338.30947
 20
104.0
 30
0.0
 11
-290.0
 21
104.0
 31
0.0
  0
LINE
  5
3AD
100
AcDbEntity
  8
0
  6
CENTER
 62
     7
100
AcDbLine
 10
-292.1
 20
98.0
 30
0.0
 11
-301.9
 21
98.0
 31
0.0
  0
LINE
  5
3AE
100
AcDbEntity
  8
0
  6
CENTER
 62
     7
100
AcDbLine
 10
-310.1
 20
98.0
 30
0.0
 11
-319.9
 21
98.0
 31
0.0
  0
LINE
  5
3AF
100
AcDbEntity
  8
0
  6
CONTINUOUS
 62
     7
100
AcDbLine
 10
-319.0
 20
90.0
 30
0.0
 11
-293.0
 21
90.0
 31
0.0
  0
LINE
  5
3B0
100
AcDbEntity
  8
0
  6
CONTINUOUS
 62
     7
100
AcDbLine
 10
-338.30947
 20
76.0
 30
0.0
 11
-290.0
 21
76.0
 31
0.0
  0
LINE
  5
3B1
100
AcDbEntity
  8
0
  6
CENTER
 62
     7
100
AcDbLine
 10
-297.0
 20
79.1
 30
0.0
 11
-297.0
 21
88.9
 31
0.0
  0
LINE
  5
3B2
100
AcDbEntity
  8
0
  6
CENTER
 62
     7
100
AcDbLine
 10
-315.0
 20
79.1
 30
0.0
 11
-315.0
 21
88.9
 31
0.0
  0
LINE
  5
3B3
100
AcDbEntity
  8
0
  6
CONTINUOUS
 62
     7
100
AcDbLine
 10
-290.0
 20
87.0
 30
0.0
 11
-290.0
 21
76.0
 31
0.0
  0
LINE
  5
3B4
100
AcDbEntity
  8
0
  6
CONTINUOUS
 62
     7
100
AcDbLine
 10
-322.0
 20
87.0
 30
0.0
 11
-322.0
 21
78.0
 31
0.0
  0
LINE
  5
3B5
100
AcDbEntity
  8
0
  6
CONTINUOUS
 62
     7
100
AcDbLine
 10
-338.30947
 20
78.0
 30
0.0
 11
-290.0
 21
78.0
 31
0.0
  0
LINE
  5
3B6
100
AcDbEntity
  8
0
  6
CENTER
 62
     7
100
AcDbLine
 10
-292.1
 20
84.0
 30
0.0
 11
-301.9
 21
84.0
 31
0.0
  0
LINE
  5
3B7
100
AcDbEntity
  8
0
  6
CENTER
 62
     7
100
AcDbLine
 10
-310.1
 20
84.0
 30
0.0
 11
-319.9
 21
84.0
 31
0.0
  0
LINE
  5
3B8
100
AcDbEntity
  8
0
  6
CONTINUOUS
 62
     7
100
AcDbLine
 10
-322.0
 20
76.0
 30
0.0
 11
-322.0
 21
71.0
 31
0.0
  0
LINE
  5
3B9
100
AcDbEntity
  8
0
  6
CONTINUOUS
 62
     7
100
AcDbLine
 10
-358.6868
 20
111.0
 30
0.0
 11
-358.6868
 21
106.0
 31
0.0
  0
LINE
  5
3BA
100
AcDbEntity
  8
0
  6
CONTINUOUS
 62
     7
100
AcDbLine
 10
-358.6868
 20
76.0
 30
0.0
 11
-358.6868
 21
71.0
 31
0.0
  0
ARC
  5
3BB
100
AcDbEntity
  8
0
  6
CONTINUOUS
 62
     7
100
AcDbCircle
 10
-319.0
 20
87.0
 30
0.0
 40
3.0
100
AcDbArc
 50
90.000003
 51
180.00001
  0
ARC
  5
3BC
100
AcDbEntity
  8
0
  6
CONTINUOUS
 62
     7
100
AcDbCircle
 10
-293.0
 20
95.0
 30
0.0
 40
3.0
100
AcDbArc
 50
270.0
 51
0.0
  0
ARC
  5
3BD
100
AcDbEntity
  8
0
  6
CONTINUOUS
 62
     7
100
AcDbCircle
 10
-319.0
 20
95.0
 30
0.0
 40
3.0
100
AcDbArc
 50
179.99999
 51
270.0
  0
CIRCLE
  5
3BE
100
AcDbEntity
  8
0
  6
CONTINUOUS
 62
     7
100
AcDbCircle
 10
-297.0
 20
98.0
 30
0.0
 40
2.9
  0
CIRCLE
  5
3BF
100
AcDbEntity
  8
0
  6
CONTINUOUS
 62
     7
100
AcDbCircle
 10
-315.0
 20
98.0
 30
0.0
 40
2.9
  0
ARC
  5
3C0
100
AcDbEntity
  8
0
  6
CONTINUOUS
 62
     7
100
AcDbCircle
 10
-293.0
 20
87.0
 30
0.0
 40
3.0
100
AcDbArc
 50
0.0
 51
90.000003
  0
CIRCLE
  5
3C1
100
AcDbEntity
  8
0
  6
CONTINUOUS
 62
     7
100
AcDbCircle
 10
-297.0
 20
84.0
 30
0.0
 40
2.9
  0
CIRCLE
  5
3C2
100
AcDbEntity
  8
0
  6
CONTINUOUS
 62
     7
100
AcDbCircle
 10
-315.0
 20
84.0
 30
0.0
 40
2.9
  0
POINT
  5
3C3
100
AcDbEntity
  8
0
  6
CONTINUOUS
 62
     7
100
AcDbPoint
 10
-315.0
 20
4.0
 30
0.0
  0
POINT
  5
3C4
100
AcDbEntity
  8
0
  6
CONTINUOUS
 62
     7
100
AcDbPoint
 10
-297.0
 20
4.0
 30
0.0
  0
LINE
  5
3C5
100
AcDbEntity
  8
0
  6
CENTER
 62
     7
100
AcDbLine
 10
-297.0
 20
-1.0
 30
0.0
 11
-297.0
 21
11.0
 31
0.0
  0
LINE
  5
3C6
100
AcDbEntity
  8
0
  6
DASHED
 62
     7
100
AcDbLine
 10
-322.0
 20
6.0
 30
0.0
 11
-290.0
 21
6.0
 31
0.0
  0
LINE
  5
3C7
100
AcDbEntity
  8
0
  6
CONTINUOUS
 62
     7
100
AcDbLine
 10
-296.3829
 20
13.398798
 30
0.0
 11
-329.24344
 21
25.338678
 31
0.0
  0
LINE
  5
3C8
100
AcDbEntity
  8
0
  6
CENTER
 62
     7
100
AcDbLine
 10
-315.0
 20
-1.0
 30
0.0
 11
-315.0
 21
11.0
 31
0.0
  0
LINE
  5
3C9
100
AcDbEntity
  8
0
  6
DASHED
 62
     7
100
AcDbLine
 10
-322.0
 20
4.0
 30
0.0
 11
-322.0
 21
6.0
 31
0.0
  0
LINE
  5
3CA
100
AcDbEntity
  8
0
  6
CONTINUOUS
 62
     7
100
AcDbLine
 10
-362.5
 20
11.876999
 30
0.0
 11
-362.5
 21
18.122009
 31
0.0
  0
LINE
  5
3CB
100
AcDbEntity
  8
0
  6
CONTINUOUS
 62
     7
100
AcDbLine
 10
-327.0
 20
4.0
 30
0.0
 11
-365.0
 21
4.0
 31
0.0
  0
LINE
  5
3CC
100
AcDbEntity
  8
0
  6
CENTER
 62
     7
100
AcDbLine
 10
-333.0
 20
21.0
 30
0.0
 11
-333.0
 21
9.0
 31
0.0
  0
LINE
  5
3CD
100
AcDbEntity
  8
0
  6
CENTER
 62
     7
100
AcDbLine
 10
-359.0
 20
15.0
 30
0.0
 11
-371.0
 21
15.0
 31
0.0
  0
LINE
  5
3CE
100
AcDbEntity
  8
0
  6
CONTINUOUS
 62
     7
100
AcDbLine
 10
-333.0
 20
26.0
 30
0.0
 11
-365.0
 21
26.0
 31
0.0
  0
LINE
  5
3CF
100
AcDbEntity
  8
0
  6
CENTER
 62
     7
100
AcDbLine
 10
-365.0
 20
21.0
 30
0.0
 11
-365.0
 21
9.0
 31
0.0
  0
LINE
  5
3D0
100
AcDbEntity
  8
0
  6
CENTER
 62
     7
100
AcDbLine
 10
-339.0
 20
15.0
 30
0.0
 11
-327.0
 21
15.0
 31
0.0
  0
LINE
  5
3D1
100
AcDbEntity
  8
0
  6
CONTINUOUS
 62
     7
100
AcDbLine
 10
-356.25533
 20
7.531347
 30
0.0
 11
-358.56701
 21
4.824724
 31
0.0
  0
LINE
  5
3D2
100
AcDbEntity
  8
0
  6
CONTINUOUS
 62
     7
100
AcDbLine
 10
-290.0
 20
4.0
 30
0.0
 11
-290.0
 21
6.0
 31
0.0
  0
ARC
  5
3D3
100
AcDbEntity
  8
0
  6
CONTINUOUS
 62
     7
100
AcDbCircle
 10
-324.5
 20
4.0
 30
0.0
 40
2.5
100
AcDbArc
 50
0.0
 51
180.00001
  0
ARC
  5
3D4
100
AcDbEntity
  8
0
  6
CONTINUOUS
 62
     7
100
AcDbCircle
 10
-299.79796
 20
4.0
 30
0.0
 40
10.0
100
AcDbArc
 50
11.536959
 51
75.804656
  0
CIRCLE
  5
3D5
100
AcDbEntity
  8
0
  6
CONTINUOUS
 62
     7
100
AcDbCircle
 10
-365.0
 20
15.0
 30
0.0
 40
4.0
  0
ARC
  5
3D6
100
AcDbEntity
  8
0
  6
CONTINUOUS
 62
     7
100
AcDbCircle
 10
-358.1868
 20
4.5
 30
0.0
 40
0.5
100
AcDbArc
 50
139.5
 51
270.0
  0
CIRCLE
  5
3D7
100
AcDbEntity
  8
0
  6
CONTINUOUS
 62
     7
100
AcDbCircle
 10
-365.0
 20
15.0
 30
0.0
 40
4.0
  0
ARC
  5
3D8
100
AcDbEntity
  8
0
  6
CONTINUOUS
 62
     7
100
AcDbCircle
 10
-333.0
 20
15.0
 30
0.0
 40
11.0
100
AcDbArc
 50
270.0
 51
89.999996
  0
ARC
  5
3D9
100
AcDbEntity
  8
0
  6
CONTINUOUS
 62
     7
100
AcDbCircle
 10
-365.0
 20
15.0
 30
0.0
 40
11.5
100
AcDbArc
 50
319.5
 51
61.044973
  0
ARC
  5
3DA
100
AcDbEntity
  8
0
  6
CONTINUOUS
 62
     7
100
AcDbCircle
 10
-359.19053
 20
25.5
 30
0.0
 40
0.5
100
AcDbArc
 50
90.000003
 51
241.04497
  0
CIRCLE
  5
3DB
100
AcDbEntity
  8
0
  6
CONTINUOUS
 62
     7
100
AcDbCircle
 10
-365.0
 20
15.0
 30
0.0
 40
4.0
  0
CIRCLE
  5
3DC
100
AcDbEntity
  8
0
  6
CONTINUOUS
 62
     7
100
AcDbCircle
 10
-365.0
 20
15.0
 30
0.0
 40
4.0
  0
CIRCLE
  5
3DD
100
AcDbEntity
  8
0
  6
CONTINUOUS
 62
     7
100
AcDbCircle
 10
-333.0
 20
15.0
 30
0.0
 40
4.0
  0
POLYLINE
  5
3DE
100
AcDbEntity
  8
0
  6
CONTINUOUS
 62
     7
100
AcDb2dPolyline
 66
     1
 10
0.0
 20
0.0
 30
0.0
  0
VERTEX
  5
3DF
100
AcDbEntity
  8
0
  6
CONTINUOUS
 62
     7
100
AcDbVertex
100
AcDb2dVertex
 10
-322.0
 20
4.0
 30
0.0
  0
VERTEX
  5
3E0
100
AcDbEntity
  8
0
  6
CONTINUOUS
 62
     7
100
AcDbVertex
100
AcDb2dVertex
 10
-290.00002
 20
4.0
 30
0.0
  0
SEQEND
  5
3E1
100
AcDbEntity
  8
0
 62
     7
  0
POINT
  5
3E2
100
AcDbEntity
  8
0
  6
CONTINUOUS
 62
     7
100
AcDbPoint
 10
-315.0
 20
-54.0
 30
0.0
  0
POINT
  5
3E3
100
AcDbEntity
  8
0
  6
CONTINUOUS
 62
     7
100
AcDbPoint
 10
-297.0
 20
-54.0
 30
0.0
  0
LINE
  5
3E4
100
AcDbEntity
  8
0
  6
CENTER
 62
     7
100
AcDbLine
 10
-310.1
 20
-54.0
 30
0.0
 11
-319.9
 21
-54.0
 31
0.0
  0
LINE
  5
3E5
100
AcDbEntity
  8
0
  6
CENTER
 62
     7
100
AcDbLine
 10
-292.1
 20
-54.0
 30
0.0
 11
-301.9
 21
-54.0
 31
0.0
  0
LINE
  5
3E6
100
AcDbEntity
  8
0
  6
CONTINUOUS
 62
     7
100
AcDbLine
 10
-338.30947
 20
-48.0
 30
0.0
 11
-322.0
 21
-48.0
 31
0.0
  0
LINE
  5
3E7
100
AcDbEntity
  8
0
  6
CONTINUOUS
 62
     7
100
AcDbLine
 10
-290.0
 20
-57.0
 30
0.0
 11
-290.0
 21
-46.0
 31
0.0
  0
LINE
  5
3E8
100
AcDbEntity
  8
0
  6
CENTER
 62
     7
100
AcDbLine
 10
-315.0
 20
-49.1
 30
0.0
 11
-315.0
 21
-58.9
 31
0.0
  0
LINE
  5
3E9
100
AcDbEntity
  8
0
  6
CENTER
 62
     7
100
AcDbLine
 10
-297.0
 20
-49.1
 30
0.0
 11
-297.0
 21
-58.9
 31
0.0
  0
LINE
  5
3EA
100
AcDbEntity
  8
0
  6
CONTINUOUS
 62
     7
100
AcDbLine
 10
-338.30947
 20
-46.0
 30
0.0
 11
-290.0
 21
-46.0
 31
0.0
  0
LINE
  5
3EB
100
AcDbEntity
  8
0
  6
CONTINUOUS
 62
     7
100
AcDbLine
 10
-319.0
 20
-60.0
 30
0.0
 11
-293.0
 21
-60.0
 31
0.0
  0
LINE
  5
3EC
100
AcDbEntity
  8
0
  6
CONTINUOUS
 62
     7
100
AcDbLine
 10
-322.0
 20
-57.0
 30
0.0
 11
-322.0
 21
-41.0
 31
0.0
  0
LINE
  5
3ED
100
AcDbEntity
  8
0
  6
CONTINUOUS
 62
     7
100
AcDbLine
 10
-327.69052
 20
-46.0
 30
0.0
 11
-338.30947
 21
-46.0
 31
0.0
  0
LINE
  5
3EE
100
AcDbEntity
  8
0
  6
CENTER
 62
     7
100
AcDbLine
 10
-343.0
 20
-47.0
 30
0.0
 11
-355.0
 21
-47.0
 31
0.0
  0
LINE
  5
3EF
100
AcDbEntity
  8
0
  6
CONTINUOUS
 62
     7
100
AcDbLine
 10
-359.69053
 20
-46.0
 30
0.0
 11
-370.30948
 21
-46.0
 31
0.0
  0
LINE
  5
3F0
100
AcDbEntity
  8
0
  6
CONTINUOUS
 62
     7
100
AcDbLine
 10
-345.0
 20
-42.800018
 30
0.0
 11
-353.0
 21
-42.800018
 31
0.0
  0
LINE
  5
3F1
100
AcDbEntity
  8
0
  6
CONTINUOUS
 62
     7
100
AcDbLine
 10
-345.0
 20
-42.800018
 30
0.0
 11
-345.0
 21
-51.0
 31
0.0
  0
LINE
  5
3F2
100
AcDbEntity
  8
0
  6
CONTINUOUS
 62
     7
100
AcDbLine
 10
-340.0
 20
-71.0
 30
0.0
 11
-340.0
 21
-51.0
 31
0.0
  0
LINE
  5
3F3
100
AcDbEntity
  8
0
  6
CENTER
 62
     7
100
AcDbLine
 10
-343.0
 20
-75.0
 30
0.0
 11
-355.0
 21
-75.0
 31
0.0
  0
LINE
  5
3F4
100
AcDbEntity
  8
0
  6
CONTINUOUS
 62
     7
100
AcDbLine
 10
-359.69053
 20
-76.0
 30
0.0
 11
-370.30948
 21
-76.0
 31
0.0
  0
LINE
  5
3F5
100
AcDbEntity
  8
0
  6
CONTINUOUS
 62
     7
100
AcDbLine
 10
-353.0
 20
-71.0
 30
0.0
 11
-370.30948
 21
-71.0
 31
0.0
  0
LINE
  5
3F6
100
AcDbEntity
  8
0
  6
CENTER
 62
     7
100
AcDbLine
 10
-320.6905
 20
-61.0
 30
0.0
 11
-377.3095
 21
-61.0
 31
0.0
  0
LINE
  5
3F7
100
AcDbEntity
  8
0
  6
CONTINUOUS
 62
     7
100
AcDbLine
 10
-338.30947
 20
-71.0
 30
0.0
 11
-338.30947
 21
-76.0
 31
0.0
  0
LINE
  5
3F8
100
AcDbEntity
  8
0
  6
CONTINUOUS
 62
     7
100
AcDbLine
 10
-345.0
 20
-79.200012
 30
0.0
 11
-353.0
 21
-79.200012
 31
0.0
  0
LINE
  5
3F9
100
AcDbEntity
  8
0
  6
CENTER
 62
     7
100
AcDbLine
 10
-365.0
 20
-88.0
 30
0.0
 11
-365.0
 21
-34.0
 31
0.0
  0
LINE
  5
3FA
100
AcDbEntity
  8
0
  6
CONTINUOUS
 62
     7
100
AcDbLine
 10
-345.0
 20
-79.200012
 30
0.0
 11
-345.0
 21
-71.0
 31
0.0
  0
LINE
  5
3FB
100
AcDbEntity
  8
0
  6
CONTINUOUS
 62
     7
100
AcDbLine
 10
-353.0
 20
-71.0
 30
0.0
 11
-353.0
 21
-79.200012
 31
0.0
  0
LINE
  5
3FC
100
AcDbEntity
  8
0
  6
CONTINUOUS
 62
     7
100
AcDbLine
 10
-358.0
 20
-51.0
 30
0.0
 11
-358.0
 21
-71.0
 31
0.0
  0
LINE
  5
3FD
100
AcDbEntity
  8
0
  6
CONTINUOUS
 62
     7
100
AcDbLine
 10
-341.5
 20
-51.0
 30
0.0
 11
-341.5
 21
-71.0
 31
0.0
  0
LINE
  5
3FE
100
AcDbEntity
  8
0
  6
CONTINUOUS
 62
     7
100
AcDbLine
 10
-356.5
 20
-51.0
 30
0.0
 11
-356.5
 21
-71.0
 31
0.0
  0
LINE
  5
3FF
100
AcDbEntity
  8
0
  6
CONTINUOUS
 62
     7
100
AcDbLine
 10
-353.0
 20
-42.800018
 30
0.0
 11
-353.0
 21
-51.0
 31
0.0
  0
LINE
  5
400
100
AcDbEntity
  8
0
  6
CONTINUOUS
 62
     7
100
AcDbLine
 10
-338.30947
 20
-51.0
 30
0.0
 11
-345.0
 21
-51.0
 31
0.0
  0
LINE
  5
401
100
AcDbEntity
  8
0
  6
CONTINUOUS
 62
     7
100
AcDbLine
 10
-353.0
 20
-51.0
 30
0.0
 11
-370.30948
 21
-51.0
 31
0.0
  0
LINE
  5
402
100
AcDbEntity
  8
0
  6
CONTINUOUS
 62
     7
100
AcDbLine
 10
-338.30947
 20
-71.0
 30
0.0
 11
-345.0
 21
-71.0
 31
0.0
  0
LINE
  5
403
100
AcDbEntity
  8
0
  6
CONTINUOUS
 62
     7
100
AcDbLine
 10
-359.69053
 20
-41.0
 30
0.0
 11
-322.0
 21
-41.0
 31
0.0
  0
LINE
  5
404
100
AcDbEntity
  8
0
  6
CONTINUOUS
 62
     7
100
AcDbLine
 10
-359.69053
 20
-81.0
 30
0.0
 11
-322.0
 21
-81.0
 31
0.0
  0
LINE
  5
405
100
AcDbEntity
  8
0
  6
CENTER
 62
     7
100
AcDbLine
 10
-333.0
 20
-88.0
 30
0.0
 11
-333.0
 21
-34.0
 31
0.0
  0
LINE
  5
406
100
AcDbEntity
  8
0
  6
CONTINUOUS
 62
     7
100
AcDbLine
 10
-359.69053
 20
-41.0
 30
0.0
 11
-359.69053
 21
-46.0
 31
0.0
  0
LINE
  5
407
100
AcDbEntity
  8
0
  6
CONTINUOUS
 62
     7
100
AcDbLine
 10
-359.69053
 20
-76.0
 30
0.0
 11
-359.69053
 21
-81.0
 31
0.0
  0
LINE
  5
408
100
AcDbEntity
  8
0
  6
CONTINUOUS
 62
     7
100
AcDbLine
 10
-338.30947
 20
-46.0
 30
0.0
 11
-338.30947
 21
-51.0
 31
0.0
  0
LINE
  5
409
100
AcDbEntity
  8
0
  6
CONTINUOUS
 62
     7
100
AcDbLine
 10
-345.0
 20
-43.5
 30
0.0
 11
-353.0
 21
-43.5
 31
0.0
  0
LINE
  5
40A
100
AcDbEntity
  8
0
  6
CONTINUOUS
 62
     7
100
AcDbLine
 10
-345.0
 20
-78.5
 30
0.0
 11
-353.0
 21
-78.5
 31
0.0
  0
LINE
  5
40B
100
AcDbEntity
  8
0
  6
CONTINUOUS
 62
     7
100
AcDbLine
 10
-322.0
 20
-65.0
 30
0.0
 11
-322.0
 21
-81.0
 31
0.0
  0
LINE
  5
40C
100
AcDbEntity
  8
0
  6
CENTER
 62
     7
100
AcDbLine
 10
-297.0
 20
-72.9
 30
0.0
 11
-297.0
 21
-63.1
 31
0.0
  0
LINE
  5
40D
100
AcDbEntity
  8
0
  6
CENTER
 62
     7
100
AcDbLine
 10
-315.0
 20
-72.9
 30
0.0
 11
-315.0
 21
-63.1
 31
0.0
  0
LINE
  5
40E
100
AcDbEntity
  8
0
  6
CONTINUOUS
 62
     7
100
AcDbLine
 10
-290.0
 20
-65.0
 30
0.0
 11
-290.0
 21
-76.0
 31
0.0
  0
LINE
  5
40F
100
AcDbEntity
  8
0
  6
CONTINUOUS
 62
     7
100
AcDbLine
 10
-338.30947
 20
-74.0
 30
0.0
 11
-322.0
 21
-74.0
 31
0.0
  0
LINE
  5
410
100
AcDbEntity
  8
0
  6
CENTER
 62
     7
100
AcDbLine
 10
-292.1
 20
-68.0
 30
0.0
 11
-301.9
 21
-68.0
 31
0.0
  0
LINE
  5
411
100
AcDbEntity
  8
0
  6
CONTINUOUS
 62
     7
100
AcDbLine
 10
-319.0
 20
-62.0
 30
0.0
 11
-293.0
 21
-62.0
 31
0.0
  0
LINE
  5
412
100
AcDbEntity
  8
0
  6
CENTER
 62
     7
100
AcDbLine
 10
-310.1
 20
-68.0
 30
0.0
 11
-319.9
 21
-68.0
 31
0.0
  0
LINE
  5
413
100
AcDbEntity
  8
0
  6
CONTINUOUS
 62
     7
100
AcDbLine
 10
-338.30947
 20
-76.0
 30
0.0
 11
-290.0
 21
-76.0
 31
0.0
  0
CIRCLE
  5
414
100
AcDbEntity
  8
0
  6
CONTINUOUS
 62
     7
100
AcDbCircle
 10
-315.0
 20
-54.0
 30
0.0
 40
2.9
  0
CIRCLE
  5
415
100
AcDbEntity
  8
0
  6
CONTINUOUS
 62
     7
100
AcDbCircle
 10
-297.0
 20
-54.0
 30
0.0
 40
2.9
  0
ARC
  5
416
100
AcDbEntity
  8
0
  6
CONTINUOUS
 62
     7
100
AcDbCircle
 10
-319.0
 20
-57.0
 30
0.0
 40
3.0
100
AcDbArc
 50
179.99999
 51
270.0
  0
ARC
  5
417
100
AcDbEntity
  8
0
  6
CONTINUOUS
 62
     7
100
AcDbCircle
 10
-293.0
 20
-57.0
 30
0.0
 40
3.0
100
AcDbArc
 50
270.0
 51
0.0
  0
CIRCLE
  5
418
100
AcDbEntity
  8
0
  6
CONTINUOUS
 62
     7
100
AcDbCircle
 10
-297.0
 20
-68.0
 30
0.0
 40
2.9
  0
ARC
  5
419
100
AcDbEntity
  8
0
  6
CONTINUOUS
 62
     7
100
AcDbCircle
 10
-319.0
 20
-65.0
 30
0.0
 40
3.0
100
AcDbArc
 50
90.000003
 51
180.00001
  0
CIRCLE
  5
41A
100
AcDbEntity
  8
0
  6
CONTINUOUS
 62
     7
100
AcDbCircle
 10
-315.0
 20
-68.0
 30
0.0
 40
2.9
  0
ARC
  5
41B
100
AcDbEntity
  8
0
  6
CONTINUOUS
 62
     7
100
AcDbCircle
 10
-293.0
 20
-65.0
 30
0.0
 40
3.0
100
AcDbArc
 50
0.0
 51
90.000003
  0
POINT
  5
41C
100
AcDbEntity
  8
0
  6
CONTINUOUS
 62
     7
100
AcDbPoint
 10
-230.0
 20
4.0
 30
0.0
  0
POINT
  5
41D
100
AcDbEntity
  8
0
  6
CONTINUOUS
 62
     7
100
AcDbPoint
 10
-216.0
 20
4.0
 30
0.0
  0
LINE
  5
41E
100
AcDbEntity
  8
0
  6
CONTINUOUS
 62
     7
100
AcDbLine
 10
-243.0
 20
26.0
 30
0.0
 11
-203.0
 21
26.0
 31
0.0
  0
LINE
  5
41F
100
AcDbEntity
  8
0
  6
CONTINUOUS
 62
     7
100
AcDbLine
 10
-203.0
 20
4.0
 30
0.0
 11
-222.0
 21
4.0
 31
0.0
  0
LINE
  5
420
100
AcDbEntity
  8
0
  6
CONTINUOUS
 62
     7
100
AcDbLine
 10
-236.0
 20
26.0
 30
0.0
 11
-236.0
 21
6.0
 31
0.0
  0
LINE
  5
421
100
AcDbEntity
  8
0
  6
CONTINUOUS
 62
     7
100
AcDbLine
 10
-210.0
 20
26.0
 30
0.0
 11
-210.0
 21
6.0
 31
0.0
  0
LINE
  5
422
100
AcDbEntity
  8
0
  6
CONTINUOUS
 62
     7
100
AcDbLine
 10
-222.0
 20
4.5
 30
0.0
 11
-224.0
 21
4.5
 31
0.0
  0
LINE
  5
423
100
AcDbEntity
  8
0
  6
CENTER
 62
     7
100
AcDbLine
 10
-223.0
 20
-3.0
 30
0.0
 11
-223.0
 21
33.0
 31
0.0
  0
LINE
  5
424
100
AcDbEntity
  8
0
  6
CONTINUOUS
 62
     7
100
AcDbLine
 10
-213.0
 20
8.0
 30
0.0
 11
-233.0
 21
8.0
 31
0.0
  0
LINE
  5
425
100
AcDbEntity
  8
0
  6
CONTINUOUS
 62
     7
100
AcDbLine
 10
-210.0
 20
6.0
 30
0.0
 11
-222.0
 21
6.0
 31
0.0
  0
LINE
  5
426
100
AcDbEntity
  8
0
  6
CONTINUOUS
 62
     7
100
AcDbLine
 10
-236.0
 20
6.0
 30
0.0
 11
-224.0
 21
6.0
 31
0.0
  0
LINE
  5
427
100
AcDbEntity
  8
0
  6
CONTINUOUS
 62
     7
100
AcDbLine
 10
-208.0
 20
26.0
 30
0.0
 11
-208.0
 21
4.0
 31
0.0
  0
LINE
  5
428
100
AcDbEntity
  8
0
  6
CONTINUOUS
 62
     7
100
AcDbLine
 10
-203.0
 20
26.0
 30
0.0
 11
-203.0
 21
4.0
 31
0.0
  0
LINE
  5
429
100
AcDbEntity
  8
0
  6
CONTINUOUS
 62
     7
100
AcDbLine
 10
-213.0
 20
26.0
 30
0.0
 11
-213.0
 21
6.0
 31
0.0
  0
LINE
  5
42A
100
AcDbEntity
  8
0
  6
CONTINUOUS
 62
     7
100
AcDbLine
 10
-243.0
 20
4.0
 30
0.0
 11
-224.0
 21
4.0
 31
0.0
  0
LINE
  5
42B
100
AcDbEntity
  8
0
  6
CENTER
 62
     7
100
AcDbLine
 10
-230.0
 20
9.0
 30
0.0
 11
-230.0
 21
-1.0
 31
0.0
  0
LINE
  5
42C
100
AcDbEntity
  8
0
  6
CONTINUOUS
 62
     7
100
AcDbLine
 10
-238.0
 20
26.0
 30
0.0
 11
-238.0
 21
4.0
 31
0.0
  0
LINE
  5
42D
100
AcDbEntity
  8
0
  6
CONTINUOUS
 62
     7
100
AcDbLine
 10
-243.0
 20
4.0
 30
0.0
 11
-243.0
 21
26.0
 31
0.0
  0
LINE
  5
42E
100
AcDbEntity
  8
0
  6
CONTINUOUS
 62
     7
100
AcDbLine
 10
-233.0
 20
6.0
 30
0.0
 11
-233.0
 21
26.0
 31
0.0
  0
LINE
  5
42F
100
AcDbEntity
  8
0
  6
CONTINUOUS
 62
     7
100
AcDbLine
 10
-230.5
 20
22.0
 30
0.0
 11
-215.5
 21
22.0
 31
0.0
  0
LINE
  5
430
100
AcDbEntity
  8
0
  6
CONTINUOUS
 62
     7
100
AcDbLine
 10
-224.0
 20
6.0
 30
0.0
 11
-224.0
 21
4.0
 31
0.0
  0
LINE
  5
431
100
AcDbEntity
  8
0
  6
CONTINUOUS
 62
     7
100
AcDbLine
 10
-222.0
 20
6.0
 30
0.0
 11
-222.0
 21
4.0
 31
0.0
  0
LINE
  5
432
100
AcDbEntity
  8
0
  6
CENTER
 62
     7
100
AcDbLine
 10
-250.0
 20
15.0
 30
0.0
 11
-196.0
 21
15.0
 31
0.0
  0
LINE
  5
433
100
AcDbEntity
  8
0
  6
CENTER
 62
     7
100
AcDbLine
 10
-216.0
 20
9.0
 30
0.0
 11
-216.0
 21
-1.0
 31
0.0
  0
LINE
  5
434
100
AcDbEntity
  8
0
  6
CONTINUOUS
 62
     7
100
AcDbLine
 10
-243.0
 20
4.0
 30
0.0
 11
-243.0
 21
26.0
 31
0.0
  0
ARC
  5
435
100
AcDbEntity
  8
0
  6
CONTINUOUS
 62
     7
100
AcDbCircle
 10
-215.5
 20
19.5
 30
0.0
 40
2.5
100
AcDbArc
 50
0.0
 51
90.000003
  0
ARC
  5
436
100
AcDbEntity
  8
0
  6
CONTINUOUS
 62
     7
100
AcDbCircle
 10
-230.5
 20
19.5
 30
0.0
 40
2.5
100
AcDbArc
 50
90.000003
 51
179.99999
  0
POINT
  5
437
100
AcDbEntity
  8
0
  6
CONTINUOUS
 62
     7
100
AcDbPoint
 10
-100.0
 20
84.0
 30
0.0
  0
POINT
  5
438
100
AcDbEntity
  8
0
  6
CONTINUOUS
 62
     7
100
AcDbPoint
 10
-82.0
 20
84.0
 30
0.0
  0
LINE
  5
439
100
AcDbEntity
  8
0
  6
CENTER
 62
     7
100
AcDbLine
 10
-77.1
 20
84.0
 30
0.0
 11
-86.9
 21
84.0
 31
0.0
  0
LINE
  5
43A
100
AcDbEntity
  8
0
  6
CONTINUOUS
 62
     7
100
AcDbLine
 10
-123.30947
 20
78.0
 30
0.0
 11
-107.0
 21
78.0
 31
0.0
  0
LINE
  5
43B
100
AcDbEntity
  8
0
  6
CONTINUOUS
 62
     7
100
AcDbLine
 10
-107.0
 20
87.0
 30
0.0
 11
-107.0
 21
71.0
 31
0.0
  0
LINE
  5
43C
100
AcDbEntity
  8
0
  6
CONTINUOUS
 62
     7
100
AcDbLine
 10
-75.0
 20
87.0
 30
0.0
 11
-75.0
 21
76.0
 31
0.0
  0
LINE
  5
43D
100
AcDbEntity
  8
0
  6
CENTER
 62
     7
100
AcDbLine
 10
-100.0
 20
79.1
 30
0.0
 11
-100.0
 21
88.9
 31
0.0
  0
LINE
  5
43E
100
AcDbEntity
  8
0
  6
CENTER
 62
     7
100
AcDbLine
 10
-82.0
 20
79.1
 30
0.0
 11
-82.0
 21
88.9
 31
0.0
  0
LINE
  5
43F
100
AcDbEntity
  8
0
  6
CONTINUOUS
 62
     7
100
AcDbLine
 10
-123.30947
 20
76.0
 30
0.0
 11
-75.0
 21
76.0
 31
0.0
  0
LINE
  5
440
100
AcDbEntity
  8
0
  6
CONTINUOUS
 62
     7
100
AcDbLine
 10
-104.0
 20
90.0
 30
0.0
 11
-78.0
 21
90.0
 31
0.0
  0
LINE
  5
441
100
AcDbEntity
  8
0
  6
CENTER
 62
     7
100
AcDbLine
 10
-95.1
 20
98.0
 30
0.0
 11
-104.9
 21
98.0
 31
0.0
  0
LINE
  5
442
100
AcDbEntity
  8
0
  6
CENTER
 62
     7
100
AcDbLine
 10
-77.1
 20
98.0
 30
0.0
 11
-86.9
 21
98.0
 31
0.0
  0
LINE
  5
443
100
AcDbEntity
  8
0
  6
CONTINUOUS
 62
     7
100
AcDbLine
 10
-123.30947
 20
104.0
 30
0.0
 11
-107.0
 21
104.0
 31
0.0
  0
LINE
  5
444
100
AcDbEntity
  8
0
  6
CONTINUOUS
 62
     7
100
AcDbLine
 10
-107.0
 20
95.0
 30
0.0
 11
-107.0
 21
111.0
 31
0.0
  0
LINE
  5
445
100
AcDbEntity
  8
0
  6
CONTINUOUS
 62
     7
100
AcDbLine
 10
-75.0
 20
95.0
 30
0.0
 11
-75.0
 21
106.0
 31
0.0
  0
LINE
  5
446
100
AcDbEntity
  8
0
  6
CENTER
 62
     7
100
AcDbLine
 10
-100.0
 20
102.9
 30
0.0
 11
-100.0
 21
93.1
 31
0.0
  0
LINE
  5
447
100
AcDbEntity
  8
0
  6
CENTER
 62
     7
100
AcDbLine
 10
-82.0
 20
102.9
 30
0.0
 11
-82.0
 21
93.1
 31
0.0
  0
LINE
  5
448
100
AcDbEntity
  8
0
  6
CONTINUOUS
 62
     7
100
AcDbLine
 10
-123.30947
 20
106.0
 30
0.0
 11
-75.0
 21
106.0
 31
0.0
  0
LINE
  5
449
100
AcDbEntity
  8
0
  6
CONTINUOUS
 62
     7
100
AcDbLine
 10
-104.0
 20
92.0
 30
0.0
 11
-78.0
 21
92.0
 31
0.0
  0
LINE
  5
44A
100
AcDbEntity
  8
0
  6
CONTINUOUS
 62
     7
100
AcDbLine
 10
-112.69052
 20
106.0
 30
0.0
 11
-123.30947
 21
106.0
 31
0.0
  0
LINE
  5
44B
100
AcDbEntity
  8
0
  6
CENTER
 62
     7
100
AcDbLine
 10
-118.0
 20
118.0
 30
0.0
 11
-118.0
 21
64.0
 31
0.0
  0
LINE
  5
44C
100
AcDbEntity
  8
0
  6
CONTINUOUS
 62
     7
100
AcDbLine
 10
-143.6868
 20
111.0
 30
0.0
 11
-107.0
 21
111.0
 31
0.0
  0
LINE
  5
44D
100
AcDbEntity
  8
0
  6
CONTINUOUS
 62
     7
100
AcDbLine
 10
-143.6868
 20
71.0
 30
0.0
 11
-107.0
 21
71.0
 31
0.0
  0
LINE
  5
44E
100
AcDbEntity
  8
0
  6
CONTINUOUS
 62
     7
100
AcDbLine
 10
-123.30947
 20
101.0
 30
0.0
 11
-125.0
 21
101.0
 31
0.0
  0
LINE
  5
44F
100
AcDbEntity
  8
0
  6
CONTINUOUS
 62
     7
100
AcDbLine
 10
-143.0
 20
81.0
 30
0.0
 11
-155.30948
 21
81.0
 31
0.0
  0
LINE
  5
450
100
AcDbEntity
  8
0
  6
CONTINUOUS
 62
     7
100
AcDbLine
 10
-112.69052
 20
76.0
 30
0.0
 11
-123.30947
 21
76.0
 31
0.0
  0
LINE
  5
451
100
AcDbEntity
  8
0
  6
CONTINUOUS
 62
     7
100
AcDbLine
 10
-143.6868
 20
76.0
 30
0.0
 11
-155.30948
 21
76.0
 31
0.0
  0
LINE
  5
452
100
AcDbEntity
  8
0
  6
CONTINUOUS
 62
     7
100
AcDbLine
 10
-125.0
 20
101.0
 30
0.0
 11
-125.0
 21
81.0
 31
0.0
  0
LINE
  5
453
100
AcDbEntity
  8
0
  6
CONTINUOUS
 62
     7
100
AcDbLine
 10
-143.6868
 20
106.0
 30
0.0
 11
-155.30948
 21
106.0
 31
0.0
  0
LINE
  5
454
100
AcDbEntity
  8
0
  6
CONTINUOUS
 62
     7
100
AcDbLine
 10
-143.0
 20
101.0
 30
0.0
 11
-155.30948
 21
101.0
 31
0.0
  0
LINE
  5
455
100
AcDbEntity
  8
0
  6
CENTER
 62
     7
100
AcDbLine
 10
-104.6868
 20
91.0
 30
0.0
 11
-162.3095
 21
91.0
 31
0.0
  0
LINE
  5
456
100
AcDbEntity
  8
0
  6
CONTINUOUS
 62
     7
100
AcDbLine
 10
-123.30947
 20
101.0
 30
0.0
 11
-123.30947
 21
106.0
 31
0.0
  0
LINE
  5
457
100
AcDbEntity
  8
0
  6
CENTER
 62
     7
100
AcDbLine
 10
-150.0
 20
118.0
 30
0.0
 11
-150.0
 21
64.0
 31
0.0
  0
LINE
  5
458
100
AcDbEntity
  8
0
  6
CONTINUOUS
 62
     7
100
AcDbLine
 10
-143.0
 20
81.0
 30
0.0
 11
-143.0
 21
101.0
 31
0.0
  0
LINE
  5
459
100
AcDbEntity
  8
0
  6
CONTINUOUS
 62
     7
100
AcDbLine
 10
-123.30947
 20
81.0
 30
0.0
 11
-125.0
 21
81.0
 31
0.0
  0
LINE
  5
45A
100
AcDbEntity
  8
0
  6
CONTINUOUS
 62
     7
100
AcDbLine
 10
-123.30947
 20
76.0
 30
0.0
 11
-123.30947
 21
81.0
 31
0.0
  0
LINE
  5
45B
100
AcDbEntity
  8
0
  6
CENTER
 62
     7
100
AcDbLine
 10
-95.1
 20
84.0
 30
0.0
 11
-104.9
 21
84.0
 31
0.0
  0
LINE
  5
45C
100
AcDbEntity
  8
0
  6
CONTINUOUS
 62
     7
100
AcDbLine
 10
-143.6868
 20
111.0
 30
0.0
 11
-143.6868
 21
106.0
 31
0.0
  0
LINE
  5
45D
100
AcDbEntity
  8
0
  6
CONTINUOUS
 62
     7
100
AcDbLine
 10
-143.6868
 20
76.0
 30
0.0
 11
-143.6868
 21
71.0
 31
0.0
  0
CIRCLE
  5
45E
100
AcDbEntity
  8
0
  6
CONTINUOUS
 62
     7
100
AcDbCircle
 10
-82.0
 20
84.0
 30
0.0
 40
2.9
  0
ARC
  5
45F
100
AcDbEntity
  8
0
  6
CONTINUOUS
 62
     7
100
AcDbCircle
 10
-78.0
 20
87.0
 30
0.0
 40
3.0
100
AcDbArc
 50
0.0
 51
90.000003
  0
CIRCLE
  5
460
100
AcDbEntity
  8
0
  6
CONTINUOUS
 62
     7
100
AcDbCircle
 10
-100.0
 20
98.0
 30
0.0
 40
2.9
  0
CIRCLE
  5
461
100
AcDbEntity
  8
0
  6
CONTINUOUS
 62
     7
100
AcDbCircle
 10
-82.0
 20
98.0
 30
0.0
 40
2.9
  0
ARC
  5
462
100
AcDbEntity
  8
0
  6
CONTINUOUS
 62
     7
100
AcDbCircle
 10
-104.0
 20
95.0
 30
0.0
 40
3.0
100
AcDbArc
 50
179.99999
 51
270.0
  0
ARC
  5
463
100
AcDbEntity
  8
0
  6
CONTINUOUS
 62
     7
100
AcDbCircle
 10
-78.0
 20
95.0
 30
0.0
 40
3.0
100
AcDbArc
 50
270.0
 51
0.0
  0
ARC
  5
464
100
AcDbEntity
  8
0
  6
CONTINUOUS
 62
     7
100
AcDbCircle
 10
-104.0
 20
87.0
 30
0.0
 40
3.0
100
AcDbArc
 50
90.000003
 51
180.00001
  0
CIRCLE
  5
465
100
AcDbEntity
  8
0
  6
CONTINUOUS
 62
     7
100
AcDbCircle
 10
-100.0
 20
84.0
 30
0.0
 40
2.9
  0
POINT
  5
466
100
AcDbEntity
  8
0
  6
CONTINUOUS
 62
     7
100
AcDbPoint
 10
-100.0
 20
26.0
 30
0.0
  0
POINT
  5
467
100
AcDbEntity
  8
0
  6
CONTINUOUS
 62
     7
100
AcDbPoint
 10
-82.0
 20
26.0
 30
0.0
  0
LINE
  5
468
100
AcDbEntity
  8
0
  6
CONTINUOUS
 62
     7
100
AcDbLine
 10
-75.0
 20
26.0
 30
0.0
 11
-75.0
 21
24.0
 31
0.0
  0
LINE
  5
469
100
AcDbEntity
  8
0
  6
CONTINUOUS
 62
     7
100
AcDbLine
 10
-141.25533
 20
7.531347
 30
0.0
 11
-143.56701
 21
4.824724
 31
0.0
  0
LINE
  5
46A
100
AcDbEntity
  8
0
  6
CENTER
 62
     7
100
AcDbLine
 10
-124.0
 20
15.0
 30
0.0
 11
-112.0
 21
15.0
 31
0.0
  0
LINE
  5
46B
100
AcDbEntity
  8
0
  6
CENTER
 62
     7
100
AcDbLine
 10
-150.0
 20
21.0
 30
0.0
 11
-150.0
 21
9.0
 31
0.0
  0
LINE
  5
46C
100
AcDbEntity
  8
0
  6
CONTINUOUS
 62
     7
100
AcDbLine
 10
-112.0
 20
26.0
 30
0.0
 11
-150.0
 21
26.0
 31
0.0
  0
LINE
  5
46D
100
AcDbEntity
  8
0
  6
CENTER
 62
     7
100
AcDbLine
 10
-144.0
 20
15.0
 30
0.0
 11
-156.0
 21
15.0
 31
0.0
  0
LINE
  5
46E
100
AcDbEntity
  8
0
  6
CENTER
 62
     7
100
AcDbLine
 10
-118.0
 20
21.0
 30
0.0
 11
-118.0
 21
9.0
 31
0.0
  0
LINE
  5
46F
100
AcDbEntity
  8
0
  6
CONTINUOUS
 62
     7
100
AcDbLine
 10
-118.0
 20
4.0
 30
0.0
 11
-150.0
 21
4.0
 31
0.0
  0
LINE
  5
470
100
AcDbEntity
  8
0
  6
CONTINUOUS
 62
     7
100
AcDbLine
 10
-147.5
 20
11.876999
 30
0.0
 11
-147.5
 21
18.122009
 31
0.0
  0
LINE
  5
471
100
AcDbEntity
  8
0
  6
DASHED
 62
     7
100
AcDbLine
 10
-107.0
 20
26.0
 30
0.0
 11
-107.0
 21
24.0
 31
0.0
  0
LINE
  5
472
100
AcDbEntity
  8
0
  6
CENTER
 62
     7
100
AcDbLine
 10
-100.0
 20
31.0
 30
0.0
 11
-100.0
 21
19.0
 31
0.0
  0
LINE
  5
473
100
AcDbEntity
  8
0
  6
CONTINUOUS
 62
     7
100
AcDbLine
 10
-81.382904
 20
16.601202
 30
0.0
 11
-114.24344
 21
4.661322
 31
0.0
  0
LINE
  5
474
100
AcDbEntity
  8
0
  6
DASHED
 62
     7
100
AcDbLine
 10
-107.0
 20
24.0
 30
0.0
 11
-75.0
 21
24.0
 31
0.0
  0
LINE
  5
475
100
AcDbEntity
  8
0
  6
CENTER
 62
     7
100
AcDbLine
 10
-82.0
 20
31.0
 30
0.0
 11
-82.0
 21
19.0
 31
0.0
  0
CIRCLE
  5
476
100
AcDbEntity
  8
0
  6
CONTINUOUS
 62
     7
100
AcDbCircle
 10
-118.0
 20
15.0
 30
0.0
 40
4.0
  0
CIRCLE
  5
477
100
AcDbEntity
  8
0
  6
CONTINUOUS
 62
     7
100
AcDbCircle
 10
-150.0
 20
15.0
 30
0.0
 40
4.0
  0
CIRCLE
  5
478
100
AcDbEntity
  8
0
  6
CONTINUOUS
 62
     7
100
AcDbCircle
 10
-150.0
 20
15.0
 30
0.0
 40
4.0
  0
ARC
  5
479
100
AcDbEntity
  8
0
  6
CONTINUOUS
 62
     7
100
AcDbCircle
 10
-144.19053
 20
25.5
 30
0.0
 40
0.5
100
AcDbArc
 50
90.000003
 51
241.04497
  0
ARC
  5
47A
100
AcDbEntity
  8
0
  6
CONTINUOUS
 62
     7
100
AcDbCircle
 10
-150.0
 20
15.0
 30
0.0
 40
11.5
100
AcDbArc
 50
319.5
 51
61.044973
  0
ARC
  5
47B
100
AcDbEntity
  8
0
  6
CONTINUOUS
 62
     7
100
AcDbCircle
 10
-118.0
 20
15.0
 30
0.0
 40
11.0
100
AcDbArc
 50
270.0
 51
89.999996
  0
CIRCLE
  5
47C
100
AcDbEntity
  8
0
  6
CONTINUOUS
 62
     7
100
AcDbCircle
 10
-150.0
 20
15.0
 30
0.0
 40
4.0
  0
ARC
  5
47D
100
AcDbEntity
  8
0
  6
CONTINUOUS
 62
     7
100
AcDbCircle
 10
-143.1868
 20
4.5
 30
0.0
 40
0.5
100
AcDbArc
 50
139.5
 51
270.0
  0
CIRCLE
  5
47E
100
AcDbEntity
  8
0
  6
CONTINUOUS
 62
     7
100
AcDbCircle
 10
-150.0
 20
15.0
 30
0.0
 40
4.0
  0
ARC
  5
47F
100
AcDbEntity
  8
0
  6
CONTINUOUS
 62
     7
100
AcDbCircle
 10
-84.797959
 20
26.0
 30
0.0
 40
10.0
100
AcDbArc
 50
289.9686
 51
348.46304
  0
ARC
  5
480
100
AcDbEntity
  8
0
  6
CONTINUOUS
 62
     7
100
AcDbCircle
 10
-109.5
 20
26.0
 30
0.0
 40
2.5
100
AcDbArc
 50
179.99999
 51
0.00001
  0
POLYLINE
  5
481
100
AcDbEntity
  8
0
  6
CONTINUOUS
 62
     7
100
AcDb2dPolyline
 66
     1
 10
0.0
 20
0.0
 30
0.0
  0
VERTEX
  5
482
100
AcDbEntity
  8
0
  6
CONTINUOUS
 62
     7
100
AcDbVertex
100
AcDb2dVertex
 10
-107.0
 20
26.0
 30
0.0
  0
VERTEX
  5
483
100
AcDbEntity
  8
0
  6
CONTINUOUS
 62
     7
100
AcDbVertex
100
AcDb2dVertex
 10
-75.000015
 20
26.0
 30
0.0
  0
SEQEND
  5
484
100
AcDbEntity
  8
0
 62
     7
  0
POINT
  5
485
100
AcDbEntity
  8
0
  6
CONTINUOUS
 62
     7
100
AcDbPoint
 10
-100.0
 20
-54.0
 30
0.0
  0
POINT
  5
486
100
AcDbEntity
  8
0
  6
CONTINUOUS
 62
     7
100
AcDbPoint
 10
-82.0
 20
-54.0
 30
0.0
  0
LINE
  5
487
100
AcDbEntity
  8
0
  6
CONTINUOUS
 62
     7
100
AcDbLine
 10
-107.0
 20
-76.0
 30
0.0
 11
-107.0
 21
-81.0
 31
0.0
  0
LINE
  5
488
100
AcDbEntity
  8
0
  6
CONTINUOUS
 62
     7
100
AcDbLine
 10
-123.30947
 20
-76.0
 30
0.0
 11
-75.0
 21
-76.0
 31
0.0
  0
LINE
  5
489
100
AcDbEntity
  8
0
  6
CENTER
 62
     7
100
AcDbLine
 10
-95.1
 20
-68.0
 30
0.0
 11
-104.9
 21
-68.0
 31
0.0
  0
LINE
  5
48A
100
AcDbEntity
  8
0
  6
CONTINUOUS
 62
     7
100
AcDbLine
 10
-104.0
 20
-62.0
 30
0.0
 11
-78.0
 21
-62.0
 31
0.0
  0
LINE
  5
48B
100
AcDbEntity
  8
0
  6
CENTER
 62
     7
100
AcDbLine
 10
-77.1
 20
-68.0
 30
0.0
 11
-86.9
 21
-68.0
 31
0.0
  0
LINE
  5
48C
100
AcDbEntity
  8
0
  6
CONTINUOUS
 62
     7
100
AcDbLine
 10
-123.30947
 20
-74.0
 30
0.0
 11
-75.0
 21
-74.0
 31
0.0
  0
LINE
  5
48D
100
AcDbEntity
  8
0
  6
CONTINUOUS
 62
     7
100
AcDbLine
 10
-75.0
 20
-65.0
 30
0.0
 11
-75.0
 21
-76.0
 31
0.0
  0
LINE
  5
48E
100
AcDbEntity
  8
0
  6
CENTER
 62
     7
100
AcDbLine
 10
-100.0
 20
-72.9
 30
0.0
 11
-100.0
 21
-63.1
 31
0.0
  0
LINE
  5
48F
100
AcDbEntity
  8
0
  6
CENTER
 62
     7
100
AcDbLine
 10
-82.0
 20
-72.9
 30
0.0
 11
-82.0
 21
-63.1
 31
0.0
  0
LINE
  5
490
100
AcDbEntity
  8
0
  6
CONTINUOUS
 62
     7
100
AcDbLine
 10
-107.0
 20
-65.0
 30
0.0
 11
-107.0
 21
-74.0
 31
0.0
  0
LINE
  5
491
100
AcDbEntity
  8
0
  6
CONTINUOUS
 62
     7
100
AcDbLine
 10
-130.0
 20
-78.5
 30
0.0
 11
-138.0
 21
-78.5
 31
0.0
  0
LINE
  5
492
100
AcDbEntity
  8
0
  6
CONTINUOUS
 62
     7
100
AcDbLine
 10
-130.0
 20
-43.5
 30
0.0
 11
-138.0
 21
-43.5
 31
0.0
  0
LINE
  5
493
100
AcDbEntity
  8
0
  6
CONTINUOUS
 62
     7
100
AcDbLine
 10
-123.30947
 20
-46.0
 30
0.0
 11
-123.30947
 21
-51.0
 31
0.0
  0
LINE
  5
494
100
AcDbEntity
  8
0
  6
CONTINUOUS
 62
     7
100
AcDbLine
 10
-144.69053
 20
-76.0
 30
0.0
 11
-144.69053
 21
-81.0
 31
0.0
  0
LINE
  5
495
100
AcDbEntity
  8
0
  6
CONTINUOUS
 62
     7
100
AcDbLine
 10
-144.69053
 20
-41.0
 30
0.0
 11
-144.69053
 21
-46.0
 31
0.0
  0
LINE
  5
496
100
AcDbEntity
  8
0
  6
CENTER
 62
     7
100
AcDbLine
 10
-118.0
 20
-88.0
 30
0.0
 11
-118.0
 21
-34.0
 31
0.0
  0
LINE
  5
497
100
AcDbEntity
  8
0
  6
CONTINUOUS
 62
     7
100
AcDbLine
 10
-144.69053
 20
-81.0
 30
0.0
 11
-107.0
 21
-81.0
 31
0.0
  0
LINE
  5
498
100
AcDbEntity
  8
0
  6
CONTINUOUS
 62
     7
100
AcDbLine
 10
-144.69053
 20
-41.0
 30
0.0
 11
-107.0
 21
-41.0
 31
0.0
  0
LINE
  5
499
100
AcDbEntity
  8
0
  6
CONTINUOUS
 62
     7
100
AcDbLine
 10
-123.30947
 20
-71.0
 30
0.0
 11
-130.0
 21
-71.0
 31
0.0
  0
LINE
  5
49A
100
AcDbEntity
  8
0
  6
CONTINUOUS
 62
     7
100
AcDbLine
 10
-138.0
 20
-51.0
 30
0.0
 11
-155.30948
 21
-51.0
 31
0.0
  0
LINE
  5
49B
100
AcDbEntity
  8
0
  6
CONTINUOUS
 62
     7
100
AcDbLine
 10
-123.30947
 20
-51.0
 30
0.0
 11
-130.0
 21
-51.0
 31
0.0
  0
LINE
  5
49C
100
AcDbEntity
  8
0
  6
CONTINUOUS
 62
     7
100
AcDbLine
 10
-138.0
 20
-42.800018
 30
0.0
 11
-138.0
 21
-51.0
 31
0.0
  0
LINE
  5
49D
100
AcDbEntity
  8
0
  6
CONTINUOUS
 62
     7
100
AcDbLine
 10
-141.5
 20
-51.0
 30
0.0
 11
-141.5
 21
-71.0
 31
0.0
  0
LINE
  5
49E
100
AcDbEntity
  8
0
  6
CONTINUOUS
 62
     7
100
AcDbLine
 10
-126.5
 20
-51.0
 30
0.0
 11
-126.5
 21
-71.0
 31
0.0
  0
LINE
  5
49F
100
AcDbEntity
  8
0
  6
CONTINUOUS
 62
     7
100
AcDbLine
 10
-143.0
 20
-51.0
 30
0.0
 11
-143.0
 21
-71.0
 31
0.0
  0
LINE
  5
4A0
100
AcDbEntity
  8
0
  6
CONTINUOUS
 62
     7
100
AcDbLine
 10
-138.0
 20
-71.0
 30
0.0
 11
-138.0
 21
-79.200012
 31
0.0
  0
LINE
  5
4A1
100
AcDbEntity
  8
0
  6
CONTINUOUS
 62
     7
100
AcDbLine
 10
-130.0
 20
-79.200012
 30
0.0
 11
-130.0
 21
-71.0
 31
0.0
  0
LINE
  5
4A2
100
AcDbEntity
  8
0
  6
CENTER
 62
     7
100
AcDbLine
 10
-150.0
 20
-88.0
 30
0.0
 11
-150.0
 21
-34.0
 31
0.0
  0
LINE
  5
4A3
100
AcDbEntity
  8
0
  6
CONTINUOUS
 62
     7
100
AcDbLine
 10
-130.0
 20
-79.200012
 30
0.0
 11
-138.0
 21
-79.200012
 31
0.0
  0
LINE
  5
4A4
100
AcDbEntity
  8
0
  6
CONTINUOUS
 62
     7
100
AcDbLine
 10
-123.30947
 20
-71.0
 30
0.0
 11
-123.30947
 21
-76.0
 31
0.0
  0
LINE
  5
4A5
100
AcDbEntity
  8
0
  6
CENTER
 62
     7
100
AcDbLine
 10
-105.6905
 20
-61.0
 30
0.0
 11
-162.3095
 21
-61.0
 31
0.0
  0
LINE
  5
4A6
100
AcDbEntity
  8
0
  6
CONTINUOUS
 62
     7
100
AcDbLine
 10
-138.0
 20
-71.0
 30
0.0
 11
-155.30948
 21
-71.0
 31
0.0
  0
LINE
  5
4A7
100
AcDbEntity
  8
0
  6
CONTINUOUS
 62
     7
100
AcDbLine
 10
-144.69053
 20
-76.0
 30
0.0
 11
-155.30948
 21
-76.0
 31
0.0
  0
LINE
  5
4A8
100
AcDbEntity
  8
0
  6
CENTER
 62
     7
100
AcDbLine
 10
-128.0
 20
-75.0
 30
0.0
 11
-140.0
 21
-75.0
 31
0.0
  0
LINE
  5
4A9
100
AcDbEntity
  8
0
  6
CONTINUOUS
 62
     7
100
AcDbLine
 10
-125.0
 20
-71.0
 30
0.0
 11
-125.0
 21
-51.0
 31
0.0
  0
LINE
  5
4AA
100
AcDbEntity
  8
0
  6
CONTINUOUS
 62
     7
100
AcDbLine
 10
-130.0
 20
-42.800018
 30
0.0
 11
-130.0
 21
-51.0
 31
0.0
  0
LINE
  5
4AB
100
AcDbEntity
  8
0
  6
CONTINUOUS
 62
     7
100
AcDbLine
 10
-130.0
 20
-42.800018
 30
0.0
 11
-138.0
 21
-42.800018
 31
0.0
  0
LINE
  5
4AC
100
AcDbEntity
  8
0
  6
CONTINUOUS
 62
     7
100
AcDbLine
 10
-144.69053
 20
-46.0
 30
0.0
 11
-155.30948
 21
-46.0
 31
0.0
  0
LINE
  5
4AD
100
AcDbEntity
  8
0
  6
CENTER
 62
     7
100
AcDbLine
 10
-128.0
 20
-47.0
 30
0.0
 11
-140.0
 21
-47.0
 31
0.0
  0
LINE
  5
4AE
100
AcDbEntity
  8
0
  6
CONTINUOUS
 62
     7
100
AcDbLine
 10
-112.69052
 20
-46.0
 30
0.0
 11
-123.30947
 21
-46.0
 31
0.0
  0
LINE
  5
4AF
100
AcDbEntity
  8
0
  6
CONTINUOUS
 62
     7
100
AcDbLine
 10
-107.0
 20
-57.0
 30
0.0
 11
-107.0
 21
-48.0
 31
0.0
  0
LINE
  5
4B0
100
AcDbEntity
  8
0
  6
CONTINUOUS
 62
     7
100
AcDbLine
 10
-104.0
 20
-60.0
 30
0.0
 11
-78.0
 21
-60.0
 31
0.0
  0
LINE
  5
4B1
100
AcDbEntity
  8
0
  6
CONTINUOUS
 62
     7
100
AcDbLine
 10
-123.30947
 20
-46.0
 30
0.0
 11
-75.0
 21
-46.0
 31
0.0
  0
LINE
  5
4B2
100
AcDbEntity
  8
0
  6
CENTER
 62
     7
100
AcDbLine
 10
-82.0
 20
-49.1
 30
0.0
 11
-82.0
 21
-58.9
 31
0.0
  0
LINE
  5
4B3
100
AcDbEntity
  8
0
  6
CENTER
 62
     7
100
AcDbLine
 10
-100.0
 20
-49.1
 30
0.0
 11
-100.0
 21
-58.9
 31
0.0
  0
LINE
  5
4B4
100
AcDbEntity
  8
0
  6
CONTINUOUS
 62
     7
100
AcDbLine
 10
-75.0
 20
-57.0
 30
0.0
 11
-75.0
 21
-46.0
 31
0.0
  0
LINE
  5
4B5
100
AcDbEntity
  8
0
  6
CONTINUOUS
 62
     7
100
AcDbLine
 10
-123.30947
 20
-48.0
 30
0.0
 11
-75.0
 21
-48.0
 31
0.0
  0
LINE
  5
4B6
100
AcDbEntity
  8
0
  6
CENTER
 62
     7
100
AcDbLine
 10
-77.1
 20
-54.0
 30
0.0
 11
-86.9
 21
-54.0
 31
0.0
  0
LINE
  5
4B7
100
AcDbEntity
  8
0
  6
CONTINUOUS
 62
     7
100
AcDbLine
 10
-107.0
 20
-46.0
 30
0.0
 11
-107.0
 21
-41.0
 31
0.0
  0
LINE
  5
4B8
100
AcDbEntity
  8
0
  6
CENTER
 62
     7
100
AcDbLine
 10
-95.1
 20
-54.0
 30
0.0
 11
-104.9
 21
-54.0
 31
0.0
  0
ARC
  5
4B9
100
AcDbEntity
  8
0
  6
CONTINUOUS
 62
     7
100
AcDbCircle
 10
-78.0
 20
-65.0
 30
0.0
 40
3.0
100
AcDbArc
 50
0.0
 51
90.000003
  0
CIRCLE
  5
4BA
100
AcDbEntity
  8
0
  6
CONTINUOUS
 62
     7
100
AcDbCircle
 10
-100.0
 20
-68.0
 30
0.0
 40
2.9
  0
ARC
  5
4BB
100
AcDbEntity
  8
0
  6
CONTINUOUS
 62
     7
100
AcDbCircle
 10
-104.0
 20
-65.0
 30
0.0
 40
3.0
100
AcDbArc
 50
90.000003
 51
180.00001
  0
CIRCLE
  5
4BC
100
AcDbEntity
  8
0
  6
CONTINUOUS
 62
     7
100
AcDbCircle
 10
-82.0
 20
-68.0
 30
0.0
 40
2.9
  0
ARC
  5
4BD
100
AcDbEntity
  8
0
  6
CONTINUOUS
 62
     7
100
AcDbCircle
 10
-78.0
 20
-57.0
 30
0.0
 40
3.0
100
AcDbArc
 50
270.0
 51
0.0
  0
ARC
  5
4BE
100
AcDbEntity
  8
0
  6
CONTINUOUS
 62
     7
100
AcDbCircle
 10
-104.0
 20
-57.0
 30
0.0
 40
3.0
100
AcDbArc
 50
179.99999
 51
270.0
  0
CIRCLE
  5
4BF
100
AcDbEntity
  8
0
  6
CONTINUOUS
 62
     7
100
AcDbCircle
 10
-82.0
 20
-54.0
 30
0.0
 40
2.9
  0
CIRCLE
  5
4C0
100
AcDbEntity
  8
0
  6
CONTINUOUS
 62
     7
100
AcDbCircle
 10
-100.0
 20
-54.0
 30
0.0
 40
2.9
  0
POINT
  5
4C1
100
AcDbEntity
  8
0
  6
CONTINUOUS
 62
     7
100
AcDbPoint
 10
-10.0
 20
26.0
 30
0.0
  0
POINT
  5
4C2
100
AcDbEntity
  8
0
  6
CONTINUOUS
 62
     7
100
AcDbPoint
 10
4.0
 20
26.0
 30
0.0
  0
LINE
  5
4C3
100
AcDbEntity
  8
0
  6
CENTER
 62
     7
100
AcDbLine
 10
4.0
 20
21.0
 30
0.0
 11
4.0
 21
31.0
 31
0.0
  0
LINE
  5
4C4
100
AcDbEntity
  8
0
  6
CENTER
 62
     7
100
AcDbLine
 10
-30.0
 20
15.0
 30
0.0
 11
24.0
 21
15.0
 31
0.0
  0
LINE
  5
4C5
100
AcDbEntity
  8
0
  6
CONTINUOUS
 62
     7
100
AcDbLine
 10
-2.0
 20
24.0
 30
0.0
 11
-2.0
 21
26.0
 31
0.0
  0
LINE
  5
4C6
100
AcDbEntity
  8
0
  6
CONTINUOUS
 62
     7
100
AcDbLine
 10
-4.0
 20
24.0
 30
0.0
 11
-4.0
 21
26.0
 31
0.0
  0
LINE
  5
4C7
100
AcDbEntity
  8
0
  6
CONTINUOUS
 62
     7
100
AcDbLine
 10
-10.5
 20
22.0
 30
0.0
 11
4.5
 21
22.0
 31
0.0
  0
LINE
  5
4C8
100
AcDbEntity
  8
0
  6
CONTINUOUS
 62
     7
100
AcDbLine
 10
-13.0
 20
4.0
 30
0.0
 11
-13.0
 21
24.0
 31
0.0
  0
LINE
  5
4C9
100
AcDbEntity
  8
0
  6
CONTINUOUS
 62
     7
100
AcDbLine
 10
-23.0
 20
4.0
 30
0.0
 11
-23.0
 21
26.0
 31
0.0
  0
LINE
  5
4CA
100
AcDbEntity
  8
0
  6
CONTINUOUS
 62
     7
100
AcDbLine
 10
-18.0
 20
4.0
 30
0.0
 11
-18.0
 21
26.0
 31
0.0
  0
LINE
  5
4CB
100
AcDbEntity
  8
0
  6
CONTINUOUS
 62
     7
100
AcDbLine
 10
-23.0
 20
26.0
 30
0.0
 11
-4.0
 21
26.0
 31
0.0
  0
LINE
  5
4CC
100
AcDbEntity
  8
0
  6
CONTINUOUS
 62
     7
100
AcDbLine
 10
7.0
 20
24.0
 30
0.0
 11
7.0
 21
4.0
 31
0.0
  0
LINE
  5
4CD
100
AcDbEntity
  8
0
  6
CONTINUOUS
 62
     7
100
AcDbLine
 10
17.0
 20
26.0
 30
0.0
 11
17.0
 21
4.0
 31
0.0
  0
LINE
  5
4CE
100
AcDbEntity
  8
0
  6
CONTINUOUS
 62
     7
100
AcDbLine
 10
12.0
 20
4.0
 30
0.0
 11
12.0
 21
26.0
 31
0.0
  0
LINE
  5
4CF
100
AcDbEntity
  8
0
  6
CONTINUOUS
 62
     7
100
AcDbLine
 10
-16.0
 20
24.0
 30
0.0
 11
-4.0
 21
24.0
 31
0.0
  0
LINE
  5
4D0
100
AcDbEntity
  8
0
  6
CONTINUOUS
 62
     7
100
AcDbLine
 10
10.0
 20
24.0
 30
0.0
 11
-2.0
 21
24.0
 31
0.0
  0
LINE
  5
4D1
100
AcDbEntity
  8
0
  6
CONTINUOUS
 62
     7
100
AcDbLine
 10
7.0
 20
8.0
 30
0.0
 11
-13.0
 21
8.0
 31
0.0
  0
LINE
  5
4D2
100
AcDbEntity
  8
0
  6
CENTER
 62
     7
100
AcDbLine
 10
-3.0
 20
-3.0
 30
0.0
 11
-3.0
 21
33.0
 31
0.0
  0
LINE
  5
4D3
100
AcDbEntity
  8
0
  6
CONTINUOUS
 62
     7
100
AcDbLine
 10
7.0
 20
4.5
 30
0.0
 11
-13.0
 21
4.5
 31
0.0
  0
LINE
  5
4D4
100
AcDbEntity
  8
0
  6
CONTINUOUS
 62
     7
100
AcDbLine
 10
10.0
 20
4.0
 30
0.0
 11
10.0
 21
24.0
 31
0.0
  0
LINE
  5
4D5
100
AcDbEntity
  8
0
  6
CONTINUOUS
 62
     7
100
AcDbLine
 10
-16.0
 20
4.0
 30
0.0
 11
-16.0
 21
24.0
 31
0.0
  0
LINE
  5
4D6
100
AcDbEntity
  8
0
  6
CONTINUOUS
 62
     7
100
AcDbLine
 10
17.0
 20
26.0
 30
0.0
 11
-2.0
 21
26.0
 31
0.0
  0
LINE
  5
4D7
100
AcDbEntity
  8
0
  6
CONTINUOUS
 62
     7
100
AcDbLine
 10
-23.0
 20
26.0
 30
0.0
 11
17.0
 21
26.0
 31
0.0
  0
LINE
  5
4D8
100
AcDbEntity
  8
0
  6
CONTINUOUS
 62
     7
100
AcDbLine
 10
7.0
 20
4.0
 30
0.0
 11
17.0
 21
4.0
 31
0.0
  0
LINE
  5
4D9
100
AcDbEntity
  8
0
  6
CENTER
 62
     7
100
AcDbLine
 10
-10.0
 20
21.0
 30
0.0
 11
-10.0
 21
31.0
 31
0.0
  0
LINE
  5
4DA
100
AcDbEntity
  8
0
  6
CONTINUOUS
 62
     7
100
AcDbLine
 10
-23.0
 20
4.0
 30
0.0
 11
-13.0
 21
4.0
 31
0.0
  0
ARC
  5
4DB
100
AcDbEntity
  8
0
  6
CONTINUOUS
 62
     7
100
AcDbCircle
 10
-10.5
 20
19.5
 30
0.0
 40
2.5
100
AcDbArc
 50
90.000003
 51
179.99999
  0
ARC
  5
4DC
100
AcDbEntity
  8
0
  6
CONTINUOUS
 62
     7
100
AcDbCircle
 10
4.5
 20
19.5
 30
0.0
 40
2.5
100
AcDbArc
 50
0.0
 51
90.000003
  0
POINT
  5
4DD
100
AcDbEntity
  8
0
  6
CONTINUOUS
 62
     7
100
AcDbPoint
 10
120.0
 20
70.0
 30
0.0
  0
POINT
  5
4DE
100
AcDbEntity
  8
0
  6
CONTINUOUS
 62
     7
100
AcDbPoint
 10
138.0
 20
70.0
 30
0.0
  0
LINE
  5
4DF
100
AcDbEntity
  8
0
  6
CENTER
 62
     7
100
AcDbLine
 10
142.9
 20
70.0
 30
0.0
 11
133.1
 21
70.0
 31
0.0
  0
LINE
  5
4E0
100
AcDbEntity
  8
0
  6
CONTINUOUS
 62
     7
100
AcDbLine
 10
96.690525
 20
78.0
 30
0.0
 11
145.0
 21
78.0
 31
0.0
  0
LINE
  5
4E1
100
AcDbEntity
  8
0
  6
CONTINUOUS
 62
     7
100
AcDbLine
 10
113.0
 20
67.0
 30
0.0
 11
113.0
 21
76.0
 31
0.0
  0
LINE
  5
4E2
100
AcDbEntity
  8
0
  6
CONTINUOUS
 62
     7
100
AcDbLine
 10
113.0
 20
76.0
 30
0.0
 11
113.0
 21
71.0
 31
0.0
  0
LINE
  5
4E3
100
AcDbEntity
  8
0
  6
CONTINUOUS
 62
     7
100
AcDbLine
 10
96.690525
 20
76.0
 30
0.0
 11
96.690525
 21
81.0
 31
0.0
  0
LINE
  5
4E4
100
AcDbEntity
  8
0
  6
CONTINUOUS
 62
     7
100
AcDbLine
 10
96.690525
 20
81.0
 30
0.0
 11
95.0
 21
81.0
 31
0.0
  0
LINE
  5
4E5
100
AcDbEntity
  8
0
  6
CONTINUOUS
 62
     7
100
AcDbLine
 10
77.0
 20
81.0
 30
0.0
 11
77.0
 21
101.0
 31
0.0
  0
LINE
  5
4E6
100
AcDbEntity
  8
0
  6
CENTER
 62
     7
100
AcDbLine
 10
70.0
 20
118.0
 30
0.0
 11
70.0
 21
64.0
 31
0.0
  0
LINE
  5
4E7
100
AcDbEntity
  8
0
  6
CONTINUOUS
 62
     7
100
AcDbLine
 10
96.690525
 20
104.0
 30
0.0
 11
145.0
 21
104.0
 31
0.0
  0
LINE
  5
4E8
100
AcDbEntity
  8
0
  6
CONTINUOUS
 62
     7
100
AcDbLine
 10
96.690525
 20
101.0
 30
0.0
 11
96.690525
 21
106.0
 31
0.0
  0
LINE
  5
4E9
100
AcDbEntity
  8
0
  6
CENTER
 62
     7
100
AcDbLine
 10
115.3132
 20
91.0
 30
0.0
 11
57.690498
 21
91.0
 31
0.0
  0
LINE
  5
4EA
100
AcDbEntity
  8
0
  6
CONTINUOUS
 62
     7
100
AcDbLine
 10
77.0
 20
101.0
 30
0.0
 11
64.690521
 21
101.0
 31
0.0
  0
LINE
  5
4EB
100
AcDbEntity
  8
0
  6
CONTINUOUS
 62
     7
100
AcDbLine
 10
76.313202
 20
106.0
 30
0.0
 11
64.690521
 21
106.0
 31
0.0
  0
LINE
  5
4EC
100
AcDbEntity
  8
0
  6
CONTINUOUS
 62
     7
100
AcDbLine
 10
95.0
 20
101.0
 30
0.0
 11
95.0
 21
81.0
 31
0.0
  0
LINE
  5
4ED
100
AcDbEntity
  8
0
  6
CONTINUOUS
 62
     7
100
AcDbLine
 10
76.313202
 20
76.0
 30
0.0
 11
64.690521
 21
76.0
 31
0.0
  0
LINE
  5
4EE
100
AcDbEntity
  8
0
  6
CONTINUOUS
 62
     7
100
AcDbLine
 10
107.30948
 20
76.0
 30
0.0
 11
96.690525
 21
76.0
 31
0.0
  0
LINE
  5
4EF
100
AcDbEntity
  8
0
  6
CONTINUOUS
 62
     7
100
AcDbLine
 10
77.0
 20
81.0
 30
0.0
 11
64.690521
 21
81.0
 31
0.0
  0
LINE
  5
4F0
100
AcDbEntity
  8
0
  6
CONTINUOUS
 62
     7
100
AcDbLine
 10
96.690525
 20
101.0
 30
0.0
 11
95.0
 21
101.0
 31
0.0
  0
LINE
  5
4F1
100
AcDbEntity
  8
0
  6
CONTINUOUS
 62
     7
100
AcDbLine
 10
76.313202
 20
71.0
 30
0.0
 11
113.0
 21
71.0
 31
0.0
  0
LINE
  5
4F2
100
AcDbEntity
  8
0
  6
CONTINUOUS
 62
     7
100
AcDbLine
 10
76.313202
 20
111.0
 30
0.0
 11
113.0
 21
111.0
 31
0.0
  0
LINE
  5
4F3
100
AcDbEntity
  8
0
  6
CENTER
 62
     7
100
AcDbLine
 10
102.0
 20
118.0
 30
0.0
 11
102.0
 21
64.0
 31
0.0
  0
LINE
  5
4F4
100
AcDbEntity
  8
0
  6
CONTINUOUS
 62
     7
100
AcDbLine
 10
107.30948
 20
106.0
 30
0.0
 11
96.690525
 21
106.0
 31
0.0
  0
LINE
  5
4F5
100
AcDbEntity
  8
0
  6
CONTINUOUS
 62
     7
100
AcDbLine
 10
145.0
 20
67.0
 30
0.0
 11
145.0
 21
78.0
 31
0.0
  0
LINE
  5
4F6
100
AcDbEntity
  8
0
  6
CONTINUOUS
 62
     7
100
AcDbLine
 10
116.0
 20
118.0
 30
0.0
 11
142.0
 21
118.0
 31
0.0
  0
LINE
  5
4F7
100
AcDbEntity
  8
0
  6
CONTINUOUS
 62
     7
100
AcDbLine
 10
96.690525
 20
106.0
 30
0.0
 11
145.0
 21
106.0
 31
0.0
  0
LINE
  5
4F8
100
AcDbEntity
  8
0
  6
CENTER
 62
     7
100
AcDbLine
 10
138.0
 20
107.1
 30
0.0
 11
138.0
 21
116.9
 31
0.0
  0
LINE
  5
4F9
100
AcDbEntity
  8
0
  6
CENTER
 62
     7
100
AcDbLine
 10
120.0
 20
107.1
 30
0.0
 11
120.0
 21
116.9
 31
0.0
  0
LINE
  5
4FA
100
AcDbEntity
  8
0
  6
CONTINUOUS
 62
     7
100
AcDbLine
 10
145.0
 20
115.0
 30
0.0
 11
145.0
 21
104.0
 31
0.0
  0
LINE
  5
4FB
100
AcDbEntity
  8
0
  6
CONTINUOUS
 62
     7
100
AcDbLine
 10
113.0
 20
115.0
 30
0.0
 11
113.0
 21
106.0
 31
0.0
  0
LINE
  5
4FC
100
AcDbEntity
  8
0
  6
CENTER
 62
     7
100
AcDbLine
 10
142.9
 20
112.0
 30
0.0
 11
133.1
 21
112.0
 31
0.0
  0
LINE
  5
4FD
100
AcDbEntity
  8
0
  6
CENTER
 62
     7
100
AcDbLine
 10
124.9
 20
112.0
 30
0.0
 11
115.1
 21
112.0
 31
0.0
  0
LINE
  5
4FE
100
AcDbEntity
  8
0
  6
CENTER
 62
     7
100
AcDbLine
 10
120.0
 20
74.9
 30
0.0
 11
120.0
 21
65.1
 31
0.0
  0
LINE
  5
4FF
100
AcDbEntity
  8
0
  6
CENTER
 62
     7
100
AcDbLine
 10
138.0
 20
74.9
 30
0.0
 11
138.0
 21
65.1
 31
0.0
  0
LINE
  5
500
100
AcDbEntity
  8
0
  6
CONTINUOUS
 62
     7
100
AcDbLine
 10
96.690525
 20
76.0
 30
0.0
 11
145.0
 21
76.0
 31
0.0
  0
LINE
  5
501
100
AcDbEntity
  8
0
  6
CONTINUOUS
 62
     7
100
AcDbLine
 10
116.0
 20
64.0
 30
0.0
 11
142.0
 21
64.0
 31
0.0
  0
LINE
  5
502
100
AcDbEntity
  8
0
  6
CENTER
 62
     7
100
AcDbLine
 10
124.9
 20
70.0
 30
0.0
 11
115.1
 21
70.0
 31
0.0
  0
LINE
  5
503
100
AcDbEntity
  8
0
  6
CONTINUOUS
 62
     7
100
AcDbLine
 10
76.313202
 20
111.0
 30
0.0
 11
76.313202
 21
106.0
 31
0.0
  0
LINE
  5
504
100
AcDbEntity
  8
0
  6
CONTINUOUS
 62
     7
100
AcDbLine
 10
76.313202
 20
76.0
 30
0.0
 11
76.313202
 21
71.0
 31
0.0
  0
ARC
  5
505
100
AcDbEntity
  8
0
  6
CONTINUOUS
 62
     7
100
AcDbCircle
 10
142.0
 20
115.0
 30
0.0
 40
3.0
100
AcDbArc
 50
0.0
 51
90.000003
  0
ARC
  5
506
100
AcDbEntity
  8
0
  6
CONTINUOUS
 62
     7
100
AcDbCircle
 10
116.0
 20
115.0
 30
0.0
 40
3.0
100
AcDbArc
 50
90.000003
 51
180.00001
  0
CIRCLE
  5
507
100
AcDbEntity
  8
0
  6
CONTINUOUS
 62
     7
100
AcDbCircle
 10
138.0
 20
112.0
 30
0.0
 40
2.9
  0
CIRCLE
  5
508
100
AcDbEntity
  8
0
  6
CONTINUOUS
 62
     7
100
AcDbCircle
 10
120.0
 20
112.0
 30
0.0
 40
2.9
  0
CIRCLE
  5
509
100
AcDbEntity
  8
0
  6
CONTINUOUS
 62
     7
100
AcDbCircle
 10
138.0
 20
70.0
 30
0.0
 40
2.9
  0
ARC
  5
50A
100
AcDbEntity
  8
0
  6
CONTINUOUS
 62
     7
100
AcDbCircle
 10
116.0
 20
67.0
 30
0.0
 40
3.0
100
AcDbArc
 50
179.99999
 51
270.0
  0
ARC
  5
50B
100
AcDbEntity
  8
0
  6
CONTINUOUS
 62
     7
100
AcDbCircle
 10
142.0
 20
67.0
 30
0.0
 40
3.0
100
AcDbArc
 50
270.0
 51
0.0
  0
CIRCLE
  5
50C
100
AcDbEntity
  8
0
  6
CONTINUOUS
 62
     7
100
AcDbCircle
 10
120.0
 20
70.0
 30
0.0
 40
2.9
  0
POINT
  5
50D
100
AcDbEntity
  8
0
  6
CONTINUOUS
 62
     7
100
AcDbPoint
 10
120.0
 20
4.0
 30
0.0
  0
POINT
  5
50E
100
AcDbEntity
  8
0
  6
CONTINUOUS
 62
     7
100
AcDbPoint
 10
120.0
 20
4.0
 30
0.0
  0
POINT
  5
50F
100
AcDbEntity
  8
0
  6
CONTINUOUS
 62
     7
100
AcDbPoint
 10
138.0
 20
4.0
 30
0.0
  0
LINE
  5
510
100
AcDbEntity
  8
0
  6
CONTINUOUS
 62
     7
100
AcDbLine
 10
145.0
 20
4.0
 30
0.0
 11
145.0
 21
6.0
 31
0.0
  0
LINE
  5
511
100
AcDbEntity
  8
0
  6
CONTINUOUS
 62
     7
100
AcDbLine
 10
78.744667
 20
7.531347
 30
0.0
 11
76.432995
 21
4.824724
 31
0.0
  0
LINE
  5
512
100
AcDbEntity
  8
0
  6
CENTER
 62
     7
100
AcDbLine
 10
96.0
 20
15.0
 30
0.0
 11
108.0
 21
15.0
 31
0.0
  0
LINE
  5
513
100
AcDbEntity
  8
0
  6
CENTER
 62
     7
100
AcDbLine
 10
70.0
 20
21.0
 30
0.0
 11
70.0
 21
9.0
 31
0.0
  0
LINE
  5
514
100
AcDbEntity
  8
0
  6
CONTINUOUS
 62
     7
100
AcDbLine
 10
102.0
 20
26.0
 30
0.0
 11
70.0
 21
26.0
 31
0.0
  0
LINE
  5
515
100
AcDbEntity
  8
0
  6
CENTER
 62
     7
100
AcDbLine
 10
76.0
 20
15.0
 30
0.0
 11
64.0
 21
15.0
 31
0.0
  0
LINE
  5
516
100
AcDbEntity
  8
0
  6
CENTER
 62
     7
100
AcDbLine
 10
102.0
 20
21.0
 30
0.0
 11
102.0
 21
9.0
 31
0.0
  0
LINE
  5
517
100
AcDbEntity
  8
0
  6
CONTINUOUS
 62
     7
100
AcDbLine
 10
108.0
 20
4.0
 30
0.0
 11
70.0
 21
4.0
 31
0.0
  0
LINE
  5
518
100
AcDbEntity
  8
0
  6
CONTINUOUS
 62
     7
100
AcDbLine
 10
72.5
 20
11.876999
 30
0.0
 11
72.5
 21
18.122009
 31
0.0
  0
LINE
  5
519
100
AcDbEntity
  8
0
  6
CONTINUOUS
 62
     7
100
AcDbLine
 10
113.0
 20
4.0
 30
0.0
 11
113.0
 21
6.0
 31
0.0
  0
LINE
  5
51A
100
AcDbEntity
  8
0
  6
CENTER
 62
     7
100
AcDbLine
 10
120.0
 20
-1.0
 30
0.0
 11
120.0
 21
11.0
 31
0.0
  0
LINE
  5
51B
100
AcDbEntity
  8
0
  6
CONTINUOUS
 62
     7
100
AcDbLine
 10
138.6171
 20
13.398798
 30
0.0
 11
105.75656
 21
25.338678
 31
0.0
  0
LINE
  5
51C
100
AcDbEntity
  8
0
  6
CONTINUOUS
 62
     7
100
AcDbLine
 10
113.0
 20
6.0
 30
0.0
 11
145.0
 21
6.0
 31
0.0
  0
LINE
  5
51D
100
AcDbEntity
  8
0
  6
CENTER
 62
     7
100
AcDbLine
 10
138.0
 20
-1.0
 30
0.0
 11
138.0
 21
11.0
 31
0.0
  0
CIRCLE
  5
51E
100
AcDbEntity
  8
0
  6
CONTINUOUS
 62
     7
100
AcDbCircle
 10
102.0
 20
15.0
 30
0.0
 40
4.0
  0
CIRCLE
  5
51F
100
AcDbEntity
  8
0
  6
CONTINUOUS
 62
     7
100
AcDbCircle
 10
70.0
 20
15.0
 30
0.0
 40
4.0
  0
CIRCLE
  5
520
100
AcDbEntity
  8
0
  6
CONTINUOUS
 62
     7
100
AcDbCircle
 10
70.0
 20
15.0
 30
0.0
 40
4.0
  0
ARC
  5
521
100
AcDbEntity
  8
0
  6
CONTINUOUS
 62
     7
100
AcDbCircle
 10
75.809475
 20
25.5
 30
0.0
 40
0.5
100
AcDbArc
 50
90.000003
 51
241.04497
  0
ARC
  5
522
100
AcDbEntity
  8
0
  6
CONTINUOUS
 62
     7
100
AcDbCircle
 10
70.0
 20
15.0
 30
0.0
 40
11.5
100
AcDbArc
 50
319.5
 51
61.044973
  0
ARC
  5
523
100
AcDbEntity
  8
0
  6
CONTINUOUS
 62
     7
100
AcDbCircle
 10
102.0
 20
15.0
 30
0.0
 40
11.0
100
AcDbArc
 50
270.0
 51
89.999996
  0
CIRCLE
  5
524
100
AcDbEntity
  8
0
  6
CONTINUOUS
 62
     7
100
AcDbCircle
 10
70.0
 20
15.0
 30
0.0
 40
4.0
  0
ARC
  5
525
100
AcDbEntity
  8
0
  6
CONTINUOUS
 62
     7
100
AcDbCircle
 10
76.813198
 20
4.5
 30
0.0
 40
0.5
100
AcDbArc
 50
139.5
 51
270.0
  0
CIRCLE
  5
526
100
AcDbEntity
  8
0
  6
CONTINUOUS
 62
     7
100
AcDbCircle
 10
70.0
 20
15.0
 30
0.0
 40
4.0
  0
ARC
  5
527
100
AcDbEntity
  8
0
  6
CONTINUOUS
 62
     7
100
AcDbCircle
 10
135.20204
 20
4.0
 30
0.0
 40
10.0
100
AcDbArc
 50
11.536959
 51
75.804656
  0
ARC
  5
528
100
AcDbEntity
  8
0
  6
CONTINUOUS
 62
     7
100
AcDbCircle
 10
110.5
 20
4.0
 30
0.0
 40
2.5
100
AcDbArc
 50
0.0
 51
180.00001
  0
POLYLINE
  5
529
100
AcDbEntity
  8
0
  6
CONTINUOUS
 62
     7
100
AcDb2dPolyline
 66
     1
 10
0.0
 20
0.0
 30
0.0
  0
VERTEX
  5
52A
100
AcDbEntity
  8
0
  6
CONTINUOUS
 62
     7
100
AcDbVertex
100
AcDb2dVertex
 10
113.0
 20
4.0
 30
0.0
  0
VERTEX
  5
52B
100
AcDbEntity
  8
0
  6
CONTINUOUS
 62
     7
100
AcDbVertex
100
AcDb2dVertex
 10
144.99998
 20
4.0
 30
0.0
  0
SEQEND
  5
52C
100
AcDbEntity
  8
0
 62
     7
  0
POINT
  5
52D
100
AcDbEntity
  8
0
  6
CONTINUOUS
 62
     7
100
AcDbPoint
 10
120.0
 20
-40.0
 30
0.0
  0
POINT
  5
52E
100
AcDbEntity
  8
0
  6
CONTINUOUS
 62
     7
100
AcDbPoint
 10
138.0
 20
-40.0
 30
0.0
  0
LINE
  5
52F
100
AcDbEntity
  8
0
  6
CONTINUOUS
 62
     7
100
AcDbLine
 10
113.0
 20
-85.0
 30
0.0
 11
113.0
 21
-74.0
 31
0.0
  0
LINE
  5
530
100
AcDbEntity
  8
0
  6
CENTER
 62
     7
100
AcDbLine
 10
124.9
 20
-82.0
 30
0.0
 11
115.1
 21
-82.0
 31
0.0
  0
LINE
  5
531
100
AcDbEntity
  8
0
  6
CENTER
 62
     7
100
AcDbLine
 10
142.9
 20
-82.0
 30
0.0
 11
133.1
 21
-82.0
 31
0.0
  0
LINE
  5
532
100
AcDbEntity
  8
0
  6
CONTINUOUS
 62
     7
100
AcDbLine
 10
96.690525
 20
-74.0
 30
0.0
 11
145.0
 21
-74.0
 31
0.0
  0
LINE
  5
533
100
AcDbEntity
  8
0
  6
CONTINUOUS
 62
     7
100
AcDbLine
 10
145.0
 20
-85.0
 30
0.0
 11
145.0
 21
-74.0
 31
0.0
  0
LINE
  5
534
100
AcDbEntity
  8
0
  6
CONTINUOUS
 62
     7
100
AcDbLine
 10
90.0
 20
-78.5
 30
0.0
 11
82.0
 21
-78.5
 31
0.0
  0
LINE
  5
535
100
AcDbEntity
  8
0
  6
CONTINUOUS
 62
     7
100
AcDbLine
 10
116.0
 20
-88.0
 30
0.0
 11
142.0
 21
-88.0
 31
0.0
  0
LINE
  5
536
100
AcDbEntity
  8
0
  6
CONTINUOUS
 62
     7
100
AcDbLine
 10
96.690525
 20
-76.0
 30
0.0
 11
113.0
 21
-76.0
 31
0.0
  0
LINE
  5
537
100
AcDbEntity
  8
0
  6
CENTER
 62
     7
100
AcDbLine
 10
138.0
 20
-77.099998
 30
0.0
 11
138.0
 21
-86.900002
 31
0.0
  0
LINE
  5
538
100
AcDbEntity
  8
0
  6
CENTER
 62
     7
100
AcDbLine
 10
120.0
 20
-77.099998
 30
0.0
 11
120.0
 21
-86.900002
 31
0.0
  0
LINE
  5
539
100
AcDbEntity
  8
0
  6
CONTINUOUS
 62
     7
100
AcDbLine
 10
90.0
 20
-43.5
 30
0.0
 11
82.0
 21
-43.5
 31
0.0
  0
LINE
  5
53A
100
AcDbEntity
  8
0
  6
CONTINUOUS
 62
     7
100
AcDbLine
 10
96.690525
 20
-46.0
 30
0.0
 11
96.690525
 21
-51.0
 31
0.0
  0
LINE
  5
53B
100
AcDbEntity
  8
0
  6
CONTINUOUS
 62
     7
100
AcDbLine
 10
75.309475
 20
-76.0
 30
0.0
 11
75.309475
 21
-81.0
 31
0.0
  0
LINE
  5
53C
100
AcDbEntity
  8
0
  6
CONTINUOUS
 62
     7
100
AcDbLine
 10
75.309475
 20
-41.0
 30
0.0
 11
75.309475
 21
-46.0
 31
0.0
  0
LINE
  5
53D
100
AcDbEntity
  8
0
  6
CENTER
 62
     7
100
AcDbLine
 10
102.0
 20
-88.0
 30
0.0
 11
102.0
 21
-34.0
 31
0.0
  0
LINE
  5
53E
100
AcDbEntity
  8
0
  6
CONTINUOUS
 62
     7
100
AcDbLine
 10
75.309475
 20
-81.0
 30
0.0
 11
113.0
 21
-81.0
 31
0.0
  0
LINE
  5
53F
100
AcDbEntity
  8
0
  6
CONTINUOUS
 62
     7
100
AcDbLine
 10
75.309475
 20
-41.0
 30
0.0
 11
113.0
 21
-41.0
 31
0.0
  0
LINE
  5
540
100
AcDbEntity
  8
0
  6
CONTINUOUS
 62
     7
100
AcDbLine
 10
96.690525
 20
-71.0
 30
0.0
 11
90.0
 21
-71.0
 31
0.0
  0
LINE
  5
541
100
AcDbEntity
  8
0
  6
CONTINUOUS
 62
     7
100
AcDbLine
 10
82.0
 20
-51.0
 30
0.0
 11
64.690521
 21
-51.0
 31
0.0
  0
LINE
  5
542
100
AcDbEntity
  8
0
  6
CONTINUOUS
 62
     7
100
AcDbLine
 10
96.690525
 20
-51.0
 30
0.0
 11
90.0
 21
-51.0
 31
0.0
  0
LINE
  5
543
100
AcDbEntity
  8
0
  6
CONTINUOUS
 62
     7
100
AcDbLine
 10
82.0
 20
-42.800018
 30
0.0
 11
82.0
 21
-51.0
 31
0.0
  0
LINE
  5
544
100
AcDbEntity
  8
0
  6
CONTINUOUS
 62
     7
100
AcDbLine
 10
78.5
 20
-51.0
 30
0.0
 11
78.5
 21
-71.0
 31
0.0
  0
LINE
  5
545
100
AcDbEntity
  8
0
  6
CONTINUOUS
 62
     7
100
AcDbLine
 10
93.5
 20
-51.0
 30
0.0
 11
93.5
 21
-71.0
 31
0.0
  0
LINE
  5
546
100
AcDbEntity
  8
0
  6
CONTINUOUS
 62
     7
100
AcDbLine
 10
77.0
 20
-51.0
 30
0.0
 11
77.0
 21
-71.0
 31
0.0
  0
LINE
  5
547
100
AcDbEntity
  8
0
  6
CONTINUOUS
 62
     7
100
AcDbLine
 10
82.0
 20
-71.0
 30
0.0
 11
82.0
 21
-79.200012
 31
0.0
  0
LINE
  5
548
100
AcDbEntity
  8
0
  6
CONTINUOUS
 62
     7
100
AcDbLine
 10
90.0
 20
-79.200012
 30
0.0
 11
90.0
 21
-71.0
 31
0.0
  0
LINE
  5
549
100
AcDbEntity
  8
0
  6
CENTER
 62
     7
100
AcDbLine
 10
70.0
 20
-88.0
 30
0.0
 11
70.0
 21
-34.0
 31
0.0
  0
LINE
  5
54A
100
AcDbEntity
  8
0
  6
CONTINUOUS
 62
     7
100
AcDbLine
 10
90.0
 20
-79.200012
 30
0.0
 11
82.0
 21
-79.200012
 31
0.0
  0
LINE
  5
54B
100
AcDbEntity
  8
0
  6
CONTINUOUS
 62
     7
100
AcDbLine
 10
96.690525
 20
-71.0
 30
0.0
 11
96.690525
 21
-76.0
 31
0.0
  0
LINE
  5
54C
100
AcDbEntity
  8
0
  6
CENTER
 62
     7
100
AcDbLine
 10
114.3095
 20
-61.0
 30
0.0
 11
57.690498
 21
-61.0
 31
0.0
  0
LINE
  5
54D
100
AcDbEntity
  8
0
  6
CONTINUOUS
 62
     7
100
AcDbLine
 10
82.0
 20
-71.0
 30
0.0
 11
64.690521
 21
-71.0
 31
0.0
  0
LINE
  5
54E
100
AcDbEntity
  8
0
  6
CONTINUOUS
 62
     7
100
AcDbLine
 10
75.309475
 20
-76.0
 30
0.0
 11
64.690521
 21
-76.0
 31
0.0
  0
LINE
  5
54F
100
AcDbEntity
  8
0
  6
CENTER
 62
     7
100
AcDbLine
 10
92.0
 20
-75.0
 30
0.0
 11
80.0
 21
-75.0
 31
0.0
  0
LINE
  5
550
100
AcDbEntity
  8
0
  6
CONTINUOUS
 62
     7
100
AcDbLine
 10
95.0
 20
-71.0
 30
0.0
 11
95.0
 21
-51.0
 31
0.0
  0
LINE
  5
551
100
AcDbEntity
  8
0
  6
CONTINUOUS
 62
     7
100
AcDbLine
 10
90.0
 20
-42.800018
 30
0.0
 11
90.0
 21
-51.0
 31
0.0
  0
LINE
  5
552
100
AcDbEntity
  8
0
  6
CONTINUOUS
 62
     7
100
AcDbLine
 10
90.0
 20
-42.800018
 30
0.0
 11
82.0
 21
-42.800018
 31
0.0
  0
LINE
  5
553
100
AcDbEntity
  8
0
  6
CONTINUOUS
 62
     7
100
AcDbLine
 10
75.309475
 20
-46.0
 30
0.0
 11
64.690521
 21
-46.0
 31
0.0
  0
LINE
  5
554
100
AcDbEntity
  8
0
  6
CENTER
 62
     7
100
AcDbLine
 10
92.0
 20
-47.0
 30
0.0
 11
80.0
 21
-47.0
 31
0.0
  0
LINE
  5
555
100
AcDbEntity
  8
0
  6
CONTINUOUS
 62
     7
100
AcDbLine
 10
107.30948
 20
-46.0
 30
0.0
 11
96.690525
 21
-46.0
 31
0.0
  0
LINE
  5
556
100
AcDbEntity
  8
0
  6
CONTINUOUS
 62
     7
100
AcDbLine
 10
113.0
 20
-37.0
 30
0.0
 11
113.0
 21
-48.0
 31
0.0
  0
LINE
  5
557
100
AcDbEntity
  8
0
  6
CONTINUOUS
 62
     7
100
AcDbLine
 10
107.30948
 20
-76.0
 30
0.0
 11
96.690525
 21
-76.0
 31
0.0
  0
LINE
  5
558
100
AcDbEntity
  8
0
  6
CONTINUOUS
 62
     7
100
AcDbLine
 10
116.0
 20
-34.0
 30
0.0
 11
142.0
 21
-34.0
 31
0.0
  0
LINE
  5
559
100
AcDbEntity
  8
0
  6
CONTINUOUS
 62
     7
100
AcDbLine
 10
96.690525
 20
-46.0
 30
0.0
 11
113.0
 21
-46.0
 31
0.0
  0
LINE
  5
55A
100
AcDbEntity
  8
0
  6
CENTER
 62
     7
100
AcDbLine
 10
138.0
 20
-44.9
 30
0.0
 11
138.0
 21
-35.1
 31
0.0
  0
LINE
  5
55B
100
AcDbEntity
  8
0
  6
CENTER
 62
     7
100
AcDbLine
 10
120.0
 20
-44.9
 30
0.0
 11
120.0
 21
-35.1
 31
0.0
  0
LINE
  5
55C
100
AcDbEntity
  8
0
  6
CONTINUOUS
 62
     7
100
AcDbLine
 10
145.0
 20
-37.0
 30
0.0
 11
145.0
 21
-48.0
 31
0.0
  0
LINE
  5
55D
100
AcDbEntity
  8
0
  6
CONTINUOUS
 62
     7
100
AcDbLine
 10
96.690525
 20
-48.0
 30
0.0
 11
145.0
 21
-48.0
 31
0.0
  0
LINE
  5
55E
100
AcDbEntity
  8
0
  6
CENTER
 62
     7
100
AcDbLine
 10
142.9
 20
-40.0
 30
0.0
 11
133.1
 21
-40.0
 31
0.0
  0
LINE
  5
55F
100
AcDbEntity
  8
0
  6
CENTER
 62
     7
100
AcDbLine
 10
124.9
 20
-40.0
 30
0.0
 11
115.1
 21
-40.0
 31
0.0
  0
ARC
  5
560
100
AcDbEntity
  8
0
  6
CONTINUOUS
 62
     7
100
AcDbCircle
 10
142.0
 20
-37.0
 30
0.0
 40
3.0
100
AcDbArc
 50
0.0
 51
90.000003
  0
CIRCLE
  5
561
100
AcDbEntity
  8
0
  6
CONTINUOUS
 62
     7
100
AcDbCircle
 10
120.0
 20
-82.0
 30
0.0
 40
2.9
  0
ARC
  5
562
100
AcDbEntity
  8
0
  6
CONTINUOUS
 62
     7
100
AcDbCircle
 10
116.0
 20
-85.0
 30
0.0
 40
3.0
100
AcDbArc
 50
179.99999
 51
270.0
  0
ARC
  5
563
100
AcDbEntity
  8
0
  6
CONTINUOUS
 62
     7
100
AcDbCircle
 10
142.0
 20
-85.0
 30
0.0
 40
3.0
100
AcDbArc
 50
270.0
 51
0.0
  0
CIRCLE
  5
564
100
AcDbEntity
  8
0
  6
CONTINUOUS
 62
     7
100
AcDbCircle
 10
138.0
 20
-82.0
 30
0.0
 40
2.9
  0
ARC
  5
565
100
AcDbEntity
  8
0
  6
CONTINUOUS
 62
     7
100
AcDbCircle
 10
116.0
 20
-37.0
 30
0.0
 40
3.0
100
AcDbArc
 50
90.000003
 51
180.00001
  0
CIRCLE
  5
566
100
AcDbEntity
  8
0
  6
CONTINUOUS
 62
     7
100
AcDbCircle
 10
138.0
 20
-40.0
 30
0.0
 40
2.9
  0
CIRCLE
  5
567
100
AcDbEntity
  8
0
  6
CONTINUOUS
 62
     7
100
AcDbCircle
 10
120.0
 20
-40.0
 30
0.0
 40
2.9
  0
POINT
  5
568
100
AcDbEntity
  8
0
  6
CONTINUOUS
 62
     7
100
AcDbPoint
 10
190.0
 20
4.0
 30
0.0
  0
POINT
  5
569
100
AcDbEntity
  8
0
  6
CONTINUOUS
 62
     7
100
AcDbPoint
 10
232.0
 20
4.0
 30
0.0
  0
LINE
  5
56A
100
AcDbEntity
  8
0
  6
CONTINUOUS
 62
     7
100
AcDbLine
 10
201.0
 20
4.0
 30
0.0
 11
184.0
 21
4.0
 31
0.0
  0
LINE
  5
56B
100
AcDbEntity
  8
0
  6
CENTER
 62
     7
100
AcDbLine
 10
232.0
 20
9.0
 30
0.0
 11
232.0
 21
-1.0
 31
0.0
  0
LINE
  5
56C
100
AcDbEntity
  8
0
  6
CENTER
 62
     7
100
AcDbLine
 10
184.0
 20
15.0
 30
0.0
 11
238.0
 21
15.0
 31
0.0
  0
LINE
  5
56D
100
AcDbEntity
  8
0
  6
CONTINUOUS
 62
     7
100
AcDbLine
 10
238.0
 20
6.0
 30
0.0
 11
238.0
 21
4.0
 31
0.0
  0
LINE
  5
56E
100
AcDbEntity
  8
0
  6
CONTINUOUS
 62
     7
100
AcDbLine
 10
196.0
 20
26.0
 30
0.0
 11
196.0
 21
6.0
 31
0.0
  0
LINE
  5
56F
100
AcDbEntity
  8
0
  6
CONTINUOUS
 62
     7
100
AcDbLine
 10
203.5
 20
22.0
 30
0.0
 11
218.5
 21
22.0
 31
0.0
  0
LINE
  5
570
100
AcDbEntity
  8
0
  6
CONTINUOUS
 62
     7
100
AcDbLine
 10
201.0
 20
4.0
 30
0.0
 11
201.0
 21
26.0
 31
0.0
  0
LINE
  5
571
100
AcDbEntity
  8
0
  6
CONTINUOUS
 62
     7
100
AcDbLine
 10
191.0
 20
6.0
 30
0.0
 11
191.0
 21
26.0
 31
0.0
  0
LINE
  5
572
100
AcDbEntity
  8
0
  6
CENTER
 62
     7
100
AcDbLine
 10
190.0
 20
9.0
 30
0.0
 11
190.0
 21
-1.0
 31
0.0
  0
LINE
  5
573
100
AcDbEntity
  8
0
  6
CONTINUOUS
 62
     7
100
AcDbLine
 10
196.0
 20
6.0
 30
0.0
 11
184.0
 21
6.0
 31
0.0
  0
LINE
  5
574
100
AcDbEntity
  8
0
  6
CONTINUOUS
 62
     7
100
AcDbLine
 10
221.0
 20
26.0
 30
0.0
 11
221.0
 21
4.0
 31
0.0
  0
LINE
  5
575
100
AcDbEntity
  8
0
  6
CONTINUOUS
 62
     7
100
AcDbLine
 10
231.0
 20
26.0
 30
0.0
 11
231.0
 21
6.0
 31
0.0
  0
LINE
  5
576
100
AcDbEntity
  8
0
  6
CONTINUOUS
 62
     7
100
AcDbLine
 10
224.0
 20
26.0
 30
0.0
 11
224.0
 21
4.0
 31
0.0
  0
LINE
  5
577
100
AcDbEntity
  8
0
  6
CONTINUOUS
 62
     7
100
AcDbLine
 10
198.0
 20
26.0
 30
0.0
 11
198.0
 21
4.0
 31
0.0
  0
LINE
  5
578
100
AcDbEntity
  8
0
  6
CONTINUOUS
 62
     7
100
AcDbLine
 10
226.0
 20
6.0
 30
0.0
 11
238.0
 21
6.0
 31
0.0
  0
LINE
  5
579
100
AcDbEntity
  8
0
  6
CONTINUOUS
 62
     7
100
AcDbLine
 10
221.0
 20
8.0
 30
0.0
 11
201.0
 21
8.0
 31
0.0
  0
LINE
  5
57A
100
AcDbEntity
  8
0
  6
CENTER
 62
     7
100
AcDbLine
 10
211.0
 20
-3.0
 30
0.0
 11
211.0
 21
33.0
 31
0.0
  0
LINE
  5
57B
100
AcDbEntity
  8
0
  6
CONTINUOUS
 62
     7
100
AcDbLine
 10
221.0
 20
4.5
 30
0.0
 11
201.0
 21
4.5
 31
0.0
  0
LINE
  5
57C
100
AcDbEntity
  8
0
  6
CONTINUOUS
 62
     7
100
AcDbLine
 10
226.0
 20
26.0
 30
0.0
 11
226.0
 21
6.0
 31
0.0
  0
LINE
  5
57D
100
AcDbEntity
  8
0
  6
CONTINUOUS
 62
     7
100
AcDbLine
 10
184.0
 20
6.0
 30
0.0
 11
184.0
 21
4.0
 31
0.0
  0
LINE
  5
57E
100
AcDbEntity
  8
0
  6
CONTINUOUS
 62
     7
100
AcDbLine
 10
221.0
 20
4.0
 30
0.0
 11
238.0
 21
4.0
 31
0.0
  0
LINE
  5
57F
100
AcDbEntity
  8
0
  6
CONTINUOUS
 62
     7
100
AcDbLine
 10
191.0
 20
26.0
 30
0.0
 11
231.0
 21
26.0
 31
0.0
  0
ARC
  5
580
100
AcDbEntity
  8
0
  6
CONTINUOUS
 62
     7
100
AcDbCircle
 10
203.5
 20
19.5
 30
0.0
 40
2.5
100
AcDbArc
 50
90.000003
 51
179.99999
  0
ARC
  5
581
100
AcDbEntity
  8
0
  6
CONTINUOUS
 62
     7
100
AcDbCircle
 10
218.5
 20
19.5
 30
0.0
 40
2.5
100
AcDbArc
 50
0.0
 51
90.000003
  0
POINT
  5
582
100
AcDbEntity
  8
0
  6
CONTINUOUS
 62
     7
100
AcDbPoint
 10
340.0
 20
70.0
 30
0.0
  0
POINT
  5
583
100
AcDbEntity
  8
0
  6
CONTINUOUS
 62
     7
100
AcDbPoint
 10
358.0
 20
70.0
 30
0.0
  0
LINE
  5
584
100
AcDbEntity
  8
0
  6
CENTER
 62
     7
100
AcDbLine
 10
344.9
 20
70.0
 30
0.0
 11
335.1
 21
70.0
 31
0.0
  0
LINE
  5
585
100
AcDbEntity
  8
0
  6
CONTINUOUS
 62
     7
100
AcDbLine
 10
336.0
 20
64.0
 30
0.0
 11
362.0
 21
64.0
 31
0.0
  0
LINE
  5
586
100
AcDbEntity
  8
0
  6
CONTINUOUS
 62
     7
100
AcDbLine
 10
316.69053
 20
76.0
 30
0.0
 11
333.0
 21
76.0
 31
0.0
  0
LINE
  5
587
100
AcDbEntity
  8
0
  6
CENTER
 62
     7
100
AcDbLine
 10
358.0
 20
74.9
 30
0.0
 11
358.0
 21
65.1
 31
0.0
  0
LINE
  5
588
100
AcDbEntity
  8
0
  6
CENTER
 62
     7
100
AcDbLine
 10
340.0
 20
74.9
 30
0.0
 11
340.0
 21
65.1
 31
0.0
  0
LINE
  5
589
100
AcDbEntity
  8
0
  6
CENTER
 62
     7
100
AcDbLine
 10
344.9
 20
112.0
 30
0.0
 11
335.1
 21
112.0
 31
0.0
  0
LINE
  5
58A
100
AcDbEntity
  8
0
  6
CENTER
 62
     7
100
AcDbLine
 10
362.9
 20
112.0
 30
0.0
 11
353.1
 21
112.0
 31
0.0
  0
LINE
  5
58B
100
AcDbEntity
  8
0
  6
CONTINUOUS
 62
     7
100
AcDbLine
 10
333.0
 20
115.0
 30
0.0
 11
333.0
 21
104.0
 31
0.0
  0
LINE
  5
58C
100
AcDbEntity
  8
0
  6
CONTINUOUS
 62
     7
100
AcDbLine
 10
365.0
 20
115.0
 30
0.0
 11
365.0
 21
104.0
 31
0.0
  0
LINE
  5
58D
100
AcDbEntity
  8
0
  6
CENTER
 62
     7
100
AcDbLine
 10
340.0
 20
107.1
 30
0.0
 11
340.0
 21
116.9
 31
0.0
  0
LINE
  5
58E
100
AcDbEntity
  8
0
  6
CENTER
 62
     7
100
AcDbLine
 10
358.0
 20
107.1
 30
0.0
 11
358.0
 21
116.9
 31
0.0
  0
LINE
  5
58F
100
AcDbEntity
  8
0
  6
CONTINUOUS
 62
     7
100
AcDbLine
 10
316.69053
 20
106.0
 30
0.0
 11
333.0
 21
106.0
 31
0.0
  0
LINE
  5
590
100
AcDbEntity
  8
0
  6
CONTINUOUS
 62
     7
100
AcDbLine
 10
336.0
 20
118.0
 30
0.0
 11
362.0
 21
118.0
 31
0.0
  0
LINE
  5
591
100
AcDbEntity
  8
0
  6
CONTINUOUS
 62
     7
100
AcDbLine
 10
365.0
 20
67.0
 30
0.0
 11
365.0
 21
78.0
 31
0.0
  0
LINE
  5
592
100
AcDbEntity
  8
0
  6
CONTINUOUS
 62
     7
100
AcDbLine
 10
327.30948
 20
106.0
 30
0.0
 11
316.69053
 21
106.0
 31
0.0
  0
LINE
  5
593
100
AcDbEntity
  8
0
  6
CENTER
 62
     7
100
AcDbLine
 10
322.0
 20
118.0
 30
0.0
 11
322.0
 21
64.0
 31
0.0
  0
LINE
  5
594
100
AcDbEntity
  8
0
  6
CONTINUOUS
 62
     7
100
AcDbLine
 10
296.3132
 20
111.0
 30
0.0
 11
333.0
 21
111.0
 31
0.0
  0
LINE
  5
595
100
AcDbEntity
  8
0
  6
CONTINUOUS
 62
     7
100
AcDbLine
 10
296.3132
 20
71.0
 30
0.0
 11
333.0
 21
71.0
 31
0.0
  0
LINE
  5
596
100
AcDbEntity
  8
0
  6
CONTINUOUS
 62
     7
100
AcDbLine
 10
316.69053
 20
101.0
 30
0.0
 11
315.0
 21
101.0
 31
0.0
  0
LINE
  5
597
100
AcDbEntity
  8
0
  6
CONTINUOUS
 62
     7
100
AcDbLine
 10
297.0
 20
81.0
 30
0.0
 11
284.69052
 21
81.0
 31
0.0
  0
LINE
  5
598
100
AcDbEntity
  8
0
  6
CONTINUOUS
 62
     7
100
AcDbLine
 10
327.30948
 20
76.0
 30
0.0
 11
316.69053
 21
76.0
 31
0.0
  0
LINE
  5
599
100
AcDbEntity
  8
0
  6
CONTINUOUS
 62
     7
100
AcDbLine
 10
296.3132
 20
76.0
 30
0.0
 11
284.69052
 21
76.0
 31
0.0
  0
LINE
  5
59A
100
AcDbEntity
  8
0
  6
CONTINUOUS
 62
     7
100
AcDbLine
 10
315.0
 20
101.0
 30
0.0
 11
315.0
 21
81.0
 31
0.0
  0
LINE
  5
59B
100
AcDbEntity
  8
0
  6
CONTINUOUS
 62
     7
100
AcDbLine
 10
296.3132
 20
106.0
 30
0.0
 11
284.69052
 21
106.0
 31
0.0
  0
LINE
  5
59C
100
AcDbEntity
  8
0
  6
CONTINUOUS
 62
     7
100
AcDbLine
 10
297.0
 20
101.0
 30
0.0
 11
284.69052
 21
101.0
 31
0.0
  0
LINE
  5
59D
100
AcDbEntity
  8
0
  6
CENTER
 62
     7
100
AcDbLine
 10
335.3132
 20
91.0
 30
0.0
 11
277.6905
 21
91.0
 31
0.0
  0
LINE
  5
59E
100
AcDbEntity
  8
0
  6
CONTINUOUS
 62
     7
100
AcDbLine
 10
316.69053
 20
101.0
 30
0.0
 11
316.69053
 21
106.0
 31
0.0
  0
LINE
  5
59F
100
AcDbEntity
  8
0
  6
CENTER
 62
     7
100
AcDbLine
 10
290.0
 20
118.0
 30
0.0
 11
290.0
 21
64.0
 31
0.0
  0
LINE
  5
5A0
100
AcDbEntity
  8
0
  6
CONTINUOUS
 62
     7
100
AcDbLine
 10
297.0
 20
81.0
 30
0.0
 11
297.0
 21
101.0
 31
0.0
  0
LINE
  5
5A1
100
AcDbEntity
  8
0
  6
CONTINUOUS
 62
     7
100
AcDbLine
 10
316.69053
 20
81.0
 30
0.0
 11
315.0
 21
81.0
 31
0.0
  0
LINE
  5
5A2
100
AcDbEntity
  8
0
  6
CONTINUOUS
 62
     7
100
AcDbLine
 10
316.69053
 20
76.0
 30
0.0
 11
316.69053
 21
81.0
 31
0.0
  0
LINE
  5
5A3
100
AcDbEntity
  8
0
  6
CONTINUOUS
 62
     7
100
AcDbLine
 10
333.0
 20
76.0
 30
0.0
 11
333.0
 21
71.0
 31
0.0
  0
LINE
  5
5A4
100
AcDbEntity
  8
0
  6
CONTINUOUS
 62
     7
100
AcDbLine
 10
333.0
 20
67.0
 30
0.0
 11
333.0
 21
78.0
 31
0.0
  0
LINE
  5
5A5
100
AcDbEntity
  8
0
  6
CONTINUOUS
 62
     7
100
AcDbLine
 10
316.69053
 20
78.0
 30
0.0
 11
365.0
 21
78.0
 31
0.0
  0
LINE
  5
5A6
100
AcDbEntity
  8
0
  6
CENTER
 62
     7
100
AcDbLine
 10
362.9
 20
70.0
 30
0.0
 11
353.1
 21
70.0
 31
0.0
  0
LINE
  5
5A7
100
AcDbEntity
  8
0
  6
CONTINUOUS
 62
     7
100
AcDbLine
 10
316.69053
 20
104.0
 30
0.0
 11
365.0
 21
104.0
 31
0.0
  0
LINE
  5
5A8
100
AcDbEntity
  8
0
  6
CONTINUOUS
 62
     7
100
AcDbLine
 10
296.3132
 20
111.0
 30
0.0
 11
296.3132
 21
106.0
 31
0.0
  0
LINE
  5
5A9
100
AcDbEntity
  8
0
  6
CONTINUOUS
 62
     7
100
AcDbLine
 10
296.3132
 20
76.0
 30
0.0
 11
296.3132
 21
71.0
 31
0.0
  0
ARC
  5
5AA
100
AcDbEntity
  8
0
  6
CONTINUOUS
 62
     7
100
AcDbCircle
 10
362.0
 20
67.0
 30
0.0
 40
3.0
100
AcDbArc
 50
270.0
 51
0.0
  0
ARC
  5
5AB
100
AcDbEntity
  8
0
  6
CONTINUOUS
 62
     7
100
AcDbCircle
 10
336.0
 20
67.0
 30
0.0
 40
3.0
100
AcDbArc
 50
179.99999
 51
270.0
  0
CIRCLE
  5
5AC
100
AcDbEntity
  8
0
  6
CONTINUOUS
 62
     7
100
AcDbCircle
 10
358.0
 20
70.0
 30
0.0
 40
2.9
  0
CIRCLE
  5
5AD
100
AcDbEntity
  8
0
  6
CONTINUOUS
 62
     7
100
AcDbCircle
 10
340.0
 20
112.0
 30
0.0
 40
2.9
  0
CIRCLE
  5
5AE
100
AcDbEntity
  8
0
  6
CONTINUOUS
 62
     7
100
AcDbCircle
 10
358.0
 20
112.0
 30
0.0
 40
2.9
  0
ARC
  5
5AF
100
AcDbEntity
  8
0
  6
CONTINUOUS
 62
     7
100
AcDbCircle
 10
336.0
 20
115.0
 30
0.0
 40
3.0
100
AcDbArc
 50
90.000003
 51
180.00001
  0
ARC
  5
5B0
100
AcDbEntity
  8
0
  6
CONTINUOUS
 62
     7
100
AcDbCircle
 10
362.0
 20
115.0
 30
0.0
 40
3.0
100
AcDbArc
 50
0.0
 51
90.000003
  0
CIRCLE
  5
5B1
100
AcDbEntity
  8
0
  6
CONTINUOUS
 62
     7
100
AcDbCircle
 10
340.0
 20
70.0
 30
0.0
 40
2.9
  0
POINT
  5
5B2
100
AcDbEntity
  8
0
  6
CONTINUOUS
 62
     7
100
AcDbPoint
 10
340.0
 20
26.0
 30
0.0
  0
POINT
  5
5B3
100
AcDbEntity
  8
0
  6
CONTINUOUS
 62
     7
100
AcDbPoint
 10
358.0
 20
26.0
 30
0.0
  0
LINE
  5
5B4
100
AcDbEntity
  8
0
  6
CENTER
 62
     7
100
AcDbLine
 10
358.0
 20
31.0
 30
0.0
 11
358.0
 21
19.0
 31
0.0
  0
LINE
  5
5B5
100
AcDbEntity
  8
0
  6
CONTINUOUS
 62
     7
100
AcDbLine
 10
333.0
 20
24.0
 30
0.0
 11
365.0
 21
24.0
 31
0.0
  0
LINE
  5
5B6
100
AcDbEntity
  8
0
  6
CONTINUOUS
 62
     7
100
AcDbLine
 10
358.6171
 20
16.601202
 30
0.0
 11
325.75656
 21
4.661322
 31
0.0
  0
LINE
  5
5B7
100
AcDbEntity
  8
0
  6
CENTER
 62
     7
100
AcDbLine
 10
340.0
 20
31.0
 30
0.0
 11
340.0
 21
19.0
 31
0.0
  0
LINE
  5
5B8
100
AcDbEntity
  8
0
  6
CONTINUOUS
 62
     7
100
AcDbLine
 10
333.0
 20
26.0
 30
0.0
 11
333.0
 21
24.0
 31
0.0
  0
LINE
  5
5B9
100
AcDbEntity
  8
0
  6
CONTINUOUS
 62
     7
100
AcDbLine
 10
292.5
 20
11.876999
 30
0.0
 11
292.5
 21
18.122009
 31
0.0
  0
LINE
  5
5BA
100
AcDbEntity
  8
0
  6
CONTINUOUS
 62
     7
100
AcDbLine
 10
322.0
 20
4.0
 30
0.0
 11
290.0
 21
4.0
 31
0.0
  0
LINE
  5
5BB
100
AcDbEntity
  8
0
  6
CENTER
 62
     7
100
AcDbLine
 10
322.0
 20
21.0
 30
0.0
 11
322.0
 21
9.0
 31
0.0
  0
LINE
  5
5BC
100
AcDbEntity
  8
0
  6
CENTER
 62
     7
100
AcDbLine
 10
296.0
 20
15.0
 30
0.0
 11
284.0
 21
15.0
 31
0.0
  0
LINE
  5
5BD
100
AcDbEntity
  8
0
  6
CONTINUOUS
 62
     7
100
AcDbLine
 10
328.0
 20
26.0
 30
0.0
 11
290.0
 21
26.0
 31
0.0
  0
LINE
  5
5BE
100
AcDbEntity
  8
0
  6
CENTER
 62
     7
100
AcDbLine
 10
290.0
 20
21.0
 30
0.0
 11
290.0
 21
9.0
 31
0.0
  0
LINE
  5
5BF
100
AcDbEntity
  8
0
  6
CENTER
 62
     7
100
AcDbLine
 10
316.0
 20
15.0
 30
0.0
 11
328.0
 21
15.0
 31
0.0
  0
LINE
  5
5C0
100
AcDbEntity
  8
0
  6
CONTINUOUS
 62
     7
100
AcDbLine
 10
298.74467
 20
7.531347
 30
0.0
 11
296.43299
 21
4.824724
 31
0.0
  0
LINE
  5
5C1
100
AcDbEntity
  8
0
  6
CONTINUOUS
 62
     7
100
AcDbLine
 10
365.0
 20
26.0
 30
0.0
 11
365.0
 21
24.0
 31
0.0
  0
CIRCLE
  5
5C2
100
AcDbEntity
  8
0
  6
CONTINUOUS
 62
     7
100
AcDbCircle
 10
322.0
 20
15.0
 30
0.0
 40
4.0
  0
ARC
  5
5C3
100
AcDbEntity
  8
0
  6
CONTINUOUS
 62
     7
100
AcDbCircle
 10
330.5
 20
26.0
 30
0.0
 40
2.5
100
AcDbArc
 50
179.99999
 51
0.00001
  0
ARC
  5
5C4
100
AcDbEntity
  8
0
  6
CONTINUOUS
 62
     7
100
AcDbCircle
 10
355.20204
 20
26.0
 30
0.0
 40
10.0
100
AcDbArc
 50
284.19534
 51
348.46304
  0
CIRCLE
  5
5C5
100
AcDbEntity
  8
0
  6
CONTINUOUS
 62
     7
100
AcDbCircle
 10
290.0
 20
15.0
 30
0.0
 40
4.0
  0
ARC
  5
5C6
100
AcDbEntity
  8
0
  6
CONTINUOUS
 62
     7
100
AcDbCircle
 10
296.8132
 20
4.5
 30
0.0
 40
0.5
100
AcDbArc
 50
139.5
 51
270.0
  0
CIRCLE
  5
5C7
100
AcDbEntity
  8
0
  6
CONTINUOUS
 62
     7
100
AcDbCircle
 10
290.0
 20
15.0
 30
0.0
 40
4.0
  0
ARC
  5
5C8
100
AcDbEntity
  8
0
  6
CONTINUOUS
 62
     7
100
AcDbCircle
 10
322.0
 20
15.0
 30
0.0
 40
11.0
100
AcDbArc
 50
270.0
 51
89.999996
  0
ARC
  5
5C9
100
AcDbEntity
  8
0
  6
CONTINUOUS
 62
     7
100
AcDbCircle
 10
290.0
 20
15.0
 30
0.0
 40
11.5
100
AcDbArc
 50
319.5
 51
61.044973
  0
ARC
  5
5CA
100
AcDbEntity
  8
0
  6
CONTINUOUS
 62
     7
100
AcDbCircle
 10
295.80947
 20
25.5
 30
0.0
 40
0.5
100
AcDbArc
 50
90.000003
 51
241.04497
  0
CIRCLE
  5
5CB
100
AcDbEntity
  8
0
  6
CONTINUOUS
 62
     7
100
AcDbCircle
 10
290.0
 20
15.0
 30
0.0
 40
4.0
  0
CIRCLE
  5
5CC
100
AcDbEntity
  8
0
  6
CONTINUOUS
 62
     7
100
AcDbCircle
 10
290.0
 20
15.0
 30
0.0
 40
4.0
  0
POLYLINE
  5
5CD
100
AcDbEntity
  8
0
  6
CONTINUOUS
 62
     7
100
AcDb2dPolyline
 66
     1
 10
0.0
 20
0.0
 30
0.0
  0
VERTEX
  5
5CE
100
AcDbEntity
  8
0
  6
CONTINUOUS
 62
     7
100
AcDbVertex
100
AcDb2dVertex
 10
333.0
 20
26.0
 30
0.0
  0
VERTEX
  5
5CF
100
AcDbEntity
  8
0
  6
CONTINUOUS
 62
     7
100
AcDbVertex
100
AcDb2dVertex
 10
364.99998
 20
26.0
 30
0.0
  0
SEQEND
  5
5D0
100
AcDbEntity
  8
0
 62
     7
  0
POINT
  5
5D1
100
AcDbEntity
  8
0
  6
CONTINUOUS
 62
     7
100
AcDbPoint
 10
340.0
 20
-40.0
 30
0.0
  0
POINT
  5
5D2
100
AcDbEntity
  8
0
  6
CONTINUOUS
 62
     7
100
AcDbPoint
 10
340.0
 20
-40.0
 30
0.0
  0
POINT
  5
5D3
100
AcDbEntity
  8
0
  6
CONTINUOUS
 62
     7
100
AcDbPoint
 10
358.0
 20
-40.0
 30
0.0
  0
LINE
  5
5D4
100
AcDbEntity
  8
0
  6
CENTER
 62
     7
100
AcDbLine
 10
344.9
 20
-40.0
 30
0.0
 11
335.1
 21
-40.0
 31
0.0
  0
LINE
  5
5D5
100
AcDbEntity
  8
0
  6
CENTER
 62
     7
100
AcDbLine
 10
362.9
 20
-40.0
 30
0.0
 11
353.1
 21
-40.0
 31
0.0
  0
LINE
  5
5D6
100
AcDbEntity
  8
0
  6
CONTINUOUS
 62
     7
100
AcDbLine
 10
316.69053
 20
-48.0
 30
0.0
 11
365.0
 21
-48.0
 31
0.0
  0
LINE
  5
5D7
100
AcDbEntity
  8
0
  6
CONTINUOUS
 62
     7
100
AcDbLine
 10
365.0
 20
-37.0
 30
0.0
 11
365.0
 21
-48.0
 31
0.0
  0
LINE
  5
5D8
100
AcDbEntity
  8
0
  6
CENTER
 62
     7
100
AcDbLine
 10
340.0
 20
-44.9
 30
0.0
 11
340.0
 21
-35.1
 31
0.0
  0
LINE
  5
5D9
100
AcDbEntity
  8
0
  6
CENTER
 62
     7
100
AcDbLine
 10
358.0
 20
-44.9
 30
0.0
 11
358.0
 21
-35.1
 31
0.0
  0
LINE
  5
5DA
100
AcDbEntity
  8
0
  6
CONTINUOUS
 62
     7
100
AcDbLine
 10
316.69053
 20
-46.0
 30
0.0
 11
365.0
 21
-46.0
 31
0.0
  0
LINE
  5
5DB
100
AcDbEntity
  8
0
  6
CONTINUOUS
 62
     7
100
AcDbLine
 10
336.0
 20
-34.0
 30
0.0
 11
362.0
 21
-34.0
 31
0.0
  0
LINE
  5
5DC
100
AcDbEntity
  8
0
  6
CONTINUOUS
 62
     7
100
AcDbLine
 10
327.30948
 20
-76.0
 30
0.0
 11
316.69053
 21
-76.0
 31
0.0
  0
LINE
  5
5DD
100
AcDbEntity
  8
0
  6
CONTINUOUS
 62
     7
100
AcDbLine
 10
333.0
 20
-37.0
 30
0.0
 11
333.0
 21
-46.0
 31
0.0
  0
LINE
  5
5DE
100
AcDbEntity
  8
0
  6
CONTINUOUS
 62
     7
100
AcDbLine
 10
327.30948
 20
-46.0
 30
0.0
 11
316.69053
 21
-46.0
 31
0.0
  0
LINE
  5
5DF
100
AcDbEntity
  8
0
  6
CENTER
 62
     7
100
AcDbLine
 10
312.0
 20
-47.0
 30
0.0
 11
300.0
 21
-47.0
 31
0.0
  0
LINE
  5
5E0
100
AcDbEntity
  8
0
  6
CONTINUOUS
 62
     7
100
AcDbLine
 10
295.30947
 20
-46.0
 30
0.0
 11
284.69052
 21
-46.0
 31
0.0
  0
LINE
  5
5E1
100
AcDbEntity
  8
0
  6
CONTINUOUS
 62
     7
100
AcDbLine
 10
310.0
 20
-42.800018
 30
0.0
 11
302.0
 21
-42.800018
 31
0.0
  0
LINE
  5
5E2
100
AcDbEntity
  8
0
  6
CONTINUOUS
 62
     7
100
AcDbLine
 10
310.0
 20
-42.800018
 30
0.0
 11
310.0
 21
-51.0
 31
0.0
  0
LINE
  5
5E3
100
AcDbEntity
  8
0
  6
CONTINUOUS
 62
     7
100
AcDbLine
 10
315.0
 20
-71.0
 30
0.0
 11
315.0
 21
-51.0
 31
0.0
  0
LINE
  5
5E4
100
AcDbEntity
  8
0
  6
CENTER
 62
     7
100
AcDbLine
 10
312.0
 20
-75.0
 30
0.0
 11
300.0
 21
-75.0
 31
0.0
  0
LINE
  5
5E5
100
AcDbEntity
  8
0
  6
CONTINUOUS
 62
     7
100
AcDbLine
 10
295.30947
 20
-76.0
 30
0.0
 11
284.69052
 21
-76.0
 31
0.0
  0
LINE
  5
5E6
100
AcDbEntity
  8
0
  6
CONTINUOUS
 62
     7
100
AcDbLine
 10
302.0
 20
-71.0
 30
0.0
 11
284.69052
 21
-71.0
 31
0.0
  0
LINE
  5
5E7
100
AcDbEntity
  8
0
  6
CENTER
 62
     7
100
AcDbLine
 10
334.3095
 20
-61.0
 30
0.0
 11
277.6905
 21
-61.0
 31
0.0
  0
LINE
  5
5E8
100
AcDbEntity
  8
0
  6
CONTINUOUS
 62
     7
100
AcDbLine
 10
316.69053
 20
-71.0
 30
0.0
 11
316.69053
 21
-76.0
 31
0.0
  0
LINE
  5
5E9
100
AcDbEntity
  8
0
  6
CONTINUOUS
 62
     7
100
AcDbLine
 10
310.0
 20
-79.200012
 30
0.0
 11
302.0
 21
-79.200012
 31
0.0
  0
LINE
  5
5EA
100
AcDbEntity
  8
0
  6
CENTER
 62
     7
100
AcDbLine
 10
290.0
 20
-88.0
 30
0.0
 11
290.0
 21
-34.0
 31
0.0
  0
LINE
  5
5EB
100
AcDbEntity
  8
0
  6
CONTINUOUS
 62
     7
100
AcDbLine
 10
310.0
 20
-79.200012
 30
0.0
 11
310.0
 21
-71.0
 31
0.0
  0
LINE
  5
5EC
100
AcDbEntity
  8
0
  6
CONTINUOUS
 62
     7
100
AcDbLine
 10
302.0
 20
-71.0
 30
0.0
 11
302.0
 21
-79.200012
 31
0.0
  0
LINE
  5
5ED
100
AcDbEntity
  8
0
  6
CONTINUOUS
 62
     7
100
AcDbLine
 10
297.0
 20
-51.0
 30
0.0
 11
297.0
 21
-71.0
 31
0.0
  0
LINE
  5
5EE
100
AcDbEntity
  8
0
  6
CONTINUOUS
 62
     7
100
AcDbLine
 10
313.5
 20
-51.0
 30
0.0
 11
313.5
 21
-71.0
 31
0.0
  0
LINE
  5
5EF
100
AcDbEntity
  8
0
  6
CONTINUOUS
 62
     7
100
AcDbLine
 10
298.5
 20
-51.0
 30
0.0
 11
298.5
 21
-71.0
 31
0.0
  0
LINE
  5
5F0
100
AcDbEntity
  8
0
  6
CONTINUOUS
 62
     7
100
AcDbLine
 10
302.0
 20
-42.800018
 30
0.0
 11
302.0
 21
-51.0
 31
0.0
  0
LINE
  5
5F1
100
AcDbEntity
  8
0
  6
CONTINUOUS
 62
     7
100
AcDbLine
 10
316.69053
 20
-51.0
 30
0.0
 11
310.0
 21
-51.0
 31
0.0
  0
LINE
  5
5F2
100
AcDbEntity
  8
0
  6
CONTINUOUS
 62
     7
100
AcDbLine
 10
302.0
 20
-51.0
 30
0.0
 11
284.69052
 21
-51.0
 31
0.0
  0
LINE
  5
5F3
100
AcDbEntity
  8
0
  6
CONTINUOUS
 62
     7
100
AcDbLine
 10
316.69053
 20
-71.0
 30
0.0
 11
310.0
 21
-71.0
 31
0.0
  0
LINE
  5
5F4
100
AcDbEntity
  8
0
  6
CONTINUOUS
 62
     7
100
AcDbLine
 10
295.30947
 20
-41.0
 30
0.0
 11
333.0
 21
-41.0
 31
0.0
  0
LINE
  5
5F5
100
AcDbEntity
  8
0
  6
CONTINUOUS
 62
     7
100
AcDbLine
 10
295.30947
 20
-81.0
 30
0.0
 11
333.0
 21
-81.0
 31
0.0
  0
LINE
  5
5F6
100
AcDbEntity
  8
0
  6
CENTER
 62
     7
100
AcDbLine
 10
322.0
 20
-88.0
 30
0.0
 11
322.0
 21
-34.0
 31
0.0
  0
LINE
  5
5F7
100
AcDbEntity
  8
0
  6
CONTINUOUS
 62
     7
100
AcDbLine
 10
295.30947
 20
-41.0
 30
0.0
 11
295.30947
 21
-46.0
 31
0.0
  0
LINE
  5
5F8
100
AcDbEntity
  8
0
  6
CONTINUOUS
 62
     7
100
AcDbLine
 10
295.30947
 20
-76.0
 30
0.0
 11
295.30947
 21
-81.0
 31
0.0
  0
LINE
  5
5F9
100
AcDbEntity
  8
0
  6
CONTINUOUS
 62
     7
100
AcDbLine
 10
316.69053
 20
-46.0
 30
0.0
 11
316.69053
 21
-51.0
 31
0.0
  0
LINE
  5
5FA
100
AcDbEntity
  8
0
  6
CONTINUOUS
 62
     7
100
AcDbLine
 10
310.0
 20
-43.5
 30
0.0
 11
302.0
 21
-43.5
 31
0.0
  0
LINE
  5
5FB
100
AcDbEntity
  8
0
  6
CENTER
 62
     7
100
AcDbLine
 10
340.0
 20
-77.099998
 30
0.0
 11
340.0
 21
-86.900002
 31
0.0
  0
LINE
  5
5FC
100
AcDbEntity
  8
0
  6
CENTER
 62
     7
100
AcDbLine
 10
358.0
 20
-77.099998
 30
0.0
 11
358.0
 21
-86.900002
 31
0.0
  0
LINE
  5
5FD
100
AcDbEntity
  8
0
  6
CONTINUOUS
 62
     7
100
AcDbLine
 10
316.69053
 20
-76.0
 30
0.0
 11
365.0
 21
-76.0
 31
0.0
  0
LINE
  5
5FE
100
AcDbEntity
  8
0
  6
CONTINUOUS
 62
     7
100
AcDbLine
 10
336.0
 20
-88.0
 30
0.0
 11
362.0
 21
-88.0
 31
0.0
  0
LINE
  5
5FF
100
AcDbEntity
  8
0
  6
CONTINUOUS
 62
     7
100
AcDbLine
 10
310.0
 20
-78.5
 30
0.0
 11
302.0
 21
-78.5
 31
0.0
  0
LINE
  5
600
100
AcDbEntity
  8
0
  6
CONTINUOUS
 62
     7
100
AcDbLine
 10
365.0
 20
-85.0
 30
0.0
 11
365.0
 21
-74.0
 31
0.0
  0
LINE
  5
601
100
AcDbEntity
  8
0
  6
CONTINUOUS
 62
     7
100
AcDbLine
 10
316.69053
 20
-74.0
 30
0.0
 11
365.0
 21
-74.0
 31
0.0
  0
LINE
  5
602
100
AcDbEntity
  8
0
  6
CENTER
 62
     7
100
AcDbLine
 10
362.9
 20
-82.0
 30
0.0
 11
353.1
 21
-82.0
 31
0.0
  0
LINE
  5
603
100
AcDbEntity
  8
0
  6
CENTER
 62
     7
100
AcDbLine
 10
344.9
 20
-82.0
 30
0.0
 11
335.1
 21
-82.0
 31
0.0
  0
LINE
  5
604
100
AcDbEntity
  8
0
  6
CONTINUOUS
 62
     7
100
AcDbLine
 10
333.0
 20
-85.0
 30
0.0
 11
333.0
 21
-76.0
 31
0.0
  0
CIRCLE
  5
605
100
AcDbEntity
  8
0
  6
CONTINUOUS
 62
     7
100
AcDbCircle
 10
340.0
 20
-40.0
 30
0.0
 40
2.9
  0
CIRCLE
  5
606
100
AcDbEntity
  8
0
  6
CONTINUOUS
 62
     7
100
AcDbCircle
 10
358.0
 20
-40.0
 30
0.0
 40
2.9
  0
ARC
  5
607
100
AcDbEntity
  8
0
  6
CONTINUOUS
 62
     7
100
AcDbCircle
 10
336.0
 20
-37.0
 30
0.0
 40
3.0
100
AcDbArc
 50
90.000003
 51
180.00001
  0
CIRCLE
  5
608
100
AcDbEntity
  8
0
  6
CONTINUOUS
 62
     7
100
AcDbCircle
 10
358.0
 20
-82.0
 30
0.0
 40
2.9
  0
ARC
  5
609
100
AcDbEntity
  8
0
  6
CONTINUOUS
 62
     7
100
AcDbCircle
 10
362.0
 20
-85.0
 30
0.0
 40
3.0
100
AcDbArc
 50
270.0
 51
0.0
  0
ARC
  5
60A
100
AcDbEntity
  8
0
  6
CONTINUOUS
 62
     7
100
AcDbCircle
 10
336.0
 20
-85.0
 30
0.0
 40
3.0
100
AcDbArc
 50
179.99999
 51
270.0
  0
CIRCLE
  5
60B
100
AcDbEntity
  8
0
  6
CONTINUOUS
 62
     7
100
AcDbCircle
 10
340.0
 20
-82.0
 30
0.0
 40
2.9
  0
ARC
  5
60C
100
AcDbEntity
  8
0
  6
CONTINUOUS
 62
     7
100
AcDbCircle
 10
362.0
 20
-37.0
 30
0.0
 40
3.0
100
AcDbArc
 50
0.0
 51
90.000003
  0
POINT
  5
60D
100
AcDbEntity
  8
0
  6
CONTINUOUS
 62
     7
100
AcDbPoint
 10
410.0
 20
26.0
 30
0.0
  0
POINT
  5
60E
100
AcDbEntity
  8
0
  6
CONTINUOUS
 62
     7
100
AcDbPoint
 10
452.0
 20
26.0
 30
0.0
  0
LINE
  5
60F
100
AcDbEntity
  8
0
  6
CENTER
 62
     7
100
AcDbLine
 10
452.0
 20
21.0
 30
0.0
 11
452.0
 21
31.0
 31
0.0
  0
LINE
  5
610
100
AcDbEntity
  8
0
  6
CONTINUOUS
 62
     7
100
AcDbLine
 10
411.0
 20
4.0
 30
0.0
 11
421.0
 21
4.0
 31
0.0
  0
LINE
  5
611
100
AcDbEntity
  8
0
  6
CENTER
 62
     7
100
AcDbLine
 10
410.0
 20
21.0
 30
0.0
 11
410.0
 21
31.0
 31
0.0
  0
LINE
  5
612
100
AcDbEntity
  8
0
  6
CONTINUOUS
 62
     7
100
AcDbLine
 10
441.0
 20
4.0
 30
0.0
 11
451.0
 21
4.0
 31
0.0
  0
LINE
  5
613
100
AcDbEntity
  8
0
  6
CONTINUOUS
 62
     7
100
AcDbLine
 10
416.0
 20
24.0
 30
0.0
 11
404.0
 21
24.0
 31
0.0
  0
LINE
  5
614
100
AcDbEntity
  8
0
  6
CONTINUOUS
 62
     7
100
AcDbLine
 10
446.0
 20
4.0
 30
0.0
 11
446.0
 21
24.0
 31
0.0
  0
LINE
  5
615
100
AcDbEntity
  8
0
  6
CONTINUOUS
 62
     7
100
AcDbLine
 10
441.0
 20
4.5
 30
0.0
 11
421.0
 21
4.5
 31
0.0
  0
LINE
  5
616
100
AcDbEntity
  8
0
  6
CENTER
 62
     7
100
AcDbLine
 10
431.0
 20
-3.0
 30
0.0
 11
431.0
 21
33.0
 31
0.0
  0
LINE
  5
617
100
AcDbEntity
  8
0
  6
CONTINUOUS
 62
     7
100
AcDbLine
 10
441.0
 20
8.0
 30
0.0
 11
421.0
 21
8.0
 31
0.0
  0
LINE
  5
618
100
AcDbEntity
  8
0
  6
CONTINUOUS
 62
     7
100
AcDbLine
 10
446.0
 20
24.0
 30
0.0
 11
458.0
 21
24.0
 31
0.0
  0
LINE
  5
619
100
AcDbEntity
  8
0
  6
CONTINUOUS
 62
     7
100
AcDbLine
 10
418.0
 20
4.0
 30
0.0
 11
418.0
 21
26.0
 31
0.0
  0
LINE
  5
61A
100
AcDbEntity
  8
0
  6
CONTINUOUS
 62
     7
100
AcDbLine
 10
444.0
 20
4.0
 30
0.0
 11
444.0
 21
26.0
 31
0.0
  0
LINE
  5
61B
100
AcDbEntity
  8
0
  6
CONTINUOUS
 62
     7
100
AcDbLine
 10
451.0
 20
24.0
 30
0.0
 11
451.0
 21
4.0
 31
0.0
  0
LINE
  5
61C
100
AcDbEntity
  8
0
  6
CONTINUOUS
 62
     7
100
AcDbLine
 10
441.0
 20
26.0
 30
0.0
 11
441.0
 21
4.0
 31
0.0
  0
LINE
  5
61D
100
AcDbEntity
  8
0
  6
CONTINUOUS
 62
     7
100
AcDbLine
 10
404.0
 20
26.0
 30
0.0
 11
458.0
 21
26.0
 31
0.0
  0
LINE
  5
61E
100
AcDbEntity
  8
0
  6
CONTINUOUS
 62
     7
100
AcDbLine
 10
416.0
 20
4.0
 30
0.0
 11
416.0
 21
24.0
 31
0.0
  0
LINE
  5
61F
100
AcDbEntity
  8
0
  6
CONTINUOUS
 62
     7
100
AcDbLine
 10
411.0
 20
4.0
 30
0.0
 11
411.0
 21
24.0
 31
0.0
  0
LINE
  5
620
100
AcDbEntity
  8
0
  6
CONTINUOUS
 62
     7
100
AcDbLine
 10
421.0
 20
4.0
 30
0.0
 11
421.0
 21
26.0
 31
0.0
  0
LINE
  5
621
100
AcDbEntity
  8
0
  6
CONTINUOUS
 62
     7
100
AcDbLine
 10
423.5
 20
22.0
 30
0.0
 11
438.5
 21
22.0
 31
0.0
  0
LINE
  5
622
100
AcDbEntity
  8
0
  6
CONTINUOUS
 62
     7
100
AcDbLine
 10
404.0
 20
24.0
 30
0.0
 11
404.0
 21
26.0
 31
0.0
  0
LINE
  5
623
100
AcDbEntity
  8
0
  6
CONTINUOUS
 62
     7
100
AcDbLine
 10
458.0
 20
24.0
 30
0.0
 11
458.0
 21
26.0
 31
0.0
  0
LINE
  5
624
100
AcDbEntity
  8
0
  6
CENTER
 62
     7
100
AcDbLine
 10
404.0
 20
15.0
 30
0.0
 11
458.0
 21
15.0
 31
0.0
  0
ARC
  5
625
100
AcDbEntity
  8
0
  6
CONTINUOUS
 62
     7
100
AcDbCircle
 10
438.5
 20
19.5
 30
0.0
 40
2.5
100
AcDbArc
 50
0.0
 51
90.000003
  0
ARC
  5
626
100
AcDbEntity
  8
0
  6
CONTINUOUS
 62
     7
100
AcDbCircle
 10
423.5
 20
19.5
 30
0.0
 40
2.5
100
AcDbArc
 50
90.000003
 51
179.99999
  0
POINT
  5
627
100
AcDbEntity
  8
0
  6
CONTINUOUS
 62
     7
100
AcDbPoint
 10
-425.0
 20
-284.0
 30
0.0
  0
POINT
  5
628
100
AcDbEntity
  8
0
  6
CONTINUOUS
 62
     7
100
AcDbPoint
 10
-415.0
 20
-284.0
 30
0.0
  0
LINE
  5
629
100
AcDbEntity
  8
0
  6
CONTINUOUS
 62
     7
100
AcDbLine
 10
-407.5
 20
-241.05082
 30
0.0
 11
-407.5
 21
-238.8071
 31
0.0
  0
LINE
  5
62A
100
AcDbEntity
  8
0
  6
CENTER
 62
     7
100
AcDbLine
 10
-452.0
 20
-254.9749
 30
0.0
 11
-398.0
 21
-254.9749
 31
0.0
  0
LINE
  5
62B
100
AcDbEntity
  8
0
  6
CONTINUOUS
 62
     7
100
AcDbLine
 10
-405.0
 20
-235.00005
 30
0.0
 11
-405.0
 21
-333.00005
 31
0.0
  0
LINE
  5
62C
100
AcDbEntity
  8
0
  6
CONTINUOUS
 62
     7
100
AcDbLine
 10
-440.0
 20
-274.55258
 30
0.0
 11
-435.0
 21
-274.55258
 31
0.0
  0
LINE
  5
62D
100
AcDbEntity
  8
0
  6
CONTINUOUS
 62
     7
100
AcDbLine
 10
-410.0
 20
-333.00005
 30
0.0
 11
-410.0
 21
-331.06943
 31
0.0
  0
LINE
  5
62E
100
AcDbEntity
  8
0
  6
CONTINUOUS
 62
     7
100
AcDbLine
 10
-435.0
 20
-237.82548
 30
0.0
 11
-415.0
 21
-237.82548
 31
0.0
  0
LINE
  5
62F
100
AcDbEntity
  8
0
  6
CONTINUOUS
 62
     7
100
AcDbLine
 10
-435.0
 20
-261.22775
 30
0.0
 11
-435.0
 21
-241.05082
 31
0.0
  0
LINE
  5
630
100
AcDbEntity
  8
0
  6
CENTER
 62
     7
100
AcDbLine
 10
-425.0
 20
-340.00005
 30
0.0
 11
-425.0
 21
-228.00005
 31
0.0
  0
LINE
  5
631
100
AcDbEntity
  8
0
  6
CONTINUOUS
 62
     7
100
AcDbLine
 10
-415.0
 20
-274.55258
 30
0.0
 11
-410.0
 21
-274.55258
 31
0.0
  0
LINE
  5
632
100
AcDbEntity
  8
0
  6
CONTINUOUS
 62
     7
100
AcDbLine
 10
-443.20001
 20
-329.19297
 30
0.0
 11
-443.20001
 21
-326.94924
 31
0.0
  0
LINE
  5
633
100
AcDbEntity
  8
0
  6
CONTINUOUS
 62
     7
100
AcDbLine
 10
-440.0
 20
-242.92727
 30
0.0
 11
-435.0
 21
-242.92727
 31
0.0
  0
LINE
  5
634
100
AcDbEntity
  8
0
  6
CONTINUOUS
 62
     7
100
AcDbLine
 10
-415.0
 20
-261.22775
 30
0.0
 11
-406.80002
 21
-261.22775
 31
0.0
  0
LINE
  5
635
100
AcDbEntity
  8
0
  6
CONTINUOUS
 62
     7
100
AcDbLine
 10
-443.20001
 20
-268.48403
 30
0.0
 11
-435.0
 21
-268.48403
 31
0.0
  0
LINE
  5
636
100
AcDbEntity
  8
0
  6
CONTINUOUS
 62
     7
100
AcDbLine
 10
-443.20001
 20
-238.8071
 30
0.0
 11
-435.0
 21
-238.8071
 31
0.0
  0
LINE
  5
637
100
AcDbEntity
  8
0
  6
CONTINUOUS
 62
     7
100
AcDbLine
 10
-445.0
 20
-236.93065
 30
0.0
 11
-440.0
 21
-236.93065
 31
0.0
  0
LINE
  5
638
100
AcDbEntity
  8
0
  6
CONTINUOUS
 62
     7
100
AcDbLine
 10
-415.0
 20
-333.00005
 30
0.0
 11
-415.0
 21
-329.19297
 31
0.0
  0
LINE
  5
639
100
AcDbEntity
  8
0
  6
CONTINUOUS
 62
     7
100
AcDbLine
 10
-415.0
 20
-261.22775
 30
0.0
 11
-415.0
 21
-241.05082
 31
0.0
  0
LINE
  5
63A
100
AcDbEntity
  8
0
  6
CONTINUOUS
 62
     7
100
AcDbLine
 10
-435.0
 20
-333.00005
 30
0.0
 11
-435.0
 21
-329.19297
 31
0.0
  0
LINE
  5
63B
100
AcDbEntity
  8
0
  6
CONTINUOUS
 62
     7
100
AcDbLine
 10
-410.0
 20
-255.1592
 30
0.0
 11
-410.0
 21
-242.92727
 31
0.0
  0
LINE
  5
63C
100
AcDbEntity
  8
0
  6
CONTINUOUS
 62
     7
100
AcDbLine
 10
-406.80002
 20
-329.19297
 30
0.0
 11
-406.80002
 21
-326.94924
 31
0.0
  0
LINE
  5
63D
100
AcDbEntity
  8
0
  6
CONTINUOUS
 62
     7
100
AcDbLine
 10
-415.0
 20
-268.48403
 30
0.0
 11
-406.80002
 21
-268.48403
 31
0.0
  0
LINE
  5
63E
100
AcDbEntity
  8
0
  6
CONTINUOUS
 62
     7
100
AcDbLine
 10
-435.0
 20
-242.03244
 30
0.0
 11
-415.0
 21
-242.03244
 31
0.0
  0
LINE
  5
63F
100
AcDbEntity
  8
0
  6
CONTINUOUS
 62
     7
100
AcDbLine
 10
-440.0
 20
-255.1592
 30
0.0
 11
-440.0
 21
-242.92727
 31
0.0
  0
LINE
  5
640
100
AcDbEntity
  8
0
  6
CONTINUOUS
 62
     7
100
AcDbLine
 10
-445.0
 20
-235.00005
 30
0.0
 11
-445.0
 21
-333.00005
 31
0.0
  0
LINE
  5
641
100
AcDbEntity
  8
0
  6
CENTER
 62
     7
100
AcDbLine
 10
-452.0
 20
-284.00005
 30
0.0
 11
-398.0
 21
-284.00005
 31
0.0
  0
LINE
  5
642
100
AcDbEntity
  8
0
  6
CONTINUOUS
 62
     7
100
AcDbLine
 10
-440.0
 20
-333.00005
 30
0.0
 11
-440.0
 21
-331.06943
 31
0.0
  0
LINE
  5
643
100
AcDbEntity
  8
0
  6
CONTINUOUS
 62
     7
100
AcDbLine
 10
-443.20001
 20
-261.22775
 30
0.0
 11
-435.0
 21
-261.22775
 31
0.0
  0
LINE
  5
644
100
AcDbEntity
  8
0
  6
CONTINUOUS
 62
     7
100
AcDbLine
 10
-443.20001
 20
-241.05082
 30
0.0
 11
-435.0
 21
-241.05082
 31
0.0
  0
LINE
  5
645
100
AcDbEntity
  8
0
  6
CONTINUOUS
 62
     7
100
AcDbLine
 10
-435.0
 20
-271.65866
 30
0.0
 11
-415.0
 21
-271.65866
 31
0.0
  0
LINE
  5
646
100
AcDbEntity
  8
0
  6
CONTINUOUS
 62
     7
100
AcDbLine
 10
-445.0
 20
-255.1592
 30
0.0
 11
-440.0
 21
-255.1592
 31
0.0
  0
LINE
  5
647
100
AcDbEntity
  8
0
  6
CONTINUOUS
 62
     7
100
AcDbLine
 10
-410.0
 20
-255.1592
 30
0.0
 11
-405.0
 21
-255.1592
 31
0.0
  0
LINE
  5
648
100
AcDbEntity
  8
0
  6
CONTINUOUS
 62
     7
100
AcDbLine
 10
-435.0
 20
-258.05312
 30
0.0
 11
-415.0
 21
-258.05312
 31
0.0
  0
LINE
  5
649
100
AcDbEntity
  8
0
  6
CONTINUOUS
 62
     7
100
AcDbLine
 10
-415.0
 20
-242.92727
 30
0.0
 11
-410.0
 21
-242.92727
 31
0.0
  0
LINE
  5
64A
100
AcDbEntity
  8
0
  6
CONTINUOUS
 62
     7
100
AcDbLine
 10
-415.0
 20
-241.05082
 30
0.0
 11
-406.80002
 21
-241.05082
 31
0.0
  0
LINE
  5
64B
100
AcDbEntity
  8
0
  6
CONTINUOUS
 62
     7
100
AcDbLine
 10
-415.0
 20
-238.8071
 30
0.0
 11
-406.80002
 21
-238.8071
 31
0.0
  0
LINE
  5
64C
100
AcDbEntity
  8
0
  6
CONTINUOUS
 62
     7
100
AcDbLine
 10
-410.0
 20
-236.93065
 30
0.0
 11
-405.0
 21
-236.93065
 31
0.0
  0
LINE
  5
64D
100
AcDbEntity
  8
0
  6
CONTINUOUS
 62
     7
100
AcDbLine
 10
-410.0
 20
-293.44749
 30
0.0
 11
-405.0
 21
-293.44749
 31
0.0
  0
LINE
  5
64E
100
AcDbEntity
  8
0
  6
CONTINUOUS
 62
     7
100
AcDbLine
 10
-415.0
 20
-299.51604
 30
0.0
 11
-406.80002
 21
-299.51604
 31
0.0
  0
LINE
  5
64F
100
AcDbEntity
  8
0
  6
CONTINUOUS
 62
     7
100
AcDbLine
 10
-445.0
 20
-325.07278
 30
0.0
 11
-440.0
 21
-325.07278
 31
0.0
  0
LINE
  5
650
100
AcDbEntity
  8
0
  6
CONTINUOUS
 62
     7
100
AcDbLine
 10
-445.0
 20
-293.44749
 30
0.0
 11
-440.0
 21
-293.44749
 31
0.0
  0
LINE
  5
651
100
AcDbEntity
  8
0
  6
CONTINUOUS
 62
     7
100
AcDbLine
 10
-415.0
 20
-312.84089
 30
0.0
 11
-410.0
 21
-312.84089
 31
0.0
  0
LINE
  5
652
100
AcDbEntity
  8
0
  6
CONTINUOUS
 62
     7
100
AcDbLine
 10
-443.20001
 20
-268.48403
 30
0.0
 11
-443.20001
 21
-261.22775
 31
0.0
  0
LINE
  5
653
100
AcDbEntity
  8
0
  6
CONTINUOUS
 62
     7
100
AcDbLine
 10
-410.0
 20
-325.07278
 30
0.0
 11
-405.0
 21
-325.07278
 31
0.0
  0
LINE
  5
654
100
AcDbEntity
  8
0
  6
CONTINUOUS
 62
     7
100
AcDbLine
 10
-415.0
 20
-326.94924
 30
0.0
 11
-406.80002
 21
-326.94924
 31
0.0
  0
LINE
  5
655
100
AcDbEntity
  8
0
  6
CONTINUOUS
 62
     7
100
AcDbLine
 10
-415.0
 20
-238.8071
 30
0.0
 11
-415.0
 21
-235.00005
 31
0.0
  0
LINE
  5
656
100
AcDbEntity
  8
0
  6
CONTINUOUS
 62
     7
100
AcDbLine
 10
-435.0
 20
-238.8071
 30
0.0
 11
-435.0
 21
-235.00005
 31
0.0
  0
LINE
  5
657
100
AcDbEntity
  8
0
  6
CONTINUOUS
 62
     7
100
AcDbLine
 10
-415.0
 20
-329.19297
 30
0.0
 11
-406.80002
 21
-329.19297
 31
0.0
  0
LINE
  5
658
100
AcDbEntity
  8
0
  6
CONTINUOUS
 62
     7
100
AcDbLine
 10
-415.0
 20
-331.06943
 30
0.0
 11
-410.0
 21
-331.06943
 31
0.0
  0
LINE
  5
659
100
AcDbEntity
  8
0
  6
CONTINUOUS
 62
     7
100
AcDbLine
 10
-415.0
 20
-299.51604
 30
0.0
 11
-415.0
 21
-268.48403
 31
0.0
  0
LINE
  5
65A
100
AcDbEntity
  8
0
  6
CONTINUOUS
 62
     7
100
AcDbLine
 10
-435.0
 20
-299.51604
 30
0.0
 11
-435.0
 21
-268.48403
 31
0.0
  0
LINE
  5
65B
100
AcDbEntity
  8
0
  6
CONTINUOUS
 62
     7
100
AcDbLine
 10
-445.0
 20
-333.00005
 30
0.0
 11
-405.0
 21
-333.00005
 31
0.0
  0
LINE
  5
65C
100
AcDbEntity
  8
0
  6
CONTINUOUS
 62
     7
100
AcDbLine
 10
-445.0
 20
-235.00005
 30
0.0
 11
-405.0
 21
-235.00005
 31
0.0
  0
LINE
  5
65D
100
AcDbEntity
  8
0
  6
CONTINUOUS
 62
     7
100
AcDbLine
 10
-443.20001
 20
-241.05082
 30
0.0
 11
-443.20001
 21
-238.8071
 31
0.0
  0
LINE
  5
65E
100
AcDbEntity
  8
0
  6
CONTINUOUS
 62
     7
100
AcDbLine
 10
-406.80002
 20
-241.05082
 30
0.0
 11
-406.80002
 21
-238.8071
 31
0.0
  0
LINE
  5
65F
100
AcDbEntity
  8
0
  6
CONTINUOUS
 62
     7
100
AcDbLine
 10
-435.0
 20
-296.34142
 30
0.0
 11
-415.0
 21
-296.34142
 31
0.0
  0
LINE
  5
660
100
AcDbEntity
  8
0
  6
CONTINUOUS
 62
     7
100
AcDbLine
 10
-443.20001
 20
-299.51604
 30
0.0
 11
-435.0
 21
-299.51604
 31
0.0
  0
LINE
  5
661
100
AcDbEntity
  8
0
  6
CONTINUOUS
 62
     7
100
AcDbLine
 10
-435.0
 20
-325.96761
 30
0.0
 11
-415.0
 21
-325.96761
 31
0.0
  0
LINE
  5
662
100
AcDbEntity
  8
0
  6
CONTINUOUS
 62
     7
100
AcDbLine
 10
-415.0
 20
-303.13164
 30
0.0
 11
-406.80002
 21
-303.13164
 31
0.0
  0
LINE
  5
663
100
AcDbEntity
  8
0
  6
CONTINUOUS
 62
     7
100
AcDbLine
 10
-443.20001
 20
-303.13164
 30
0.0
 11
-435.0
 21
-303.13164
 31
0.0
  0
LINE
  5
664
100
AcDbEntity
  8
0
  6
CENTER
 62
     7
100
AcDbLine
 10
-452.0
 20
-313.02515
 30
0.0
 11
-398.0
 21
-313.02515
 31
0.0
  0
LINE
  5
665
100
AcDbEntity
  8
0
  6
CONTINUOUS
 62
     7
100
AcDbLine
 10
-440.0
 20
-236.93065
 30
0.0
 11
-440.0
 21
-235.00005
 31
0.0
  0
LINE
  5
666
100
AcDbEntity
  8
0
  6
CONTINUOUS
 62
     7
100
AcDbLine
 10
-410.0
 20
-236.93065
 30
0.0
 11
-410.0
 21
-235.00005
 31
0.0
  0
LINE
  5
667
100
AcDbEntity
  8
0
  6
CONTINUOUS
 62
     7
100
AcDbLine
 10
-440.0
 20
-312.84089
 30
0.0
 11
-435.0
 21
-312.84089
 31
0.0
  0
LINE
  5
668
100
AcDbEntity
  8
0
  6
CONTINUOUS
 62
     7
100
AcDbLine
 10
-435.0
 20
-309.94697
 30
0.0
 11
-415.0
 21
-309.94697
 31
0.0
  0
LINE
  5
669
100
AcDbEntity
  8
0
  6
CONTINUOUS
 62
     7
100
AcDbLine
 10
-406.80002
 20
-268.48403
 30
0.0
 11
-406.80002
 21
-261.22775
 31
0.0
  0
LINE
  5
66A
100
AcDbEntity
  8
0
  6
CONTINUOUS
 62
     7
100
AcDbLine
 10
-443.20001
 20
-326.94924
 30
0.0
 11
-435.0
 21
-326.94924
 31
0.0
  0
LINE
  5
66B
100
AcDbEntity
  8
0
  6
CONTINUOUS
 62
     7
100
AcDbLine
 10
-443.20001
 20
-329.19297
 30
0.0
 11
-435.0
 21
-329.19297
 31
0.0
  0
LINE
  5
66C
100
AcDbEntity
  8
0
  6
CONTINUOUS
 62
     7
100
AcDbLine
 10
-435.0
 20
-330.1746
 30
0.0
 11
-415.0
 21
-330.1746
 31
0.0
  0
LINE
  5
66D
100
AcDbEntity
  8
0
  6
CONTINUOUS
 62
     7
100
AcDbLine
 10
-440.0
 20
-331.06943
 30
0.0
 11
-435.0
 21
-331.06943
 31
0.0
  0
LINE
  5
66E
100
AcDbEntity
  8
0
  6
CONTINUOUS
 62
     7
100
AcDbLine
 10
-440.0
 20
-293.44749
 30
0.0
 11
-440.0
 21
-274.55258
 31
0.0
  0
LINE
  5
66F
100
AcDbEntity
  8
0
  6
CONTINUOUS
 62
     7
100
AcDbLine
 10
-410.0
 20
-293.44749
 30
0.0
 11
-410.0
 21
-274.55258
 31
0.0
  0
LINE
  5
670
100
AcDbEntity
  8
0
  6
CONTINUOUS
 62
     7
100
AcDbLine
 10
-410.0
 20
-325.07278
 30
0.0
 11
-410.0
 21
-312.84089
 31
0.0
  0
LINE
  5
671
100
AcDbEntity
  8
0
  6
CONTINUOUS
 62
     7
100
AcDbLine
 10
-440.0
 20
-325.07278
 30
0.0
 11
-440.0
 21
-312.84089
 31
0.0
  0
LINE
  5
672
100
AcDbEntity
  8
0
  6
CONTINUOUS
 62
     7
100
AcDbLine
 10
-443.20001
 20
-303.13164
 30
0.0
 11
-443.20001
 21
-299.51604
 31
0.0
  0
LINE
  5
673
100
AcDbEntity
  8
0
  6
CONTINUOUS
 62
     7
100
AcDbLine
 10
-406.80002
 20
-303.13164
 30
0.0
 11
-406.80002
 21
-299.51604
 31
0.0
  0
LINE
  5
674
100
AcDbEntity
  8
0
  6
CONTINUOUS
 62
     7
100
AcDbLine
 10
-435.0
 20
-326.94924
 30
0.0
 11
-435.0
 21
-303.13164
 31
0.0
  0
LINE
  5
675
100
AcDbEntity
  8
0
  6
CONTINUOUS
 62
     7
100
AcDbLine
 10
-415.0
 20
-326.94924
 30
0.0
 11
-415.0
 21
-303.13164
 31
0.0
  0
LINE
  5
676
100
AcDbEntity
  8
0
  6
CENTER
 62
     7
100
AcDbLine
 10
-452.0
 20
-322.00005
 30
0.0
 11
-398.0
 21
-322.00005
 31
0.0
  0
LINE
  5
677
100
AcDbEntity
  8
0
  6
CONTINUOUS
 62
     7
100
AcDbLine
 10
-442.5
 20
-329.19297
 30
0.0
 11
-442.5
 21
-326.94924
 31
0.0
  0
LINE
  5
678
100
AcDbEntity
  8
0
  6
CENTER
 62
     7
100
AcDbLine
 10
-452.0
 20
-246.00005
 30
0.0
 11
-398.0
 21
-246.00005
 31
0.0
  0
LINE
  5
679
100
AcDbEntity
  8
0
  6
CONTINUOUS
 62
     7
100
AcDbLine
 10
-407.5
 20
-268.48403
 30
0.0
 11
-407.5
 21
-261.22775
 31
0.0
  0
LINE
  5
67A
100
AcDbEntity
  8
0
  6
CONTINUOUS
 62
     7
100
AcDbLine
 10
-407.5
 20
-303.13164
 30
0.0
 11
-407.5
 21
-299.51604
 31
0.0
  0
LINE
  5
67B
100
AcDbEntity
  8
0
  6
CONTINUOUS
 62
     7
100
AcDbLine
 10
-442.5
 20
-268.48403
 30
0.0
 11
-442.5
 21
-261.22775
 31
0.0
  0
LINE
  5
67C
100
AcDbEntity
  8
0
  6
CONTINUOUS
 62
     7
100
AcDbLine
 10
-442.5
 20
-241.05082
 30
0.0
 11
-442.5
 21
-238.8071
 31
0.0
  0
LINE
  5
67D
100
AcDbEntity
  8
0
  6
CONTINUOUS
 62
     7
100
AcDbLine
 10
-442.5
 20
-303.13164
 30
0.0
 11
-442.5
 21
-299.51604
 31
0.0
  0
LINE
  5
67E
100
AcDbEntity
  8
0
  6
CONTINUOUS
 62
     7
100
AcDbLine
 10
-407.5
 20
-329.19297
 30
0.0
 11
-407.5
 21
-326.94924
 31
0.0
  0
POINT
  5
67F
100
AcDbEntity
  8
0
  6
CONTINUOUS
 62
     7
100
AcDbPoint
 10
-255.0
 20
-174.0
 30
0.0
  0
POINT
  5
680
100
AcDbEntity
  8
0
  6
CONTINUOUS
 62
     7
100
AcDbPoint
 10
-242.0
 20
-174.0
 30
0.0
  0
LINE
  5
681
100
AcDbEntity
  8
0
  6
CONTINUOUS
 62
     7
100
AcDbLine
 10
-329.92861
 20
-189.0
 30
0.0
 11
-329.92861
 21
-194.0
 31
0.0
  0
LINE
  5
682
100
AcDbEntity
  8
0
  6
CONTINUOUS
 62
     7
100
AcDbLine
 10
-332.74568
 20
-184.0
 30
0.0
 11
-332.74568
 21
-192.20001
 31
0.0
  0
LINE
  5
683
100
AcDbEntity
  8
0
  6
CONTINUOUS
 62
     7
100
AcDbLine
 10
-336.11411
 20
-184.0
 30
0.0
 11
-336.11411
 21
-192.20001
 31
0.0
  0
LINE
  5
684
100
AcDbEntity
  8
0
  6
CONTINUOUS
 62
     7
100
AcDbLine
 10
-301.60348
 20
-184.0
 30
0.0
 11
-275.0
 21
-184.0
 31
0.0
  0
LINE
  5
685
100
AcDbEntity
  8
0
  6
CONTINUOUS
 62
     7
100
AcDbLine
 10
-275.0
 20
-192.20001
 30
0.0
 11
-267.0
 21
-192.20001
 31
0.0
  0
LINE
  5
686
100
AcDbEntity
  8
0
  6
CONTINUOUS
 62
     7
100
AcDbLine
 10
-275.0
 20
-155.80002
 30
0.0
 11
-267.0
 21
-155.80002
 31
0.0
  0
LINE
  5
687
100
AcDbEntity
  8
0
  6
CONTINUOUS
 62
     7
100
AcDbLine
 10
-301.60348
 20
-164.0
 30
0.0
 11
-275.0
 21
-164.0
 31
0.0
  0
LINE
  5
688
100
AcDbEntity
  8
0
  6
CONTINUOUS
 62
     7
100
AcDbLine
 10
-338.93118
 20
-184.0
 30
0.0
 11
-338.93118
 21
-189.0
 31
0.0
  0
LINE
  5
689
100
AcDbEntity
  8
0
  6
CONTINUOUS
 62
     7
100
AcDbLine
 10
-309.2824
 20
-156.5
 30
0.0
 11
-301.60348
 21
-156.5
 31
0.0
  0
LINE
  5
68A
100
AcDbEntity
  8
0
  6
CONTINUOUS
 62
     7
100
AcDbLine
 10
-338.93118
 20
-159.0
 30
0.0
 11
-338.93118
 21
-164.0
 31
0.0
  0
LINE
  5
68B
100
AcDbEntity
  8
0
  6
CONTINUOUS
 62
     7
100
AcDbLine
 10
-337.58779
 20
-164.0
 30
0.0
 11
-337.58779
 21
-184.0
 31
0.0
  0
LINE
  5
68C
100
AcDbEntity
  8
0
  6
CONTINUOUS
 62
     7
100
AcDbLine
 10
-336.11411
 20
-155.80002
 30
0.0
 11
-336.11411
 21
-164.0
 31
0.0
  0
LINE
  5
68D
100
AcDbEntity
  8
0
  6
CONTINUOUS
 62
     7
100
AcDbLine
 10
-332.74568
 20
-155.80002
 30
0.0
 11
-332.74568
 21
-164.0
 31
0.0
  0
LINE
  5
68E
100
AcDbEntity
  8
0
  6
CONTINUOUS
 62
     7
100
AcDbLine
 10
-275.0
 20
-191.5
 30
0.0
 11
-267.0
 21
-191.5
 31
0.0
  0
LINE
  5
68F
100
AcDbEntity
  8
0
  6
CONTINUOUS
 62
     7
100
AcDbLine
 10
-275.0
 20
-156.5
 30
0.0
 11
-267.0
 21
-156.5
 31
0.0
  0
LINE
  5
690
100
AcDbEntity
  8
0
  6
CONTINUOUS
 62
     7
100
AcDbLine
 10
-331.272
 20
-164.0
 30
0.0
 11
-331.272
 21
-184.0
 31
0.0
  0
LINE
  5
691
100
AcDbEntity
  8
0
  6
CENTER
 62
     7
100
AcDbLine
 10
-317.71565
 20
-201.0
 30
0.0
 11
-317.71565
 21
-147.0
 31
0.0
  0
LINE
  5
692
100
AcDbEntity
  8
0
  6
CONTINUOUS
 62
     7
100
AcDbLine
 10
-329.92861
 20
-154.0
 30
0.0
 11
-329.92861
 21
-159.0
 31
0.0
  0
LINE
  5
693
100
AcDbEntity
  8
0
  6
CONTINUOUS
 62
     7
100
AcDbLine
 10
-309.2824
 20
-155.80002
 30
0.0
 11
-301.60348
 21
-155.80002
 31
0.0
  0
LINE
  5
694
100
AcDbEntity
  8
0
  6
CONTINUOUS
 62
     7
100
AcDbLine
 10
-315.7044
 20
-184.0
 30
0.0
 11
-315.7044
 21
-189.0
 31
0.0
  0
LINE
  5
695
100
AcDbEntity
  8
0
  6
CONTINUOUS
 62
     7
100
AcDbLine
 10
-309.2824
 20
-184.0
 30
0.0
 11
-309.2824
 21
-192.20001
 31
0.0
  0
LINE
  5
696
100
AcDbEntity
  8
0
  6
CONTINUOUS
 62
     7
100
AcDbLine
 10
-301.60348
 20
-184.0
 30
0.0
 11
-301.60348
 21
-192.20001
 31
0.0
  0
LINE
  5
697
100
AcDbEntity
  8
0
  6
CONTINUOUS
 62
     7
100
AcDbLine
 10
-295.18148
 20
-189.0
 30
0.0
 11
-295.18148
 21
-194.0
 31
0.0
  0
LINE
  5
698
100
AcDbEntity
  8
0
  6
CONTINUOUS
 62
     7
100
AcDbLine
 10
-315.7044
 20
-159.0
 30
0.0
 11
-315.7044
 21
-164.0
 31
0.0
  0
LINE
  5
699
100
AcDbEntity
  8
0
  6
CONTINUOUS
 62
     7
100
AcDbLine
 10
-312.64192
 20
-164.0
 30
0.0
 11
-312.64192
 21
-184.0
 31
0.0
  0
LINE
  5
69A
100
AcDbEntity
  8
0
  6
CONTINUOUS
 62
     7
100
AcDbLine
 10
-309.2824
 20
-155.80002
 30
0.0
 11
-309.2824
 21
-164.0
 31
0.0
  0
LINE
  5
69B
100
AcDbEntity
  8
0
  6
CONTINUOUS
 62
     7
100
AcDbLine
 10
-301.60348
 20
-155.80002
 30
0.0
 11
-301.60348
 21
-164.0
 31
0.0
  0
LINE
  5
69C
100
AcDbEntity
  8
0
  6
CONTINUOUS
 62
     7
100
AcDbLine
 10
-298.24395
 20
-164.0
 30
0.0
 11
-298.24395
 21
-184.0
 31
0.0
  0
LINE
  5
69D
100
AcDbEntity
  8
0
  6
CONTINUOUS
 62
     7
100
AcDbLine
 10
-336.11411
 20
-191.5
 30
0.0
 11
-332.74568
 21
-191.5
 31
0.0
  0
LINE
  5
69E
100
AcDbEntity
  8
0
  6
CONTINUOUS
 62
     7
100
AcDbLine
 10
-336.11411
 20
-156.5
 30
0.0
 11
-332.74568
 21
-156.5
 31
0.0
  0
LINE
  5
69F
100
AcDbEntity
  8
0
  6
CONTINUOUS
 62
     7
100
AcDbLine
 10
-281.69053
 20
-159.0
 30
0.0
 11
-281.69053
 21
-164.0
 31
0.0
  0
LINE
  5
6A0
100
AcDbEntity
  8
0
  6
CONTINUOUS
 62
     7
100
AcDbLine
 10
-260.30947
 20
-189.0
 30
0.0
 11
-260.30947
 21
-194.0
 31
0.0
  0
LINE
  5
6A1
100
AcDbEntity
  8
0
  6
CONTINUOUS
 62
     7
100
AcDbLine
 10
-260.30947
 20
-154.0
 30
0.0
 11
-260.30947
 21
-159.0
 31
0.0
  0
LINE
  5
6A2
100
AcDbEntity
  8
0
  6
CONTINUOUS
 62
     7
100
AcDbLine
 10
-342.18935
 20
-189.0
 30
0.0
 11
-338.93118
 21
-189.0
 31
0.0
  0
LINE
  5
6A3
100
AcDbEntity
  8
0
  6
CENTER
 62
     7
100
AcDbLine
 10
-287.0
 20
-201.0
 30
0.0
 11
-287.0
 21
-147.0
 31
0.0
  0
LINE
  5
6A4
100
AcDbEntity
  8
0
  6
CONTINUOUS
 62
     7
100
AcDbLine
 10
-260.30947
 20
-194.0
 30
0.0
 11
-342.18935
 21
-194.0
 31
0.0
  0
LINE
  5
6A5
100
AcDbEntity
  8
0
  6
CONTINUOUS
 62
     7
100
AcDbLine
 10
-260.30947
 20
-154.0
 30
0.0
 11
-342.18935
 21
-154.0
 31
0.0
  0
LINE
  5
6A6
100
AcDbEntity
  8
0
  6
CONTINUOUS
 62
     7
100
AcDbLine
 10
-342.18935
 20
-184.0
 30
0.0
 11
-336.11411
 21
-184.0
 31
0.0
  0
LINE
  5
6A7
100
AcDbEntity
  8
0
  6
CONTINUOUS
 62
     7
100
AcDbLine
 10
-267.0
 20
-164.0
 30
0.0
 11
-249.69052
 21
-164.0
 31
0.0
  0
LINE
  5
6A8
100
AcDbEntity
  8
0
  6
CONTINUOUS
 62
     7
100
AcDbLine
 10
-342.18935
 20
-164.0
 30
0.0
 11
-336.11411
 21
-164.0
 31
0.0
  0
LINE
  5
6A9
100
AcDbEntity
  8
0
  6
CONTINUOUS
 62
     7
100
AcDbLine
 10
-267.0
 20
-155.80002
 30
0.0
 11
-267.0
 21
-164.0
 31
0.0
  0
LINE
  5
6AA
100
AcDbEntity
  8
0
  6
CONTINUOUS
 62
     7
100
AcDbLine
 10
-263.5
 20
-164.0
 30
0.0
 11
-263.5
 21
-184.0
 31
0.0
  0
LINE
  5
6AB
100
AcDbEntity
  8
0
  6
CONTINUOUS
 62
     7
100
AcDbLine
 10
-278.5
 20
-164.0
 30
0.0
 11
-278.5
 21
-184.0
 31
0.0
  0
LINE
  5
6AC
100
AcDbEntity
  8
0
  6
CONTINUOUS
 62
     7
100
AcDbLine
 10
-262.0
 20
-164.0
 30
0.0
 11
-262.0
 21
-184.0
 31
0.0
  0
LINE
  5
6AD
100
AcDbEntity
  8
0
  6
CONTINUOUS
 62
     7
100
AcDbLine
 10
-267.0
 20
-184.0
 30
0.0
 11
-267.0
 21
-192.20001
 31
0.0
  0
LINE
  5
6AE
100
AcDbEntity
  8
0
  6
CONTINUOUS
 62
     7
100
AcDbLine
 10
-275.0
 20
-192.20001
 30
0.0
 11
-275.0
 21
-184.0
 31
0.0
  0
LINE
  5
6AF
100
AcDbEntity
  8
0
  6
CENTER
 62
     7
100
AcDbLine
 10
-255.0
 20
-201.0
 30
0.0
 11
-255.0
 21
-147.0
 31
0.0
  0
LINE
  5
6B0
100
AcDbEntity
  8
0
  6
CONTINUOUS
 62
     7
100
AcDbLine
 10
-336.11411
 20
-192.20001
 30
0.0
 11
-332.74568
 21
-192.20001
 31
0.0
  0
LINE
  5
6B1
100
AcDbEntity
  8
0
  6
CONTINUOUS
 62
     7
100
AcDbLine
 10
-281.69053
 20
-184.0
 30
0.0
 11
-281.69053
 21
-189.0
 31
0.0
  0
LINE
  5
6B2
100
AcDbEntity
  8
0
  6
CENTER
 62
     7
100
AcDbLine
 10
-349.18935
 20
-174.0
 30
0.0
 11
-242.0
 21
-174.0
 31
0.0
  0
LINE
  5
6B3
100
AcDbEntity
  8
0
  6
CONTINUOUS
 62
     7
100
AcDbLine
 10
-267.0
 20
-184.0
 30
0.0
 11
-249.69052
 21
-184.0
 31
0.0
  0
LINE
  5
6B4
100
AcDbEntity
  8
0
  6
CONTINUOUS
 62
     7
100
AcDbLine
 10
-260.30947
 20
-189.0
 30
0.0
 11
-249.69052
 21
-189.0
 31
0.0
  0
LINE
  5
6B5
100
AcDbEntity
  8
0
  6
CENTER
 62
     7
100
AcDbLine
 10
-277.0
 20
-188.0
 30
0.0
 11
-265.0
 21
-188.0
 31
0.0
  0
LINE
  5
6B6
100
AcDbEntity
  8
0
  6
CONTINUOUS
 62
     7
100
AcDbLine
 10
-280.0
 20
-184.0
 30
0.0
 11
-280.0
 21
-164.0
 31
0.0
  0
LINE
  5
6B7
100
AcDbEntity
  8
0
  6
CONTINUOUS
 62
     7
100
AcDbLine
 10
-275.0
 20
-155.80002
 30
0.0
 11
-275.0
 21
-164.0
 31
0.0
  0
LINE
  5
6B8
100
AcDbEntity
  8
0
  6
CONTINUOUS
 62
     7
100
AcDbLine
 10
-336.11411
 20
-155.80002
 30
0.0
 11
-332.74568
 21
-155.80002
 31
0.0
  0
LINE
  5
6B9
100
AcDbEntity
  8
0
  6
CONTINUOUS
 62
     7
100
AcDbLine
 10
-260.30947
 20
-159.0
 30
0.0
 11
-249.69052
 21
-159.0
 31
0.0
  0
LINE
  5
6BA
100
AcDbEntity
  8
0
  6
CENTER
 62
     7
100
AcDbLine
 10
-277.0
 20
-160.0
 30
0.0
 11
-265.0
 21
-160.0
 31
0.0
  0
LINE
  5
6BB
100
AcDbEntity
  8
0
  6
CONTINUOUS
 62
     7
100
AcDbLine
 10
-295.18148
 20
-154.0
 30
0.0
 11
-295.18148
 21
-159.0
 31
0.0
  0
LINE
  5
6BC
100
AcDbEntity
  8
0
  6
CONTINUOUS
 62
     7
100
AcDbLine
 10
-332.74568
 20
-184.0
 30
0.0
 11
-309.2824
 21
-184.0
 31
0.0
  0
LINE
  5
6BD
100
AcDbEntity
  8
0
  6
CONTINUOUS
 62
     7
100
AcDbLine
 10
-332.74568
 20
-164.0
 30
0.0
 11
-309.2824
 21
-164.0
 31
0.0
  0
LINE
  5
6BE
100
AcDbEntity
  8
0
  6
CONTINUOUS
 62
     7
100
AcDbLine
 10
-342.18935
 20
-184.0
 30
0.0
 11
-342.18935
 21
-194.0
 31
0.0
  0
LINE
  5
6BF
100
AcDbEntity
  8
0
  6
CONTINUOUS
 62
     7
100
AcDbLine
 10
-295.18148
 20
-159.0
 30
0.0
 11
-281.69053
 21
-159.0
 31
0.0
  0
LINE
  5
6C0
100
AcDbEntity
  8
0
  6
CONTINUOUS
 62
     7
100
AcDbLine
 10
-329.92861
 20
-159.0
 30
0.0
 11
-315.7044
 21
-159.0
 31
0.0
  0
LINE
  5
6C1
100
AcDbEntity
  8
0
  6
CONTINUOUS
 62
     7
100
AcDbLine
 10
-329.92861
 20
-189.0
 30
0.0
 11
-315.7044
 21
-189.0
 31
0.0
  0
LINE
  5
6C2
100
AcDbEntity
  8
0
  6
CONTINUOUS
 62
     7
100
AcDbLine
 10
-295.18148
 20
-189.0
 30
0.0
 11
-281.69053
 21
-189.0
 31
0.0
  0
LINE
  5
6C3
100
AcDbEntity
  8
0
  6
CONTINUOUS
 62
     7
100
AcDbLine
 10
-342.18935
 20
-154.0
 30
0.0
 11
-342.18935
 21
-164.0
 31
0.0
  0
LINE
  5
6C4
100
AcDbEntity
  8
0
  6
CONTINUOUS
 62
     7
100
AcDbLine
 10
-342.18935
 20
-159.0
 30
0.0
 11
-338.93118
 21
-159.0
 31
0.0
  0
LINE
  5
6C5
100
AcDbEntity
  8
0
  6
CONTINUOUS
 62
     7
100
AcDbLine
 10
-309.2824
 20
-191.5
 30
0.0
 11
-301.60348
 21
-191.5
 31
0.0
  0
LINE
  5
6C6
100
AcDbEntity
  8
0
  6
CONTINUOUS
 62
     7
100
AcDbLine
 10
-309.2824
 20
-192.20001
 30
0.0
 11
-301.60348
 21
-192.20001
 31
0.0
  0
LINE
  5
6C7
100
AcDbEntity
  8
0
  6
CENTER
 62
     7
100
AcDbLine
 10
-331.18932
 20
-201.0
 30
0.0
 11
-331.18932
 21
-147.0
 31
0.0
  0
POINT
  5
6C8
100
AcDbEntity
  8
0
  6
CONTINUOUS
 62
     7
100
AcDbPoint
 10
-237.0
 20
-246.0
 30
0.0
  0
LINE
  5
6C9
100
AcDbEntity
  8
0
  6
CENTER
 62
     7
100
AcDbLine
 10
-237.0
 20
-284.0
 30
0.0
 11
-349.18935
 21
-284.0
 31
0.0
  0
LINE
  5
6CA
100
AcDbEntity
  8
0
  6
CENTER
 62
     7
100
AcDbLine
 10
-293.76671
 20
-228.0
 30
0.0
 11
-293.76671
 21
-340.0
 31
0.0
  0
LINE
  5
6CB
100
AcDbEntity
  8
0
  6
CENTER
 62
     7
100
AcDbLine
 10
-293.18935
 20
-322.0
 30
0.0
 11
-237.0
 21
-322.0
 31
0.0
  0
LINE
  5
6CC
100
AcDbEntity
  8
0
  6
CENTER
 62
     7
100
AcDbLine
 10
-293.18935
 20
-246.0
 30
0.0
 11
-237.0
 21
-246.0
 31
0.0
  0
LINE
  5
6CD
100
AcDbEntity
  8
0
  6
CENTER
 62
     7
100
AcDbLine
 10
-331.18932
 20
-277.99998
 30
0.0
 11
-331.18932
 21
-289.99998
 31
0.0
  0
LINE
  5
6CE
100
AcDbEntity
  8
0
  6
CENTER
 62
     7
100
AcDbLine
 10
-311.71565
 20
-254.97485
 30
0.0
 11
-323.71564
 21
-254.97485
 31
0.0
  0
LINE
  5
6CF
100
AcDbEntity
  8
0
  6
CONTINUOUS
 62
     7
100
AcDbLine
 10
-257.5
 20
-249.123
 30
0.0
 11
-257.5
 21
-242.87799
 31
0.0
  0
LINE
  5
6D0
100
AcDbEntity
  8
0
  6
CONTINUOUS
 62
     7
100
AcDbLine
 10
-287.0
 20
-257.0
 30
0.0
 11
-255.0
 21
-257.0
 31
0.0
  0
LINE
  5
6D1
100
AcDbEntity
  8
0
  6
CENTER
 62
     7
100
AcDbLine
 10
-287.0
 20
-240.0
 30
0.0
 11
-287.0
 21
-252.0
 31
0.0
  0
LINE
  5
6D2
100
AcDbEntity
  8
0
  6
CONTINUOUS
 62
     7
100
AcDbLine
 10
-287.0
 20
-235.0
 30
0.0
 11
-255.0
 21
-235.0
 31
0.0
  0
LINE
  5
6D3
100
AcDbEntity
  8
0
  6
CENTER
 62
     7
100
AcDbLine
 10
-255.0
 20
-240.0
 30
0.0
 11
-255.0
 21
-252.0
 31
0.0
  0
LINE
  5
6D4
100
AcDbEntity
  8
0
  6
CONTINUOUS
 62
     7
100
AcDbLine
 10
-263.74467
 20
-253.46865
 30
0.0
 11
-261.43299
 21
-256.17528
 31
0.0
  0
LINE
  5
6D5
100
AcDbEntity
  8
0
  6
CONTINUOUS
 62
     7
100
AcDbLine
 10
-288.52377
 20
-249.69881
 30
0.0
 11
-290.27527
 21
-243.70445
 31
0.0
  0
LINE
  5
6D6
100
AcDbEntity
  8
0
  6
CONTINUOUS
 62
     7
100
AcDbLine
 10
-314.63056
 20
-265.53335
 30
0.0
 11
-285.42589
 21
-257.0
 31
0.0
  0
LINE
  5
6D7
100
AcDbEntity
  8
0
  6
CONTINUOUS
 62
     7
100
AcDbLine
 10
-320.80077
 20
-244.41633
 30
0.0
 11
-290.08511
 21
-235.44148
 31
0.0
  0
LINE
  5
6D8
100
AcDbEntity
  8
0
  6
CONTINUOUS
 62
     7
100
AcDbLine
 10
-293.29901
 20
-255.62145
 30
0.0
 11
-290.32101
 21
-257.5711
 31
0.0
  0
LINE
  5
6D9
100
AcDbEntity
  8
0
  6
CONTINUOUS
 62
     7
100
AcDbLine
 10
-315.93561
 20
-258.55739
 30
0.0
 11
-321.60006
 21
-255.92791
 31
0.0
  0
LINE
  5
6DA
100
AcDbEntity
  8
0
  6
CONTINUOUS
 62
     7
100
AcDbLine
 10
-321.21195
 20
-288.63158
 30
0.0
 11
-309.83976
 21
-264.13352
 31
0.0
  0
LINE
  5
6DB
100
AcDbEntity
  8
0
  6
CONTINUOUS
 62
     7
100
AcDbLine
 10
-341.16675
 20
-279.36841
 30
0.0
 11
-327.69305
 21
-250.34326
 31
0.0
  0
LINE
  5
6DC
100
AcDbEntity
  8
0
  6
CENTER
 62
     7
100
AcDbLine
 10
-325.18932
 20
-283.99998
 30
0.0
 11
-337.18932
 21
-283.99998
 31
0.0
  0
LINE
  5
6DD
100
AcDbEntity
  8
0
  6
CONTINUOUS
 62
     7
100
AcDbLine
 10
-314.62328
 20
-266.05128
 30
0.0
 11
-311.19494
 21
-265.09414
 31
0.0
  0
LINE
  5
6DE
100
AcDbEntity
  8
0
  6
CONTINUOUS
 62
     7
100
AcDbLine
 10
-327.30401
 20
-284.95263
 30
0.0
 11
-332.96847
 21
-287.5821
 31
0.0
  0
LINE
  5
6DF
100
AcDbEntity
  8
0
  6
CONTINUOUS
 62
     7
100
AcDbLine
 10
-307.73826
 20
-308.39359
 30
0.0
 11
-319.06192
 21
-283.99997
 31
0.0
  0
LINE
  5
6E0
100
AcDbEntity
  8
0
  6
CONTINUOUS
 62
     7
100
AcDbLine
 10
-327.69307
 20
-317.65672
 30
0.0
 11
-341.17838
 21
-288.60645
 31
0.0
  0
LINE
  5
6E1
100
AcDbEntity
  8
0
  6
CENTER
 62
     7
100
AcDbLine
 10
-317.71565
 20
-307.0251
 30
0.0
 11
-317.71565
 21
-319.0251
 31
0.0
  0
LINE
  5
6E2
100
AcDbEntity
  8
0
  6
CONTINUOUS
 62
     7
100
AcDbLine
 10
-320.73302
 20
-288.78703
 30
0.0
 11
-319.25135
 21
-285.55063
 31
0.0
  0
LINE
  5
6E3
100
AcDbEntity
  8
0
  6
CENTER
 62
     7
100
AcDbLine
 10
-317.71565
 20
-248.97485
 30
0.0
 11
-317.71565
 21
-260.97485
 31
0.0
  0
LINE
  5
6E4
100
AcDbEntity
  8
0
  6
CONTINUOUS
 62
     7
100
AcDbLine
 10
-314.44009
 20
-310.72861
 30
0.0
 11
-316.1916
 21
-316.72297
 31
0.0
  0
LINE
  5
6E5
100
AcDbEntity
  8
0
  6
CONTINUOUS
 62
     7
100
AcDbLine
 10
-283.91488
 20
-311.44149
 30
0.0
 11
-309.83981
 21
-303.86641
 31
0.0
  0
LINE
  5
6E6
100
AcDbEntity
  8
0
  6
CENTER
 62
     7
100
AcDbLine
 10
-311.71565
 20
-313.0251
 30
0.0
 11
-323.71565
 21
-313.0251
 31
0.0
  0
LINE
  5
6E7
100
AcDbEntity
  8
0
  6
CONTINUOUS
 62
     7
100
AcDbLine
 10
-290.08512
 20
-332.5585
 30
0.0
 11
-320.8365
 21
-323.57316
 31
0.0
  0
LINE
  5
6E8
100
AcDbEntity
  8
0
  6
CONTINUOUS
 62
     7
100
AcDbLine
 10
-307.22725
 20
-308.30878
 30
0.0
 11
-308.68703
 21
-305.06245
 31
0.0
  0
LINE
  5
6E9
100
AcDbEntity
  8
0
  6
CONTINUOUS
 62
     7
100
AcDbLine
 10
-284.5
 20
-318.877
 30
0.0
 11
-284.5
 21
-325.12201
 31
0.0
  0
LINE
  5
6EA
100
AcDbEntity
  8
0
  6
CONTINUOUS
 62
     7
100
AcDbLine
 10
-255.0
 20
-311.0
 30
0.0
 11
-285.42585
 21
-311.0
 31
0.0
  0
LINE
  5
6EB
100
AcDbEntity
  8
0
  6
CENTER
 62
     7
100
AcDbLine
 10
-255.0
 20
-328.0
 30
0.0
 11
-255.0
 21
-316.0
 31
0.0
  0
LINE
  5
6EC
100
AcDbEntity
  8
0
  6
CENTER
 62
     7
100
AcDbLine
 10
-287.0
 20
-316.0
 30
0.0
 11
-287.0
 21
-328.0
 31
0.0
  0
LINE
  5
6ED
100
AcDbEntity
  8
0
  6
CONTINUOUS
 62
     7
100
AcDbLine
 10
-255.0
 20
-333.0
 30
0.0
 11
-287.0
 21
-333.0
 31
0.0
  0
LINE
  5
6EE
100
AcDbEntity
  8
0
  6
CONTINUOUS
 62
     7
100
AcDbLine
 10
-278.25533
 20
-314.53135
 30
0.0
 11
-280.56701
 21
-311.82472
 31
0.0
  0
LINE
  5
6EF
100
AcDbEntity
  8
0
  6
CONTINUOUS
 62
     7
100
AcDbLine
 10
-287.0
 20
-235.0
 30
0.0
 11
-255.0
 21
-235.0
 31
0.0
  0
LINE
  5
6F0
100
AcDbEntity
  8
0
  6
CONTINUOUS
 62
     7
100
AcDbLine
 10
-287.0
 20
-235.0
 30
0.0
 11
-255.0
 21
-235.0
 31
0.0
  0
ARC
  5
6F1
100
AcDbEntity
  8
0
  6
CENTER
 62
     7
100
AcDbCircle
 10
-293.18935
 20
-284.0
 30
0.0
 40
38.0
100
AcDbArc
 50
90.000003
 51
270.0
  0
CIRCLE
  5
6F2
100
AcDbEntity
  8
0
  6
CONTINUOUS
 62
     7
100
AcDbCircle
 10
-255.0
 20
-246.0
 30
0.0
 40
4.0
  0
ARC
  5
6F3
100
AcDbEntity
  8
0
  6
CONTINUOUS
 62
     7
100
AcDbCircle
 10
-261.8132
 20
-256.5
 30
0.0
 40
0.5
100
AcDbArc
 50
270.0
 51
40.499999
  0
CIRCLE
  5
6F4
100
AcDbEntity
  8
0
  6
CONTINUOUS
 62
     7
100
AcDbCircle
 10
-255.0
 20
-246.0
 30
0.0
 40
4.0
  0
ARC
  5
6F5
100
AcDbEntity
  8
0
  6
CONTINUOUS
 62
     7
100
AcDbCircle
 10
-287.0
 20
-246.0
 30
0.0
 40
11.0
100
AcDbArc
 50
90.000003
 51
270.0
  0
ARC
  5
6F6
100
AcDbEntity
  8
0
  6
CONTINUOUS
 62
     7
100
AcDbCircle
 10
-255.0
 20
-246.0
 30
0.0
 40
11.5
100
AcDbArc
 50
118.95503
 51
220.49999
  0
ARC
  5
6F7
100
AcDbEntity
  8
0
  6
CONTINUOUS
 62
     7
100
AcDbCircle
 10
-260.80947
 20
-235.5
 30
0.0
 40
0.5
100
AcDbArc
 50
298.95503
 51
90.000003
  0
CIRCLE
  5
6F8
100
AcDbEntity
  8
0
  6
CONTINUOUS
 62
     7
100
AcDbCircle
 10
-255.0
 20
-246.0
 30
0.0
 40
4.0
  0
CIRCLE
  5
6F9
100
AcDbEntity
  8
0
  6
CONTINUOUS
 62
     7
100
AcDbCircle
 10
-255.0
 20
-246.0
 30
0.0
 40
4.0
  0
CIRCLE
  5
6FA
100
AcDbEntity
  8
0
  6
CONTINUOUS
 62
     7
100
AcDbCircle
 10
-287.0
 20
-322.0
 30
0.0
 40
4.0
  0
ARC
  5
6FB
100
AcDbEntity
  8
0
  6
CONTINUOUS
 62
     7
100
AcDbCircle
 10
-290.59488
 20
-257.98943
 30
0.0
 40
0.5
100
AcDbArc
 50
286.2879
 51
56.7879
  0
ARC
  5
6FC
100
AcDbEntity
  8
0
  6
CONTINUOUS
 62
     7
100
AcDbCircle
 10
-280.1868
 20
-311.5
 30
0.0
 40
0.5
100
AcDbArc
 50
90.000003
 51
220.49999
  0
ARC
  5
6FD
100
AcDbEntity
  8
0
  6
CONTINUOUS
 62
     7
100
AcDbCircle
 10
-317.71567
 20
-254.97484
 30
0.0
 40
11.0
100
AcDbArc
 50
106.2879
 51
286.2879
  0
ARC
  5
6FE
100
AcDbEntity
  8
0
  6
CONTINUOUS
 62
     7
100
AcDbCircle
 10
-287.0
 20
-245.99999
 30
0.0
 40
11.5
100
AcDbArc
 50
135.24292
 51
236.78791
  0
ARC
  5
6FF
100
AcDbEntity
  8
0
  6
CONTINUOUS
 62
     7
100
AcDbCircle
 10
-295.52118
 20
-237.55076
 30
0.0
 40
0.5
100
AcDbArc
 50
315.24292
 51
106.2879
  0
CIRCLE
  5
700
100
AcDbEntity
  8
0
  6
CONTINUOUS
 62
     7
100
AcDbCircle
 10
-287.0
 20
-322.0
 30
0.0
 40
4.0
  0
CIRCLE
  5
701
100
AcDbEntity
  8
0
  6
CONTINUOUS
 62
     7
100
AcDbCircle
 10
-287.0
 20
-245.99999
 30
0.0
 40
4.0
  0
CIRCLE
  5
702
100
AcDbEntity
  8
0
  6
CONTINUOUS
 62
     7
100
AcDbCircle
 10
-317.71565
 20
-254.97485
 30
0.0
 40
4.0
  0
ARC
  5
703
100
AcDbEntity
  8
0
  6
CONTINUOUS
 62
     7
100
AcDbCircle
 10
-311.06049
 20
-265.57572
 30
0.0
 40
0.5
100
AcDbArc
 50
335.0989
 51
105.5989
  0
CIRCLE
  5
704
100
AcDbEntity
  8
0
  6
CONTINUOUS
 62
     7
100
AcDbCircle
 10
-317.71565
 20
-254.97485
 30
0.0
 40
4.0
  0
ARC
  5
705
100
AcDbEntity
  8
0
  6
CONTINUOUS
 62
     7
100
AcDbCircle
 10
-331.18935
 20
-284.0
 30
0.0
 40
11.0
100
AcDbArc
 50
155.0989
 51
335.09889
  0
ARC
  5
706
100
AcDbEntity
  8
0
  6
CONTINUOUS
 62
     7
100
AcDbCircle
 10
-317.71565
 20
-254.97485
 30
0.0
 40
11.5
100
AcDbArc
 50
184.05393
 51
285.5989
  0
ARC
  5
707
100
AcDbEntity
  8
0
  6
CONTINUOUS
 62
     7
100
AcDbCircle
 10
-329.68562
 20
-255.82319
 30
0.0
 40
0.5
100
AcDbArc
 50
4.053924
 51
155.0989
  0
CIRCLE
  5
708
100
AcDbEntity
  8
0
  6
CONTINUOUS
 62
     7
100
AcDbCircle
 10
-317.71565
 20
-254.97485
 30
0.0
 40
4.0
  0
CIRCLE
  5
709
100
AcDbEntity
  8
0
  6
CONTINUOUS
 62
     7
100
AcDbCircle
 10
-317.71565
 20
-254.97485
 30
0.0
 40
4.0
  0
ARC
  5
70A
100
AcDbEntity
  8
0
  6
CONTINUOUS
 62
     7
100
AcDbCircle
 10
-318.79673
 20
-285.75876
 30
0.0
 40
0.5
100
AcDbArc
 50
24.901
 51
155.401
  0
ARC
  5
70B
100
AcDbEntity
  8
0
  6
CONTINUOUS
 62
     7
100
AcDbCircle
 10
-317.71567
 20
-313.02516
 30
0.0
 40
11.0
100
AcDbArc
 50
204.90101
 51
24.901
  0
ARC
  5
70C
100
AcDbEntity
  8
0
  6
CONTINUOUS
 62
     7
100
AcDbCircle
 10
-255.0
 20
-322.0
 30
0.0
 40
11.0
100
AcDbArc
 50
270.0
 51
90.000003
  0
ARC
  5
70D
100
AcDbEntity
  8
0
  6
CONTINUOUS
 62
     7
100
AcDbCircle
 10
-331.18932
 20
-283.99998
 30
0.0
 40
11.5
100
AcDbArc
 50
233.85602
 51
335.401
  0
ARC
  5
70E
100
AcDbEntity
  8
0
  6
CONTINUOUS
 62
     7
100
AcDbCircle
 10
-338.26711
 20
-293.69043
 30
0.0
 40
0.5
100
AcDbArc
 50
53.856025
 51
204.901
  0
CIRCLE
  5
70F
100
AcDbEntity
  8
0
  6
CONTINUOUS
 62
     7
100
AcDbCircle
 10
-317.71565
 20
-313.0251
 30
0.0
 40
4.0
  0
ARC
  5
710
100
AcDbEntity
  8
0
  6
CONTINUOUS
 62
     7
100
AcDbCircle
 10
-308.23102
 20
-304.8574
 30
0.0
 40
0.5
100
AcDbArc
 50
73.712003
 51
204.212
  0
CIRCLE
  5
711
100
AcDbEntity
  8
0
  6
CONTINUOUS
 62
     7
100
AcDbCircle
 10
-317.71565
 20
-313.0251
 30
0.0
 40
4.0
  0
ARC
  5
712
100
AcDbEntity
  8
0
  6
CONTINUOUS
 62
     7
100
AcDbCircle
 10
-287.0
 20
-322.0
 30
0.0
 40
11.0
100
AcDbArc
 50
253.712
 51
73.712003
  0
ARC
  5
713
100
AcDbEntity
  8
0
  6
CONTINUOUS
 62
     7
100
AcDbCircle
 10
-317.71565
 20
-313.0251
 30
0.0
 40
11.5
100
AcDbArc
 50
282.66703
 51
24.211999
  0
ARC
  5
714
100
AcDbEntity
  8
0
  6
CONTINUOUS
 62
     7
100
AcDbCircle
 10
-315.08423
 20
-324.73303
 30
0.0
 40
0.5
100
AcDbArc
 50
102.66703
 51
253.71199
  0
CIRCLE
  5
715
100
AcDbEntity
  8
0
  6
CONTINUOUS
 62
     7
100
AcDbCircle
 10
-317.71565
 20
-313.0251
 30
0.0
 40
4.0
  0
CIRCLE
  5
716
100
AcDbEntity
  8
0
  6
CONTINUOUS
 62
     7
100
AcDbCircle
 10
-317.71565
 20
-313.0251
 30
0.0
 40
4.0
  0
CIRCLE
  5
717
100
AcDbEntity
  8
0
  6
CONTINUOUS
 62
     7
100
AcDbCircle
 10
-331.18932
 20
-283.99998
 30
0.0
 40
4.0
  0
ARC
  5
718
100
AcDbEntity
  8
0
  6
CONTINUOUS
 62
     7
100
AcDbCircle
 10
-287.0
 20
-322.0
 30
0.0
 40
11.5
100
AcDbArc
 50
298.95503
 51
40.499999
  0
ARC
  5
719
100
AcDbEntity
  8
0
  6
CONTINUOUS
 62
     7
100
AcDbCircle
 10
-281.19053
 20
-332.5
 30
0.0
 40
0.5
100
AcDbArc
 50
118.95503
 51
270.0
  0
CIRCLE
  5
71A
100
AcDbEntity
  8
0
  6
CONTINUOUS
 62
     7
100
AcDbCircle
 10
-287.0
 20
-322.0
 30
0.0
 40
4.0
  0
CIRCLE
  5
71B
100
AcDbEntity
  8
0
  6
CONTINUOUS
 62
     7
100
AcDbCircle
 10
-287.0
 20
-322.0
 30
0.0
 40
4.0
  0
POINT
  5
71C
100
AcDbEntity
  8
0
  6
CONTINUOUS
 62
     7
100
AcDbPoint
 10
-255.0
 20
-389.0
 30
0.0
  0
POINT
  5
71D
100
AcDbEntity
  8
0
  6
CONTINUOUS
 62
     7
100
AcDbPoint
 10
-242.0
 20
-389.0
 30
0.0
  0
LINE
  5
71E
100
AcDbEntity
  8
0
  6
CONTINUOUS
 62
     7
100
AcDbLine
 10
-267.0
 20
-406.5
 30
0.0
 11
-275.0
 21
-406.5
 31
0.0
  0
LINE
  5
71F
100
AcDbEntity
  8
0
  6
CONTINUOUS
 62
     7
100
AcDbLine
 10
-267.0
 20
-371.5
 30
0.0
 11
-275.0
 21
-371.5
 31
0.0
  0
LINE
  5
720
100
AcDbEntity
  8
0
  6
CONTINUOUS
 62
     7
100
AcDbLine
 10
-260.30947
 20
-374.0
 30
0.0
 11
-260.30947
 21
-379.0
 31
0.0
  0
LINE
  5
721
100
AcDbEntity
  8
0
  6
CONTINUOUS
 62
     7
100
AcDbLine
 10
-281.69053
 20
-404.0
 30
0.0
 11
-281.69053
 21
-409.0
 31
0.0
  0
LINE
  5
722
100
AcDbEntity
  8
0
  6
CONTINUOUS
 62
     7
100
AcDbLine
 10
-281.69053
 20
-369.0
 30
0.0
 11
-281.69053
 21
-374.0
 31
0.0
  0
LINE
  5
723
100
AcDbEntity
  8
0
  6
CONTINUOUS
 62
     7
100
AcDbLine
 10
-249.69052
 20
-404.0
 30
0.0
 11
-260.30947
 21
-404.0
 31
0.0
  0
LINE
  5
724
100
AcDbEntity
  8
0
  6
CENTER
 62
     7
100
AcDbLine
 10
-255.0
 20
-416.0
 30
0.0
 11
-255.0
 21
-362.0
 31
0.0
  0
LINE
  5
725
100
AcDbEntity
  8
0
  6
CONTINUOUS
 62
     7
100
AcDbLine
 10
-342.18935
 20
-409.0
 30
0.0
 11
-249.69052
 21
-409.0
 31
0.0
  0
LINE
  5
726
100
AcDbEntity
  8
0
  6
CONTINUOUS
 62
     7
100
AcDbLine
 10
-342.18935
 20
-369.0
 30
0.0
 11
-249.69052
 21
-369.0
 31
0.0
  0
LINE
  5
727
100
AcDbEntity
  8
0
  6
CONTINUOUS
 62
     7
100
AcDbLine
 10
-260.30947
 20
-399.0
 30
0.0
 11
-267.0
 21
-399.0
 31
0.0
  0
LINE
  5
728
100
AcDbEntity
  8
0
  6
CONTINUOUS
 62
     7
100
AcDbLine
 10
-275.0
 20
-379.0
 30
0.0
 11
-301.60349
 21
-379.0
 31
0.0
  0
LINE
  5
729
100
AcDbEntity
  8
0
  6
CONTINUOUS
 62
     7
100
AcDbLine
 10
-260.30947
 20
-379.0
 30
0.0
 11
-267.0
 21
-379.0
 31
0.0
  0
LINE
  5
72A
100
AcDbEntity
  8
0
  6
CONTINUOUS
 62
     7
100
AcDbLine
 10
-275.0
 20
-370.80002
 30
0.0
 11
-275.0
 21
-379.0
 31
0.0
  0
LINE
  5
72B
100
AcDbEntity
  8
0
  6
CONTINUOUS
 62
     7
100
AcDbLine
 10
-278.5
 20
-379.0
 30
0.0
 11
-278.5
 21
-399.0
 31
0.0
  0
LINE
  5
72C
100
AcDbEntity
  8
0
  6
CONTINUOUS
 62
     7
100
AcDbLine
 10
-263.5
 20
-379.0
 30
0.0
 11
-263.5
 21
-399.0
 31
0.0
  0
LINE
  5
72D
100
AcDbEntity
  8
0
  6
CONTINUOUS
 62
     7
100
AcDbLine
 10
-280.0
 20
-379.0
 30
0.0
 11
-280.0
 21
-399.0
 31
0.0
  0
LINE
  5
72E
100
AcDbEntity
  8
0
  6
CONTINUOUS
 62
     7
100
AcDbLine
 10
-275.0
 20
-399.0
 30
0.0
 11
-275.0
 21
-407.20001
 31
0.0
  0
LINE
  5
72F
100
AcDbEntity
  8
0
  6
CONTINUOUS
 62
     7
100
AcDbLine
 10
-267.0
 20
-407.20001
 30
0.0
 11
-267.0
 21
-399.0
 31
0.0
  0
LINE
  5
730
100
AcDbEntity
  8
0
  6
CENTER
 62
     7
100
AcDbLine
 10
-287.0
 20
-416.0
 30
0.0
 11
-287.0
 21
-362.0
 31
0.0
  0
LINE
  5
731
100
AcDbEntity
  8
0
  6
CONTINUOUS
 62
     7
100
AcDbLine
 10
-267.0
 20
-407.20001
 30
0.0
 11
-275.0
 21
-407.20001
 31
0.0
  0
LINE
  5
732
100
AcDbEntity
  8
0
  6
CONTINUOUS
 62
     7
100
AcDbLine
 10
-260.30947
 20
-399.0
 30
0.0
 11
-260.30947
 21
-404.0
 31
0.0
  0
LINE
  5
733
100
AcDbEntity
  8
0
  6
CENTER
 62
     7
100
AcDbLine
 10
-242.0
 20
-389.0
 30
0.0
 11
-349.18935
 21
-389.0
 31
0.0
  0
LINE
  5
734
100
AcDbEntity
  8
0
  6
CONTINUOUS
 62
     7
100
AcDbLine
 10
-275.0
 20
-399.0
 30
0.0
 11
-301.60349
 21
-399.0
 31
0.0
  0
LINE
  5
735
100
AcDbEntity
  8
0
  6
CONTINUOUS
 62
     7
100
AcDbLine
 10
-281.69053
 20
-404.0
 30
0.0
 11
-295.1815
 21
-404.0
 31
0.0
  0
LINE
  5
736
100
AcDbEntity
  8
0
  6
CENTER
 62
     7
100
AcDbLine
 10
-265.0
 20
-403.0
 30
0.0
 11
-277.0
 21
-403.0
 31
0.0
  0
LINE
  5
737
100
AcDbEntity
  8
0
  6
CONTINUOUS
 62
     7
100
AcDbLine
 10
-262.0
 20
-399.0
 30
0.0
 11
-262.0
 21
-379.0
 31
0.0
  0
LINE
  5
738
100
AcDbEntity
  8
0
  6
CONTINUOUS
 62
     7
100
AcDbLine
 10
-267.0
 20
-370.80002
 30
0.0
 11
-267.0
 21
-379.0
 31
0.0
  0
LINE
  5
739
100
AcDbEntity
  8
0
  6
CONTINUOUS
 62
     7
100
AcDbLine
 10
-267.0
 20
-370.80002
 30
0.0
 11
-275.0
 21
-370.80002
 31
0.0
  0
LINE
  5
73A
100
AcDbEntity
  8
0
  6
CONTINUOUS
 62
     7
100
AcDbLine
 10
-281.69053
 20
-374.0
 30
0.0
 11
-295.1815
 21
-374.0
 31
0.0
  0
LINE
  5
73B
100
AcDbEntity
  8
0
  6
CENTER
 62
     7
100
AcDbLine
 10
-265.0
 20
-375.0
 30
0.0
 11
-277.0
 21
-375.0
 31
0.0
  0
LINE
  5
73C
100
AcDbEntity
  8
0
  6
CONTINUOUS
 62
     7
100
AcDbLine
 10
-249.69052
 20
-374.0
 30
0.0
 11
-260.30947
 21
-374.0
 31
0.0
  0
LINE
  5
73D
100
AcDbEntity
  8
0
  6
CONTINUOUS
 62
     7
100
AcDbLine
 10
-309.2824
 20
-399.0
 30
0.0
 11
-309.2824
 21
-407.20001
 31
0.0
  0
LINE
  5
73E
100
AcDbEntity
  8
0
  6
CONTINUOUS
 62
     7
100
AcDbLine
 10
-301.60349
 20
-399.0
 30
0.0
 11
-301.60349
 21
-407.20001
 31
0.0
  0
LINE
  5
73F
100
AcDbEntity
  8
0
  6
CONTINUOUS
 62
     7
100
AcDbLine
 10
-295.1815
 20
-399.0
 30
0.0
 11
-295.1815
 21
-404.0
 31
0.0
  0
LINE
  5
740
100
AcDbEntity
  8
0
  6
CENTER
 62
     7
100
AcDbLine
 10
-331.18932
 20
-416.0
 30
0.0
 11
-331.18932
 21
-362.0
 31
0.0
  0
LINE
  5
741
100
AcDbEntity
  8
0
  6
CONTINUOUS
 62
     7
100
AcDbLine
 10
-315.7044
 20
-369.0
 30
0.0
 11
-315.7044
 21
-374.0
 31
0.0
  0
LINE
  5
742
100
AcDbEntity
  8
0
  6
CONTINUOUS
 62
     7
100
AcDbLine
 10
-312.64193
 20
-379.0
 30
0.0
 11
-312.64193
 21
-399.0
 31
0.0
  0
LINE
  5
743
100
AcDbEntity
  8
0
  6
CONTINUOUS
 62
     7
100
AcDbLine
 10
-309.2824
 20
-370.80002
 30
0.0
 11
-309.2824
 21
-379.0
 31
0.0
  0
LINE
  5
744
100
AcDbEntity
  8
0
  6
CONTINUOUS
 62
     7
100
AcDbLine
 10
-301.60349
 20
-370.80002
 30
0.0
 11
-301.60349
 21
-379.0
 31
0.0
  0
LINE
  5
745
100
AcDbEntity
  8
0
  6
CONTINUOUS
 62
     7
100
AcDbLine
 10
-298.24397
 20
-379.0
 30
0.0
 11
-298.24397
 21
-399.0
 31
0.0
  0
LINE
  5
746
100
AcDbEntity
  8
0
  6
CONTINUOUS
 62
     7
100
AcDbLine
 10
-315.7044
 20
-404.0
 30
0.0
 11
-315.7044
 21
-409.0
 31
0.0
  0
LINE
  5
747
100
AcDbEntity
  8
0
  6
CONTINUOUS
 62
     7
100
AcDbLine
 10
-295.1815
 20
-374.0
 30
0.0
 11
-295.1815
 21
-379.0
 31
0.0
  0
LINE
  5
748
100
AcDbEntity
  8
0
  6
CONTINUOUS
 62
     7
100
AcDbLine
 10
-301.60349
 20
-407.20001
 30
0.0
 11
-309.2824
 21
-407.20001
 31
0.0
  0
LINE
  5
749
100
AcDbEntity
  8
0
  6
CONTINUOUS
 62
     7
100
AcDbLine
 10
-301.60349
 20
-406.5
 30
0.0
 11
-309.2824
 21
-406.5
 31
0.0
  0
LINE
  5
74A
100
AcDbEntity
  8
0
  6
CONTINUOUS
 62
     7
100
AcDbLine
 10
-301.60349
 20
-371.5
 30
0.0
 11
-309.2824
 21
-371.5
 31
0.0
  0
LINE
  5
74B
100
AcDbEntity
  8
0
  6
CONTINUOUS
 62
     7
100
AcDbLine
 10
-301.60349
 20
-370.80002
 30
0.0
 11
-309.2824
 21
-370.80002
 31
0.0
  0
LINE
  5
74C
100
AcDbEntity
  8
0
  6
CONTINUOUS
 62
     7
100
AcDbLine
 10
-315.7044
 20
-404.0
 30
0.0
 11
-329.92863
 21
-404.0
 31
0.0
  0
LINE
  5
74D
100
AcDbEntity
  8
0
  6
CONTINUOUS
 62
     7
100
AcDbLine
 10
-315.7044
 20
-374.0
 30
0.0
 11
-329.92863
 21
-374.0
 31
0.0
  0
LINE
  5
74E
100
AcDbEntity
  8
0
  6
CONTINUOUS
 62
     7
100
AcDbLine
 10
-309.2824
 20
-399.0
 30
0.0
 11
-332.74569
 21
-399.0
 31
0.0
  0
LINE
  5
74F
100
AcDbEntity
  8
0
  6
CONTINUOUS
 62
     7
100
AcDbLine
 10
-309.2824
 20
-379.0
 30
0.0
 11
-332.74569
 21
-379.0
 31
0.0
  0
LINE
  5
750
100
AcDbEntity
  8
0
  6
CONTINUOUS
 62
     7
100
AcDbLine
 10
-329.92863
 20
-374.0
 30
0.0
 11
-329.92863
 21
-379.0
 31
0.0
  0
LINE
  5
751
100
AcDbEntity
  8
0
  6
CONTINUOUS
 62
     7
100
AcDbLine
 10
-331.27201
 20
-379.0
 30
0.0
 11
-331.27201
 21
-399.0
 31
0.0
  0
LINE
  5
752
100
AcDbEntity
  8
0
  6
CONTINUOUS
 62
     7
100
AcDbLine
 10
-332.74569
 20
-370.80002
 30
0.0
 11
-332.74569
 21
-379.0
 31
0.0
  0
LINE
  5
753
100
AcDbEntity
  8
0
  6
CONTINUOUS
 62
     7
100
AcDbLine
 10
-336.11411
 20
-370.80002
 30
0.0
 11
-336.11411
 21
-379.0
 31
0.0
  0
LINE
  5
754
100
AcDbEntity
  8
0
  6
CONTINUOUS
 62
     7
100
AcDbLine
 10
-337.58778
 20
-379.0
 30
0.0
 11
-337.58778
 21
-399.0
 31
0.0
  0
LINE
  5
755
100
AcDbEntity
  8
0
  6
CONTINUOUS
 62
     7
100
AcDbLine
 10
-338.93116
 20
-369.0
 30
0.0
 11
-338.93116
 21
-374.0
 31
0.0
  0
LINE
  5
756
100
AcDbEntity
  8
0
  6
CONTINUOUS
 62
     7
100
AcDbLine
 10
-332.74569
 20
-399.0
 30
0.0
 11
-332.74569
 21
-407.20001
 31
0.0
  0
LINE
  5
757
100
AcDbEntity
  8
0
  6
CENTER
 62
     7
100
AcDbLine
 10
-317.71565
 20
-416.0
 30
0.0
 11
-317.71565
 21
-362.0
 31
0.0
  0
LINE
  5
758
100
AcDbEntity
  8
0
  6
CONTINUOUS
 62
     7
100
AcDbLine
 10
-329.92863
 20
-399.0
 30
0.0
 11
-329.92863
 21
-404.0
 31
0.0
  0
LINE
  5
759
100
AcDbEntity
  8
0
  6
CONTINUOUS
 62
     7
100
AcDbLine
 10
-336.11411
 20
-399.0
 30
0.0
 11
-336.11411
 21
-407.20001
 31
0.0
  0
LINE
  5
75A
100
AcDbEntity
  8
0
  6
CONTINUOUS
 62
     7
100
AcDbLine
 10
-338.93116
 20
-404.0
 30
0.0
 11
-338.93116
 21
-409.0
 31
0.0
  0
LINE
  5
75B
100
AcDbEntity
  8
0
  6
CONTINUOUS
 62
     7
100
AcDbLine
 10
-332.74569
 20
-371.5
 30
0.0
 11
-336.11411
 21
-371.5
 31
0.0
  0
LINE
  5
75C
100
AcDbEntity
  8
0
  6
CONTINUOUS
 62
     7
100
AcDbLine
 10
-332.74569
 20
-370.80002
 30
0.0
 11
-336.11411
 21
-370.80002
 31
0.0
  0
LINE
  5
75D
100
AcDbEntity
  8
0
  6
CONTINUOUS
 62
     7
100
AcDbLine
 10
-338.93116
 20
-374.0
 30
0.0
 11
-342.18935
 21
-374.0
 31
0.0
  0
LINE
  5
75E
100
AcDbEntity
  8
0
  6
CONTINUOUS
 62
     7
100
AcDbLine
 10
-342.18935
 20
-399.0
 30
0.0
 11
-342.18935
 21
-409.0
 31
0.0
  0
LINE
  5
75F
100
AcDbEntity
  8
0
  6
CONTINUOUS
 62
     7
100
AcDbLine
 10
-342.18935
 20
-369.0
 30
0.0
 11
-342.18935
 21
-379.0
 31
0.0
  0
LINE
  5
760
100
AcDbEntity
  8
0
  6
CONTINUOUS
 62
     7
100
AcDbLine
 10
-336.11411
 20
-379.0
 30
0.0
 11
-342.18935
 21
-379.0
 31
0.0
  0
LINE
  5
761
100
AcDbEntity
  8
0
  6
CONTINUOUS
 62
     7
100
AcDbLine
 10
-332.74569
 20
-407.20001
 30
0.0
 11
-336.11411
 21
-407.20001
 31
0.0
  0
LINE
  5
762
100
AcDbEntity
  8
0
  6
CONTINUOUS
 62
     7
100
AcDbLine
 10
-332.74569
 20
-406.5
 30
0.0
 11
-336.11411
 21
-406.5
 31
0.0
  0
LINE
  5
763
100
AcDbEntity
  8
0
  6
CONTINUOUS
 62
     7
100
AcDbLine
 10
-336.11411
 20
-399.0
 30
0.0
 11
-342.18935
 21
-399.0
 31
0.0
  0
LINE
  5
764
100
AcDbEntity
  8
0
  6
CONTINUOUS
 62
     7
100
AcDbLine
 10
-338.93116
 20
-404.0
 30
0.0
 11
-342.18935
 21
-404.0
 31
0.0
  0
POINT
  5
765
100
AcDbEntity
  8
0
  6
CONTINUOUS
 62
     7
100
AcDbPoint
 10
-130.0
 20
-284.0
 30
0.0
  0
POINT
  5
766
100
AcDbEntity
  8
0
  6
CONTINUOUS
 62
     7
100
AcDbPoint
 10
-120.0
 20
-284.0
 30
0.0
  0
LINE
  5
767
100
AcDbEntity
  8
0
  6
CONTINUOUS
 62
     7
100
AcDbLine
 10
-150.0
 20
-229.63495
 30
0.0
 11
-145.0
 21
-229.63495
 31
0.0
  0
LINE
  5
768
100
AcDbEntity
  8
0
  6
CONTINUOUS
 62
     7
100
AcDbLine
 10
-112.5
 20
-344.31409
 30
0.0
 11
-112.5
 21
-343.86821
 31
0.0
  0
LINE
  5
769
100
AcDbEntity
  8
0
  6
CONTINUOUS
 62
     7
100
AcDbLine
 10
-147.5
 20
-344.31409
 30
0.0
 11
-147.5
 21
-343.86821
 31
0.0
  0
LINE
  5
76A
100
AcDbEntity
  8
0
  6
CONTINUOUS
 62
     7
100
AcDbLine
 10
-145.0
 20
-275.44971
 30
0.0
 11
-140.0
 21
-275.44971
 31
0.0
  0
LINE
  5
76B
100
AcDbEntity
  8
0
  6
CONTINUOUS
 62
     7
100
AcDbLine
 10
-115.0
 20
-255.19293
 30
0.0
 11
-110.0
 21
-255.19293
 31
0.0
  0
LINE
  5
76C
100
AcDbEntity
  8
0
  6
CONTINUOUS
 62
     7
100
AcDbLine
 10
-150.0
 20
-255.19293
 30
0.0
 11
-145.0
 21
-255.19293
 31
0.0
  0
LINE
  5
76D
100
AcDbEntity
  8
0
  6
CONTINUOUS
 62
     7
100
AcDbLine
 10
-115.0
 20
-345.0
 30
0.0
 11
-115.0
 21
-344.68698
 31
0.0
  0
LINE
  5
76E
100
AcDbEntity
  8
0
  6
CENTER
 62
     7
100
AcDbLine
 10
-103.0
 20
-284.0
 30
0.0
 11
-157.0
 21
-284.0
 31
0.0
  0
LINE
  5
76F
100
AcDbEntity
  8
0
  6
CONTINUOUS
 62
     7
100
AcDbLine
 10
-110.0
 20
-223.0
 30
0.0
 11
-110.0
 21
-345.0
 31
0.0
  0
LINE
  5
770
100
AcDbEntity
  8
0
  6
CONTINUOUS
 62
     7
100
AcDbLine
 10
-150.0
 20
-223.0
 30
0.0
 11
-150.0
 21
-345.0
 31
0.0
  0
LINE
  5
771
100
AcDbEntity
  8
0
  6
CONTINUOUS
 62
     7
100
AcDbLine
 10
-120.0
 20
-345.0
 30
0.0
 11
-120.0
 21
-344.31409
 31
0.0
  0
LINE
  5
772
100
AcDbEntity
  8
0
  6
CONTINUOUS
 62
     7
100
AcDbLine
 10
-140.0
 20
-261.53165
 30
0.0
 11
-140.0
 21
-237.85217
 31
0.0
  0
LINE
  5
773
100
AcDbEntity
  8
0
  6
CONTINUOUS
 62
     7
100
AcDbLine
 10
-140.0
 20
-345.0
 30
0.0
 11
-140.0
 21
-344.31409
 31
0.0
  0
LINE
  5
774
100
AcDbEntity
  8
0
  6
CONTINUOUS
 62
     7
100
AcDbLine
 10
-148.19998
 20
-261.53165
 30
0.0
 11
-140.0
 21
-261.53165
 31
0.0
  0
LINE
  5
775
100
AcDbEntity
  8
0
  6
CONTINUOUS
 62
     7
100
AcDbLine
 10
-140.0
 20
-258.21569
 30
0.0
 11
-120.0
 21
-258.21569
 31
0.0
  0
LINE
  5
776
100
AcDbEntity
  8
0
  6
CONTINUOUS
 62
     7
100
AcDbLine
 10
-140.0
 20
-272.42695
 30
0.0
 11
-120.0
 21
-272.42695
 31
0.0
  0
LINE
  5
777
100
AcDbEntity
  8
0
  6
CONTINUOUS
 62
     7
100
AcDbLine
 10
-148.19998
 20
-237.85217
 30
0.0
 11
-140.0
 21
-237.85217
 31
0.0
  0
LINE
  5
778
100
AcDbEntity
  8
0
  6
CONTINUOUS
 62
     7
100
AcDbLine
 10
-120.0
 20
-261.53165
 30
0.0
 11
-111.79999
 21
-261.53165
 31
0.0
  0
LINE
  5
779
100
AcDbEntity
  8
0
  6
CONTINUOUS
 62
     7
100
AcDbLine
 10
-120.0
 20
-269.11099
 30
0.0
 11
-111.79999
 21
-269.11099
 31
0.0
  0
LINE
  5
77A
100
AcDbEntity
  8
0
  6
CENTER
 62
     7
100
AcDbLine
 10
-103.0
 20
-252.0
 30
0.0
 11
-157.0
 21
-252.0
 31
0.0
  0
LINE
  5
77B
100
AcDbEntity
  8
0
  6
CONTINUOUS
 62
     7
100
AcDbLine
 10
-111.79999
 20
-344.31409
 30
0.0
 11
-111.79999
 21
-343.86821
 31
0.0
  0
LINE
  5
77C
100
AcDbEntity
  8
0
  6
CONTINUOUS
 62
     7
100
AcDbLine
 10
-120.0
 20
-275.44971
 30
0.0
 11
-115.0
 21
-275.44971
 31
0.0
  0
LINE
  5
77D
100
AcDbEntity
  8
0
  6
CENTER
 62
     7
100
AcDbLine
 10
-130.0
 20
-352.0
 30
0.0
 11
-130.0
 21
-216.0
 31
0.0
  0
LINE
  5
77E
100
AcDbEntity
  8
0
  6
CONTINUOUS
 62
     7
100
AcDbLine
 10
-120.0
 20
-261.53165
 30
0.0
 11
-120.0
 21
-237.85217
 31
0.0
  0
LINE
  5
77F
100
AcDbEntity
  8
0
  6
CONTINUOUS
 62
     7
100
AcDbLine
 10
-115.0
 20
-255.19293
 30
0.0
 11
-115.0
 21
-241.59455
 31
0.0
  0
LINE
  5
780
100
AcDbEntity
  8
0
  6
CONTINUOUS
 62
     7
100
AcDbLine
 10
-140.0
 20
-231.41959
 30
0.0
 11
-120.0
 21
-231.41959
 31
0.0
  0
LINE
  5
781
100
AcDbEntity
  8
0
  6
CENTER
 62
     7
100
AcDbLine
 10
-103.0
 20
-235.78328
 30
0.0
 11
-157.0
 21
-235.78328
 31
0.0
  0
LINE
  5
782
100
AcDbEntity
  8
0
  6
CONTINUOUS
 62
     7
100
AcDbLine
 10
-145.0
 20
-345.0
 30
0.0
 11
-145.0
 21
-344.68698
 31
0.0
  0
LINE
  5
783
100
AcDbEntity
  8
0
  6
CONTINUOUS
 62
     7
100
AcDbLine
 10
-148.19998
 20
-233.37733
 30
0.0
 11
-140.0
 21
-233.37733
 31
0.0
  0
LINE
  5
784
100
AcDbEntity
  8
0
  6
CONTINUOUS
 62
     7
100
AcDbLine
 10
-145.0
 20
-255.19293
 30
0.0
 11
-145.0
 21
-241.59455
 31
0.0
  0
LINE
  5
785
100
AcDbEntity
  8
0
  6
CONTINUOUS
 62
     7
100
AcDbLine
 10
-148.19998
 20
-344.31409
 30
0.0
 11
-148.19998
 21
-343.86821
 31
0.0
  0
LINE
  5
786
100
AcDbEntity
  8
0
  6
CONTINUOUS
 62
     7
100
AcDbLine
 10
-148.19998
 20
-269.11099
 30
0.0
 11
-140.0
 21
-269.11099
 31
0.0
  0
LINE
  5
787
100
AcDbEntity
  8
0
  6
CONTINUOUS
 62
     7
100
AcDbLine
 10
-140.0
 20
-239.80991
 30
0.0
 11
-120.0
 21
-239.80991
 31
0.0
  0
LINE
  5
788
100
AcDbEntity
  8
0
  6
CONTINUOUS
 62
     7
100
AcDbLine
 10
-120.0
 20
-241.59455
 30
0.0
 11
-115.0
 21
-241.59455
 31
0.0
  0
LINE
  5
789
100
AcDbEntity
  8
0
  6
CONTINUOUS
 62
     7
100
AcDbLine
 10
-145.0
 20
-241.59455
 30
0.0
 11
-140.0
 21
-241.59455
 31
0.0
  0
LINE
  5
78A
100
AcDbEntity
  8
0
  6
CONTINUOUS
 62
     7
100
AcDbLine
 10
-120.0
 20
-237.85217
 30
0.0
 11
-111.79999
 21
-237.85217
 31
0.0
  0
LINE
  5
78B
100
AcDbEntity
  8
0
  6
CONTINUOUS
 62
     7
100
AcDbLine
 10
-120.0
 20
-233.37733
 30
0.0
 11
-111.79999
 21
-233.37733
 31
0.0
  0
LINE
  5
78C
100
AcDbEntity
  8
0
  6
CONTINUOUS
 62
     7
100
AcDbLine
 10
-115.0
 20
-229.63495
 30
0.0
 11
-110.0
 21
-229.63495
 31
0.0
  0
LINE
  5
78D
100
AcDbEntity
  8
0
  6
CONTINUOUS
 62
     7
100
AcDbLine
 10
-150.0
 20
-223.0
 30
0.0
 11
-110.0
 21
-223.0
 31
0.0
  0
LINE
  5
78E
100
AcDbEntity
  8
0
  6
CONTINUOUS
 62
     7
100
AcDbLine
 10
-115.0
 20
-223.31298
 30
0.0
 11
-110.0
 21
-223.31298
 31
0.0
  0
LINE
  5
78F
100
AcDbEntity
  8
0
  6
CONTINUOUS
 62
     7
100
AcDbLine
 10
-120.0
 20
-223.68582
 30
0.0
 11
-111.79999
 21
-223.68582
 31
0.0
  0
LINE
  5
790
100
AcDbEntity
  8
0
  6
CONTINUOUS
 62
     7
100
AcDbLine
 10
-120.0
 20
-224.13164
 30
0.0
 11
-111.79999
 21
-224.13164
 31
0.0
  0
LINE
  5
791
100
AcDbEntity
  8
0
  6
CONTINUOUS
 62
     7
100
AcDbLine
 10
-145.0
 20
-224.50448
 30
0.0
 11
-140.0
 21
-224.50448
 31
0.0
  0
LINE
  5
792
100
AcDbEntity
  8
0
  6
CONTINUOUS
 62
     7
100
AcDbLine
 10
-140.0
 20
-233.37733
 30
0.0
 11
-140.0
 21
-224.13164
 31
0.0
  0
LINE
  5
793
100
AcDbEntity
  8
0
  6
CONTINUOUS
 62
     7
100
AcDbLine
 10
-120.0
 20
-233.37733
 30
0.0
 11
-120.0
 21
-224.13164
 31
0.0
  0
LINE
  5
794
100
AcDbEntity
  8
0
  6
CONTINUOUS
 62
     7
100
AcDbLine
 10
-140.0
 20
-224.32668
 30
0.0
 11
-120.0
 21
-224.32668
 31
0.0
  0
LINE
  5
795
100
AcDbEntity
  8
0
  6
CONTINUOUS
 62
     7
100
AcDbLine
 10
-148.19998
 20
-224.13164
 30
0.0
 11
-140.0
 21
-224.13164
 31
0.0
  0
LINE
  5
796
100
AcDbEntity
  8
0
  6
CONTINUOUS
 62
     7
100
AcDbLine
 10
-148.19998
 20
-223.68582
 30
0.0
 11
-140.0
 21
-223.68582
 31
0.0
  0
LINE
  5
797
100
AcDbEntity
  8
0
  6
CONTINUOUS
 62
     7
100
AcDbLine
 10
-140.0
 20
-223.49078
 30
0.0
 11
-120.0
 21
-223.49078
 31
0.0
  0
LINE
  5
798
100
AcDbEntity
  8
0
  6
CONTINUOUS
 62
     7
100
AcDbLine
 10
-150.0
 20
-223.31298
 30
0.0
 11
-145.0
 21
-223.31298
 31
0.0
  0
LINE
  5
799
100
AcDbEntity
  8
0
  6
CENTER
 62
     7
100
AcDbLine
 10
-103.0
 20
-234.0
 30
0.0
 11
-157.0
 21
-234.0
 31
0.0
  0
LINE
  5
79A
100
AcDbEntity
  8
0
  6
CONTINUOUS
 62
     7
100
AcDbLine
 10
-120.0
 20
-224.50448
 30
0.0
 11
-115.0
 21
-224.50448
 31
0.0
  0
LINE
  5
79B
100
AcDbEntity
  8
0
  6
CONTINUOUS
 62
     7
100
AcDbLine
 10
-111.79999
 20
-237.85217
 30
0.0
 11
-111.79999
 21
-233.37733
 31
0.0
  0
LINE
  5
79C
100
AcDbEntity
  8
0
  6
CONTINUOUS
 62
     7
100
AcDbLine
 10
-112.5
 20
-237.85217
 30
0.0
 11
-112.5
 21
-233.37733
 31
0.0
  0
LINE
  5
79D
100
AcDbEntity
  8
0
  6
CONTINUOUS
 62
     7
100
AcDbLine
 10
-147.5
 20
-237.85217
 30
0.0
 11
-147.5
 21
-233.37733
 31
0.0
  0
LINE
  5
79E
100
AcDbEntity
  8
0
  6
CONTINUOUS
 62
     7
100
AcDbLine
 10
-148.19998
 20
-237.85217
 30
0.0
 11
-148.19998
 21
-233.37733
 31
0.0
  0
LINE
  5
79F
100
AcDbEntity
  8
0
  6
CONTINUOUS
 62
     7
100
AcDbLine
 10
-140.0
 20
-223.68582
 30
0.0
 11
-140.0
 21
-223.0
 31
0.0
  0
LINE
  5
7A0
100
AcDbEntity
  8
0
  6
CONTINUOUS
 62
     7
100
AcDbLine
 10
-120.0
 20
-223.68582
 30
0.0
 11
-120.0
 21
-223.0
 31
0.0
  0
LINE
  5
7A1
100
AcDbEntity
  8
0
  6
CONTINUOUS
 62
     7
100
AcDbLine
 10
-145.0
 20
-229.63495
 30
0.0
 11
-145.0
 21
-224.50448
 31
0.0
  0
LINE
  5
7A2
100
AcDbEntity
  8
0
  6
CONTINUOUS
 62
     7
100
AcDbLine
 10
-115.0
 20
-229.63495
 30
0.0
 11
-115.0
 21
-224.50448
 31
0.0
  0
LINE
  5
7A3
100
AcDbEntity
  8
0
  6
CONTINUOUS
 62
     7
100
AcDbLine
 10
-145.0
 20
-223.31298
 30
0.0
 11
-145.0
 21
-223.0
 31
0.0
  0
LINE
  5
7A4
100
AcDbEntity
  8
0
  6
CONTINUOUS
 62
     7
100
AcDbLine
 10
-115.0
 20
-223.31298
 30
0.0
 11
-115.0
 21
-223.0
 31
0.0
  0
LINE
  5
7A5
100
AcDbEntity
  8
0
  6
CONTINUOUS
 62
     7
100
AcDbLine
 10
-148.19998
 20
-224.13164
 30
0.0
 11
-148.19998
 21
-223.68582
 31
0.0
  0
LINE
  5
7A6
100
AcDbEntity
  8
0
  6
CONTINUOUS
 62
     7
100
AcDbLine
 10
-147.5
 20
-224.13164
 30
0.0
 11
-147.5
 21
-223.68582
 31
0.0
  0
LINE
  5
7A7
100
AcDbEntity
  8
0
  6
CONTINUOUS
 62
     7
100
AcDbLine
 10
-112.5
 20
-224.13164
 30
0.0
 11
-112.5
 21
-223.68582
 31
0.0
  0
LINE
  5
7A8
100
AcDbEntity
  8
0
  6
CONTINUOUS
 62
     7
100
AcDbLine
 10
-111.79999
 20
-224.13164
 30
0.0
 11
-111.79999
 21
-223.68582
 31
0.0
  0
LINE
  5
7A9
100
AcDbEntity
  8
0
  6
CONTINUOUS
 62
     7
100
AcDbLine
 10
-115.0
 20
-292.55031
 30
0.0
 11
-110.0
 21
-292.55031
 31
0.0
  0
LINE
  5
7AA
100
AcDbEntity
  8
0
  6
CONTINUOUS
 62
     7
100
AcDbLine
 10
-150.0
 20
-292.55031
 30
0.0
 11
-145.0
 21
-292.55031
 31
0.0
  0
LINE
  5
7AB
100
AcDbEntity
  8
0
  6
CONTINUOUS
 62
     7
100
AcDbLine
 10
-140.0
 20
-295.57307
 30
0.0
 11
-120.0
 21
-295.57307
 31
0.0
  0
LINE
  5
7AC
100
AcDbEntity
  8
0
  6
CONTINUOUS
 62
     7
100
AcDbLine
 10
-148.19998
 20
-298.88903
 30
0.0
 11
-140.0
 21
-298.88903
 31
0.0
  0
LINE
  5
7AD
100
AcDbEntity
  8
0
  6
CONTINUOUS
 62
     7
100
AcDbLine
 10
-148.19998
 20
-306.46837
 30
0.0
 11
-140.0
 21
-306.46837
 31
0.0
  0
LINE
  5
7AE
100
AcDbEntity
  8
0
  6
CONTINUOUS
 62
     7
100
AcDbLine
 10
-140.0
 20
-309.78433
 30
0.0
 11
-120.0
 21
-309.78433
 31
0.0
  0
LINE
  5
7AF
100
AcDbEntity
  8
0
  6
CONTINUOUS
 62
     7
100
AcDbLine
 10
-145.0
 20
-312.80709
 30
0.0
 11
-140.0
 21
-312.80709
 31
0.0
  0
LINE
  5
7B0
100
AcDbEntity
  8
0
  6
CENTER
 62
     7
100
AcDbLine
 10
-103.0
 20
-314.31746
 30
0.0
 11
-157.0
 21
-314.31746
 31
0.0
  0
LINE
  5
7B1
100
AcDbEntity
  8
0
  6
CONTINUOUS
 62
     7
100
AcDbLine
 10
-120.0
 20
-298.88903
 30
0.0
 11
-111.79999
 21
-298.88903
 31
0.0
  0
LINE
  5
7B2
100
AcDbEntity
  8
0
  6
CONTINUOUS
 62
     7
100
AcDbLine
 10
-120.0
 20
-306.46837
 30
0.0
 11
-111.79999
 21
-306.46837
 31
0.0
  0
LINE
  5
7B3
100
AcDbEntity
  8
0
  6
CONTINUOUS
 62
     7
100
AcDbLine
 10
-120.0
 20
-312.80709
 30
0.0
 11
-115.0
 21
-312.80709
 31
0.0
  0
LINE
  5
7B4
100
AcDbEntity
  8
0
  6
CONTINUOUS
 62
     7
100
AcDbLine
 10
-148.19998
 20
-269.11099
 30
0.0
 11
-148.19998
 21
-261.53165
 31
0.0
  0
LINE
  5
7B5
100
AcDbEntity
  8
0
  6
CONTINUOUS
 62
     7
100
AcDbLine
 10
-147.5
 20
-269.11099
 30
0.0
 11
-147.5
 21
-261.53165
 31
0.0
  0
LINE
  5
7B6
100
AcDbEntity
  8
0
  6
CONTINUOUS
 62
     7
100
AcDbLine
 10
-112.5
 20
-269.11099
 30
0.0
 11
-112.5
 21
-261.53165
 31
0.0
  0
LINE
  5
7B7
100
AcDbEntity
  8
0
  6
CONTINUOUS
 62
     7
100
AcDbLine
 10
-111.79999
 20
-269.11099
 30
0.0
 11
-111.79999
 21
-261.53165
 31
0.0
  0
LINE
  5
7B8
100
AcDbEntity
  8
0
  6
CONTINUOUS
 62
     7
100
AcDbLine
 10
-120.0
 20
-338.3651
 30
0.0
 11
-115.0
 21
-338.3651
 31
0.0
  0
LINE
  5
7B9
100
AcDbEntity
  8
0
  6
CONTINUOUS
 62
     7
100
AcDbLine
 10
-120.0
 20
-334.62274
 30
0.0
 11
-111.79999
 21
-334.62274
 31
0.0
  0
LINE
  5
7BA
100
AcDbEntity
  8
0
  6
CONTINUOUS
 62
     7
100
AcDbLine
 10
-145.0
 20
-292.55031
 30
0.0
 11
-145.0
 21
-275.44971
 31
0.0
  0
LINE
  5
7BB
100
AcDbEntity
  8
0
  6
CONTINUOUS
 62
     7
100
AcDbLine
 10
-115.0
 20
-292.55031
 30
0.0
 11
-115.0
 21
-275.44971
 31
0.0
  0
LINE
  5
7BC
100
AcDbEntity
  8
0
  6
CONTINUOUS
 62
     7
100
AcDbLine
 10
-120.0
 20
-330.14792
 30
0.0
 11
-111.79999
 21
-330.14792
 31
0.0
  0
LINE
  5
7BD
100
AcDbEntity
  8
0
  6
CONTINUOUS
 62
     7
100
AcDbLine
 10
-115.0
 20
-326.40556
 30
0.0
 11
-110.0
 21
-326.40556
 31
0.0
  0
LINE
  5
7BE
100
AcDbEntity
  8
0
  6
CONTINUOUS
 62
     7
100
AcDbLine
 10
-145.0
 20
-338.3651
 30
0.0
 11
-140.0
 21
-338.3651
 31
0.0
  0
LINE
  5
7BF
100
AcDbEntity
  8
0
  6
CONTINUOUS
 62
     7
100
AcDbLine
 10
-140.0
 20
-336.58047
 30
0.0
 11
-120.0
 21
-336.58047
 31
0.0
  0
LINE
  5
7C0
100
AcDbEntity
  8
0
  6
CONTINUOUS
 62
     7
100
AcDbLine
 10
-148.19998
 20
-334.62274
 30
0.0
 11
-140.0
 21
-334.62274
 31
0.0
  0
LINE
  5
7C1
100
AcDbEntity
  8
0
  6
CONTINUOUS
 62
     7
100
AcDbLine
 10
-148.19998
 20
-330.14792
 30
0.0
 11
-140.0
 21
-330.14792
 31
0.0
  0
LINE
  5
7C2
100
AcDbEntity
  8
0
  6
CONTINUOUS
 62
     7
100
AcDbLine
 10
-140.0
 20
-298.88903
 30
0.0
 11
-140.0
 21
-269.11099
 31
0.0
  0
LINE
  5
7C3
100
AcDbEntity
  8
0
  6
CONTINUOUS
 62
     7
100
AcDbLine
 10
-120.0
 20
-298.88903
 30
0.0
 11
-120.0
 21
-269.11099
 31
0.0
  0
LINE
  5
7C4
100
AcDbEntity
  8
0
  6
CONTINUOUS
 62
     7
100
AcDbLine
 10
-140.0
 20
-328.19019
 30
0.0
 11
-120.0
 21
-328.19019
 31
0.0
  0
LINE
  5
7C5
100
AcDbEntity
  8
0
  6
CONTINUOUS
 62
     7
100
AcDbLine
 10
-150.0
 20
-326.40556
 30
0.0
 11
-145.0
 21
-326.40556
 31
0.0
  0
LINE
  5
7C6
100
AcDbEntity
  8
0
  6
CENTER
 62
     7
100
AcDbLine
 10
-103.0
 20
-332.2165
 30
0.0
 11
-157.0
 21
-332.2165
 31
0.0
  0
LINE
  5
7C7
100
AcDbEntity
  8
0
  6
CONTINUOUS
 62
     7
100
AcDbLine
 10
-120.0
 20
-343.86821
 30
0.0
 11
-120.0
 21
-334.62274
 31
0.0
  0
LINE
  5
7C8
100
AcDbEntity
  8
0
  6
CONTINUOUS
 62
     7
100
AcDbLine
 10
-140.0
 20
-343.86821
 30
0.0
 11
-140.0
 21
-334.62274
 31
0.0
  0
LINE
  5
7C9
100
AcDbEntity
  8
0
  6
CONTINUOUS
 62
     7
100
AcDbLine
 10
-140.0
 20
-330.14792
 30
0.0
 11
-140.0
 21
-306.46837
 31
0.0
  0
LINE
  5
7CA
100
AcDbEntity
  8
0
  6
CONTINUOUS
 62
     7
100
AcDbLine
 10
-120.0
 20
-330.14792
 30
0.0
 11
-120.0
 21
-306.46837
 31
0.0
  0
LINE
  5
7CB
100
AcDbEntity
  8
0
  6
CONTINUOUS
 62
     7
100
AcDbLine
 10
-115.0
 20
-343.49532
 30
0.0
 11
-110.0
 21
-343.49532
 31
0.0
  0
LINE
  5
7CC
100
AcDbEntity
  8
0
  6
CONTINUOUS
 62
     7
100
AcDbLine
 10
-120.0
 20
-343.86821
 30
0.0
 11
-111.79999
 21
-343.86821
 31
0.0
  0
LINE
  5
7CD
100
AcDbEntity
  8
0
  6
CONTINUOUS
 62
     7
100
AcDbLine
 10
-120.0
 20
-344.31409
 30
0.0
 11
-111.79999
 21
-344.31409
 31
0.0
  0
LINE
  5
7CE
100
AcDbEntity
  8
0
  6
CONTINUOUS
 62
     7
100
AcDbLine
 10
-112.5
 20
-306.46837
 30
0.0
 11
-112.5
 21
-298.88903
 31
0.0
  0
LINE
  5
7CF
100
AcDbEntity
  8
0
  6
CONTINUOUS
 62
     7
100
AcDbLine
 10
-111.79999
 20
-306.46837
 30
0.0
 11
-111.79999
 21
-298.88903
 31
0.0
  0
LINE
  5
7D0
100
AcDbEntity
  8
0
  6
CONTINUOUS
 62
     7
100
AcDbLine
 10
-120.0
 20
-344.68698
 30
0.0
 11
-115.0
 21
-344.68698
 31
0.0
  0
LINE
  5
7D1
100
AcDbEntity
  8
0
  6
CONTINUOUS
 62
     7
100
AcDbLine
 10
-150.0
 20
-345.0
 30
0.0
 11
-110.0
 21
-345.0
 31
0.0
  0
LINE
  5
7D2
100
AcDbEntity
  8
0
  6
CONTINUOUS
 62
     7
100
AcDbLine
 10
-145.0
 20
-344.68698
 30
0.0
 11
-140.0
 21
-344.68698
 31
0.0
  0
LINE
  5
7D3
100
AcDbEntity
  8
0
  6
CONTINUOUS
 62
     7
100
AcDbLine
 10
-140.0
 20
-344.50916
 30
0.0
 11
-120.0
 21
-344.50916
 31
0.0
  0
LINE
  5
7D4
100
AcDbEntity
  8
0
  6
CONTINUOUS
 62
     7
100
AcDbLine
 10
-148.19998
 20
-344.31409
 30
0.0
 11
-140.0
 21
-344.31409
 31
0.0
  0
LINE
  5
7D5
100
AcDbEntity
  8
0
  6
CONTINUOUS
 62
     7
100
AcDbLine
 10
-148.19998
 20
-306.46837
 30
0.0
 11
-148.19998
 21
-298.88903
 31
0.0
  0
LINE
  5
7D6
100
AcDbEntity
  8
0
  6
CONTINUOUS
 62
     7
100
AcDbLine
 10
-147.5
 20
-306.46837
 30
0.0
 11
-147.5
 21
-298.88903
 31
0.0
  0
LINE
  5
7D7
100
AcDbEntity
  8
0
  6
CONTINUOUS
 62
     7
100
AcDbLine
 10
-148.19998
 20
-343.86821
 30
0.0
 11
-140.0
 21
-343.86821
 31
0.0
  0
LINE
  5
7D8
100
AcDbEntity
  8
0
  6
CONTINUOUS
 62
     7
100
AcDbLine
 10
-140.0
 20
-343.67315
 30
0.0
 11
-120.0
 21
-343.67315
 31
0.0
  0
LINE
  5
7D9
100
AcDbEntity
  8
0
  6
CONTINUOUS
 62
     7
100
AcDbLine
 10
-150.0
 20
-343.49532
 30
0.0
 11
-145.0
 21
-343.49532
 31
0.0
  0
LINE
  5
7DA
100
AcDbEntity
  8
0
  6
CENTER
 62
     7
100
AcDbLine
 10
-103.0
 20
-334.0
 30
0.0
 11
-157.0
 21
-334.0
 31
0.0
  0
LINE
  5
7DB
100
AcDbEntity
  8
0
  6
CONTINUOUS
 62
     7
100
AcDbLine
 10
-145.0
 20
-343.49532
 30
0.0
 11
-145.0
 21
-338.3651
 31
0.0
  0
LINE
  5
7DC
100
AcDbEntity
  8
0
  6
CONTINUOUS
 62
     7
100
AcDbLine
 10
-145.0
 20
-326.40556
 30
0.0
 11
-145.0
 21
-312.80709
 31
0.0
  0
LINE
  5
7DD
100
AcDbEntity
  8
0
  6
CONTINUOUS
 62
     7
100
AcDbLine
 10
-115.0
 20
-326.40556
 30
0.0
 11
-115.0
 21
-312.80709
 31
0.0
  0
LINE
  5
7DE
100
AcDbEntity
  8
0
  6
CONTINUOUS
 62
     7
100
AcDbLine
 10
-115.0
 20
-343.49532
 30
0.0
 11
-115.0
 21
-338.3651
 31
0.0
  0
LINE
  5
7DF
100
AcDbEntity
  8
0
  6
CONTINUOUS
 62
     7
100
AcDbLine
 10
-148.19998
 20
-334.62274
 30
0.0
 11
-148.19998
 21
-330.14792
 31
0.0
  0
LINE
  5
7E0
100
AcDbEntity
  8
0
  6
CONTINUOUS
 62
     7
100
AcDbLine
 10
-147.5
 20
-334.62274
 30
0.0
 11
-147.5
 21
-330.14792
 31
0.0
  0
LINE
  5
7E1
100
AcDbEntity
  8
0
  6
CONTINUOUS
 62
     7
100
AcDbLine
 10
-112.5
 20
-334.62274
 30
0.0
 11
-112.5
 21
-330.14792
 31
0.0
  0
LINE
  5
7E2
100
AcDbEntity
  8
0
  6
CONTINUOUS
 62
     7
100
AcDbLine
 10
-111.79999
 20
-334.62274
 30
0.0
 11
-111.79999
 21
-330.14792
 31
0.0
  0
POINT
  5
7E3
100
AcDbEntity
  8
0
  6
CONTINUOUS
 62
     7
100
AcDbPoint
 10
60.0
 20
-154.0
 30
0.0
  0
POINT
  5
7E4
100
AcDbEntity
  8
0
  6
CONTINUOUS
 62
     7
100
AcDbPoint
 10
73.0
 20
-154.0
 30
0.0
  0
LINE
  5
7E5
100
AcDbEntity
  8
0
  6
CENTER
 62
     7
100
AcDbLine
 10
60.0
 20
-127.0
 30
0.0
 11
60.0
 21
-181.0
 31
0.0
  0
LINE
  5
7E6
100
AcDbEntity
  8
0
  6
CONTINUOUS
 62
     7
100
AcDbLine
 10
-47.297569
 20
-136.5
 30
0.0
 11
-44.737572
 21
-136.5
 31
0.0
  0
LINE
  5
7E7
100
AcDbEntity
  8
0
  6
CONTINUOUS
 62
     7
100
AcDbLine
 10
33.309475
 20
-139.0
 30
0.0
 11
33.309475
 21
-144.0
 31
0.0
  0
LINE
  5
7E8
100
AcDbEntity
  8
0
  6
CONTINUOUS
 62
     7
100
AcDbLine
 10
54.690525
 20
-134.0
 30
0.0
 11
54.690525
 21
-139.0
 31
0.0
  0
LINE
  5
7E9
100
AcDbEntity
  8
0
  6
CONTINUOUS
 62
     7
100
AcDbLine
 10
-47.297569
 20
-164.0
 30
0.0
 11
-47.297569
 21
-172.20001
 31
0.0
  0
LINE
  5
7EA
100
AcDbEntity
  8
0
  6
CENTER
 62
     7
100
AcDbLine
 10
28.0
 20
-181.0
 30
0.0
 11
28.0
 21
-127.0
 31
0.0
  0
LINE
  5
7EB
100
AcDbEntity
  8
0
  6
CONTINUOUS
 62
     7
100
AcDbLine
 10
54.690525
 20
-174.0
 30
0.0
 11
-51.715973
 21
-174.0
 31
0.0
  0
LINE
  5
7EC
100
AcDbEntity
  8
0
  6
CONTINUOUS
 62
     7
100
AcDbLine
 10
54.690525
 20
-134.0
 30
0.0
 11
-51.715973
 21
-134.0
 31
0.0
  0
LINE
  5
7ED
100
AcDbEntity
  8
0
  6
CONTINUOUS
 62
     7
100
AcDbLine
 10
-51.715973
 20
-164.0
 30
0.0
 11
-47.297569
 21
-164.0
 31
0.0
  0
LINE
  5
7EE
100
AcDbEntity
  8
0
  6
CONTINUOUS
 62
     7
100
AcDbLine
 10
48.0
 20
-144.0
 30
0.0
 11
65.30948
 21
-144.0
 31
0.0
  0
LINE
  5
7EF
100
AcDbEntity
  8
0
  6
CONTINUOUS
 62
     7
100
AcDbLine
 10
-51.715973
 20
-144.0
 30
0.0
 11
-47.297569
 21
-144.0
 31
0.0
  0
LINE
  5
7F0
100
AcDbEntity
  8
0
  6
CONTINUOUS
 62
     7
100
AcDbLine
 10
48.0
 20
-135.80002
 30
0.0
 11
48.0
 21
-144.0
 31
0.0
  0
LINE
  5
7F1
100
AcDbEntity
  8
0
  6
CONTINUOUS
 62
     7
100
AcDbLine
 10
51.5
 20
-144.0
 30
0.0
 11
51.5
 21
-164.0
 31
0.0
  0
LINE
  5
7F2
100
AcDbEntity
  8
0
  6
CONTINUOUS
 62
     7
100
AcDbLine
 10
36.5
 20
-144.0
 30
0.0
 11
36.5
 21
-164.0
 31
0.0
  0
LINE
  5
7F3
100
AcDbEntity
  8
0
  6
CONTINUOUS
 62
     7
100
AcDbLine
 10
53.0
 20
-144.0
 30
0.0
 11
53.0
 21
-164.0
 31
0.0
  0
LINE
  5
7F4
100
AcDbEntity
  8
0
  6
CONTINUOUS
 62
     7
100
AcDbLine
 10
-47.297569
 20
-172.20001
 30
0.0
 11
-44.737572
 21
-172.20001
 31
0.0
  0
LINE
  5
7F5
100
AcDbEntity
  8
0
  6
CONTINUOUS
 62
     7
100
AcDbLine
 10
33.309475
 20
-164.0
 30
0.0
 11
33.309475
 21
-169.0
 31
0.0
  0
LINE
  5
7F6
100
AcDbEntity
  8
0
  6
CENTER
 62
     7
100
AcDbLine
 10
-58.715973
 20
-154.0
 30
0.0
 11
73.0
 21
-154.0
 31
0.0
  0
LINE
  5
7F7
100
AcDbEntity
  8
0
  6
CONTINUOUS
 62
     7
100
AcDbLine
 10
48.0
 20
-164.0
 30
0.0
 11
65.30948
 21
-164.0
 31
0.0
  0
LINE
  5
7F8
100
AcDbEntity
  8
0
  6
CONTINUOUS
 62
     7
100
AcDbLine
 10
54.690525
 20
-169.0
 30
0.0
 11
65.30948
 21
-169.0
 31
0.0
  0
LINE
  5
7F9
100
AcDbEntity
  8
0
  6
CENTER
 62
     7
100
AcDbLine
 10
38.0
 20
-168.0
 30
0.0
 11
50.0
 21
-168.0
 31
0.0
  0
LINE
  5
7FA
100
AcDbEntity
  8
0
  6
CONTINUOUS
 62
     7
100
AcDbLine
 10
33.309475
 20
-139.0
 30
0.0
 11
33.309475
 21
-144.0
 31
0.0
  0
LINE
  5
7FB
100
AcDbEntity
  8
0
  6
CONTINUOUS
 62
     7
100
AcDbLine
 10
40.0
 20
-135.80002
 30
0.0
 11
40.0
 21
-144.0
 31
0.0
  0
LINE
  5
7FC
100
AcDbEntity
  8
0
  6
CONTINUOUS
 62
     7
100
AcDbLine
 10
-47.297569
 20
-135.80002
 30
0.0
 11
-44.737572
 21
-135.80002
 31
0.0
  0
LINE
  5
7FD
100
AcDbEntity
  8
0
  6
CONTINUOUS
 62
     7
100
AcDbLine
 10
54.690525
 20
-139.0
 30
0.0
 11
65.30948
 21
-139.0
 31
0.0
  0
LINE
  5
7FE
100
AcDbEntity
  8
0
  6
CENTER
 62
     7
100
AcDbLine
 10
38.0
 20
-140.0
 30
0.0
 11
50.0
 21
-140.0
 31
0.0
  0
LINE
  5
7FF
100
AcDbEntity
  8
0
  6
CONTINUOUS
 62
     7
100
AcDbLine
 10
-49.438538
 20
-164.0
 30
0.0
 11
-49.438538
 21
-169.0
 31
0.0
  0
LINE
  5
800
100
AcDbEntity
  8
0
  6
CONTINUOUS
 62
     7
100
AcDbLine
 10
33.309475
 20
-164.0
 30
0.0
 11
33.309475
 21
-169.0
 31
0.0
  0
LINE
  5
801
100
AcDbEntity
  8
0
  6
CONTINUOUS
 62
     7
100
AcDbLine
 10
-47.297569
 20
-171.5
 30
0.0
 11
-44.737572
 21
-171.5
 31
0.0
  0
LINE
  5
802
100
AcDbEntity
  8
0
  6
CONTINUOUS
 62
     7
100
AcDbLine
 10
35.0
 20
-144.0
 30
0.0
 11
35.0
 21
-164.0
 31
0.0
  0
LINE
  5
803
100
AcDbEntity
  8
0
  6
CONTINUOUS
 62
     7
100
AcDbLine
 10
54.690525
 20
-169.0
 30
0.0
 11
54.690525
 21
-174.0
 31
0.0
  0
LINE
  5
804
100
AcDbEntity
  8
0
  6
CONTINUOUS
 62
     7
100
AcDbLine
 10
48.0
 20
-164.0
 30
0.0
 11
48.0
 21
-172.20001
 31
0.0
  0
LINE
  5
805
100
AcDbEntity
  8
0
  6
CONTINUOUS
 62
     7
100
AcDbLine
 10
40.0
 20
-164.0
 30
0.0
 11
40.0
 21
-172.20001
 31
0.0
  0
LINE
  5
806
100
AcDbEntity
  8
0
  6
CENTER
 62
     7
100
AcDbLine
 10
-3.950264
 20
-181.0
 30
0.0
 11
-3.950264
 21
-127.0
 31
0.0
  0
LINE
  5
807
100
AcDbEntity
  8
0
  6
CONTINUOUS
 62
     7
100
AcDbLine
 10
22.085777
 20
-134.0
 30
0.0
 11
22.085777
 21
-139.0
 31
0.0
  0
LINE
  5
808
100
AcDbEntity
  8
0
  6
CONTINUOUS
 62
     7
100
AcDbLine
 10
15.405651
 20
-135.80002
 30
0.0
 11
15.405651
 21
-144.0
 31
0.0
  0
LINE
  5
809
100
AcDbEntity
  8
0
  6
CONTINUOUS
 62
     7
100
AcDbLine
 10
18.900211
 20
-144.0
 30
0.0
 11
18.900211
 21
-164.0
 31
0.0
  0
LINE
  5
80A
100
AcDbEntity
  8
0
  6
CONTINUOUS
 62
     7
100
AcDbLine
 10
7.418083
 20
-135.80002
 30
0.0
 11
7.418083
 21
-144.0
 31
0.0
  0
LINE
  5
80B
100
AcDbEntity
  8
0
  6
CONTINUOUS
 62
     7
100
AcDbLine
 10
3.923519
 20
-144.0
 30
0.0
 11
3.923519
 21
-164.0
 31
0.0
  0
LINE
  5
80C
100
AcDbEntity
  8
0
  6
CONTINUOUS
 62
     7
100
AcDbLine
 10
0.737953
 20
-139.0
 30
0.0
 11
0.737953
 21
-144.0
 31
0.0
  0
LINE
  5
80D
100
AcDbEntity
  8
0
  6
CONTINUOUS
 62
     7
100
AcDbLine
 10
22.085777
 20
-169.0
 30
0.0
 11
22.085777
 21
-174.0
 31
0.0
  0
LINE
  5
80E
100
AcDbEntity
  8
0
  6
CONTINUOUS
 62
     7
100
AcDbLine
 10
15.405651
 20
-164.0
 30
0.0
 11
15.405651
 21
-172.20001
 31
0.0
  0
LINE
  5
80F
100
AcDbEntity
  8
0
  6
CONTINUOUS
 62
     7
100
AcDbLine
 10
7.418083
 20
-164.0
 30
0.0
 11
7.418083
 21
-172.20001
 31
0.0
  0
LINE
  5
810
100
AcDbEntity
  8
0
  6
CONTINUOUS
 62
     7
100
AcDbLine
 10
0.737953
 20
-164.0
 30
0.0
 11
0.737953
 21
-169.0
 31
0.0
  0
LINE
  5
811
100
AcDbEntity
  8
0
  6
CONTINUOUS
 62
     7
100
AcDbLine
 10
-32.227699
 20
-164.0
 30
0.0
 11
-32.227699
 21
-169.0
 31
0.0
  0
LINE
  5
812
100
AcDbEntity
  8
0
  6
CONTINUOUS
 62
     7
100
AcDbLine
 10
-26.681732
 20
-164.0
 30
0.0
 11
-26.681732
 21
-172.20001
 31
0.0
  0
LINE
  5
813
100
AcDbEntity
  8
0
  6
CONTINUOUS
 62
     7
100
AcDbLine
 10
-20.050308
 20
-164.0
 30
0.0
 11
-20.050308
 21
-172.20001
 31
0.0
  0
LINE
  5
814
100
AcDbEntity
  8
0
  6
CONTINUOUS
 62
     7
100
AcDbLine
 10
22.085777
 20
-139.0
 30
0.0
 11
33.309475
 21
-139.0
 31
0.0
  0
LINE
  5
815
100
AcDbEntity
  8
0
  6
CONTINUOUS
 62
     7
100
AcDbLine
 10
15.405651
 20
-164.0
 30
0.0
 11
40.0
 21
-164.0
 31
0.0
  0
LINE
  5
816
100
AcDbEntity
  8
0
  6
CONTINUOUS
 62
     7
100
AcDbLine
 10
15.405651
 20
-144.0
 30
0.0
 11
40.0
 21
-144.0
 31
0.0
  0
LINE
  5
817
100
AcDbEntity
  8
0
  6
CONTINUOUS
 62
     7
100
AcDbLine
 10
-14.504341
 20
-169.0
 30
0.0
 11
-14.504341
 21
-174.0
 31
0.0
  0
LINE
  5
818
100
AcDbEntity
  8
0
  6
CENTER
 62
     7
100
AcDbLine
 10
-30.475983
 20
-181.0
 30
0.0
 11
-30.475983
 21
-127.0
 31
0.0
  0
LINE
  5
819
100
AcDbEntity
  8
0
  6
CONTINUOUS
 62
     7
100
AcDbLine
 10
-14.504341
 20
-134.0
 30
0.0
 11
-14.504341
 21
-139.0
 31
0.0
  0
LINE
  5
81A
100
AcDbEntity
  8
0
  6
CONTINUOUS
 62
     7
100
AcDbLine
 10
-17.149063
 20
-144.0
 30
0.0
 11
-17.149063
 21
-164.0
 31
0.0
  0
LINE
  5
81B
100
AcDbEntity
  8
0
  6
CONTINUOUS
 62
     7
100
AcDbLine
 10
-20.050308
 20
-135.80002
 30
0.0
 11
-20.050308
 21
-144.0
 31
0.0
  0
LINE
  5
81C
100
AcDbEntity
  8
0
  6
CONTINUOUS
 62
     7
100
AcDbLine
 10
-26.681732
 20
-135.80002
 30
0.0
 11
-26.681732
 21
-144.0
 31
0.0
  0
LINE
  5
81D
100
AcDbEntity
  8
0
  6
CONTINUOUS
 62
     7
100
AcDbLine
 10
-29.582985
 20
-144.0
 30
0.0
 11
-29.582985
 21
-164.0
 31
0.0
  0
LINE
  5
81E
100
AcDbEntity
  8
0
  6
CONTINUOUS
 62
     7
100
AcDbLine
 10
22.085777
 20
-169.0
 30
0.0
 11
33.309475
 21
-169.0
 31
0.0
  0
LINE
  5
81F
100
AcDbEntity
  8
0
  6
CONTINUOUS
 62
     7
100
AcDbLine
 10
40.0
 20
-171.5
 30
0.0
 11
48.0
 21
-171.5
 31
0.0
  0
LINE
  5
820
100
AcDbEntity
  8
0
  6
CONTINUOUS
 62
     7
100
AcDbLine
 10
40.0
 20
-172.20001
 30
0.0
 11
48.0
 21
-172.20001
 31
0.0
  0
LINE
  5
821
100
AcDbEntity
  8
0
  6
CONTINUOUS
 62
     7
100
AcDbLine
 10
40.0
 20
-136.5
 30
0.0
 11
48.0
 21
-136.5
 31
0.0
  0
LINE
  5
822
100
AcDbEntity
  8
0
  6
CONTINUOUS
 62
     7
100
AcDbLine
 10
-32.227699
 20
-139.0
 30
0.0
 11
-32.227699
 21
-144.0
 31
0.0
  0
LINE
  5
823
100
AcDbEntity
  8
0
  6
CONTINUOUS
 62
     7
100
AcDbLine
 10
40.0
 20
-135.80002
 30
0.0
 11
48.0
 21
-135.80002
 31
0.0
  0
LINE
  5
824
100
AcDbEntity
  8
0
  6
CONTINUOUS
 62
     7
100
AcDbLine
 10
-51.715973
 20
-164.0
 30
0.0
 11
-51.715973
 21
-174.0
 31
0.0
  0
LINE
  5
825
100
AcDbEntity
  8
0
  6
CONTINUOUS
 62
     7
100
AcDbLine
 10
-51.715973
 20
-134.0
 30
0.0
 11
-51.715973
 21
-144.0
 31
0.0
  0
LINE
  5
826
100
AcDbEntity
  8
0
  6
CONTINUOUS
 62
     7
100
AcDbLine
 10
-49.438538
 20
-139.0
 30
0.0
 11
-49.438538
 21
-144.0
 31
0.0
  0
LINE
  5
827
100
AcDbEntity
  8
0
  6
CONTINUOUS
 62
     7
100
AcDbLine
 10
-48.417564
 20
-144.0
 30
0.0
 11
-48.417564
 21
-164.0
 31
0.0
  0
LINE
  5
828
100
AcDbEntity
  8
0
  6
CONTINUOUS
 62
     7
100
AcDbLine
 10
-47.297569
 20
-135.80002
 30
0.0
 11
-47.297569
 21
-144.0
 31
0.0
  0
LINE
  5
829
100
AcDbEntity
  8
0
  6
CONTINUOUS
 62
     7
100
AcDbLine
 10
-44.737572
 20
-135.80002
 30
0.0
 11
-44.737572
 21
-144.0
 31
0.0
  0
LINE
  5
82A
100
AcDbEntity
  8
0
  6
CONTINUOUS
 62
     7
100
AcDbLine
 10
-20.050308
 20
-164.0
 30
0.0
 11
7.418083
 21
-164.0
 31
0.0
  0
LINE
  5
82B
100
AcDbEntity
  8
0
  6
CONTINUOUS
 62
     7
100
AcDbLine
 10
-20.050308
 20
-144.0
 30
0.0
 11
7.418083
 21
-144.0
 31
0.0
  0
LINE
  5
82C
100
AcDbEntity
  8
0
  6
CONTINUOUS
 62
     7
100
AcDbLine
 10
-43.617577
 20
-144.0
 30
0.0
 11
-43.617577
 21
-164.0
 31
0.0
  0
LINE
  5
82D
100
AcDbEntity
  8
0
  6
CONTINUOUS
 62
     7
100
AcDbLine
 10
-42.596603
 20
-134.0
 30
0.0
 11
-42.596603
 21
-139.0
 31
0.0
  0
LINE
  5
82E
100
AcDbEntity
  8
0
  6
CONTINUOUS
 62
     7
100
AcDbLine
 10
7.418083
 20
-172.20001
 30
0.0
 11
15.405651
 21
-172.20001
 31
0.0
  0
LINE
  5
82F
100
AcDbEntity
  8
0
  6
CONTINUOUS
 62
     7
100
AcDbLine
 10
7.418083
 20
-171.5
 30
0.0
 11
15.405651
 21
-171.5
 31
0.0
  0
LINE
  5
830
100
AcDbEntity
  8
0
  6
CONTINUOUS
 62
     7
100
AcDbLine
 10
7.418083
 20
-136.5
 30
0.0
 11
15.405651
 21
-136.5
 31
0.0
  0
LINE
  5
831
100
AcDbEntity
  8
0
  6
CONTINUOUS
 62
     7
100
AcDbLine
 10
7.418083
 20
-135.80002
 30
0.0
 11
15.405651
 21
-135.80002
 31
0.0
  0
LINE
  5
832
100
AcDbEntity
  8
0
  6
CONTINUOUS
 62
     7
100
AcDbLine
 10
-44.737572
 20
-164.0
 30
0.0
 11
-44.737572
 21
-172.20001
 31
0.0
  0
LINE
  5
833
100
AcDbEntity
  8
0
  6
CONTINUOUS
 62
     7
100
AcDbLine
 10
-42.596603
 20
-169.0
 30
0.0
 11
-42.596603
 21
-174.0
 31
0.0
  0
LINE
  5
834
100
AcDbEntity
  8
0
  6
CONTINUOUS
 62
     7
100
AcDbLine
 10
-51.715973
 20
-169.0
 30
0.0
 11
-49.438538
 21
-169.0
 31
0.0
  0
LINE
  5
835
100
AcDbEntity
  8
0
  6
CONTINUOUS
 62
     7
100
AcDbLine
 10
-51.715973
 20
-139.0
 30
0.0
 11
-49.438538
 21
-139.0
 31
0.0
  0
LINE
  5
836
100
AcDbEntity
  8
0
  6
CENTER
 62
     7
100
AcDbLine
 10
-40.716011
 20
-181.0
 30
0.0
 11
-40.716011
 21
-127.0
 31
0.0
  0
LINE
  5
837
100
AcDbEntity
  8
0
  6
CONTINUOUS
 62
     7
100
AcDbLine
 10
-44.737572
 20
-164.0
 30
0.0
 11
-26.681732
 21
-164.0
 31
0.0
  0
LINE
  5
838
100
AcDbEntity
  8
0
  6
CONTINUOUS
 62
     7
100
AcDbLine
 10
-44.737572
 20
-144.0
 30
0.0
 11
-26.681732
 21
-144.0
 31
0.0
  0
LINE
  5
839
100
AcDbEntity
  8
0
  6
CONTINUOUS
 62
     7
100
AcDbLine
 10
-26.681732
 20
-171.5
 30
0.0
 11
-20.050308
 21
-171.5
 31
0.0
  0
LINE
  5
83A
100
AcDbEntity
  8
0
  6
CONTINUOUS
 62
     7
100
AcDbLine
 10
-26.681732
 20
-136.5
 30
0.0
 11
-20.050308
 21
-136.5
 31
0.0
  0
LINE
  5
83B
100
AcDbEntity
  8
0
  6
CONTINUOUS
 62
     7
100
AcDbLine
 10
-26.681732
 20
-135.80002
 30
0.0
 11
-20.050308
 21
-135.80002
 31
0.0
  0
LINE
  5
83C
100
AcDbEntity
  8
0
  6
CONTINUOUS
 62
     7
100
AcDbLine
 10
-26.681732
 20
-172.20001
 30
0.0
 11
-20.050308
 21
-172.20001
 31
0.0
  0
LINE
  5
83D
100
AcDbEntity
  8
0
  6
CONTINUOUS
 62
     7
100
AcDbLine
 10
-14.504341
 20
-169.0
 30
0.0
 11
0.737953
 21
-169.0
 31
0.0
  0
LINE
  5
83E
100
AcDbEntity
  8
0
  6
CONTINUOUS
 62
     7
100
AcDbLine
 10
-14.504341
 20
-139.0
 30
0.0
 11
0.737953
 21
-139.0
 31
0.0
  0
LINE
  5
83F
100
AcDbEntity
  8
0
  6
CONTINUOUS
 62
     7
100
AcDbLine
 10
-42.596603
 20
-169.0
 30
0.0
 11
-32.227699
 21
-169.0
 31
0.0
  0
LINE
  5
840
100
AcDbEntity
  8
0
  6
CONTINUOUS
 62
     7
100
AcDbLine
 10
-42.596603
 20
-139.0
 30
0.0
 11
-32.227699
 21
-139.0
 31
0.0
  0
POINT
  5
841
100
AcDbEntity
  8
0
  6
CONTINUOUS
 62
     7
100
AcDbPoint
 10
60.0
 20
-234.0
 30
0.0
  0
POINT
  5
842
100
AcDbEntity
  8
0
  6
CONTINUOUS
 62
     7
100
AcDbPoint
 10
78.0
 20
-234.0
 30
0.0
  0
LINE
  5
843
100
AcDbEntity
  8
0
  6
CENTER
 62
     7
100
AcDbLine
 10
-58.715973
 20
-284.0
 30
0.0
 11
78.0
 21
-284.0
 31
0.0
  0
LINE
  5
844
100
AcDbEntity
  8
0
  6
CENTER
 62
     7
100
AcDbLine
 10
9.284031
 20
-216.0
 30
0.0
 11
9.284031
 21
-352.0
 31
0.0
  0
LINE
  5
845
100
AcDbEntity
  8
0
  6
CENTER
 62
     7
100
AcDbLine
 10
9.284031
 20
-334.0
 30
0.0
 11
78.0
 21
-334.0
 31
0.0
  0
LINE
  5
846
100
AcDbEntity
  8
0
  6
CENTER
 62
     7
100
AcDbLine
 10
9.284031
 20
-234.0
 30
0.0
 11
78.0
 21
-234.0
 31
0.0
  0
LINE
  5
847
100
AcDbEntity
  8
0
  6
CONTINUOUS
 62
     7
100
AcDbLine
 10
57.5
 20
-237.123
 30
0.0
 11
57.5
 21
-230.87799
 31
0.0
  0
LINE
  5
848
100
AcDbEntity
  8
0
  6
CONTINUOUS
 62
     7
100
AcDbLine
 10
28.0
 20
-245.0
 30
0.0
 11
60.0
 21
-245.0
 31
0.0
  0
LINE
  5
849
100
AcDbEntity
  8
0
  6
CONTINUOUS
 62
     7
100
AcDbLine
 10
28.0
 20
-223.0
 30
0.0
 11
60.0
 21
-223.0
 31
0.0
  0
LINE
  5
84A
100
AcDbEntity
  8
0
  6
CONTINUOUS
 62
     7
100
AcDbLine
 10
51.255331
 20
-241.46865
 30
0.0
 11
53.567006
 21
-244.17528
 31
0.0
  0
LINE
  5
84B
100
AcDbEntity
  8
0
  6
CENTER
 62
     7
100
AcDbLine
 10
-3.950264
 20
-229.78328
 30
0.0
 11
-3.950264
 21
-241.78328
 31
0.0
  0
LINE
  5
84C
100
AcDbEntity
  8
0
  6
CONTINUOUS
 62
     7
100
AcDbLine
 10
19.685127
 20
-241.94437
 30
0.0
 11
22.144039
 21
-244.51796
 31
0.0
  0
LINE
  5
84D
100
AcDbEntity
  8
0
  6
CONTINUOUS
 62
     7
100
AcDbLine
 10
-4.563271
 20
-224.80036
 30
0.0
 11
27.379276
 21
-223.01753
 31
0.0
  0
LINE
  5
84E
100
AcDbEntity
  8
0
  6
CENTER
 62
     7
100
AcDbLine
 10
28.0
 20
-228.0
 30
0.0
 11
28.0
 21
-240.0
 31
0.0
  0
LINE
  5
84F
100
AcDbEntity
  8
0
  6
CONTINUOUS
 62
     7
100
AcDbLine
 10
-3.337273
 20
-246.76617
 30
0.0
 11
28.306786
 21
-245.0
 31
0.0
  0
LINE
  5
850
100
AcDbEntity
  8
0
  6
CONTINUOUS
 62
     7
100
AcDbLine
 10
25.677921
 20
-237.25747
 30
0.0
 11
25.329906
 21
-231.02216
 31
0.0
  0
LINE
  5
851
100
AcDbEntity
  8
0
  6
CONTINUOUS
 62
     7
100
AcDbLine
 10
-4.275719
 20
-239.77041
 30
0.0
 11
-7.768898
 21
-234.59375
 31
0.0
  0
LINE
  5
852
100
AcDbEntity
  8
0
  6
CONTINUOUS
 62
     7
100
AcDbLine
 10
-24.323067
 20
-262.80085
 30
0.0
 11
-0.310337
 21
-246.59723
 31
0.0
  0
LINE
  5
853
100
AcDbEntity
  8
0
  6
CENTER
 62
     7
100
AcDbLine
 10
-24.475983
 20
-253.68263
 30
0.0
 11
-36.475983
 21
-253.68263
 31
0.0
  0
LINE
  5
854
100
AcDbEntity
  8
0
  6
CENTER
 62
     7
100
AcDbLine
 10
2.049736
 20
-235.78328
 30
0.0
 11
-9.950264
 21
-235.78328
 31
0.0
  0
LINE
  5
855
100
AcDbEntity
  8
0
  6
CONTINUOUS
 62
     7
100
AcDbLine
 10
-36.628876
 20
-244.56443
 30
0.0
 11
-10.088539
 21
-226.6552
 31
0.0
  0
LINE
  5
856
100
AcDbEntity
  8
0
  6
CONTINUOUS
 62
     7
100
AcDbLine
 10
-7.021339
 20
-246.86563
 30
0.0
 11
-3.591164
 21
-247.81618
 31
0.0
  0
LINE
  5
857
100
AcDbEntity
  8
0
  6
CONTINUOUS
 62
     7
100
AcDbLine
 10
-28.3172
 20
-257.05054
 30
0.0
 11
-34.233833
 21
-255.05214
 31
0.0
  0
LINE
  5
858
100
AcDbEntity
  8
0
  6
CONTINUOUS
 62
     7
100
AcDbLine
 10
-30.294373
 20
-287.52
 30
0.0
 11
-21.243309
 21
-260.72265
 31
0.0
  0
LINE
  5
859
100
AcDbEntity
  8
0
  6
CENTER
 62
     7
100
AcDbLine
 10
-34.716011
 20
-284.00002
 30
0.0
 11
-46.716011
 21
-284.00002
 31
0.0
  0
LINE
  5
85A
100
AcDbEntity
  8
0
  6
CONTINUOUS
 62
     7
100
AcDbLine
 10
-51.137566
 20
-280.48
 30
0.0
 11
-40.897575
 21
-250.16264
 31
0.0
  0
LINE
  5
85B
100
AcDbEntity
  8
0
  6
CENTER
 62
     7
100
AcDbLine
 10
-30.475983
 20
-247.68263
 30
0.0
 11
-30.475983
 21
-259.68263
 31
0.0
  0
LINE
  5
85C
100
AcDbEntity
  8
0
  6
CONTINUOUS
 62
     7
100
AcDbLine
 10
-26.198341
 20
-264.35745
 30
0.0
 11
-22.894295
 21
-263.03345
 31
0.0
  0
LINE
  5
85D
100
AcDbEntity
  8
0
  6
CONTINUOUS
 62
     7
100
AcDbLine
 10
-36.957222
 20
-285.36919
 30
0.0
 11
-42.873848
 21
-287.3676
 31
0.0
  0
LINE
  5
85E
100
AcDbEntity
  8
0
  6
CONTINUOUS
 62
     7
100
AcDbLine
 10
-20.054382
 20
-310.79735
 30
0.0
 11
-29.105476
 21
-284.00005
 31
0.0
  0
LINE
  5
85F
100
AcDbEntity
  8
0
  6
CENTER
 62
     7
100
AcDbLine
 10
-30.476036
 20
-308.31747
 30
0.0
 11
-30.476036
 21
-320.31747
 31
0.0
  0
LINE
  5
860
100
AcDbEntity
  8
0
  6
CONTINUOUS
 62
     7
100
AcDbLine
 10
-40.897552
 20
-317.83737
 30
0.0
 11
-51.137596
 21
-287.52003
 31
0.0
  0
LINE
  5
861
100
AcDbEntity
  8
0
  6
CENTER
 62
     7
100
AcDbLine
 10
-40.716011
 20
-278.00002
 30
0.0
 11
-40.716011
 21
-290.00002
 31
0.0
  0
LINE
  5
862
100
AcDbEntity
  8
0
  6
CONTINUOUS
 62
     7
100
AcDbLine
 10
-30.841774
 20
-289.89489
 30
0.0
 11
-29.017212
 21
-286.83864
 31
0.0
  0
LINE
  5
863
100
AcDbEntity
  8
0
  6
CONTINUOUS
 62
     7
100
AcDbLine
 10
30.5
 20
-330.877
 30
0.0
 11
30.5
 21
-337.12201
 31
0.0
  0
LINE
  5
864
100
AcDbEntity
  8
0
  6
CONTINUOUS
 62
     7
100
AcDbLine
 10
-26.656853
 20
-313.1271
 30
0.0
 11
-30.150017
 21
-318.30377
 31
0.0
  0
LINE
  5
865
100
AcDbEntity
  8
0
  6
CONTINUOUS
 62
     7
100
AcDbLine
 10
2.202602
 20
-323.0985
 30
0.0
 11
-21.24324
 21
-307.27753
 31
0.0
  0
LINE
  5
866
100
AcDbEntity
  8
0
  6
CENTER
 62
     7
100
AcDbLine
 10
-24.476036
 20
-314.31747
 30
0.0
 11
-36.476036
 21
-314.31747
 31
0.0
  0
LINE
  5
867
100
AcDbEntity
  8
0
  6
CONTINUOUS
 62
     7
100
AcDbLine
 10
-10.103142
 20
-341.33496
 30
0.0
 11
-36.628914
 21
-323.4357
 31
0.0
  0
LINE
  5
868
100
AcDbEntity
  8
0
  6
CENTER
 62
     7
100
AcDbLine
 10
2.04974
 20
-332.2165
 30
0.0
 11
-9.950264
 21
-332.2165
 31
0.0
  0
LINE
  5
869
100
AcDbEntity
  8
0
  6
CONTINUOUS
 62
     7
100
AcDbLine
 10
-19.049713
 20
-313.01782
 30
0.0
 11
-19.451973
 21
-309.48119
 31
0.0
  0
LINE
  5
86A
100
AcDbEntity
  8
0
  6
CONTINUOUS
 62
     7
100
AcDbLine
 10
60.0
 20
-323.0
 30
0.0
 11
28.0
 21
-323.0
 31
0.0
  0
LINE
  5
86B
100
AcDbEntity
  8
0
  6
CONTINUOUS
 62
     7
100
AcDbLine
 10
-1.280087
 20
-329.23769
 30
0.0
 11
-1.628151
 21
-335.47299
 31
0.0
  0
LINE
  5
86C
100
AcDbEntity
  8
0
  6
CONTINUOUS
 62
     7
100
AcDbLine
 10
28.613077
 20
-323.0171
 30
0.0
 11
-0.310722
 21
-321.40253
 31
0.0
  0
LINE
  5
86D
100
AcDbEntity
  8
0
  6
CONTINUOUS
 62
     7
100
AcDbLine
 10
27.386921
 20
-344.98289
 30
0.0
 11
-4.492027
 21
-343.20338
 31
0.0
  0
LINE
  5
86E
100
AcDbEntity
  8
0
  6
CENTER
 62
     7
100
AcDbLine
 10
-3.95026
 20
-326.2165
 30
0.0
 11
-3.95026
 21
-338.2165
 31
0.0
  0
LINE
  5
86F
100
AcDbEntity
  8
0
  6
CENTER
 62
     7
100
AcDbLine
 10
28.0
 20
-328.0
 30
0.0
 11
28.0
 21
-340.0
 31
0.0
  0
LINE
  5
870
100
AcDbEntity
  8
0
  6
CONTINUOUS
 62
     7
100
AcDbLine
 10
5.197075
 20
-325.24683
 30
0.0
 11
3.039845
 21
-322.41558
 31
0.0
  0
LINE
  5
871
100
AcDbEntity
  8
0
  6
CENTER
 62
     7
100
AcDbLine
 10
60.0
 20
-340.0
 30
0.0
 11
60.0
 21
-328.0
 31
0.0
  0
LINE
  5
872
100
AcDbEntity
  8
0
  6
CONTINUOUS
 62
     7
100
AcDbLine
 10
60.0
 20
-345.0
 30
0.0
 11
28.0
 21
-345.0
 31
0.0
  0
LINE
  5
873
100
AcDbEntity
  8
0
  6
CONTINUOUS
 62
     7
100
AcDbLine
 10
36.744669
 20
-326.53135
 30
0.0
 11
34.432995
 21
-323.82472
 31
0.0
  0
LINE
  5
874
100
AcDbEntity
  8
0
  6
CENTER
 62
     7
100
AcDbLine
 10
60.0
 20
-228.0
 30
0.0
 11
60.0
 21
-240.0
 31
0.0
  0
ARC
  5
875
100
AcDbEntity
  8
0
  6
CONTINUOUS
 62
     7
100
AcDbCircle
 10
60.0
 20
-334.0
 30
0.0
 40
11.0
100
AcDbArc
 50
270.0
 51
90.000003
  0
ARC
  5
876
100
AcDbEntity
  8
0
  6
CENTER
 62
     7
100
AcDbCircle
 10
9.284031
 20
-284.0
 30
0.0
 40
50.0
100
AcDbArc
 50
90.000003
 51
270.0
  0
CIRCLE
  5
877
100
AcDbEntity
  8
0
  6
CONTINUOUS
 62
     7
100
AcDbCircle
 10
60.0
 20
-234.0
 30
0.0
 40
4.0
  0
ARC
  5
878
100
AcDbEntity
  8
0
  6
CONTINUOUS
 62
     7
100
AcDbCircle
 10
53.186803
 20
-244.5
 30
0.0
 40
0.5
100
AcDbArc
 50
270.0
 51
40.499999
  0
CIRCLE
  5
879
100
AcDbEntity
  8
0
  6
CONTINUOUS
 62
     7
100
AcDbCircle
 10
60.0
 20
-234.0
 30
0.0
 40
4.0
  0
ARC
  5
87A
100
AcDbEntity
  8
0
  6
CONTINUOUS
 62
     7
100
AcDbCircle
 10
28.0
 20
-234.0
 30
0.0
 40
11.0
100
AcDbArc
 50
90.000003
 51
270.0
  0
ARC
  5
87B
100
AcDbEntity
  8
0
  6
CONTINUOUS
 62
     7
100
AcDbCircle
 10
60.0
 20
-234.0
 30
0.0
 40
11.5
100
AcDbArc
 50
118.95503
 51
220.49999
  0
ARC
  5
87C
100
AcDbEntity
  8
0
  6
CONTINUOUS
 62
     7
100
AcDbCircle
 10
54.190525
 20
-223.5
 30
0.0
 40
0.5
100
AcDbArc
 50
298.95503
 51
90.000003
  0
CIRCLE
  5
87D
100
AcDbEntity
  8
0
  6
CONTINUOUS
 62
     7
100
AcDbCircle
 10
60.0
 20
-234.0
 30
0.0
 40
4.0
  0
CIRCLE
  5
87E
100
AcDbEntity
  8
0
  6
CONTINUOUS
 62
     7
100
AcDbCircle
 10
60.0
 20
-234.0
 30
0.0
 40
4.0
  0
CIRCLE
  5
87F
100
AcDbEntity
  8
0
  6
CONTINUOUS
 62
     7
100
AcDbCircle
 10
28.0
 20
-234.0
 30
0.0
 40
4.0
  0
CIRCLE
  5
880
100
AcDbEntity
  8
0
  6
CONTINUOUS
 62
     7
100
AcDbCircle
 10
28.0
 20
-234.0
 30
0.0
 40
4.0
  0
ARC
  5
881
100
AcDbEntity
  8
0
  6
CONTINUOUS
 62
     7
100
AcDbCircle
 10
21.614418
 20
-223.84006
 30
0.0
 40
0.5
100
AcDbArc
 50
302.1496
 51
93.194578
  0
ARC
  5
882
100
AcDbEntity
  8
0
  6
CONTINUOUS
 62
     7
100
AcDbCircle
 10
28.0
 20
-234.0
 30
0.0
 40
11.5
100
AcDbArc
 50
122.1496
 51
223.69458
  0
ARC
  5
883
100
AcDbEntity
  8
0
  6
CONTINUOUS
 62
     7
100
AcDbCircle
 10
-3.950272
 20
-235.78327
 30
0.0
 40
11.0
100
AcDbArc
 50
93.194584
 51
273.19459
  0
CIRCLE
  5
884
100
AcDbEntity
  8
0
  6
CONTINUOUS
 62
     7
100
AcDbCircle
 10
28.0
 20
-234.0
 30
0.0
 40
4.0
  0
ARC
  5
885
100
AcDbEntity
  8
0
  6
CONTINUOUS
 62
     7
100
AcDbCircle
 10
21.782524
 20
-244.86337
 30
0.0
 40
0.5
100
AcDbArc
 50
273.19458
 51
43.694581
  0
CIRCLE
  5
886
100
AcDbEntity
  8
0
  6
CONTINUOUS
 62
     7
100
AcDbCircle
 10
28.0
 20
-234.0
 30
0.0
 40
4.0
  0
ARC
  5
887
100
AcDbEntity
  8
0
  6
CONTINUOUS
 62
     7
100
AcDbCircle
 10
-3.72469
 20
-248.29802
 30
0.0
 40
0.5
100
AcDbArc
 50
304.0112
 51
74.511203
  0
ARC
  5
888
100
AcDbEntity
  8
0
  6
CONTINUOUS
 62
     7
100
AcDbCircle
 10
-30.475967
 20
-253.68264
 30
0.0
 40
11.0
100
AcDbArc
 50
124.0112
 51
304.0112
  0
ARC
  5
889
100
AcDbEntity
  8
0
  6
CONTINUOUS
 62
     7
100
AcDbCircle
 10
-3.950264
 20
-235.78328
 30
0.0
 40
11.5
100
AcDbArc
 50
152.96623
 51
254.51121
  0
ARC
  5
88A
100
AcDbEntity
  8
0
  6
CONTINUOUS
 62
     7
100
AcDbCircle
 10
-14.63913
 20
-230.32909
 30
0.0
 40
0.5
100
AcDbArc
 50
332.96622
 51
124.0112
  0
CIRCLE
  5
88B
100
AcDbEntity
  8
0
  6
CONTINUOUS
 62
     7
100
AcDbCircle
 10
-3.950264
 20
-235.78328
 30
0.0
 40
4.0
  0
CIRCLE
  5
88C
100
AcDbEntity
  8
0
  6
CONTINUOUS
 62
     7
100
AcDbCircle
 10
-30.475983
 20
-253.68263
 30
0.0
 40
4.0
  0
ARC
  5
88D
100
AcDbEntity
  8
0
  6
CONTINUOUS
 62
     7
100
AcDbCircle
 10
-22.708321
 20
-263.49757
 30
0.0
 40
0.5
100
AcDbArc
 50
341.3371
 51
111.8371
  0
CIRCLE
  5
88E
100
AcDbEntity
  8
0
  6
CONTINUOUS
 62
     7
100
AcDbCircle
 10
-30.475983
 20
-253.68263
 30
0.0
 40
4.0
  0
ARC
  5
88F
100
AcDbEntity
  8
0
  6
CONTINUOUS
 62
     7
100
AcDbCircle
 10
-40.715973
 20
-284.0
 30
0.0
 40
11.0
100
AcDbArc
 50
161.3371
 51
341.33709
  0
ARC
  5
890
100
AcDbEntity
  8
0
  6
CONTINUOUS
 62
     7
100
AcDbCircle
 10
-30.475983
 20
-253.68263
 30
0.0
 40
11.5
100
AcDbArc
 50
190.29212
 51
291.8371
  0
ARC
  5
891
100
AcDbEntity
  8
0
  6
CONTINUOUS
 62
     7
100
AcDbCircle
 10
-42.282898
 20
-255.82664
 30
0.0
 40
0.5
100
AcDbArc
 50
10.292124
 51
161.3371
  0
CIRCLE
  5
892
100
AcDbEntity
  8
0
  6
CONTINUOUS
 62
     7
100
AcDbCircle
 10
-30.475983
 20
-253.68263
 30
0.0
 40
4.0
  0
CIRCLE
  5
893
100
AcDbEntity
  8
0
  6
CONTINUOUS
 62
     7
100
AcDbCircle
 10
-30.475983
 20
-253.68263
 30
0.0
 40
4.0
  0
CIRCLE
  5
894
100
AcDbEntity
  8
0
  6
CONTINUOUS
 62
     7
100
AcDbCircle
 10
-40.716011
 20
-284.00002
 30
0.0
 40
4.0
  0
ARC
  5
895
100
AcDbEntity
  8
0
  6
CONTINUOUS
 62
     7
100
AcDbCircle
 10
-28.587898
 20
-287.09494
 30
0.0
 40
0.5
100
AcDbArc
 50
18.663
 51
149.163
  0
CIRCLE
  5
896
100
AcDbEntity
  8
0
  6
CONTINUOUS
 62
     7
100
AcDbCircle
 10
-40.716011
 20
-284.00002
 30
0.0
 40
4.0
  0
ARC
  5
897
100
AcDbEntity
  8
0
  6
CONTINUOUS
 62
     7
100
AcDbCircle
 10
-30.475967
 20
-314.31736
 30
0.0
 40
11.0
100
AcDbArc
 50
198.66301
 51
18.663
  0
ARC
  5
898
100
AcDbEntity
  8
0
  6
CONTINUOUS
 62
     7
100
AcDbCircle
 10
-40.716011
 20
-284.00002
 30
0.0
 40
11.5
100
AcDbArc
 50
227.61802
 51
329.163
  0
ARC
  5
899
100
AcDbEntity
  8
0
  6
CONTINUOUS
 62
     7
100
AcDbCircle
 10
-48.804848
 20
-292.86402
 30
0.0
 40
0.5
100
AcDbArc
 50
47.618023
 51
198.66301
  0
CIRCLE
  5
89A
100
AcDbEntity
  8
0
  6
CONTINUOUS
 62
     7
100
AcDbCircle
 10
-40.716011
 20
-284.00002
 30
0.0
 40
4.0
  0
CIRCLE
  5
89B
100
AcDbEntity
  8
0
  6
CONTINUOUS
 62
     7
100
AcDbCircle
 10
-40.716011
 20
-284.00002
 30
0.0
 40
4.0
  0
ARC
  5
89C
100
AcDbEntity
  8
0
  6
CONTINUOUS
 62
     7
100
AcDbCircle
 10
-18.955177
 20
-309.42467
 30
0.0
 40
0.5
100
AcDbArc
 50
55.989
 51
186.489
  0
ARC
  5
89D
100
AcDbEntity
  8
0
  6
CONTINUOUS
 62
     7
100
AcDbCircle
 10
-3.950272
 20
-332.21673
 30
0.0
 40
11.0
100
AcDbArc
 50
235.98901
 51
55.989
  0
ARC
  5
89E
100
AcDbEntity
  8
0
  6
CONTINUOUS
 62
     7
100
AcDbCircle
 10
-30.476036
 20
-314.31747
 30
0.0
 40
11.5
100
AcDbArc
 50
264.94403
 51
6.489
  0
ARC
  5
89F
100
AcDbEntity
  8
0
  6
CONTINUOUS
 62
     7
100
AcDbCircle
 10
-31.533585
 20
-326.27077
 30
0.0
 40
0.5
100
AcDbArc
 50
84.944023
 51
235.98899
  0
CIRCLE
  5
8A0
100
AcDbEntity
  8
0
  6
CONTINUOUS
 62
     7
100
AcDbCircle
 10
-30.476036
 20
-314.31747
 30
0.0
 40
4.0
  0
CIRCLE
  5
8A1
100
AcDbEntity
  8
0
  6
CONTINUOUS
 62
     7
100
AcDbCircle
 10
-3.95026
 20
-332.2165
 30
0.0
 40
4.0
  0
ARC
  5
8A2
100
AcDbEntity
  8
0
  6
CONTINUOUS
 62
     7
100
AcDbCircle
 10
3.437557
 20
-322.11255
 30
0.0
 40
0.5
100
AcDbArc
 50
86.804997
 51
217.305
  0
CIRCLE
  5
8A3
100
AcDbEntity
  8
0
  6
CONTINUOUS
 62
     7
100
AcDbCircle
 10
-3.95026
 20
-332.2165
 30
0.0
 40
4.0
  0
ARC
  5
8A4
100
AcDbEntity
  8
0
  6
CONTINUOUS
 62
     7
100
AcDbCircle
 10
28.0
 20
-334.0
 30
0.0
 40
11.0
100
AcDbArc
 50
266.80501
 51
86.805004
  0
ARC
  5
8A5
100
AcDbEntity
  8
0
  6
CONTINUOUS
 62
     7
100
AcDbCircle
 10
-3.95026
 20
-332.2165
 30
0.0
 40
11.5
100
AcDbArc
 50
295.76002
 51
37.305001
  0
ARC
  5
8A6
100
AcDbEntity
  8
0
  6
CONTINUOUS
 62
     7
100
AcDbCircle
 10
1.264973
 20
-343.02396
 30
0.0
 40
0.5
100
AcDbArc
 50
115.76003
 51
266.805
  0
CIRCLE
  5
8A7
100
AcDbEntity
  8
0
  6
CONTINUOUS
 62
     7
100
AcDbCircle
 10
-3.95026
 20
-332.2165
 30
0.0
 40
4.0
  0
CIRCLE
  5
8A8
100
AcDbEntity
  8
0
  6
CONTINUOUS
 62
     7
100
AcDbCircle
 10
-3.95026
 20
-332.2165
 30
0.0
 40
4.0
  0
ARC
  5
8A9
100
AcDbEntity
  8
0
  6
CONTINUOUS
 62
     7
100
AcDbCircle
 10
34.813196
 20
-323.5
 30
0.0
 40
0.5
100
AcDbArc
 50
90.000003
 51
220.49999
  0
CIRCLE
  5
8AA
100
AcDbEntity
  8
0
  6
CONTINUOUS
 62
     7
100
AcDbCircle
 10
28.0
 20
-334.0
 30
0.0
 40
4.0
  0
CIRCLE
  5
8AB
100
AcDbEntity
  8
0
  6
CONTINUOUS
 62
     7
100
AcDbCircle
 10
28.0
 20
-334.0
 30
0.0
 40
4.0
  0
ARC
  5
8AC
100
AcDbEntity
  8
0
  6
CONTINUOUS
 62
     7
100
AcDbCircle
 10
28.0
 20
-334.0
 30
0.0
 40
11.5
100
AcDbArc
 50
298.95503
 51
40.499999
  0
ARC
  5
8AD
100
AcDbEntity
  8
0
  6
CONTINUOUS
 62
     7
100
AcDbCircle
 10
33.809475
 20
-344.5
 30
0.0
 40
0.5
100
AcDbArc
 50
118.95503
 51
270.0
  0
CIRCLE
  5
8AE
100
AcDbEntity
  8
0
  6
CONTINUOUS
 62
     7
100
AcDbCircle
 10
28.0
 20
-334.0
 30
0.0
 40
4.0
  0
CIRCLE
  5
8AF
100
AcDbEntity
  8
0
  6
CONTINUOUS
 62
     7
100
AcDbCircle
 10
28.0
 20
-334.0
 30
0.0
 40
4.0
  0
POINT
  5
8B0
100
AcDbEntity
  8
0
  6
CONTINUOUS
 62
     7
100
AcDbPoint
 10
60.0
 20
-409.0
 30
0.0
  0
POINT
  5
8B1
100
AcDbEntity
  8
0
  6
CONTINUOUS
 62
     7
100
AcDbPoint
 10
73.0
 20
-409.0
 30
0.0
  0
LINE
  5
8B2
100
AcDbEntity
  8
0
  6
CONTINUOUS
 62
     7
100
AcDbLine
 10
54.690525
 20
-419.0
 30
0.0
 11
54.690525
 21
-424.0
 31
0.0
  0
LINE
  5
8B3
100
AcDbEntity
  8
0
  6
CONTINUOUS
 62
     7
100
AcDbLine
 10
48.0
 20
-426.5
 30
0.0
 11
40.0
 21
-426.5
 31
0.0
  0
LINE
  5
8B4
100
AcDbEntity
  8
0
  6
CONTINUOUS
 62
     7
100
AcDbLine
 10
48.0
 20
-391.5
 30
0.0
 11
40.0
 21
-391.5
 31
0.0
  0
LINE
  5
8B5
100
AcDbEntity
  8
0
  6
CONTINUOUS
 62
     7
100
AcDbLine
 10
33.309475
 20
-424.0
 30
0.0
 11
33.309475
 21
-429.0
 31
0.0
  0
LINE
  5
8B6
100
AcDbEntity
  8
0
  6
CONTINUOUS
 62
     7
100
AcDbLine
 10
33.309475
 20
-389.0
 30
0.0
 11
33.309475
 21
-394.0
 31
0.0
  0
LINE
  5
8B7
100
AcDbEntity
  8
0
  6
CONTINUOUS
 62
     7
100
AcDbLine
 10
65.30948
 20
-424.0
 30
0.0
 11
54.690525
 21
-424.0
 31
0.0
  0
LINE
  5
8B8
100
AcDbEntity
  8
0
  6
CENTER
 62
     7
100
AcDbLine
 10
60.0
 20
-436.0
 30
0.0
 11
60.0
 21
-382.0
 31
0.0
  0
LINE
  5
8B9
100
AcDbEntity
  8
0
  6
CONTINUOUS
 62
     7
100
AcDbLine
 10
-51.715973
 20
-429.0
 30
0.0
 11
65.30948
 21
-429.0
 31
0.0
  0
LINE
  5
8BA
100
AcDbEntity
  8
0
  6
CONTINUOUS
 62
     7
100
AcDbLine
 10
-51.715973
 20
-389.0
 30
0.0
 11
65.30948
 21
-389.0
 31
0.0
  0
LINE
  5
8BB
100
AcDbEntity
  8
0
  6
CONTINUOUS
 62
     7
100
AcDbLine
 10
54.690525
 20
-419.0
 30
0.0
 11
48.0
 21
-419.0
 31
0.0
  0
LINE
  5
8BC
100
AcDbEntity
  8
0
  6
CONTINUOUS
 62
     7
100
AcDbLine
 10
40.0
 20
-399.0
 30
0.0
 11
15.405575
 21
-399.0
 31
0.0
  0
LINE
  5
8BD
100
AcDbEntity
  8
0
  6
CONTINUOUS
 62
     7
100
AcDbLine
 10
54.690525
 20
-399.0
 30
0.0
 11
48.0
 21
-399.0
 31
0.0
  0
LINE
  5
8BE
100
AcDbEntity
  8
0
  6
CONTINUOUS
 62
     7
100
AcDbLine
 10
40.0
 20
-390.80002
 30
0.0
 11
40.0
 21
-399.0
 31
0.0
  0
LINE
  5
8BF
100
AcDbEntity
  8
0
  6
CONTINUOUS
 62
     7
100
AcDbLine
 10
36.5
 20
-399.0
 30
0.0
 11
36.5
 21
-419.0
 31
0.0
  0
LINE
  5
8C0
100
AcDbEntity
  8
0
  6
CONTINUOUS
 62
     7
100
AcDbLine
 10
51.5
 20
-399.0
 30
0.0
 11
51.5
 21
-419.0
 31
0.0
  0
LINE
  5
8C1
100
AcDbEntity
  8
0
  6
CONTINUOUS
 62
     7
100
AcDbLine
 10
35.0
 20
-399.0
 30
0.0
 11
35.0
 21
-419.0
 31
0.0
  0
LINE
  5
8C2
100
AcDbEntity
  8
0
  6
CONTINUOUS
 62
     7
100
AcDbLine
 10
40.0
 20
-419.0
 30
0.0
 11
40.0
 21
-427.20001
 31
0.0
  0
LINE
  5
8C3
100
AcDbEntity
  8
0
  6
CONTINUOUS
 62
     7
100
AcDbLine
 10
48.0
 20
-427.20001
 30
0.0
 11
48.0
 21
-419.0
 31
0.0
  0
LINE
  5
8C4
100
AcDbEntity
  8
0
  6
CENTER
 62
     7
100
AcDbLine
 10
28.0
 20
-436.0
 30
0.0
 11
28.0
 21
-382.0
 31
0.0
  0
LINE
  5
8C5
100
AcDbEntity
  8
0
  6
CONTINUOUS
 62
     7
100
AcDbLine
 10
48.0
 20
-427.20001
 30
0.0
 11
40.0
 21
-427.20001
 31
0.0
  0
LINE
  5
8C6
100
AcDbEntity
  8
0
  6
CONTINUOUS
 62
     7
100
AcDbLine
 10
54.690525
 20
-394.0
 30
0.0
 11
54.690525
 21
-399.0
 31
0.0
  0
LINE
  5
8C7
100
AcDbEntity
  8
0
  6
CENTER
 62
     7
100
AcDbLine
 10
73.0
 20
-409.0
 30
0.0
 11
-58.715973
 21
-409.0
 31
0.0
  0
LINE
  5
8C8
100
AcDbEntity
  8
0
  6
CONTINUOUS
 62
     7
100
AcDbLine
 10
40.0
 20
-419.0
 30
0.0
 11
15.405575
 21
-419.0
 31
0.0
  0
LINE
  5
8C9
100
AcDbEntity
  8
0
  6
CONTINUOUS
 62
     7
100
AcDbLine
 10
33.309475
 20
-424.0
 30
0.0
 11
22.085701
 21
-424.0
 31
0.0
  0
LINE
  5
8CA
100
AcDbEntity
  8
0
  6
CENTER
 62
     7
100
AcDbLine
 10
50.0
 20
-423.0
 30
0.0
 11
38.0
 21
-423.0
 31
0.0
  0
LINE
  5
8CB
100
AcDbEntity
  8
0
  6
CONTINUOUS
 62
     7
100
AcDbLine
 10
53.0
 20
-419.0
 30
0.0
 11
53.0
 21
-399.0
 31
0.0
  0
LINE
  5
8CC
100
AcDbEntity
  8
0
  6
CONTINUOUS
 62
     7
100
AcDbLine
 10
48.0
 20
-390.80002
 30
0.0
 11
48.0
 21
-399.0
 31
0.0
  0
LINE
  5
8CD
100
AcDbEntity
  8
0
  6
CONTINUOUS
 62
     7
100
AcDbLine
 10
48.0
 20
-390.80002
 30
0.0
 11
40.0
 21
-390.80002
 31
0.0
  0
LINE
  5
8CE
100
AcDbEntity
  8
0
  6
CONTINUOUS
 62
     7
100
AcDbLine
 10
33.309475
 20
-394.0
 30
0.0
 11
22.085701
 21
-394.0
 31
0.0
  0
LINE
  5
8CF
100
AcDbEntity
  8
0
  6
CENTER
 62
     7
100
AcDbLine
 10
50.0
 20
-395.0
 30
0.0
 11
38.0
 21
-395.0
 31
0.0
  0
LINE
  5
8D0
100
AcDbEntity
  8
0
  6
CONTINUOUS
 62
     7
100
AcDbLine
 10
65.30948
 20
-394.0
 30
0.0
 11
54.690525
 21
-394.0
 31
0.0
  0
LINE
  5
8D1
100
AcDbEntity
  8
0
  6
CONTINUOUS
 62
     7
100
AcDbLine
 10
22.085701
 20
-394.0
 30
0.0
 11
22.085701
 21
-399.0
 31
0.0
  0
LINE
  5
8D2
100
AcDbEntity
  8
0
  6
CONTINUOUS
 62
     7
100
AcDbLine
 10
18.900135
 20
-399.0
 30
0.0
 11
18.900135
 21
-419.0
 31
0.0
  0
LINE
  5
8D3
100
AcDbEntity
  8
0
  6
CONTINUOUS
 62
     7
100
AcDbLine
 10
15.405575
 20
-390.80002
 30
0.0
 11
15.405575
 21
-399.0
 31
0.0
  0
LINE
  5
8D4
100
AcDbEntity
  8
0
  6
CONTINUOUS
 62
     7
100
AcDbLine
 10
7.418011
 20
-390.80002
 30
0.0
 11
7.418011
 21
-399.0
 31
0.0
  0
LINE
  5
8D5
100
AcDbEntity
  8
0
  6
CONTINUOUS
 62
     7
100
AcDbLine
 10
3.923451
 20
-399.0
 30
0.0
 11
3.923451
 21
-419.0
 31
0.0
  0
LINE
  5
8D6
100
AcDbEntity
  8
0
  6
CONTINUOUS
 62
     7
100
AcDbLine
 10
0.737885
 20
-389.0
 30
0.0
 11
0.737885
 21
-394.0
 31
0.0
  0
LINE
  5
8D7
100
AcDbEntity
  8
0
  6
CENTER
 62
     7
100
AcDbLine
 10
-3.95026
 20
-436.0
 30
0.0
 11
-3.95026
 21
-382.0
 31
0.0
  0
LINE
  5
8D8
100
AcDbEntity
  8
0
  6
CONTINUOUS
 62
     7
100
AcDbLine
 10
22.085701
 20
-419.0
 30
0.0
 11
22.085701
 21
-424.0
 31
0.0
  0
LINE
  5
8D9
100
AcDbEntity
  8
0
  6
CONTINUOUS
 62
     7
100
AcDbLine
 10
15.405575
 20
-419.0
 30
0.0
 11
15.405575
 21
-427.20001
 31
0.0
  0
LINE
  5
8DA
100
AcDbEntity
  8
0
  6
CONTINUOUS
 62
     7
100
AcDbLine
 10
7.418011
 20
-419.0
 30
0.0
 11
7.418011
 21
-427.20001
 31
0.0
  0
LINE
  5
8DB
100
AcDbEntity
  8
0
  6
CONTINUOUS
 62
     7
100
AcDbLine
 10
0.737885
 20
-424.0
 30
0.0
 11
0.737885
 21
-429.0
 31
0.0
  0
LINE
  5
8DC
100
AcDbEntity
  8
0
  6
CONTINUOUS
 62
     7
100
AcDbLine
 10
-43.617569
 20
-399.0
 30
0.0
 11
-43.617569
 21
-419.0
 31
0.0
  0
LINE
  5
8DD
100
AcDbEntity
  8
0
  6
CONTINUOUS
 62
     7
100
AcDbLine
 10
-44.737572
 20
-390.80002
 30
0.0
 11
-44.737572
 21
-399.0
 31
0.0
  0
LINE
  5
8DE
100
AcDbEntity
  8
0
  6
CONTINUOUS
 62
     7
100
AcDbLine
 10
-47.297585
 20
-390.80002
 30
0.0
 11
-47.297585
 21
-399.0
 31
0.0
  0
LINE
  5
8DF
100
AcDbEntity
  8
0
  6
CONTINUOUS
 62
     7
100
AcDbLine
 10
-48.417587
 20
-399.0
 30
0.0
 11
-48.417587
 21
-419.0
 31
0.0
  0
LINE
  5
8E0
100
AcDbEntity
  8
0
  6
CONTINUOUS
 62
     7
100
AcDbLine
 10
-49.43856
 20
-389.0
 30
0.0
 11
-49.43856
 21
-394.0
 31
0.0
  0
LINE
  5
8E1
100
AcDbEntity
  8
0
  6
CONTINUOUS
 62
     7
100
AcDbLine
 10
-51.715973
 20
-389.0
 30
0.0
 11
-51.715973
 21
-399.0
 31
0.0
  0
LINE
  5
8E2
100
AcDbEntity
  8
0
  6
CENTER
 62
     7
100
AcDbLine
 10
-40.716011
 20
-436.0
 30
0.0
 11
-40.716011
 21
-382.0
 31
0.0
  0
LINE
  5
8E3
100
AcDbEntity
  8
0
  6
CONTINUOUS
 62
     7
100
AcDbLine
 10
-44.737572
 20
-419.0
 30
0.0
 11
-44.737572
 21
-427.20001
 31
0.0
  0
LINE
  5
8E4
100
AcDbEntity
  8
0
  6
CONTINUOUS
 62
     7
100
AcDbLine
 10
-42.596596
 20
-419.0
 30
0.0
 11
-42.596596
 21
-424.0
 31
0.0
  0
LINE
  5
8E5
100
AcDbEntity
  8
0
  6
CONTINUOUS
 62
     7
100
AcDbLine
 10
-26.681747
 20
-399.0
 30
0.0
 11
-44.737572
 21
-399.0
 31
0.0
  0
LINE
  5
8E6
100
AcDbEntity
  8
0
  6
CONTINUOUS
 62
     7
100
AcDbLine
 10
-26.681747
 20
-419.0
 30
0.0
 11
-44.737572
 21
-419.0
 31
0.0
  0
LINE
  5
8E7
100
AcDbEntity
  8
0
  6
CONTINUOUS
 62
     7
100
AcDbLine
 10
-47.297585
 20
-419.0
 30
0.0
 11
-47.297585
 21
-427.20001
 31
0.0
  0
LINE
  5
8E8
100
AcDbEntity
  8
0
  6
CONTINUOUS
 62
     7
100
AcDbLine
 10
-49.43856
 20
-424.0
 30
0.0
 11
-49.43856
 21
-429.0
 31
0.0
  0
LINE
  5
8E9
100
AcDbEntity
  8
0
  6
CONTINUOUS
 62
     7
100
AcDbLine
 10
-51.715973
 20
-419.0
 30
0.0
 11
-51.715973
 21
-429.0
 31
0.0
  0
LINE
  5
8EA
100
AcDbEntity
  8
0
  6
CONTINUOUS
 62
     7
100
AcDbLine
 10
7.418011
 20
-419.0
 30
0.0
 11
-20.050308
 21
-419.0
 31
0.0
  0
LINE
  5
8EB
100
AcDbEntity
  8
0
  6
CONTINUOUS
 62
     7
100
AcDbLine
 10
7.418011
 20
-399.0
 30
0.0
 11
-20.050308
 21
-399.0
 31
0.0
  0
LINE
  5
8EC
100
AcDbEntity
  8
0
  6
CONTINUOUS
 62
     7
100
AcDbLine
 10
0.737885
 20
-424.0
 30
0.0
 11
-14.504333
 21
-424.0
 31
0.0
  0
LINE
  5
8ED
100
AcDbEntity
  8
0
  6
CONTINUOUS
 62
     7
100
AcDbLine
 10
0.737885
 20
-394.0
 30
0.0
 11
-14.504333
 21
-394.0
 31
0.0
  0
LINE
  5
8EE
100
AcDbEntity
  8
0
  6
CONTINUOUS
 62
     7
100
AcDbLine
 10
-32.22773
 20
-424.0
 30
0.0
 11
-32.22773
 21
-429.0
 31
0.0
  0
LINE
  5
8EF
100
AcDbEntity
  8
0
  6
CONTINUOUS
 62
     7
100
AcDbLine
 10
-26.681747
 20
-419.0
 30
0.0
 11
-26.681747
 21
-427.20001
 31
0.0
  0
LINE
  5
8F0
100
AcDbEntity
  8
0
  6
CONTINUOUS
 62
     7
100
AcDbLine
 10
15.405575
 20
-426.5
 30
0.0
 11
7.418011
 21
-426.5
 31
0.0
  0
LINE
  5
8F1
100
AcDbEntity
  8
0
  6
CONTINUOUS
 62
     7
100
AcDbLine
 10
15.405575
 20
-427.20001
 30
0.0
 11
7.418011
 21
-427.20001
 31
0.0
  0
LINE
  5
8F2
100
AcDbEntity
  8
0
  6
CONTINUOUS
 62
     7
100
AcDbLine
 10
15.405575
 20
-390.80002
 30
0.0
 11
7.418011
 21
-390.80002
 31
0.0
  0
LINE
  5
8F3
100
AcDbEntity
  8
0
  6
CONTINUOUS
 62
     7
100
AcDbLine
 10
15.405575
 20
-391.5
 30
0.0
 11
7.418011
 21
-391.5
 31
0.0
  0
LINE
  5
8F4
100
AcDbEntity
  8
0
  6
CONTINUOUS
 62
     7
100
AcDbLine
 10
-20.050308
 20
-419.0
 30
0.0
 11
-20.050308
 21
-427.20001
 31
0.0
  0
LINE
  5
8F5
100
AcDbEntity
  8
0
  6
CONTINUOUS
 62
     7
100
AcDbLine
 10
-14.504333
 20
-419.0
 30
0.0
 11
-14.504333
 21
-424.0
 31
0.0
  0
LINE
  5
8F6
100
AcDbEntity
  8
0
  6
CENTER
 62
     7
100
AcDbLine
 10
-30.476036
 20
-436.0
 30
0.0
 11
-30.476036
 21
-382.0
 31
0.0
  0
LINE
  5
8F7
100
AcDbEntity
  8
0
  6
CONTINUOUS
 62
     7
100
AcDbLine
 10
-32.22773
 20
-389.0
 30
0.0
 11
-32.22773
 21
-394.0
 31
0.0
  0
LINE
  5
8F8
100
AcDbEntity
  8
0
  6
CONTINUOUS
 62
     7
100
AcDbLine
 10
-29.583008
 20
-399.0
 30
0.0
 11
-29.583008
 21
-419.0
 31
0.0
  0
LINE
  5
8F9
100
AcDbEntity
  8
0
  6
CONTINUOUS
 62
     7
100
AcDbLine
 10
-26.681747
 20
-390.80002
 30
0.0
 11
-26.681747
 21
-399.0
 31
0.0
  0
LINE
  5
8FA
100
AcDbEntity
  8
0
  6
CONTINUOUS
 62
     7
100
AcDbLine
 10
-20.050308
 20
-390.80002
 30
0.0
 11
-20.050308
 21
-399.0
 31
0.0
  0
LINE
  5
8FB
100
AcDbEntity
  8
0
  6
CONTINUOUS
 62
     7
100
AcDbLine
 10
-17.149055
 20
-399.0
 30
0.0
 11
-17.149055
 21
-419.0
 31
0.0
  0
LINE
  5
8FC
100
AcDbEntity
  8
0
  6
CONTINUOUS
 62
     7
100
AcDbLine
 10
-14.504333
 20
-394.0
 30
0.0
 11
-14.504333
 21
-399.0
 31
0.0
  0
LINE
  5
8FD
100
AcDbEntity
  8
0
  6
CONTINUOUS
 62
     7
100
AcDbLine
 10
-42.596596
 20
-394.0
 30
0.0
 11
-42.596596
 21
-399.0
 31
0.0
  0
LINE
  5
8FE
100
AcDbEntity
  8
0
  6
CONTINUOUS
 62
     7
100
AcDbLine
 10
-20.050308
 20
-427.20001
 30
0.0
 11
-26.681747
 21
-427.20001
 31
0.0
  0
LINE
  5
8FF
100
AcDbEntity
  8
0
  6
CONTINUOUS
 62
     7
100
AcDbLine
 10
-20.050308
 20
-426.5
 30
0.0
 11
-26.681747
 21
-426.5
 31
0.0
  0
LINE
  5
900
100
AcDbEntity
  8
0
  6
CONTINUOUS
 62
     7
100
AcDbLine
 10
-20.050308
 20
-391.5
 30
0.0
 11
-26.681747
 21
-391.5
 31
0.0
  0
LINE
  5
901
100
AcDbEntity
  8
0
  6
CONTINUOUS
 62
     7
100
AcDbLine
 10
-20.050308
 20
-390.80002
 30
0.0
 11
-26.681747
 21
-390.80002
 31
0.0
  0
LINE
  5
902
100
AcDbEntity
  8
0
  6
CONTINUOUS
 62
     7
100
AcDbLine
 10
-47.297585
 20
-419.0
 30
0.0
 11
-51.715973
 21
-419.0
 31
0.0
  0
LINE
  5
903
100
AcDbEntity
  8
0
  6
CONTINUOUS
 62
     7
100
AcDbLine
 10
-47.297585
 20
-399.0
 30
0.0
 11
-51.715973
 21
-399.0
 31
0.0
  0
LINE
  5
904
100
AcDbEntity
  8
0
  6
CONTINUOUS
 62
     7
100
AcDbLine
 10
-49.43856
 20
-394.0
 30
0.0
 11
-51.715973
 21
-394.0
 31
0.0
  0
LINE
  5
905
100
AcDbEntity
  8
0
  6
CONTINUOUS
 62
     7
100
AcDbLine
 10
-32.22773
 20
-394.0
 30
0.0
 11
-42.596596
 21
-394.0
 31
0.0
  0
LINE
  5
906
100
AcDbEntity
  8
0
  6
CONTINUOUS
 62
     7
100
AcDbLine
 10
-49.43856
 20
-424.0
 30
0.0
 11
-51.715973
 21
-424.0
 31
0.0
  0
LINE
  5
907
100
AcDbEntity
  8
0
  6
CONTINUOUS
 62
     7
100
AcDbLine
 10
-32.22773
 20
-424.0
 30
0.0
 11
-42.596596
 21
-424.0
 31
0.0
  0
LINE
  5
908
100
AcDbEntity
  8
0
  6
CONTINUOUS
 62
     7
100
AcDbLine
 10
-44.737572
 20
-390.80002
 30
0.0
 11
-47.297585
 21
-390.80002
 31
0.0
  0
LINE
  5
909
100
AcDbEntity
  8
0
  6
CONTINUOUS
 62
     7
100
AcDbLine
 10
-44.737572
 20
-391.5
 30
0.0
 11
-47.297585
 21
-391.5
 31
0.0
  0
LINE
  5
90A
100
AcDbEntity
  8
0
  6
CONTINUOUS
 62
     7
100
AcDbLine
 10
-44.737572
 20
-426.5
 30
0.0
 11
-47.297585
 21
-426.5
 31
0.0
  0
LINE
  5
90B
100
AcDbEntity
  8
0
  6
CONTINUOUS
 62
     7
100
AcDbLine
 10
-44.737572
 20
-427.20001
 30
0.0
 11
-47.297585
 21
-427.20001
 31
0.0
  0
POINT
  5
90C
100
AcDbEntity
  8
0
  6
CONTINUOUS
 62
     7
100
AcDbPoint
 10
175.0
 20
-164.0
 30
0.0
  0
POINT
  5
90D
100
AcDbEntity
  8
0
  6
CONTINUOUS
 62
     7
100
AcDbPoint
 10
182.0
 20
-164.0
 30
0.0
  0
LINE
  5
90E
100
AcDbEntity
  8
0
  6
CONTINUOUS
 62
     7
100
AcDbLine
 10
164.0
 20
-179.0
 30
0.0
 11
186.0
 21
-179.0
 31
0.0
  0
LINE
  5
90F
100
AcDbEntity
  8
0
  6
CONTINUOUS
 62
     7
100
AcDbLine
 10
164.0
 20
-174.0
 30
0.0
 11
186.0
 21
-174.0
 31
0.0
  0
LINE
  5
910
100
AcDbEntity
  8
0
  6
CONTINUOUS
 62
     4
100
AcDbLine
 10
185.5
 20
-174.0
 30
0.0
 11
185.5
 21
-154.0
 31
0.0
  0
LINE
  5
911
100
AcDbEntity
  8
0
  6
CENTER
 62
     7
100
AcDbLine
 10
193.0
 20
-164.0
 30
0.0
 11
157.0
 21
-164.0
 31
0.0
  0
LINE
  5
912
100
AcDbEntity
  8
0
  6
CONTINUOUS
 62
     7
100
AcDbLine
 10
164.0
 20
-144.0
 30
0.0
 11
164.0
 21
-184.0
 31
0.0
  0
LINE
  5
913
100
AcDbEntity
  8
0
  6
CENTER
 62
     7
100
AcDbLine
 10
210.0
 20
-144.5
 30
0.0
 11
210.0
 21
-153.21557
 31
0.0
  0
LINE
  5
914
100
AcDbEntity
  8
0
  6
CONTINUOUS
 62
     7
100
AcDbLine
 10
186.0
 20
-154.0
 30
0.0
 11
164.0
 21
-154.0
 31
0.0
  0
LINE
  5
915
100
AcDbEntity
  8
0
  6
CENTER
 62
     7
100
AcDbLine
 10
175.0
 20
-137.0
 30
0.0
 11
175.0
 21
-191.0
 31
0.0
  0
LINE
  5
916
100
AcDbEntity
  8
0
  6
CONTINUOUS
 62
     7
100
AcDbLine
 10
186.0
 20
-144.0
 30
0.0
 11
186.0
 21
-154.0
 31
0.0
  0
LINE
  5
917
100
AcDbEntity
  8
0
  6
CENTER
 62
     7
100
AcDbLine
 10
215.5
 20
-150.0
 30
0.0
 11
204.5
 21
-150.0
 31
0.0
  0
LINE
  5
918
100
AcDbEntity
  8
0
  6
CONTINUOUS
 62
     7
100
AcDbLine
 10
186.0
 20
-144.0
 30
0.0
 11
164.0
 21
-144.0
 31
0.0
  0
LINE
  5
919
100
AcDbEntity
  8
0
  6
CONTINUOUS
 62
     7
100
AcDbLine
 10
164.0
 20
-149.0
 30
0.0
 11
186.0
 21
-149.0
 31
0.0
  0
LINE
  5
91A
100
AcDbEntity
  8
0
  6
CONTINUOUS
 62
     4
100
AcDbLine
 10
182.0
 20
-174.0
 30
0.0
 11
182.0
 21
-154.0
 31
0.0
  0
LINE
  5
91B
100
AcDbEntity
  8
0
  6
CONTINUOUS
 62
     7
100
AcDbLine
 10
164.0
 20
-184.0
 30
0.0
 11
186.0
 21
-184.0
 31
0.0
  0
LINE
  5
91C
100
AcDbEntity
  8
0
  6
DASHED
 62
     4
100
AcDbLine
 10
182.022
 20
-146.5
 30
0.0
 11
210.0
 21
-146.5
 31
0.0
  0
LINE
  5
91D
100
AcDbEntity
  8
0
  6
DASHED
 62
     4
100
AcDbLine
 10
183.72101
 20
-150.059
 30
0.0
 11
185.657
 21
-150.127
 31
0.0
  0
LINE
  5
91E
100
AcDbEntity
  8
0
  6
DASHED
 62
     4
100
AcDbLine
 10
185.99001
 20
-150.0
 30
0.0
 11
206.03101
 21
-150.0
 31
0.0
  0
LINE
  5
91F
100
AcDbEntity
  8
0
  6
DASHED
 62
     4
100
AcDbLine
 10
185.73
 20
-148.0
 30
0.0
 11
206.29201
 21
-148.0
 31
0.0
  0
LINE
  5
920
100
AcDbEntity
  8
0
  6
DASHED
 62
     4
100
AcDbLine
 10
180.907
 20
-154.5
 30
0.0
 11
179.842
 21
-154.5
 31
0.0
  0
LINE
  5
921
100
AcDbEntity
  8
0
  6
DASHED
 62
     4
100
AcDbLine
 10
181.172
 20
-151.47198
 30
0.0
 11
180.907
 21
-154.50001
 31
0.0
  0
LINE
  5
922
100
AcDbEntity
  8
0
  6
DASHED
 62
     4
100
AcDbLine
 10
178.522
 20
-149.99999
 30
0.0
 11
178.684
 21
-153.723
 31
0.0
  0
LINE
  5
923
100
AcDbEntity
  8
0
  6
DASHED
 62
     4
100
AcDbLine
 10
211.11501
 20
-154.5
 30
0.0
 11
212.179
 21
-154.5
 31
0.0
  0
LINE
  5
924
100
AcDbEntity
  8
0
  6
DASHED
 62
     4
100
AcDbLine
 10
208.301
 20
-150.059
 30
0.0
 11
206.36399
 21
-150.12699
 31
0.0
  0
LINE
  5
925
100
AcDbEntity
  8
0
  6
DASHED
 62
     4
100
AcDbLine
 10
210.85001
 20
-151.47198
 30
0.0
 11
211.11501
 21
-154.49999
 31
0.0
  0
LINE
  5
926
100
AcDbEntity
  8
0
  6
DASHED
 62
     4
100
AcDbLine
 10
213.50001
 20
-150.0
 30
0.0
 11
213.33701
 21
-153.72299
 31
0.0
  0
LINE
  5
927
100
AcDbEntity
  8
0
  6
CENTER
 62
     7
100
AcDbLine
 10
196.0
 20
-144.5
 30
0.0
 11
196.0
 21
-152.0
 31
0.0
  0
LINE
  5
928
100
AcDbEntity
  8
0
  6
CONTINUOUS
 62
     7
100
AcDbLine
 10
168.0
 20
-156.5
 30
0.0
 11
168.0
 21
-171.5
 31
0.0
  0
LINE
  5
929
100
AcDbEntity
  8
0
  6
CONTINUOUS
 62
     4
100
AcDbLine
 10
184.0
 20
-174.0
 30
0.0
 11
184.0
 21
-154.0
 31
0.0
  0
LINE
  5
92A
100
AcDbEntity
  8
0
  6
CONTINUOUS
 62
     7
100
AcDbLine
 10
186.0
 20
-174.0
 30
0.0
 11
186.0
 21
-184.0
 31
0.0
  0
LINE
  5
92B
100
AcDbEntity
  8
0
  6
CENTER
 62
     7
100
AcDbLine
 10
185.6
 20
-178.0
 30
0.0
 11
178.4
 21
-178.0
 31
0.0
  0
LINE
  5
92C
100
AcDbEntity
  8
0
  6
CENTER
 62
     7
100
AcDbLine
 10
182.0
 20
-174.4
 30
0.0
 11
182.0
 21
-181.6
 31
0.0
  0
LINE
  5
92D
100
AcDbEntity
  8
0
  6
CENTER
 62
     7
100
AcDbLine
 10
185.6
 20
-150.0
 30
0.0
 11
178.4
 21
-150.0
 31
0.0
  0
LINE
  5
92E
100
AcDbEntity
  8
0
  6
CENTER
 62
     7
100
AcDbLine
 10
182.0
 20
-153.6
 30
0.0
 11
182.0
 21
-146.4
 31
0.0
  0
ARC
  5
92F
100
AcDbEntity
  8
0
  6
CONTINUOUS
 62
     7
100
AcDbCircle
 10
170.5
 20
-171.5
 30
0.0
 40
2.5
100
AcDbArc
 50
179.99999
 51
270.0
  0
ARC
  5
930
100
AcDbEntity
  8
0
  6
DASHED
 62
     4
100
AcDbCircle
 10
210.0
 20
-150.0
 30
0.0
 40
5.0
100
AcDbArc
 50
295.8425
 51
311.8742
  0
ARC
  5
931
100
AcDbEntity
  8
0
  6
DASHED
 62
     4
100
AcDbCircle
 10
182.022
 20
-150.0
 30
0.0
 40
5.0
100
AcDbArc
 50
228.125
 51
244.157
  0
ARC
  5
932
100
AcDbEntity
  8
0
  6
DASHED
 62
     4
100
AcDbCircle
 10
182.022
 20
-150.0
 30
0.0
 40
5.5
100
AcDbArc
 50
21.322999
 51
33.484999
  0
ARC
  5
933
100
AcDbEntity
  8
0
  6
DASHED
 62
     4
100
AcDbCircle
 10
186.85901
 20
-146.79999
 30
0.0
 40
0.3
100
AcDbArc
 50
89.998992
 51
213.484
  0
ARC
  5
934
100
AcDbEntity
  8
0
  6
DASHED
 62
     4
100
AcDbCircle
 10
182.022
 20
-150.0
 30
0.0
 40
3.5
100
AcDbArc
 50
358.0002
 51
22.024001
  0
ARC
  5
935
100
AcDbEntity
  8
0
  6
PHANTOM
 62
     4
100
AcDbCircle
 10
185.99001
 20
-150.5
 30
0.0
 40
0.5
100
AcDbArc
 50
89.997994
 51
131.746
  0
ARC
  5
936
100
AcDbEntity
  8
0
  6
DASHED
 62
     4
100
AcDbCircle
 10
185.73
 20
-148.5
 30
0.0
 40
0.5
100
AcDbArc
 50
89.998992
 51
202.024
  0
ARC
  5
937
100
AcDbEntity
  8
0
  6
DASHED
 62
     4
100
AcDbCircle
 10
182.022
 20
-150.0
 30
0.0
 40
3.5
100
AcDbArc
 50
90.000003
 51
180.00001
  0
ARC
  5
938
100
AcDbEntity
  8
0
  6
DASHED
 62
     4
100
AcDbCircle
 10
182.022
 20
-150.0
 30
0.0
 40
1.7
100
AcDbArc
 50
357.9996
 51
239.999
  0
ARC
  5
939
100
AcDbEntity
  8
0
  6
DASHED
 62
     4
100
AcDbCircle
 10
210.0
 20
-150.0
 30
0.0
 40
5.5
100
AcDbArc
 50
140.478
 51
158.67599
  0
ARC
  5
93A
100
AcDbEntity
  8
0
  6
DASHED
 62
     4
100
AcDbCircle
 10
210.0
 20
-150.0
 30
0.0
 40
3.5
100
AcDbArc
 50
157.97499
 51
181.999
  0
ARC
  5
93B
100
AcDbEntity
  8
0
  6
PHANTOM
 62
     4
100
AcDbCircle
 10
206.03101
 20
-150.5
 30
0.0
 40
0.5
100
AcDbArc
 50
48.253002
 51
90.001
  0
ARC
  5
93C
100
AcDbEntity
  8
0
  6
DASHED
 62
     4
100
AcDbCircle
 10
206.29201
 20
-148.5
 30
0.0
 40
0.5
100
AcDbArc
 50
337.9756
 51
90.000003
  0
ARC
  5
93D
100
AcDbEntity
  8
0
  6
DASHED
 62
     4
100
AcDbCircle
 10
210.0
 20
-150.0
 30
0.0
 40
3.5
100
AcDbArc
 50
0.000003
 51
90.000003
  0
ARC
  5
93E
100
AcDbEntity
  8
0
  6
DASHED
 62
     4
100
AcDbCircle
 10
210.0
 20
-150.0
 30
0.0
 40
1.7
100
AcDbArc
 50
300.0
 51
181.99999
  0
ARC
  5
93F
100
AcDbEntity
  8
0
  6
CONTINUOUS
 62
     7
100
AcDbCircle
 10
170.5
 20
-156.5
 30
0.0
 40
2.5
100
AcDbArc
 50
90.000003
 51
180.00001
  0
POINT
  5
940
100
AcDbEntity
  8
0
  6
CONTINUOUS
 62
     7
100
AcDbPoint
 10
320.0
 20
-164.0
 30
0.0
  0
POINT
  5
941
100
AcDbEntity
  8
0
  6
CONTINUOUS
 62
     7
100
AcDbPoint
 10
338.0
 20
-164.0
 30
0.0
  0
LINE
  5
942
100
AcDbEntity
  8
0
  6
CONTINUOUS
 62
     7
100
AcDbLine
 10
277.0
 20
-149.0
 30
0.0
 11
277.0
 21
-144.0
 31
0.0
  0
LINE
  5
943
100
AcDbEntity
  8
0
  6
CONTINUOUS
 62
     4
100
AcDbLine
 10
300.1
 20
-181.5
 30
0.0
 11
307.9
 21
-181.5
 31
0.0
  0
LINE
  5
944
100
AcDbEntity
  8
0
  6
CONTINUOUS
 62
     4
100
AcDbLine
 10
300.1
 20
-146.5
 30
0.0
 11
307.9
 21
-146.5
 31
0.0
  0
LINE
  5
945
100
AcDbEntity
  8
0
  6
CONTINUOUS
 62
     7
100
AcDbLine
 10
293.30947
 20
-149.0
 30
0.0
 11
293.30947
 21
-154.0
 31
0.0
  0
LINE
  5
946
100
AcDbEntity
  8
0
  6
CONTINUOUS
 62
     7
100
AcDbLine
 10
314.69053
 20
-178.7
 30
0.0
 11
314.69053
 21
-184.0
 31
0.0
  0
LINE
  5
947
100
AcDbEntity
  8
0
  6
CONTINUOUS
 62
     7
100
AcDbLine
 10
314.69053
 20
-144.0
 30
0.0
 11
314.69053
 21
-149.3
 31
0.0
  0
LINE
  5
948
100
AcDbEntity
  8
0
  6
CENTER
 62
     7
100
AcDbLine
 10
288.0
 20
-191.0
 30
0.0
 11
288.0
 21
-137.0
 31
0.0
  0
LINE
  5
949
100
AcDbEntity
  8
0
  6
CONTINUOUS
 62
     7
100
AcDbLine
 10
314.69053
 20
-184.0
 30
0.0
 11
277.0
 21
-184.0
 31
0.0
  0
LINE
  5
94A
100
AcDbEntity
  8
0
  6
CONTINUOUS
 62
     7
100
AcDbLine
 10
317.5
 20
-144.0
 30
0.0
 11
316.0
 21
-144.0
 31
0.0
  0
LINE
  5
94B
100
AcDbEntity
  8
0
  6
CONTINUOUS
 62
     7
100
AcDbLine
 10
293.30947
 20
-174.0
 30
0.0
 11
300.0
 21
-174.0
 31
0.0
  0
LINE
  5
94C
100
AcDbEntity
  8
0
  6
CONTINUOUS
 62
     7
100
AcDbLine
 10
308.0
 20
-154.0
 30
0.0
 11
331.0
 21
-154.0
 31
0.0
  0
LINE
  5
94D
100
AcDbEntity
  8
0
  6
CONTINUOUS
 62
     7
100
AcDbLine
 10
293.30947
 20
-154.0
 30
0.0
 11
300.0
 21
-154.0
 31
0.0
  0
LINE
  5
94E
100
AcDbEntity
  8
0
  6
CONTINUOUS
 62
     7
100
AcDbLine
 10
308.0
 20
-145.80002
 30
0.0
 11
308.0
 21
-154.0
 31
0.0
  0
LINE
  5
94F
100
AcDbEntity
  8
0
  6
CONTINUOUS
 62
     4
100
AcDbLine
 10
311.5
 20
-154.0
 30
0.0
 11
311.5
 21
-174.0
 31
0.0
  0
LINE
  5
950
100
AcDbEntity
  8
0
  6
CONTINUOUS
 62
     4
100
AcDbLine
 10
296.5
 20
-154.0
 30
0.0
 11
296.5
 21
-174.0
 31
0.0
  0
LINE
  5
951
100
AcDbEntity
  8
0
  6
CONTINUOUS
 62
     7
100
AcDbLine
 10
313.0
 20
-154.0
 30
0.0
 11
313.0
 21
-174.0
 31
0.0
  0
LINE
  5
952
100
AcDbEntity
  8
0
  6
CONTINUOUS
 62
     7
100
AcDbLine
 10
308.0
 20
-174.0
 30
0.0
 11
308.0
 21
-182.20001
 31
0.0
  0
LINE
  5
953
100
AcDbEntity
  8
0
  6
CONTINUOUS
 62
     7
100
AcDbLine
 10
300.0
 20
-182.20001
 30
0.0
 11
300.0
 21
-174.0
 31
0.0
  0
LINE
  5
954
100
AcDbEntity
  8
0
  6
CENTER
 62
     7
100
AcDbLine
 10
320.0
 20
-191.0
 30
0.0
 11
320.0
 21
-137.0
 31
0.0
  0
LINE
  5
955
100
AcDbEntity
  8
0
  6
CONTINUOUS
 62
     7
100
AcDbLine
 10
300.0
 20
-182.20001
 30
0.0
 11
308.0
 21
-182.20001
 31
0.0
  0
LINE
  5
956
100
AcDbEntity
  8
0
  6
CONTINUOUS
 62
     7
100
AcDbLine
 10
293.30947
 20
-174.0
 30
0.0
 11
293.30947
 21
-179.0
 31
0.0
  0
LINE
  5
957
100
AcDbEntity
  8
0
  6
CENTER
 62
     7
100
AcDbLine
 10
270.0
 20
-164.0
 30
0.0
 11
338.0
 21
-164.0
 31
0.0
  0
LINE
  5
958
100
AcDbEntity
  8
0
  6
CONTINUOUS
 62
     7
100
AcDbLine
 10
308.0
 20
-174.0
 30
0.0
 11
331.0
 21
-174.0
 31
0.0
  0
LINE
  5
959
100
AcDbEntity
  8
0
  6
CENTER
 62
     7
100
AcDbLine
 10
298.0
 20
-178.0
 30
0.0
 11
310.0
 21
-178.0
 31
0.0
  0
LINE
  5
95A
100
AcDbEntity
  8
0
  6
CONTINUOUS
 62
     7
100
AcDbLine
 10
295.0
 20
-174.0
 30
0.0
 11
295.0
 21
-154.0
 31
0.0
  0
LINE
  5
95B
100
AcDbEntity
  8
0
  6
CONTINUOUS
 62
     7
100
AcDbLine
 10
300.0
 20
-145.80002
 30
0.0
 11
300.0
 21
-154.0
 31
0.0
  0
LINE
  5
95C
100
AcDbEntity
  8
0
  6
CONTINUOUS
 62
     7
100
AcDbLine
 10
300.0
 20
-145.80002
 30
0.0
 11
308.0
 21
-145.80002
 31
0.0
  0
LINE
  5
95D
100
AcDbEntity
  8
0
  6
CENTER
 62
     7
100
AcDbLine
 10
298.0
 20
-150.0
 30
0.0
 11
310.0
 21
-150.0
 31
0.0
  0
LINE
  5
95E
100
AcDbEntity
  8
0
  6
CONTINUOUS
 62
     7
100
AcDbLine
 10
277.0
 20
-184.0
 30
0.0
 11
277.0
 21
-179.0
 31
0.0
  0
LINE
  5
95F
100
AcDbEntity
  8
0
  6
CONTINUOUS
 62
     7
100
AcDbLine
 10
331.0
 20
-149.3
 30
0.0
 11
331.0
 21
-154.0
 31
0.0
  0
LINE
  5
960
100
AcDbEntity
  8
0
  6
CONTINUOUS
 62
     7
100
AcDbLine
 10
331.0
 20
-174.0
 30
0.0
 11
331.0
 21
-178.7
 31
0.0
  0
LINE
  5
961
100
AcDbEntity
  8
0
  6
CONTINUOUS
 62
     4
100
AcDbLine
 10
296.5
 20
-174.0
 30
0.0
 11
300.1
 21
-174.0
 31
0.0
  0
LINE
  5
962
100
AcDbEntity
  8
0
  6
CONTINUOUS
 62
     4
100
AcDbLine
 10
296.5
 20
-154.0
 30
0.0
 11
300.1
 21
-154.0
 31
0.0
  0
LINE
  5
963
100
AcDbEntity
  8
0
  6
CONTINUOUS
 62
     4
100
AcDbLine
 10
307.9
 20
-146.5
 30
0.0
 11
307.9
 21
-154.0
 31
0.0
  0
LINE
  5
964
100
AcDbEntity
  8
0
  6
CONTINUOUS
 62
     4
100
AcDbLine
 10
307.9
 20
-154.0
 30
0.0
 11
311.5
 21
-154.0
 31
0.0
  0
LINE
  5
965
100
AcDbEntity
  8
0
  6
CONTINUOUS
 62
     4
100
AcDbLine
 10
300.1
 20
-146.5
 30
0.0
 11
300.1
 21
-154.0
 31
0.0
  0
LINE
  5
966
100
AcDbEntity
  8
0
  6
CONTINUOUS
 62
     4
100
AcDbLine
 10
307.9
 20
-174.0
 30
0.0
 11
311.5
 21
-174.0
 31
0.0
  0
LINE
  5
967
100
AcDbEntity
  8
0
  6
CONTINUOUS
 62
     4
100
AcDbLine
 10
307.9
 20
-181.5
 30
0.0
 11
307.9
 21
-174.0
 31
0.0
  0
LINE
  5
968
100
AcDbEntity
  8
0
  6
CONTINUOUS
 62
     4
100
AcDbLine
 10
300.1
 20
-181.5
 30
0.0
 11
300.1
 21
-174.0
 31
0.0
  0
LINE
  5
969
100
AcDbEntity
  8
0
  6
CONTINUOUS
 62
     7
100
AcDbLine
 10
277.0
 20
-179.0
 30
0.0
 11
293.30947
 21
-179.0
 31
0.0
  0
LINE
  5
96A
100
AcDbEntity
  8
0
  6
CONTINUOUS
 62
     7
100
AcDbLine
 10
277.0
 20
-149.0
 30
0.0
 11
293.30947
 21
-149.0
 31
0.0
  0
LINE
  5
96B
100
AcDbEntity
  8
0
  6
CONTINUOUS
 62
     7
100
AcDbLine
 10
324.0
 20
-149.3
 30
0.0
 11
324.0
 21
-146.36581
 31
0.0
  0
LINE
  5
96C
100
AcDbEntity
  8
0
  6
CONTINUOUS
 62
     7
100
AcDbLine
 10
316.0
 20
-149.3
 30
0.0
 11
316.0
 21
-144.0
 31
0.0
  0
LINE
  5
96D
100
AcDbEntity
  8
0
  6
CONTINUOUS
 62
     7
100
AcDbLine
 10
314.69053
 20
-144.0
 30
0.0
 11
277.0
 21
-144.0
 31
0.0
  0
LINE
  5
96E
100
AcDbEntity
  8
0
  6
CONTINUOUS
 62
     7
100
AcDbLine
 10
317.5
 20
-144.0
 30
0.0
 11
324.0
 21
-146.36581
 31
0.0
  0
LINE
  5
96F
100
AcDbEntity
  8
0
  6
CONTINUOUS
 62
     7
100
AcDbLine
 10
317.5
 20
-184.0
 30
0.0
 11
316.0
 21
-184.0
 31
0.0
  0
LINE
  5
970
100
AcDbEntity
  8
0
  6
CONTINUOUS
 62
     7
100
AcDbLine
 10
324.0
 20
-178.7
 30
0.0
 11
324.0
 21
-181.63419
 31
0.0
  0
LINE
  5
971
100
AcDbEntity
  8
0
  6
CONTINUOUS
 62
     7
100
AcDbLine
 10
317.5
 20
-184.0
 30
0.0
 11
324.0
 21
-181.63419
 31
0.0
  0
LINE
  5
972
100
AcDbEntity
  8
0
  6
CONTINUOUS
 62
     7
100
AcDbLine
 10
316.0
 20
-178.7
 30
0.0
 11
316.0
 21
-184.0
 31
0.0
  0
LINE
  5
973
100
AcDbEntity
  8
0
  6
CONTINUOUS
 62
     7
100
AcDbLine
 10
314.69053
 20
-149.3
 30
0.0
 11
331.0
 21
-149.3
 31
0.0
  0
LINE
  5
974
100
AcDbEntity
  8
0
  6
CONTINUOUS
 62
     7
100
AcDbLine
 10
314.69053
 20
-178.7
 30
0.0
 11
331.0
 21
-178.7
 31
0.0
  0
POINT
  5
975
100
AcDbEntity
  8
0
  6
CONTINUOUS
 62
     7
100
AcDbPoint
 10
320.0
 20
-234.0
 30
0.0
  0
POINT
  5
976
100
AcDbEntity
  8
0
  6
CONTINUOUS
 62
     7
100
AcDbPoint
 10
326.0
 20
-234.0
 30
0.0
  0
LINE
  5
977
100
AcDbEntity
  8
0
  6
CONTINUOUS
 62
     7
100
AcDbLine
 10
311.25533
 20
-241.46865
 30
0.0
 11
313.56701
 21
-244.17528
 31
0.0
  0
LINE
  5
978
100
AcDbEntity
  8
0
  6
CENTER
 62
     7
100
AcDbLine
 10
294.0
 20
-234.0
 30
0.0
 11
282.0
 21
-234.0
 31
0.0
  0
LINE
  5
979
100
AcDbEntity
  8
0
  6
CENTER
 62
     7
100
AcDbLine
 10
320.0
 20
-228.0
 30
0.0
 11
320.0
 21
-240.0
 31
0.0
  0
LINE
  5
97A
100
AcDbEntity
  8
0
  6
CONTINUOUS
 62
     7
100
AcDbLine
 10
288.0
 20
-223.0
 30
0.0
 11
320.0
 21
-223.0
 31
0.0
  0
LINE
  5
97B
100
AcDbEntity
  8
0
  6
CENTER
 62
     7
100
AcDbLine
 10
314.0
 20
-234.0
 30
0.0
 11
326.0
 21
-234.0
 31
0.0
  0
LINE
  5
97C
100
AcDbEntity
  8
0
  6
CENTER
 62
     7
100
AcDbLine
 10
288.0
 20
-228.0
 30
0.0
 11
288.0
 21
-240.0
 31
0.0
  0
LINE
  5
97D
100
AcDbEntity
  8
0
  6
CONTINUOUS
 62
     7
100
AcDbLine
 10
288.0
 20
-245.0
 30
0.0
 11
320.0
 21
-245.0
 31
0.0
  0
LINE
  5
97E
100
AcDbEntity
  8
0
  6
CONTINUOUS
 62
     7
100
AcDbLine
 10
317.5
 20
-237.123
 30
0.0
 11
317.5
 21
-230.87799
 31
0.0
  0
ARC
  5
97F
100
AcDbEntity
  8
0
  6
CONTINUOUS
 62
     7
100
AcDbCircle
 10
320.0
 20
-234.0
 30
0.0
 40
11.0
100
AcDbArc
 50
270.0
 51
89.999996
  0
CIRCLE
  5
980
100
AcDbEntity
  8
0
  6
CONTINUOUS
 62
     7
100
AcDbCircle
 10
320.0
 20
-234.0
 30
0.0
 40
4.0
  0
CIRCLE
  5
981
100
AcDbEntity
  8
0
  6
CONTINUOUS
 62
     7
100
AcDbCircle
 10
320.0
 20
-234.0
 30
0.0
 40
4.0
  0
ARC
  5
982
100
AcDbEntity
  8
0
  6
CONTINUOUS
 62
     7
100
AcDbCircle
 10
314.19053
 20
-223.5
 30
0.0
 40
0.5
100
AcDbArc
 50
298.95503
 51
90.000003
  0
ARC
  5
983
100
AcDbEntity
  8
0
  6
CONTINUOUS
 62
     7
100
AcDbCircle
 10
320.0
 20
-234.0
 30
0.0
 40
11.5
100
AcDbArc
 50
118.95503
 51
220.49999
  0
ARC
  5
984
100
AcDbEntity
  8
0
  6
CONTINUOUS
 62
     7
100
AcDbCircle
 10
288.0
 20
-234.0
 30
0.0
 40
11.0
100
AcDbArc
 50
90.000003
 51
270.0
  0
CIRCLE
  5
985
100
AcDbEntity
  8
0
  6
CONTINUOUS
 62
     7
100
AcDbCircle
 10
320.0
 20
-234.0
 30
0.0
 40
4.0
  0
ARC
  5
986
100
AcDbEntity
  8
0
  6
CONTINUOUS
 62
     7
100
AcDbCircle
 10
313.1868
 20
-244.5
 30
0.0
 40
0.5
100
AcDbArc
 50
270.0
 51
40.499999
  0
CIRCLE
  5
987
100
AcDbEntity
  8
0
  6
CONTINUOUS
 62
     7
100
AcDbCircle
 10
320.0
 20
-234.0
 30
0.0
 40
4.0
  0
CIRCLE
  5
988
100
AcDbEntity
  8
0
  6
CONTINUOUS
 62
     7
100
AcDbCircle
 10
288.0
 20
-234.0
 30
0.0
 40
4.0
  0
POINT
  5
989
100
AcDbEntity
  8
0
  6
CONTINUOUS
 62
     7
100
AcDbPoint
 10
320.0
 20
-304.0
 30
0.0
  0
POINT
  5
98A
100
AcDbEntity
  8
0
  6
CONTINUOUS
 62
     7
100
AcDbPoint
 10
338.0
 20
-304.0
 30
0.0
  0
LINE
  5
98B
100
AcDbEntity
  8
0
  6
CONTINUOUS
 62
     7
100
AcDbLine
 10
295.0
 20
-314.0
 30
0.0
 11
295.0
 21
-294.0
 31
0.0
  0
LINE
  5
98C
100
AcDbEntity
  8
0
  6
CONTINUOUS
 62
     7
100
AcDbLine
 10
313.0
 20
-314.0
 30
0.0
 11
331.0
 21
-314.0
 31
0.0
  0
LINE
  5
98D
100
AcDbEntity
  8
0
  6
CENTER
 62
     7
100
AcDbLine
 10
270.0
 20
-304.0
 30
0.0
 11
338.0
 21
-304.0
 31
0.0
  0
LINE
  5
98E
100
AcDbEntity
  8
0
  6
CONTINUOUS
 62
     7
100
AcDbLine
 10
293.30947
 20
-314.0
 30
0.0
 11
293.30947
 21
-319.0
 31
0.0
  0
LINE
  5
98F
100
AcDbEntity
  8
0
  6
CENTER
 62
     7
100
AcDbLine
 10
320.0
 20
-331.0
 30
0.0
 11
320.0
 21
-277.0
 31
0.0
  0
LINE
  5
990
100
AcDbEntity
  8
0
  6
CONTINUOUS
 62
     7
100
AcDbLine
 10
313.0
 20
-294.0
 30
0.0
 11
313.0
 21
-314.0
 31
0.0
  0
LINE
  5
991
100
AcDbEntity
  8
0
  6
CONTINUOUS
 62
     7
100
AcDbLine
 10
293.30947
 20
-294.0
 30
0.0
 11
295.0
 21
-294.0
 31
0.0
  0
LINE
  5
992
100
AcDbEntity
  8
0
  6
CONTINUOUS
 62
     7
100
AcDbLine
 10
313.0
 20
-294.0
 30
0.0
 11
331.0
 21
-294.0
 31
0.0
  0
LINE
  5
993
100
AcDbEntity
  8
0
  6
CONTINUOUS
 62
     7
100
AcDbLine
 10
293.30947
 20
-314.0
 30
0.0
 11
295.0
 21
-314.0
 31
0.0
  0
LINE
  5
994
100
AcDbEntity
  8
0
  6
CONTINUOUS
 62
     7
100
AcDbLine
 10
317.5
 20
-284.0
 30
0.0
 11
316.0
 21
-284.0
 31
0.0
  0
LINE
  5
995
100
AcDbEntity
  8
0
  6
CONTINUOUS
 62
     7
100
AcDbLine
 10
313.6868
 20
-324.0
 30
0.0
 11
277.0
 21
-324.0
 31
0.0
  0
LINE
  5
996
100
AcDbEntity
  8
0
  6
CENTER
 62
     7
100
AcDbLine
 10
288.0
 20
-331.0
 30
0.0
 11
288.0
 21
-277.0
 31
0.0
  0
LINE
  5
997
100
AcDbEntity
  8
0
  6
CONTINUOUS
 62
     7
100
AcDbLine
 10
277.0
 20
-319.0
 30
0.0
 11
293.30947
 21
-319.0
 31
0.0
  0
LINE
  5
998
100
AcDbEntity
  8
0
  6
CONTINUOUS
 62
     7
100
AcDbLine
 10
293.30947
 20
-289.0
 30
0.0
 11
293.30947
 21
-294.0
 31
0.0
  0
LINE
  5
999
100
AcDbEntity
  8
0
  6
CONTINUOUS
 62
     7
100
AcDbLine
 10
331.0
 20
-294.0
 30
0.0
 11
331.0
 21
-289.3
 31
0.0
  0
LINE
  5
99A
100
AcDbEntity
  8
0
  6
CONTINUOUS
 62
     7
100
AcDbLine
 10
277.0
 20
-289.0
 30
0.0
 11
277.0
 21
-284.0
 31
0.0
  0
LINE
  5
99B
100
AcDbEntity
  8
0
  6
CONTINUOUS
 62
     7
100
AcDbLine
 10
277.0
 20
-289.0
 30
0.0
 11
293.30947
 21
-289.0
 31
0.0
  0
LINE
  5
99C
100
AcDbEntity
  8
0
  6
CONTINUOUS
 62
     7
100
AcDbLine
 10
277.0
 20
-324.0
 30
0.0
 11
277.0
 21
-319.0
 31
0.0
  0
LINE
  5
99D
100
AcDbEntity
  8
0
  6
CONTINUOUS
 62
     7
100
AcDbLine
 10
331.0
 20
-318.7
 30
0.0
 11
331.0
 21
-314.0
 31
0.0
  0
LINE
  5
99E
100
AcDbEntity
  8
0
  6
CONTINUOUS
 62
     7
100
AcDbLine
 10
313.6868
 20
-324.0
 30
0.0
 11
313.6868
 21
-318.7
 31
0.0
  0
LINE
  5
99F
100
AcDbEntity
  8
0
  6
CONTINUOUS
 62
     7
100
AcDbLine
 10
313.6868
 20
-289.3
 30
0.0
 11
313.6868
 21
-284.0
 31
0.0
  0
LINE
  5
9A0
100
AcDbEntity
  8
0
  6
CONTINUOUS
 62
     7
100
AcDbLine
 10
324.0
 20
-289.3
 30
0.0
 11
324.0
 21
-286.36581
 31
0.0
  0
LINE
  5
9A1
100
AcDbEntity
  8
0
  6
CONTINUOUS
 62
     7
100
AcDbLine
 10
316.0
 20
-289.3
 30
0.0
 11
316.0
 21
-284.0
 31
0.0
  0
LINE
  5
9A2
100
AcDbEntity
  8
0
  6
CONTINUOUS
 62
     7
100
AcDbLine
 10
313.6868
 20
-284.0
 30
0.0
 11
277.0
 21
-284.0
 31
0.0
  0
LINE
  5
9A3
100
AcDbEntity
  8
0
  6
CONTINUOUS
 62
     7
100
AcDbLine
 10
317.5
 20
-284.0
 30
0.0
 11
324.0
 21
-286.36581
 31
0.0
  0
LINE
  5
9A4
100
AcDbEntity
  8
0
  6
CONTINUOUS
 62
     7
100
AcDbLine
 10
317.5
 20
-324.0
 30
0.0
 11
324.0
 21
-321.63419
 31
0.0
  0
LINE
  5
9A5
100
AcDbEntity
  8
0
  6
CONTINUOUS
 62
     7
100
AcDbLine
 10
317.5
 20
-324.0
 30
0.0
 11
316.0
 21
-324.0
 31
0.0
  0
LINE
  5
9A6
100
AcDbEntity
  8
0
  6
CONTINUOUS
 62
     7
100
AcDbLine
 10
324.0
 20
-318.7
 30
0.0
 11
324.0
 21
-321.63419
 31
0.0
  0
LINE
  5
9A7
100
AcDbEntity
  8
0
  6
CONTINUOUS
 62
     7
100
AcDbLine
 10
316.0
 20
-318.7
 30
0.0
 11
316.0
 21
-324.0
 31
0.0
  0
LINE
  5
9A8
100
AcDbEntity
  8
0
  6
CONTINUOUS
 62
     7
100
AcDbLine
 10
313.6868
 20
-324.0
 30
0.0
 11
277.0
 21
-324.0
 31
0.0
  0
LINE
  5
9A9
100
AcDbEntity
  8
0
  6
CONTINUOUS
 62
     7
100
AcDbLine
 10
313.6868
 20
-289.3
 30
0.0
 11
331.0
 21
-289.3
 31
0.0
  0
LINE
  5
9AA
100
AcDbEntity
  8
0
  6
CONTINUOUS
 62
     7
100
AcDbLine
 10
313.6868
 20
-318.7
 30
0.0
 11
331.0
 21
-318.7
 31
0.0
  0
POINT
  5
9AB
100
AcDbEntity
  8
0
  6
CONTINUOUS
 62
     7
100
AcDbPoint
 10
425.0
 20
-164.0
 30
0.0
  0
POINT
  5
9AC
100
AcDbEntity
  8
0
  6
CONTINUOUS
 62
     7
100
AcDbPoint
 10
432.0
 20
-164.0
 30
0.0
  0
LINE
  5
9AD
100
AcDbEntity
  8
0
  6
CONTINUOUS
 62
     7
100
AcDbLine
 10
414.0
 20
-144.0
 30
0.0
 11
436.0
 21
-144.0
 31
0.0
  0
LINE
  5
9AE
100
AcDbEntity
  8
0
  6
CENTER
 62
     7
100
AcDbLine
 10
414.4
 20
-178.0
 30
0.0
 11
421.6
 21
-178.0
 31
0.0
  0
LINE
  5
9AF
100
AcDbEntity
  8
0
  6
CONTINUOUS
 62
     7
100
AcDbLine
 10
414.0
 20
-184.0
 30
0.0
 11
414.0
 21
-174.0
 31
0.0
  0
LINE
  5
9B0
100
AcDbEntity
  8
0
  6
CENTER
 62
     7
100
AcDbLine
 10
425.0
 20
-137.0
 30
0.0
 11
425.0
 21
-191.0
 31
0.0
  0
LINE
  5
9B1
100
AcDbEntity
  8
0
  6
CONTINUOUS
 62
     7
100
AcDbLine
 10
414.0
 20
-154.0
 30
0.0
 11
436.0
 21
-154.0
 31
0.0
  0
LINE
  5
9B2
100
AcDbEntity
  8
0
  6
CENTER
 62
     7
100
AcDbLine
 10
418.0
 20
-174.4
 30
0.0
 11
418.0
 21
-181.6
 31
0.0
  0
LINE
  5
9B3
100
AcDbEntity
  8
0
  6
CONTINUOUS
 62
     7
100
AcDbLine
 10
436.0
 20
-144.0
 30
0.0
 11
436.0
 21
-184.0
 31
0.0
  0
LINE
  5
9B4
100
AcDbEntity
  8
0
  6
CENTER
 62
     7
100
AcDbLine
 10
407.5
 20
-164.0
 30
0.0
 11
443.0
 21
-164.0
 31
0.0
  0
LINE
  5
9B5
100
AcDbEntity
  8
0
  6
CONTINUOUS
 62
     4
100
AcDbLine
 10
414.5
 20
-174.0
 30
0.0
 11
414.5
 21
-154.0
 31
0.0
  0
LINE
  5
9B6
100
AcDbEntity
  8
0
  6
CONTINUOUS
 62
     7
100
AcDbLine
 10
436.0
 20
-174.0
 30
0.0
 11
414.0
 21
-174.0
 31
0.0
  0
LINE
  5
9B7
100
AcDbEntity
  8
0
  6
CONTINUOUS
 62
     7
100
AcDbLine
 10
414.0
 20
-154.0
 30
0.0
 11
414.0
 21
-144.0
 31
0.0
  0
LINE
  5
9B8
100
AcDbEntity
  8
0
  6
CONTINUOUS
 62
     7
100
AcDbLine
 10
414.0
 20
-149.30002
 30
0.0
 11
436.0
 21
-149.30002
 31
0.0
  0
LINE
  5
9B9
100
AcDbEntity
  8
0
  6
CONTINUOUS
 62
     4
100
AcDbLine
 10
418.0
 20
-174.0
 30
0.0
 11
418.0
 21
-154.0
 31
0.0
  0
LINE
  5
9BA
100
AcDbEntity
  8
0
  6
CONTINUOUS
 62
     7
100
AcDbLine
 10
436.0
 20
-184.0
 30
0.0
 11
414.0
 21
-184.0
 31
0.0
  0
LINE
  5
9BB
100
AcDbEntity
  8
0
  6
CENTER
 62
     7
100
AcDbLine
 10
390.0
 20
-183.5
 30
0.0
 11
390.0
 21
-176.0
 31
0.0
  0
LINE
  5
9BC
100
AcDbEntity
  8
0
  6
CENTER
 62
     7
100
AcDbLine
 10
395.5
 20
-178.0
 30
0.0
 11
384.5
 21
-178.0
 31
0.0
  0
LINE
  5
9BD
100
AcDbEntity
  8
0
  6
DASHED
 62
     4
100
AcDbLine
 10
417.978
 20
-181.5
 30
0.0
 11
390.0
 21
-181.5
 31
0.0
  0
LINE
  5
9BE
100
AcDbEntity
  8
0
  6
DASHED
 62
     4
100
AcDbLine
 10
416.27899
 20
-177.941
 30
0.0
 11
414.343
 21
-177.873
 31
0.0
  0
LINE
  5
9BF
100
AcDbEntity
  8
0
  6
DASHED
 62
     4
100
AcDbLine
 10
414.00999
 20
-178.0
 30
0.0
 11
393.96899
 21
-178.0
 31
0.0
  0
LINE
  5
9C0
100
AcDbEntity
  8
0
  6
DASHED
 62
     4
100
AcDbLine
 10
414.27
 20
-180.0
 30
0.0
 11
393.70799
 21
-180.0
 31
0.0
  0
LINE
  5
9C1
100
AcDbEntity
  8
0
  6
DASHED
 62
     4
100
AcDbLine
 10
419.093
 20
-173.5
 30
0.0
 11
420.158
 21
-173.5
 31
0.0
  0
LINE
  5
9C2
100
AcDbEntity
  8
0
  6
DASHED
 62
     4
100
AcDbLine
 10
418.828
 20
-176.52802
 30
0.0
 11
419.093
 21
-173.49999
 31
0.0
  0
LINE
  5
9C3
100
AcDbEntity
  8
0
  6
DASHED
 62
     4
100
AcDbLine
 10
421.478
 20
-178.00001
 30
0.0
 11
421.316
 21
-174.277
 31
0.0
  0
LINE
  5
9C4
100
AcDbEntity
  8
0
  6
DASHED
 62
     4
100
AcDbLine
 10
388.88499
 20
-173.5
 30
0.0
 11
387.821
 21
-173.5
 31
0.0
  0
LINE
  5
9C5
100
AcDbEntity
  8
0
  6
DASHED
 62
     4
100
AcDbLine
 10
391.699
 20
-177.941
 30
0.0
 11
393.63601
 21
-177.87301
 31
0.0
  0
LINE
  5
9C6
100
AcDbEntity
  8
0
  6
DASHED
 62
     4
100
AcDbLine
 10
389.14999
 20
-176.52802
 30
0.0
 11
388.88499
 21
-173.50001
 31
0.0
  0
LINE
  5
9C7
100
AcDbEntity
  8
0
  6
DASHED
 62
     4
100
AcDbLine
 10
386.49999
 20
-178.0
 30
0.0
 11
386.66299
 21
-174.27701
 31
0.0
  0
LINE
  5
9C8
100
AcDbEntity
  8
0
  6
CENTER
 62
     7
100
AcDbLine
 10
404.0
 20
-183.5
 30
0.0
 11
404.0
 21
-176.0
 31
0.0
  0
LINE
  5
9C9
100
AcDbEntity
  8
0
  6
CONTINUOUS
 62
     7
100
AcDbLine
 10
432.0
 20
-156.5
 30
0.0
 11
432.0
 21
-171.5
 31
0.0
  0
LINE
  5
9CA
100
AcDbEntity
  8
0
  6
CONTINUOUS
 62
     4
100
AcDbLine
 10
416.0
 20
-174.0
 30
0.0
 11
416.0
 21
-154.0
 31
0.0
  0
LINE
  5
9CB
100
AcDbEntity
  8
0
  6
CONTINUOUS
 62
     7
100
AcDbLine
 10
436.0
 20
-178.69998
 30
0.0
 11
414.0
 21
-178.69998
 31
0.0
  0
LINE
  5
9CC
100
AcDbEntity
  8
0
  6
CONTINUOUS
 62
     7
100
AcDbLine
 10
429.0
 20
-184.0
 30
0.0
 11
429.0
 21
-178.69998
 31
0.0
  0
LINE
  5
9CD
100
AcDbEntity
  8
0
  6
CONTINUOUS
 62
     7
100
AcDbLine
 10
421.0
 20
-184.0
 30
0.0
 11
421.0
 21
-178.69998
 31
0.0
  0
LINE
  5
9CE
100
AcDbEntity
  8
0
  6
CONTINUOUS
 62
     7
100
AcDbLine
 10
421.0
 20
-149.30002
 30
0.0
 11
421.0
 21
-144.0
 31
0.0
  0
LINE
  5
9CF
100
AcDbEntity
  8
0
  6
CONTINUOUS
 62
     7
100
AcDbLine
 10
429.0
 20
-149.30002
 30
0.0
 11
429.0
 21
-144.0
 31
0.0
  0
LINE
  5
9D0
100
AcDbEntity
  8
0
  6
CENTER
 62
     7
100
AcDbLine
 10
414.4
 20
-150.0
 30
0.0
 11
421.6
 21
-150.0
 31
0.0
  0
LINE
  5
9D1
100
AcDbEntity
  8
0
  6
CENTER
 62
     7
100
AcDbLine
 10
418.0
 20
-153.6
 30
0.0
 11
418.0
 21
-146.4
 31
0.0
  0
ARC
  5
9D2
100
AcDbEntity
  8
0
  6
CONTINUOUS
 62
     7
100
AcDbCircle
 10
429.5
 20
-171.5
 30
0.0
 40
2.5
100
AcDbArc
 50
270.0
 51
0.000003
  0
ARC
  5
9D3
100
AcDbEntity
  8
0
  6
DASHED
 62
     4
100
AcDbCircle
 10
390.0
 20
-178.0
 30
0.0
 40
5.0
100
AcDbArc
 50
115.84249
 51
131.87421
  0
ARC
  5
9D4
100
AcDbEntity
  8
0
  6
DASHED
 62
     4
100
AcDbCircle
 10
417.978
 20
-178.0
 30
0.0
 40
5.0
100
AcDbArc
 50
48.125001
 51
64.156998
  0
ARC
  5
9D5
100
AcDbEntity
  8
0
  6
DASHED
 62
     4
100
AcDbCircle
 10
417.978
 20
-178.0
 30
0.0
 40
5.5
100
AcDbArc
 50
201.323
 51
213.485
  0
ARC
  5
9D6
100
AcDbEntity
  8
0
  6
PHANTOM
 62
     4
100
AcDbCircle
 10
413.14099
 20
-181.20001
 30
0.0
 40
0.3
100
AcDbArc
 50
269.99899
 51
33.483992
  0
ARC
  5
9D7
100
AcDbEntity
  8
0
  6
DASHED
 62
     4
100
AcDbCircle
 10
417.978
 20
-178.0
 30
0.0
 40
3.5
100
AcDbArc
 50
178.00019
 51
202.024
  0
ARC
  5
9D8
100
AcDbEntity
  8
0
  6
PHANTOM
 62
     4
100
AcDbCircle
 10
414.00999
 20
-177.5
 30
0.0
 40
0.5
100
AcDbArc
 50
269.998
 51
311.746
  0
ARC
  5
9D9
100
AcDbEntity
  8
0
  6
DASHED
 62
     4
100
AcDbCircle
 10
414.27
 20
-179.5
 30
0.0
 40
0.5
100
AcDbArc
 50
269.99899
 51
22.024
  0
ARC
  5
9DA
100
AcDbEntity
  8
0
  6
DASHED
 62
     4
100
AcDbCircle
 10
417.978
 20
-178.0
 30
0.0
 40
3.5
100
AcDbArc
 50
270.0
 51
0.000001
  0
ARC
  5
9DB
100
AcDbEntity
  8
0
  6
DASHED
 62
     4
100
AcDbCircle
 10
417.978
 20
-178.0
 30
0.0
 40
1.7
100
AcDbArc
 50
177.99959
 51
59.999014
  0
ARC
  5
9DC
100
AcDbEntity
  8
0
  6
DASHED
 62
     4
100
AcDbCircle
 10
390.0
 20
-178.0
 30
0.0
 40
5.5
100
AcDbArc
 50
320.478
 51
338.676
  0
ARC
  5
9DD
100
AcDbEntity
  8
0
  6
DASHED
 62
     4
100
AcDbCircle
 10
390.0
 20
-178.0
 30
0.0
 40
3.5
100
AcDbArc
 50
337.975
 51
1.999003
  0
ARC
  5
9DE
100
AcDbEntity
  8
0
  6
PHANTOM
 62
     4
100
AcDbCircle
 10
393.96899
 20
-177.5
 30
0.0
 40
0.5
100
AcDbArc
 50
228.253
 51
270.001
  0
ARC
  5
9DF
100
AcDbEntity
  8
0
  6
DASHED
 62
     4
100
AcDbCircle
 10
393.70799
 20
-179.5
 30
0.0
 40
0.5
100
AcDbArc
 50
157.9756
 51
270.0
  0
ARC
  5
9E0
100
AcDbEntity
  8
0
  6
DASHED
 62
     4
100
AcDbCircle
 10
390.0
 20
-178.0
 30
0.0
 40
3.5
100
AcDbArc
 50
180.00001
 51
270.0
  0
ARC
  5
9E1
100
AcDbEntity
  8
0
  6
DASHED
 62
     4
100
AcDbCircle
 10
390.0
 20
-178.0
 30
0.0
 40
1.7
100
AcDbArc
 50
120.0
 51
1.999999
  0
ARC
  5
9E2
100
AcDbEntity
  8
0
  6
CONTINUOUS
 62
     7
100
AcDbCircle
 10
429.5
 20
-156.5
 30
0.0
 40
2.5
100
AcDbArc
 50
0.0
 51
89.999996
  0
ARC
  5
9E3
100
AcDbEntity
  8
0
  6
CONTINUOUS
 62
     7
100
AcDbCircle
 10
425.0
 20
-141.80127
 30
0.0
 40
4.564472
100
AcDbArc
 50
208.79681
 51
331.2032
  0
ARC
  5
9E4
100
AcDbEntity
  8
0
  6
CONTINUOUS
 62
     7
100
AcDbCircle
 10
425.0
 20
-186.19873
 30
0.0
 40
4.564472
100
AcDbArc
 50
28.796805
 51
151.20319
  0
ENDSEC
  0
SECTION
  2
OBJECTS
  0
DICTIONARY
  5
C
100
AcDbDictionary
  3
ACAD_GROUP
350
D
  3
ACAD_MLINESTYLE
350
E
  0
DICTIONARY
  5
D
102
{ACAD_REACTORS
330
C
102
}
100
AcDbDictionary
  0
DICTIONARY
  5
E
102
{ACAD_REACTORS
330
C
102
}
100
AcDbDictionary
  3
STANDARD
350
1C
  0
MLINESTYLE
  5
1C
102
{ACAD_REACTORS
330
E
102
}
100
AcDbMlineStyle
  2
STANDARD
 70
     0
  3

 62
     0
 51
90.0
 52
90.0
 71
     2
 49
0.5
 62
   256
  6
BYLAYER
 49
-0.5
 62
   256
  6
BYLAYER
  0
ENDSEC
  0
EOF
