  0
SECTION
  2
HEADER
  9
$ACADVER
  1
AC1012
  9
$DWGCODEPAGE
  3
dos932
  9
$INSBASE
 10
0.0
 20
0.0
 30
0.0
  9
$EXTMIN
 10
-535.0
 20
-572.0
 30
0.0
  9
$EXTMAX
 10
535.0
 20
572.0
 30
0.0
  9
$LIMMIN
 10
0.0
 20
0.0
  9
$LIMMAX
 10
12.0
 20
9.0
  9
$ORTHOMODE
 70
     0
  9
$REGENMODE
 70
     1
  9
$FILLMODE
 70
     1
  9
$QTEXTMODE
 70
     0
  9
$MIRRTEXT
 70
     1
  9
$DRAGMODE
 70
     2
  9
$LTSCALE
 40
1.0
  9
$OSMODE
 70
     0
  9
$ATTMODE
 70
     1
  9
$TEXTSIZE
 40
0.2
  9
$TRACEWID
 40
0.05
  9
$TEXTSTYLE
  7
STANDARD
  9
$CLAYER
  8
0
  9
$CELTYPE
  6
CONTINUOUS
  9
$CECOLOR
 62
   256
  9
$CELTSCALE
 40
1.0
  9
$DELOBJ
 70
     1
  9
$DISPSILH
 70
     0
  9
$DIMSCALE
 40
1.0
  9
$DIMASZ
 40
0.18
  9
$DIMEXO
 40
0.0625
  9
$DIMDLI
 40
0.38
  9
$DIMRND
 40
0.0
  9
$DIMDLE
 40
0.0
  9
$DIMEXE
 40
0.18
  9
$DIMTP
 40
0.0
  9
$DIMTM
 40
0.0
  9
$DIMTXT
 40
0.18
  9
$DIMCEN
 40
0.09
  9
$DIMTSZ
 40
0.0
  9
$DIMTOL
 70
     0
  9
$DIMLIM
 70
     0
  9
$DIMTIH
 70
     1
  9
$DIMTOH
 70
     1
  9
$DIMSE1
 70
     0
  9
$DIMSE2
 70
     0
  9
$DIMTAD
 70
     0
  9
$DIMZIN
 70
     0
  9
$DIMBLK
  1

  9
$DIMASO
 70
     1
  9
$DIMSHO
 70
     1
  9
$DIMPOST
  1

  9
$DIMAPOST
  1

  9
$DIMALT
 70
     0
  9
$DIMALTD
 70
     2
  9
$DIMALTF
 40
25.4
  9
$DIMLFAC
 40
1.0
  9
$DIMTOFL
 70
     0
  9
$DIMTVP
 40
0.0
  9
$DIMTIX
 70
     0
  9
$DIMSOXD
 70
     0
  9
$DIMSAH
 70
     0
  9
$DIMBLK1
  1

  9
$DIMBLK2
  1

  9
$DIMSTYLE
  2
STANDARD
  9
$DIMCLRD
 70
     0
  9
$DIMCLRE
 70
     0
  9
$DIMCLRT
 70
     0
  9
$DIMTFAC
 40
1.0
  9
$DIMGAP
 40
0.09
  9
$DIMJUST
 70
     0
  9
$DIMSD1
 70
     0
  9
$DIMSD2
 70
     0
  9
$DIMTOLJ
 70
     1
  9
$DIMTZIN
 70
     0
  9
$DIMALTZ
 70
     0
  9
$DIMALTTZ
 70
     0
  9
$DIMFIT
 70
     3
  9
$DIMUPT
 70
     0
  9
$DIMUNIT
 70
     2
  9
$DIMDEC
 70
     4
  9
$DIMTDEC
 70
     4
  9
$DIMALTU
 70
     2
  9
$DIMALTTD
 70
     2
  9
$DIMTXSTY
  7
STANDARD
  9
$DIMAUNIT
 70
     0
  9
$LUNITS
 70
     2
  9
$LUPREC
 70
     4
  9
$SKETCHINC
 40
0.1
  9
$FILLETRAD
 40
0.0
  9
$AUNITS
 70
     0
  9
$AUPREC
 70
     0
  9
$MENU
  1
.
  9
$ELEVATION
 40
0.0
  9
$PELEVATION
 40
0.0
  9
$THICKNESS
 40
0.0
  9
$LIMCHECK
 70
     0
  9
$BLIPMODE
 70
     1
  9
$CHAMFERA
 40
0.0
  9
$CHAMFERB
 40
0.0
  9
$CHAMFERC
 40
0.0
  9
$CHAMFERD
 40
0.0
  9
$SKPOLY
 70
     0
  9
$TDCREATE
 40
0.0000000000
  9
$TDUPDATE
 40
2452163.557126273
  9
$TDINDWG
 40
0.0093277778
  9
$TDUSRTIMER
 40
0.0093277778
  9
$USRTIMER
 70
     1
  9
$ANGBASE
 50
0.0
  9
$ANGDIR
 70
     0
  9
$PDMODE
 70
     0
  9
$PDSIZE
 40
0.0
  9
$PLINEWID
 40
0.0
  9
$COORDS
 70
     1
  9
$SPLFRAME
 70
     0
  9
$SPLINETYPE
 70
     6
  9
$SPLINESEGS
 70
     8
  9
$ATTDIA
 70
     0
  9
$ATTREQ
 70
     1
  9
$HANDLING
 70
     1
  9
$HANDSEED
  5
A43
  9
$SURFTAB1
 70
     6
  9
$SURFTAB2
 70
     6
  9
$SURFTYPE
 70
     6
  9
$SURFU
 70
     6
  9
$SURFV
 70
     6
  9
$UCSNAME
  2

  9
$UCSORG
 10
0.0
 20
0.0
 30
0.0
  9
$UCSXDIR
 10
1.0
 20
0.0
 30
0.0
  9
$UCSYDIR
 10
0.0
 20
1.0
 30
0.0
  9
$PUCSNAME
  2

  9
$PUCSORG
 10
0.0
 20
0.0
 30
0.0
  9
$PUCSXDIR
 10
1.0
 20
0.0
 30
0.0
  9
$PUCSYDIR
 10
0.0
 20
1.0
 30
0.0
  9
$USERI1
 70
     0
  9
$USERI2
 70
     0
  9
$USERI3
 70
     0
  9
$USERI4
 70
     0
  9
$USERI5
 70
     0
  9
$USERR1
 40
0.0
  9
$USERR2
 40
0.0
  9
$USERR3
 40
0.0
  9
$USERR4
 40
0.0
  9
$USERR5
 40
0.0
  9
$WORLDVIEW
 70
     1
  9
$SHADEDGE
 70
     3
  9
$SHADEDIF
 70
    70
  9
$TILEMODE
 70
     1
  9
$MAXACTVP
 70
    16
  9
$PINSBASE
 10
0.0
 20
0.0
 30
0.0
  9
$PLIMCHECK
 70
     0
  9
$PEXTMIN
 10
1.000000E+20
 20
1.000000E+20
 30
1.000000E+20
  9
$PEXTMAX
 10
-1.000000E+20
 20
-1.000000E+20
 30
-1.000000E+20
  9
$PLIMMIN
 10
0.0
 20
0.0
  9
$PLIMMAX
 10
12.0
 20
9.0
  9
$UNITMODE
 70
     0
  9
$VISRETAIN
 70
     0
  9
$PLINEGEN
 70
     0
  9
$PSLTSCALE
 70
     1
  9
$TREEDEPTH
 70
  3020
  9
$PICKSTYLE
 70
     1
  9
$CMLSTYLE
  2
STANDARD
  9
$CMLJUST
 70
     0
  9
$CMLSCALE
 40
1.0
  9
$SAVEIMAGES
 70
     0
  0
ENDSEC
  0
SECTION
  2
CLASSES
  0
ENDSEC
  0
SECTION
  2
TABLES
  0
TABLE
  2
VPORT
  5
8
100
AcDbSymbolTable
 70
     4
  0
VPORT
  5
A42
100
AcDbSymbolTableRecord
100
AcDbViewportTableRecord
  2
*ACTIVE
 70
     0
 10
0.0
 20
0.0
 11
1.0
 21
1.0
 12
-94.621873
 22
2.064824
 13
0.0
 23
0.0
 14
1.0
 24
1.0
 15
0.0
 25
0.0
 16
0.0
 26
0.0
 36
1.0
 17
0.0
 27
0.0
 37
0.0
 40
1144.000316
 41
1.820976
 42
50.0
 43
0.0
 44
0.0
 50
0.0
 51
0.0
 71
     0
 72
   100
 73
     1
 74
     1
 75
     0
 76
     0
 77
     0
 78
     0
  0
ENDTAB
  0
TABLE
  2
LTYPE
  5
5
100
AcDbSymbolTable
 70
     5
  0
LTYPE
  5
13
100
AcDbSymbolTableRecord
100
AcDbLinetypeTableRecord
  2
BYBLOCK
 70
     0
  3

 72
    65
 73
     0
 40
0.0
  0
LTYPE
  5
14
100
AcDbSymbolTableRecord
100
AcDbLinetypeTableRecord
  2
BYLAYER
 70
     0
  3

 72
    65
 73
     0
 40
0.0
  0
LTYPE
  5
15
100
AcDbSymbolTableRecord
100
AcDbLinetypeTableRecord
  2
CONTINUOUS
 70
    64
  3
Solid line
 72
    65
 73
     0
 40
0.0
  0
LTYPE
  5
1E
100
AcDbSymbolTableRecord
100
AcDbLinetypeTableRecord
  2
DASHED
 70
    64
  3
__ __ __ __ __ __ __ __ __ __ __ __ __ __ __
 72
    65
 73
     2
 40
3.5
 49
2.0
 74
     0
 49
-1.5
 74
     0
  0
LTYPE
  5
1F
100
AcDbSymbolTableRecord
100
AcDbLinetypeTableRecord
  2
CENTER
 70
    64
  3
____ _ ____ _ ____ _ ____ _ ____ _ ____ _ ____
 72
    65
 73
     4
 40
17.5
 49
13.0
 74
     0
 49
-1.5
 74
     0
 49
1.5
 74
     0
 49
-1.5
 74
     0
  0
LTYPE
  5
20
100
AcDbSymbolTableRecord
100
AcDbLinetypeTableRecord
  2
PHANTOM
 70
    64
  3
_____ _ _ _____ _ _ _____ _ _ _____ _ _ ____  
 72
    65
 73
     6
 40
15.5
 49
8.0
 74
     0
 49
-1.5
 74
     0
 49
1.5
 74
     0
 49
-1.5
 74
     0
 49
1.5
 74
     0
 49
-1.5
 74
     0
  0
LTYPE
  5
21
100
AcDbSymbolTableRecord
100
AcDbLinetypeTableRecord
  2
DOT
 70
    64
  3
. . . . . . . . . . . . . . . . . . . . . . . .
 72
    65
 73
     2
 40
0.25
 49
0.0
 74
     0
 49
-0.25
 74
     0
  0
ENDTAB
  0
TABLE
  2
LAYER
  5
2
100
AcDbSymbolTable
 70
     1
  0
LAYER
  5
F
100
AcDbSymbolTableRecord
100
AcDbLayerTableRecord
  2
0
 70
     0
 62
     7
  6
CONTINUOUS
  0
ENDTAB
  0
TABLE
  2
STYLE
  5
3
100
AcDbSymbolTable
 70
     1
  0
STYLE
  5
10
100
AcDbSymbolTableRecord
100
AcDbTextStyleTableRecord
  2
STANDARD
 70
     0
 40
0.0
 41
1.0
 50
0.0
 71
     0
 42
0.2
  3
txt
  4

  0
ENDTAB
  0
TABLE
  2
VIEW
  5
6
100
AcDbSymbolTable
 70
     0
  0
ENDTAB
  0
TABLE
  2
UCS
  5
7
100
AcDbSymbolTable
 70
     0
  0
ENDTAB
  0
TABLE
  2
APPID
  5
9
100
AcDbSymbolTable
 70
     1
  0
APPID
  5
11
100
AcDbSymbolTableRecord
100
AcDbRegAppTableRecord
  2
ACAD
 70
     0
  0
ENDTAB
  0
TABLE
  2
DIMSTYLE
  5
A
100
AcDbSymbolTable
 70
     1
  0
DIMSTYLE
105
A3F
100
AcDbSymbolTableRecord
100
AcDbDimStyleTableRecord
  2
STANDARD
 70
     0
  3

  4

  5

  6

  7

 40
1.0
 41
0.18
 42
0.0625
 43
0.38
 44
0.18
 45
0.0
 46
0.0
 47
0.0
 48
0.0
140
0.18
141
0.09
142
0.0
143
25.4
144
1.0
145
0.0
146
1.0
147
0.09
 71
     0
 72
     0
 73
     1
 74
     1
 75
     0
 76
     0
 77
     0
 78
     0
170
     0
171
     2
172
     0
173
     0
174
     0
175
     0
176
     0
177
     0
178
     0
270
     2
271
     4
272
     4
273
     2
274
     2
340
10
275
     0
280
     0
281
     0
282
     0
283
     1
284
     0
285
     0
286
     0
287
     3
288
     0
  0
ENDTAB
  0
TABLE
  2
BLOCK_RECORD
  5
1
100
AcDbSymbolTable
 70
     0
  0
BLOCK_RECORD
  5
19
100
AcDbSymbolTableRecord
100
AcDbBlockTableRecord
  2
*MODEL_SPACE
  0
BLOCK_RECORD
  5
16
100
AcDbSymbolTableRecord
100
AcDbBlockTableRecord
  2
*PAPER_SPACE
  0
ENDTAB
  0
ENDSEC
  0
SECTION
  2
BLOCKS
  0
BLOCK
  5
1A
100
AcDbEntity
  8
0
100
AcDbBlockBegin
  2
*MODEL_SPACE
 70
     0
 10
0.0
 20
0.0
 30
0.0
  3
*MODEL_SPACE
  1

  0
ENDBLK
  5
1B
100
AcDbEntity
  8
0
100
AcDbBlockEnd
  0
BLOCK
  5
17
100
AcDbEntity
 67
     1
  8
0
100
AcDbBlockBegin
  2
*PAPER_SPACE
 70
     0
 10
0.0
 20
0.0
 30
0.0
  3
*PAPER_SPACE
  1

  0
ENDBLK
  5
18
100
AcDbEntity
 67
     1
  8
0
100
AcDbBlockEnd
  0
ENDSEC
  0
SECTION
  2
ENTITIES
  0
LINE
  5
22
100
AcDbEntity
  8
0
  6
CONTINUOUS
 62
     7
100
AcDbLine
 10
-535.0
 20
572.0
 30
0.0
 11
-535.0
 21
-572.0
 31
0.0
  0
LINE
  5
23
100
AcDbEntity
  8
0
  6
CONTINUOUS
 62
     7
100
AcDbLine
 10
-535.0
 20
556.0
 30
0.0
 11
535.0
 21
556.0
 31
0.0
  0
LINE
  5
24
100
AcDbEntity
  8
0
  6
CONTINUOUS
 62
     7
100
AcDbLine
 10
-535.0
 20
548.0
 30
0.0
 11
535.0
 21
548.0
 31
0.0
  0
LINE
  5
25
100
AcDbEntity
  8
0
  6
CONTINUOUS
 62
     7
100
AcDbLine
 10
-535.0
 20
540.0
 30
0.0
 11
535.0
 21
540.0
 31
0.0
  0
LINE
  5
26
100
AcDbEntity
  8
0
  6
CONTINUOUS
 62
     7
100
AcDbLine
 10
-535.0
 20
532.0
 30
0.0
 11
535.0
 21
532.0
 31
0.0
  0
LINE
  5
27
100
AcDbEntity
  8
0
  6
CONTINUOUS
 62
     7
100
AcDbLine
 10
-535.0
 20
-572.0
 30
0.0
 11
535.0
 21
-572.0
 31
0.0
  0
LINE
  5
28
100
AcDbEntity
  8
0
  6
CONTINUOUS
 62
     7
100
AcDbLine
 10
-535.0
 20
194.0
 30
0.0
 11
535.0
 21
194.0
 31
0.0
  0
LINE
  5
29
100
AcDbEntity
  8
0
  6
CONTINUOUS
 62
     7
100
AcDbLine
 10
-535.0
 20
186.0
 30
0.0
 11
535.0
 21
186.0
 31
0.0
  0
LINE
  5
2A
100
AcDbEntity
  8
0
  6
CONTINUOUS
 62
     7
100
AcDbLine
 10
-535.0
 20
178.0
 30
0.0
 11
535.0
 21
178.0
 31
0.0
  0
LINE
  5
2B
100
AcDbEntity
  8
0
  6
CONTINUOUS
 62
     7
100
AcDbLine
 10
-535.0
 20
170.0
 30
0.0
 11
535.0
 21
170.0
 31
0.0
  0
LINE
  5
2C
100
AcDbEntity
  8
0
  6
CONTINUOUS
 62
     7
100
AcDbLine
 10
-535.0
 20
162.0
 30
0.0
 11
535.0
 21
162.0
 31
0.0
  0
LINE
  5
2D
100
AcDbEntity
  8
0
  6
CONTINUOUS
 62
     7
100
AcDbLine
 10
-535.0
 20
-168.0
 30
0.0
 11
535.0
 21
-168.0
 31
0.0
  0
LINE
  5
2E
100
AcDbEntity
  8
0
  6
CONTINUOUS
 62
     7
100
AcDbLine
 10
-535.0
 20
-178.0
 30
0.0
 11
535.0
 21
-178.0
 31
0.0
  0
LINE
  5
2F
100
AcDbEntity
  8
0
  6
CONTINUOUS
 62
     7
100
AcDbLine
 10
-535.0
 20
572.0
 30
0.0
 11
535.0
 21
572.0
 31
0.0
  0
LINE
  5
30
100
AcDbEntity
  8
0
  6
CONTINUOUS
 62
     7
100
AcDbLine
 10
385.0
 20
564.0
 30
0.0
 11
535.0
 21
564.0
 31
0.0
  0
LINE
  5
31
100
AcDbEntity
  8
0
  6
CONTINUOUS
 62
     7
100
AcDbLine
 10
-435.0
 20
572.0
 30
0.0
 11
-435.0
 21
556.0
 31
0.0
  0
LINE
  5
32
100
AcDbEntity
  8
0
  6
CONTINUOUS
 62
     7
100
AcDbLine
 10
-425.0
 20
556.0
 30
0.0
 11
-425.0
 21
-168.0
 31
0.0
  0
LINE
  5
33
100
AcDbEntity
  8
0
  6
CONTINUOUS
 62
     7
100
AcDbLine
 10
-195.0
 20
170.0
 30
0.0
 11
-195.0
 21
-168.0
 31
0.0
  0
LINE
  5
34
100
AcDbEntity
  8
0
  6
CONTINUOUS
 62
     7
100
AcDbLine
 10
-195.0
 20
532.0
 30
0.0
 11
-195.0
 21
194.0
 31
0.0
  0
LINE
  5
35
100
AcDbEntity
  8
0
  6
CONTINUOUS
 62
     7
100
AcDbLine
 10
35.0
 20
178.0
 30
0.0
 11
35.0
 21
-168.0
 31
0.0
  0
LINE
  5
36
100
AcDbEntity
  8
0
  6
CONTINUOUS
 62
     7
100
AcDbLine
 10
35.0
 20
540.0
 30
0.0
 11
35.0
 21
194.0
 31
0.0
  0
LINE
  5
37
100
AcDbEntity
  8
0
  6
CONTINUOUS
 62
     7
100
AcDbLine
 10
285.0
 20
170.0
 30
0.0
 11
285.0
 21
-168.0
 31
0.0
  0
LINE
  5
38
100
AcDbEntity
  8
0
  6
CONTINUOUS
 62
     7
100
AcDbLine
 10
285.0
 20
532.0
 30
0.0
 11
285.0
 21
194.0
 31
0.0
  0
LINE
  5
39
100
AcDbEntity
  8
0
  6
CONTINUOUS
 62
     7
100
AcDbLine
 10
535.0
 20
572.0
 30
0.0
 11
535.0
 21
-572.0
 31
0.0
  0
LINE
  5
3A
100
AcDbEntity
  8
0
  6
CONTINUOUS
 62
     7
100
AcDbLine
 10
475.0
 20
572.0
 30
0.0
 11
475.0
 21
556.0
 31
0.0
  0
LINE
  5
3B
100
AcDbEntity
  8
0
  6
CONTINUOUS
 62
     7
100
AcDbLine
 10
445.0
 20
572.0
 30
0.0
 11
445.0
 21
556.0
 31
0.0
  0
LINE
  5
3C
100
AcDbEntity
  8
0
  6
CONTINUOUS
 62
     7
100
AcDbLine
 10
385.0
 20
572.0
 30
0.0
 11
385.0
 21
556.0
 31
0.0
  0
LINE
  5
3D
100
AcDbEntity
  8
0
  6
CONTINUOUS
 62
     7
100
AcDbLine
 10
-235.0
 20
-168.0
 30
0.0
 11
-235.0
 21
-572.0
 31
0.0
  0
LINE
  5
3E
100
AcDbEntity
  8
0
  6
CONTINUOUS
 62
     7
100
AcDbLine
 10
125.0
 20
-168.0
 30
0.0
 11
125.0
 21
-572.0
 31
0.0
  0
LINE
  5
3F
100
AcDbEntity
  8
0
  6
CONTINUOUS
 62
     7
100
AcDbLine
 10
-535.0
 20
524.0
 30
0.0
 11
535.0
 21
524.0
 31
0.0
  0
TEXT
  5
40
100
AcDbEntity
  8
0
  6
CONTINUOUS
 62
     7
100
AcDbText
 10
-485.843
 20
550.4
 30
0.0
 40
3.2
  1
use
 41
1.017891
100
AcDbText
  0
TEXT
  5
41
100
AcDbEntity
  8
0
  6
CONTINUOUS
 62
     7
100
AcDbText
 10
-500.243
 20
542.4
 30
0.0
 40
3.2
  1
Bracket type
 41
1.004089
100
AcDbText
  0
TEXT
  5
42
100
AcDbEntity
  8
0
  6
CONTINUOUS
 62
     7
100
AcDbText
 10
-508.243
 20
534.4
 30
0.0
 40
3.2
  1
Screwing position
 41
1.002863
100
AcDbText
  0
TEXT
  5
43
100
AcDbEntity
  8
0
  6
CONTINUOUS
 62
     7
100
AcDbText
 10
-498.643
 20
526.4
 30
0.0
 40
3.2
  1
Orientation
 41
1.004473
100
AcDbText
  0
TEXT
  5
44
100
AcDbEntity
  8
0
  6
CONTINUOUS
 62
     7
100
AcDbText
 10
33.057
 20
550.4
 30
0.0
 40
3.2
  1
for moving end
 41
1.003491
100
AcDbText
  0
TEXT
  5
45
100
AcDbEntity
  8
0
  6
CONTINUOUS
 62
     7
100
AcDbText
 10
7.457
 20
542.4
 30
0.0
 40
3.2
  1
Hole type (for moving end) (M)
 41
1.001608
100
AcDbText
  0
TEXT
  5
46
100
AcDbEntity
  8
0
  6
CONTINUOUS
 62
     7
100
AcDbText
 10
-210.543
 20
534.4
 30
0.0
 40
3.2
  1
Inside (A)
 41
1.004935
100
AcDbText
  0
TEXT
  5
47
100
AcDbEntity
  8
0
  6
CONTINUOUS
 62
     7
100
AcDbText
 10
-335.143
 20
526.4
 30
0.0
 40
3.2
  1
Outside (PUM-204-PA)
 41
1.003045
100
AcDbText
  0
TEXT
  5
48
100
AcDbEntity
  8
0
  6
CONTINUOUS
 62
     7
100
AcDbText
 10
-103.543
 20
526.4
 30
0.0
 40
3.2
  1
Inside (PUM-204-PB)
 41
1.003253
100
AcDbText
  0
TEXT
  5
49
100
AcDbEntity
  8
0
  6
CONTINUOUS
 62
     7
100
AcDbText
 10
267.857
 20
534.4
 30
0.0
 40
3.2
  1
Outside (B)
 41
1.004473
100
AcDbText
  0
TEXT
  5
4A
100
AcDbEntity
  8
0
  6
CONTINUOUS
 62
     7
100
AcDbText
 10
134.857
 20
526.4
 30
0.0
 40
3.2
  1
Outside (PUM-204-PA)
 41
1.003045
100
AcDbText
  0
TEXT
  5
4B
100
AcDbEntity
  8
0
  6
CONTINUOUS
 62
     7
100
AcDbText
 10
386.457
 20
526.4
 30
0.0
 40
3.2
  1
Inside (PUM-204-PB)
 41
1.003253
100
AcDbText
  0
TEXT
  5
4C
100
AcDbEntity
  8
0
  6
CONTINUOUS
 62
     7
100
AcDbText
 10
134.857
 20
164.4
 30
0.0
 40
3.2
  1
Outside (PUM-204-HAE)
 41
1.003045
100
AcDbText
  0
TEXT
  5
4D
100
AcDbEntity
  8
0
  6
CONTINUOUS
 62
     7
100
AcDbText
 10
-210.543
 20
172.4
 30
0.0
 40
3.2
  1
Inside (A)
 41
1.004935
100
AcDbText
  0
TEXT
  5
4E
100
AcDbEntity
  8
0
  6
CONTINUOUS
 62
     7
100
AcDbText
 10
-103.543
 20
164.4
 30
0.0
 40
3.2
  1
Inside (PUM-204-HA)
 41
1.003253
100
AcDbText
  0
TEXT
  5
4F
100
AcDbEntity
  8
0
  6
CONTINUOUS
 62
     7
100
AcDbText
 10
-335.143
 20
164.4
 30
0.0
 40
3.2
  1
Outside (PUM-204-HA)
 41
1.003045
100
AcDbText
  0
TEXT
  5
50
100
AcDbEntity
  8
0
  6
CONTINUOUS
 62
     7
100
AcDbText
 10
267.857
 20
172.4
 30
0.0
 40
3.2
  1
Outside (B)
 41
1.004473
100
AcDbText
  0
TEXT
  5
51
100
AcDbEntity
  8
0
  6
CONTINUOUS
 62
     7
100
AcDbText
 10
386.457
 20
164.4
 30
0.0
 40
3.2
  1
Inside (PUM-204-HAE)
 41
1.003253
100
AcDbText
  0
TEXT
  5
52
100
AcDbEntity
  8
0
  6
CONTINUOUS
 62
     7
100
AcDbText
 10
34.657
 20
188.4
 30
0.0
 40
3.2
  1
for fixed end
 41
1.003766
100
AcDbText
  0
TEXT
  5
53
100
AcDbEntity
  8
0
  6
CONTINUOUS
 62
     7
100
AcDbText
 10
7.457
 20
180.4
 30
0.0
 40
3.2
  1
Pivot type (for fixed end) (F)
 41
1.001608
100
AcDbText
  0
TEXT
  5
54
100
AcDbEntity
  8
0
  6
CONTINUOUS
 62
     7
100
AcDbText
 10
-498.643
 20
164.4
 30
0.0
 40
3.2
  1
Orientation
 41
1.004473
100
AcDbText
  0
TEXT
  5
55
100
AcDbEntity
  8
0
  6
CONTINUOUS
 62
     7
100
AcDbText
 10
-500.243
 20
180.4
 30
0.0
 40
3.2
  1
Bracket type
 41
1.004089
100
AcDbText
  0
TEXT
  5
56
100
AcDbEntity
  8
0
  6
CONTINUOUS
 62
     7
100
AcDbText
 10
-508.243
 20
172.4
 30
0.0
 40
3.2
  1
Screwing position
 41
1.002863
100
AcDbText
  0
TEXT
  5
57
100
AcDbEntity
  8
0
  6
CONTINUOUS
 62
     7
100
AcDbText
 10
-485.843
 20
188.4
 30
0.0
 40
3.2
  1
use
 41
1.017891
100
AcDbText
  0
TEXT
  5
58
100
AcDbEntity
  8
0
  6
CONTINUOUS
 62
     7
100
AcDbText
 10
-389.343
 20
-174.6
 30
0.0
 40
3.2
  1
PU206-38
 41
1.017891
100
AcDbText
  0
TEXT
  5
59
100
AcDbEntity
  8
0
  6
CONTINUOUS
 62
     7
100
AcDbText
 10
-59.343
 20
-174.6
 30
0.0
 40
3.2
  1
PU206-50
 41
1.017891
100
AcDbText
  0
TEXT
  5
5A
100
AcDbEntity
  8
0
  6
CONTINUOUS
 62
     7
100
AcDbText
 10
320.857
 20
-174.6
 30
0.0
 40
3.2
  1
1BLOCK
 41
1.008419
100
AcDbText
  0
TEXT
  5
5B
100
AcDbEntity
  8
0
  6
CONTINUOUS
 62
     7
100
AcDbText
 10
397.857
 20
566.4
 30
0.0
 40
3.2
  1
KOGANEI CORP.
 41
1.004473
100
AcDbText
  0
TEXT
  5
5C
100
AcDbEntity
  8
0
  6
CONTINUOUS
 62
     7
100
AcDbText
 10
452.457
 20
566.4
 30
0.0
 40
3.2
  1
TITLE
 41
1.010223
100
AcDbText
  0
TEXT
  5
5D
100
AcDbEntity
  8
0
  6
CONTINUOUS
 62
     7
100
AcDbText
 10
483.057
 20
566.4
 30
0.0
 40
3.2
  1
Plachain Ducts
 41
1.003491
100
AcDbText
  0
TEXT
  5
5E
100
AcDbEntity
  8
0
  6
CONTINUOUS
 62
     7
100
AcDbText
 10
452.457
 20
558.4
 30
0.0
 40
3.2
  1
MODEL
 41
1.010223
100
AcDbText
  0
TEXT
  5
5F
100
AcDbEntity
  8
0
  6
CONTINUOUS
 62
     7
100
AcDbText
 10
489.457
 20
558.4
 30
0.0
 40
3.2
  1
PU206-38,-50
 41
1.004935
100
AcDbText
  0
TEXT
  5
60
100
AcDbEntity
  8
0
  6
CONTINUOUS
 62
     7
100
AcDbText
 10
410.657
 20
558.4
 30
0.0
 40
3.2
  1
1:1
 41
1.017891
100
AcDbText
  0
TEXT
  5
61
100
AcDbEntity
  8
0
  6
CONTINUOUS
 62
     7
100
AcDbText
 10
-504.28594
 20
561.5
 30
0.0
 40
5.0
  1
PU206
 41
1.006223
100
AcDbText
  0
POINT
  5
62
100
AcDbEntity
  8
0
  6
CONTINUOUS
 62
     7
100
AcDbPoint
 10
-470.0
 20
455.0
 30
0.0
  0
POINT
  5
63
100
AcDbEntity
  8
0
  6
CONTINUOUS
 62
     7
100
AcDbPoint
 10
-457.69052
 20
455.0
 30
0.0
  0
LINE
  5
64
100
AcDbEntity
  8
0
  6
CONTINUOUS
 62
     7
100
AcDbLine
 10
-482.0
 20
483.2
 30
0.0
 11
-482.0
 21
475.0
 31
0.0
  0
LINE
  5
65
100
AcDbEntity
  8
0
  6
CONTINUOUS
 62
     7
100
AcDbLine
 10
-478.5
 20
475.0
 30
0.0
 11
-478.5
 21
435.0
 31
0.0
  0
LINE
  5
66
100
AcDbEntity
  8
0
  6
CONTINUOUS
 62
     7
100
AcDbLine
 10
-490.0
 20
483.2
 30
0.0
 11
-490.0
 21
475.0
 31
0.0
  0
LINE
  5
67
100
AcDbEntity
  8
0
  6
CONTINUOUS
 62
     7
100
AcDbLine
 10
-490.0
 20
483.2
 30
0.0
 11
-482.0
 21
483.2
 31
0.0
  0
LINE
  5
68
100
AcDbEntity
  8
0
  6
CONTINUOUS
 62
     7
100
AcDbLine
 10
-507.30948
 20
480.0
 30
0.0
 11
-496.69053
 21
480.0
 31
0.0
  0
LINE
  5
69
100
AcDbEntity
  8
0
  6
CONTINUOUS
 62
     7
100
AcDbLine
 10
-496.69053
 20
475.0
 30
0.0
 11
-490.0
 21
475.0
 31
0.0
  0
LINE
  5
6A
100
AcDbEntity
  8
0
  6
CONTINUOUS
 62
     7
100
AcDbLine
 10
-482.0
 20
426.79901
 30
0.0
 11
-482.0
 21
435.0
 31
0.0
  0
LINE
  5
6B
100
AcDbEntity
  8
0
  6
CONTINUOUS
 62
     7
100
AcDbLine
 10
-482.0
 20
475.0
 30
0.0
 11
-464.69052
 21
475.0
 31
0.0
  0
LINE
  5
6C
100
AcDbEntity
  8
0
  6
CONTINUOUS
 62
     7
100
AcDbLine
 10
-475.31945
 20
485.0
 30
0.0
 11
-507.30948
 21
485.0
 31
0.0
  0
LINE
  5
6D
100
AcDbEntity
  8
0
  6
CONTINUOUS
 62
     7
100
AcDbLine
 10
-490.0
 20
482.5
 30
0.0
 11
-482.0
 21
482.5
 31
0.0
  0
LINE
  5
6E
100
AcDbEntity
  8
0
  6
CENTER
 62
     7
100
AcDbLine
 10
-492.0
 20
479.0
 30
0.0
 11
-480.0
 21
479.0
 31
0.0
  0
LINE
  5
6F
100
AcDbEntity
  8
0
  6
CONTINUOUS
 62
     7
100
AcDbLine
 10
-493.5
 20
475.0
 30
0.0
 11
-493.5
 21
435.0
 31
0.0
  0
LINE
  5
70
100
AcDbEntity
  8
0
  6
CONTINUOUS
 62
     7
100
AcDbLine
 10
-477.0
 20
475.0
 30
0.0
 11
-477.0
 21
435.0
 31
0.0
  0
LINE
  5
71
100
AcDbEntity
  8
0
  6
CONTINUOUS
 62
     7
100
AcDbLine
 10
-495.0
 20
475.0
 30
0.0
 11
-495.0
 21
435.0
 31
0.0
  0
LINE
  5
72
100
AcDbEntity
  8
0
  6
CONTINUOUS
 62
     7
100
AcDbLine
 10
-490.0
 20
426.79901
 30
0.0
 11
-490.0
 21
435.0
 31
0.0
  0
LINE
  5
73
100
AcDbEntity
  8
0
  6
CENTER
 62
     7
100
AcDbLine
 10
-502.0
 20
418.0
 30
0.0
 11
-502.0
 21
492.0
 31
0.0
  0
LINE
  5
74
100
AcDbEntity
  8
0
  6
CONTINUOUS
 62
     7
100
AcDbLine
 10
-496.69053
 20
480.0
 30
0.0
 11
-496.69053
 21
475.0
 31
0.0
  0
LINE
  5
75
100
AcDbEntity
  8
0
  6
CENTER
 62
     7
100
AcDbLine
 10
-470.0
 20
418.0
 30
0.0
 11
-470.0
 21
492.0
 31
0.0
  0
LINE
  5
76
100
AcDbEntity
  8
0
  6
CONTINUOUS
 62
     7
100
AcDbLine
 10
-490.0
 20
426.8
 30
0.0
 11
-482.0
 21
426.8
 31
0.0
  0
LINE
  5
77
100
AcDbEntity
  8
0
  6
CONTINUOUS
 62
     7
100
AcDbLine
 10
-507.30948
 20
430.0
 30
0.0
 11
-496.69053
 21
430.0
 31
0.0
  0
LINE
  5
78
100
AcDbEntity
  8
0
  6
CONTINUOUS
 62
     7
100
AcDbLine
 10
-496.69053
 20
435.0
 30
0.0
 11
-490.0
 21
435.0
 31
0.0
  0
LINE
  5
79
100
AcDbEntity
  8
0
  6
CONTINUOUS
 62
     7
100
AcDbLine
 10
-482.0
 20
435.0
 30
0.0
 11
-464.69052
 21
435.0
 31
0.0
  0
LINE
  5
7A
100
AcDbEntity
  8
0
  6
CONTINUOUS
 62
     7
100
AcDbLine
 10
-475.31945
 20
425.0
 30
0.0
 11
-507.30948
 21
425.0
 31
0.0
  0
LINE
  5
7B
100
AcDbEntity
  8
0
  6
CONTINUOUS
 62
     7
100
AcDbLine
 10
-490.0
 20
427.5
 30
0.0
 11
-482.0
 21
427.5
 31
0.0
  0
LINE
  5
7C
100
AcDbEntity
  8
0
  6
CENTER
 62
     7
100
AcDbLine
 10
-492.0
 20
431.0
 30
0.0
 11
-480.0
 21
431.0
 31
0.0
  0
LINE
  5
7D
100
AcDbEntity
  8
0
  6
CONTINUOUS
 62
     7
100
AcDbLine
 10
-496.69053
 20
435.0
 30
0.0
 11
-496.69053
 21
430.0
 31
0.0
  0
LINE
  5
7E
100
AcDbEntity
  8
0
  6
CENTER
 62
     7
100
AcDbLine
 10
-514.30948
 20
455.0
 30
0.0
 11
-457.69052
 21
455.0
 31
0.0
  0
LINE
  5
7F
100
AcDbEntity
  8
0
  6
CONTINUOUS
 62
     7
100
AcDbLine
 10
-475.30947
 20
430.0
 30
0.0
 11
-475.30947
 21
425.0
 31
0.0
  0
LINE
  5
80
100
AcDbEntity
  8
0
  6
CONTINUOUS
 62
     7
100
AcDbLine
 10
-475.30947
 20
485.0
 30
0.0
 11
-475.30947
 21
480.0
 31
0.0
  0
LINE
  5
81
100
AcDbEntity
  8
0
  6
CONTINUOUS
 62
     7
100
AcDbLine
 10
-475.30947
 20
480.0
 30
0.0
 11
-464.69052
 21
480.0
 31
0.0
  0
LINE
  5
82
100
AcDbEntity
  8
0
  6
CONTINUOUS
 62
     7
100
AcDbLine
 10
-475.30947
 20
430.0
 30
0.0
 11
-464.69052
 21
430.0
 31
0.0
  0
POINT
  5
83
100
AcDbEntity
  8
0
  6
CONTINUOUS
 62
     7
100
AcDbPoint
 10
-470.0
 20
359.0
 30
0.0
  0
POINT
  5
84
100
AcDbEntity
  8
0
  6
CONTINUOUS
 62
     7
100
AcDbPoint
 10
-464.0
 20
359.0
 30
0.0
  0
LINE
  5
85
100
AcDbEntity
  8
0
  6
CENTER
 62
     7
100
AcDbLine
 10
-464.0
 20
359.0
 30
0.0
 11
-476.0
 21
359.0
 31
0.0
  0
LINE
  5
86
100
AcDbEntity
  8
0
  6
CENTER
 62
     7
100
AcDbLine
 10
-470.0
 20
365.0
 30
0.0
 11
-470.0
 21
353.0
 31
0.0
  0
LINE
  5
87
100
AcDbEntity
  8
0
  6
CENTER
 62
     7
100
AcDbLine
 10
-502.0
 20
365.0
 30
0.0
 11
-502.0
 21
353.0
 31
0.0
  0
LINE
  5
88
100
AcDbEntity
  8
0
  6
CONTINUOUS
 62
     7
100
AcDbLine
 10
-478.74467
 20
351.53135
 30
0.0
 11
-476.43299
 21
348.82472
 31
0.0
  0
LINE
  5
89
100
AcDbEntity
  8
0
  6
CONTINUOUS
 62
     7
100
AcDbLine
 10
-502.0
 20
348.0
 30
0.0
 11
-470.0
 21
348.0
 31
0.0
  0
LINE
  5
8A
100
AcDbEntity
  8
0
  6
CONTINUOUS
 62
     7
100
AcDbLine
 10
-472.5
 20
362.1225
 30
0.0
 11
-472.5
 21
355.8775
 31
0.0
  0
LINE
  5
8B
100
AcDbEntity
  8
0
  6
CONTINUOUS
 62
     7
100
AcDbLine
 10
-502.0
 20
370.0
 30
0.0
 11
-470.0
 21
370.0
 31
0.0
  0
LINE
  5
8C
100
AcDbEntity
  8
0
  6
CENTER
 62
     7
100
AcDbLine
 10
-496.0
 20
359.0
 30
0.0
 11
-508.0
 21
359.0
 31
0.0
  0
CIRCLE
  5
8D
100
AcDbEntity
  8
0
  6
CONTINUOUS
 62
     7
100
AcDbCircle
 10
-470.0
 20
359.0
 30
0.0
 40
4.0
  0
ARC
  5
8E
100
AcDbEntity
  8
0
  6
CONTINUOUS
 62
     7
100
AcDbCircle
 10
-470.0
 20
359.0
 30
0.0
 40
11.5
100
AcDbArc
 50
118.95503
 51
220.49999
  0
ARC
  5
8F
100
AcDbEntity
  8
0
  6
CONTINUOUS
 62
     7
100
AcDbCircle
 10
-502.0
 20
359.0
 30
0.0
 40
11.0
100
AcDbArc
 50
90.000003
 51
270.0
  0
ARC
  5
90
100
AcDbEntity
  8
0
  6
CONTINUOUS
 62
     7
100
AcDbCircle
 10
-475.80947
 20
369.5
 30
0.0
 40
0.5
100
AcDbArc
 50
298.95503
 51
90.000003
  0
ARC
  5
91
100
AcDbEntity
  8
0
  6
CONTINUOUS
 62
     7
100
AcDbCircle
 10
-476.8132
 20
348.5
 30
0.0
 40
0.5
100
AcDbArc
 50
270.0
 51
40.499999
  0
POINT
  5
92
100
AcDbEntity
  8
0
  6
CONTINUOUS
 62
     7
100
AcDbPoint
 10
-470.0
 20
263.0
 30
0.0
  0
POINT
  5
93
100
AcDbEntity
  8
0
  6
CONTINUOUS
 62
     7
100
AcDbPoint
 10
-457.69052
 20
263.0
 30
0.0
  0
LINE
  5
94
100
AcDbEntity
  8
0
  6
CENTER
 62
     7
100
AcDbLine
 10
-470.0
 20
226.0
 30
0.0
 11
-470.0
 21
300.0
 31
0.0
  0
LINE
  5
95
100
AcDbEntity
  8
0
  6
CONTINUOUS
 62
     7
100
AcDbLine
 10
-496.69053
 20
288.0
 30
0.0
 11
-496.69053
 21
283.0
 31
0.0
  0
LINE
  5
96
100
AcDbEntity
  8
0
  6
CENTER
 62
     7
100
AcDbLine
 10
-502.0
 20
226.0
 30
0.0
 11
-502.0
 21
300.0
 31
0.0
  0
LINE
  5
97
100
AcDbEntity
  8
0
  6
CONTINUOUS
 62
     7
100
AcDbLine
 10
-495.0
 20
283.0
 30
0.0
 11
-495.0
 21
243.0
 31
0.0
  0
LINE
  5
98
100
AcDbEntity
  8
0
  6
CONTINUOUS
 62
     7
100
AcDbLine
 10
-477.0
 20
283.0
 30
0.0
 11
-477.0
 21
243.0
 31
0.0
  0
LINE
  5
99
100
AcDbEntity
  8
0
  6
CONTINUOUS
 62
     7
100
AcDbLine
 10
-475.31945
 20
293.0
 30
0.0
 11
-507.30948
 21
293.0
 31
0.0
  0
LINE
  5
9A
100
AcDbEntity
  8
0
  6
CONTINUOUS
 62
     7
100
AcDbLine
 10
-477.0
 20
283.0
 30
0.0
 11
-464.69052
 21
283.0
 31
0.0
  0
LINE
  5
9B
100
AcDbEntity
  8
0
  6
CONTINUOUS
 62
     7
100
AcDbLine
 10
-496.69053
 20
283.0
 30
0.0
 11
-495.0
 21
283.0
 31
0.0
  0
LINE
  5
9C
100
AcDbEntity
  8
0
  6
CONTINUOUS
 62
     7
100
AcDbLine
 10
-507.30948
 20
288.0
 30
0.0
 11
-496.69053
 21
288.0
 31
0.0
  0
LINE
  5
9D
100
AcDbEntity
  8
0
  6
CONTINUOUS
 62
     7
100
AcDbLine
 10
-507.30948
 20
238.0
 30
0.0
 11
-496.69053
 21
238.0
 31
0.0
  0
LINE
  5
9E
100
AcDbEntity
  8
0
  6
CONTINUOUS
 62
     7
100
AcDbLine
 10
-496.69053
 20
243.0
 30
0.0
 11
-495.0
 21
243.0
 31
0.0
  0
LINE
  5
9F
100
AcDbEntity
  8
0
  6
CONTINUOUS
 62
     7
100
AcDbLine
 10
-477.0
 20
243.0
 30
0.0
 11
-464.69052
 21
243.0
 31
0.0
  0
LINE
  5
A0
100
AcDbEntity
  8
0
  6
CONTINUOUS
 62
     7
100
AcDbLine
 10
-475.31945
 20
233.0
 30
0.0
 11
-507.30948
 21
233.0
 31
0.0
  0
LINE
  5
A1
100
AcDbEntity
  8
0
  6
CONTINUOUS
 62
     7
100
AcDbLine
 10
-496.69053
 20
243.0
 30
0.0
 11
-496.69053
 21
238.0
 31
0.0
  0
LINE
  5
A2
100
AcDbEntity
  8
0
  6
CENTER
 62
     7
100
AcDbLine
 10
-514.30948
 20
263.0
 30
0.0
 11
-457.69052
 21
263.0
 31
0.0
  0
LINE
  5
A3
100
AcDbEntity
  8
0
  6
CONTINUOUS
 62
     7
100
AcDbLine
 10
-475.30947
 20
238.0
 30
0.0
 11
-475.30947
 21
233.0
 31
0.0
  0
LINE
  5
A4
100
AcDbEntity
  8
0
  6
CONTINUOUS
 62
     7
100
AcDbLine
 10
-475.30947
 20
293.0
 30
0.0
 11
-475.30947
 21
288.0
 31
0.0
  0
LINE
  5
A5
100
AcDbEntity
  8
0
  6
CONTINUOUS
 62
     7
100
AcDbLine
 10
-475.30947
 20
288.0
 30
0.0
 11
-464.69052
 21
288.0
 31
0.0
  0
LINE
  5
A6
100
AcDbEntity
  8
0
  6
CONTINUOUS
 62
     7
100
AcDbLine
 10
-475.30947
 20
238.0
 30
0.0
 11
-464.69052
 21
238.0
 31
0.0
  0
POINT
  5
A7
100
AcDbEntity
  8
0
  6
CONTINUOUS
 62
     7
100
AcDbPoint
 10
-346.0
 20
436.29999
 30
0.0
  0
POINT
  5
A8
100
AcDbEntity
  8
0
  6
CONTINUOUS
 62
     7
100
AcDbPoint
 10
-328.0
 20
436.29999
 30
0.0
  0
LINE
  5
A9
100
AcDbEntity
  8
0
  6
CONTINUOUS
 62
     7
100
AcDbLine
 10
-369.30947
 20
481.69999
 30
0.0
 11
-321.0
 21
481.69999
 31
0.0
  0
LINE
  5
AA
100
AcDbEntity
  8
0
  6
CONTINUOUS
 62
     7
100
AcDbLine
 10
-350.0
 20
467.69999
 30
0.0
 11
-324.0
 21
467.69999
 31
0.0
  0
LINE
  5
AB
100
AcDbEntity
  8
0
  6
CENTER
 62
     7
100
AcDbLine
 10
-341.1
 20
473.69999
 30
0.0
 11
-350.9
 21
473.69999
 31
0.0
  0
LINE
  5
AC
100
AcDbEntity
  8
0
  6
CENTER
 62
     7
100
AcDbLine
 10
-346.0
 20
478.59999
 30
0.0
 11
-346.0
 21
468.79999
 31
0.0
  0
LINE
  5
AD
100
AcDbEntity
  8
0
  6
CONTINUOUS
 62
     7
100
AcDbLine
 10
-350.0
 20
442.29999
 30
0.0
 11
-324.0
 21
442.29999
 31
0.0
  0
LINE
  5
AE
100
AcDbEntity
  8
0
  6
CENTER
 62
     7
100
AcDbLine
 10
-328.0
 20
478.59999
 30
0.0
 11
-328.0
 21
468.79999
 31
0.0
  0
LINE
  5
AF
100
AcDbEntity
  8
0
  6
CENTER
 62
     7
100
AcDbLine
 10
-341.1
 20
436.29999
 30
0.0
 11
-350.9
 21
436.29999
 31
0.0
  0
LINE
  5
B0
100
AcDbEntity
  8
0
  6
CENTER
 62
     7
100
AcDbLine
 10
-323.1
 20
436.29999
 30
0.0
 11
-332.9
 21
436.29999
 31
0.0
  0
LINE
  5
B1
100
AcDbEntity
  8
0
  6
CENTER
 62
     7
100
AcDbLine
 10
-346.0
 20
441.19999
 30
0.0
 11
-346.0
 21
431.39999
 31
0.0
  0
LINE
  5
B2
100
AcDbEntity
  8
0
  6
CENTER
 62
     7
100
AcDbLine
 10
-328.0
 20
441.19999
 30
0.0
 11
-328.0
 21
431.39999
 31
0.0
  0
LINE
  5
B3
100
AcDbEntity
  8
0
  6
CENTER
 62
     7
100
AcDbLine
 10
-396.0
 20
417.99999
 30
0.0
 11
-396.0
 21
491.99999
 31
0.0
  0
LINE
  5
B4
100
AcDbEntity
  8
0
  6
CENTER
 62
     7
100
AcDbLine
 10
-364.0
 20
417.99999
 30
0.0
 11
-364.0
 21
491.99999
 31
0.0
  0
LINE
  5
B5
100
AcDbEntity
  8
0
  6
CONTINUOUS
 62
     7
100
AcDbLine
 10
-369.30947
 20
428.29999
 30
0.0
 11
-321.0
 21
428.29999
 31
0.0
  0
LINE
  5
B6
100
AcDbEntity
  8
0
  6
CONTINUOUS
 62
     7
100
AcDbLine
 10
-369.30947
 20
484.99999
 30
0.0
 11
-369.30947
 21
479.69999
 31
0.0
  0
LINE
  5
B7
100
AcDbEntity
  8
0
  6
CONTINUOUS
 62
     7
100
AcDbLine
 10
-369.30947
 20
430.29999
 30
0.0
 11
-369.30947
 21
424.99999
 31
0.0
  0
LINE
  5
B8
100
AcDbEntity
  8
0
  6
CENTER
 62
     7
100
AcDbLine
 10
-408.30948
 20
454.99999
 30
0.0
 11
-328.0
 21
454.99999
 31
0.0
  0
LINE
  5
B9
100
AcDbEntity
  8
0
  6
CONTINUOUS
 62
     7
100
AcDbLine
 10
-390.69053
 20
434.99999
 30
0.0
 11
-390.69053
 21
429.99999
 31
0.0
  0
LINE
  5
BA
100
AcDbEntity
  8
0
  6
CENTER
 62
     7
100
AcDbLine
 10
-386.0
 20
430.99999
 30
0.0
 11
-374.0
 21
430.99999
 31
0.0
  0
LINE
  5
BB
100
AcDbEntity
  8
0
  6
CONTINUOUS
 62
     7
100
AcDbLine
 10
-384.0
 20
427.49999
 30
0.0
 11
-376.0
 21
427.49999
 31
0.0
  0
LINE
  5
BC
100
AcDbEntity
  8
0
  6
CONTINUOUS
 62
     7
100
AcDbLine
 10
-369.31945
 20
424.99999
 30
0.0
 11
-401.30948
 21
424.99999
 31
0.0
  0
LINE
  5
BD
100
AcDbEntity
  8
0
  6
CONTINUOUS
 62
     7
100
AcDbLine
 10
-376.0
 20
434.99999
 30
0.0
 11
-353.0
 21
434.99999
 31
0.0
  0
LINE
  5
BE
100
AcDbEntity
  8
0
  6
CONTINUOUS
 62
     7
100
AcDbLine
 10
-390.69053
 20
434.99999
 30
0.0
 11
-384.0
 21
434.99999
 31
0.0
  0
LINE
  5
BF
100
AcDbEntity
  8
0
  6
CONTINUOUS
 62
     7
100
AcDbLine
 10
-401.30948
 20
429.99999
 30
0.0
 11
-390.69053
 21
429.99999
 31
0.0
  0
LINE
  5
C0
100
AcDbEntity
  8
0
  6
CONTINUOUS
 62
     7
100
AcDbLine
 10
-384.0
 20
426.79999
 30
0.0
 11
-376.0
 21
426.79999
 31
0.0
  0
LINE
  5
C1
100
AcDbEntity
  8
0
  6
CONTINUOUS
 62
     7
100
AcDbLine
 10
-390.69053
 20
479.99999
 30
0.0
 11
-390.69053
 21
474.99999
 31
0.0
  0
LINE
  5
C2
100
AcDbEntity
  8
0
  6
CONTINUOUS
 62
     7
100
AcDbLine
 10
-384.0
 20
426.799
 30
0.0
 11
-384.0
 21
434.99999
 31
0.0
  0
LINE
  5
C3
100
AcDbEntity
  8
0
  6
CONTINUOUS
 62
     7
100
AcDbLine
 10
-389.0
 20
474.99999
 30
0.0
 11
-389.0
 21
434.99999
 31
0.0
  0
LINE
  5
C4
100
AcDbEntity
  8
0
  6
CONTINUOUS
 62
     7
100
AcDbLine
 10
-371.0
 20
474.99999
 30
0.0
 11
-371.0
 21
434.99999
 31
0.0
  0
LINE
  5
C5
100
AcDbEntity
  8
0
  6
CONTINUOUS
 62
     7
100
AcDbLine
 10
-387.5
 20
474.99999
 30
0.0
 11
-387.5
 21
434.99999
 31
0.0
  0
LINE
  5
C6
100
AcDbEntity
  8
0
  6
CENTER
 62
     7
100
AcDbLine
 10
-386.0
 20
478.99999
 30
0.0
 11
-374.0
 21
478.99999
 31
0.0
  0
LINE
  5
C7
100
AcDbEntity
  8
0
  6
CONTINUOUS
 62
     7
100
AcDbLine
 10
-384.0
 20
482.49999
 30
0.0
 11
-376.0
 21
482.49999
 31
0.0
  0
LINE
  5
C8
100
AcDbEntity
  8
0
  6
CONTINUOUS
 62
     7
100
AcDbLine
 10
-369.31945
 20
484.99999
 30
0.0
 11
-401.30948
 21
484.99999
 31
0.0
  0
LINE
  5
C9
100
AcDbEntity
  8
0
  6
CONTINUOUS
 62
     7
100
AcDbLine
 10
-376.0
 20
474.99999
 30
0.0
 11
-353.0
 21
474.99999
 31
0.0
  0
LINE
  5
CA
100
AcDbEntity
  8
0
  6
CENTER
 62
     7
100
AcDbLine
 10
-323.1
 20
473.69999
 30
0.0
 11
-332.9
 21
473.69999
 31
0.0
  0
LINE
  5
CB
100
AcDbEntity
  8
0
  6
CONTINUOUS
 62
     7
100
AcDbLine
 10
-376.0
 20
426.799
 30
0.0
 11
-376.0
 21
434.99999
 31
0.0
  0
LINE
  5
CC
100
AcDbEntity
  8
0
  6
CONTINUOUS
 62
     7
100
AcDbLine
 10
-390.69053
 20
474.99999
 30
0.0
 11
-384.0
 21
474.99999
 31
0.0
  0
LINE
  5
CD
100
AcDbEntity
  8
0
  6
CONTINUOUS
 62
     7
100
AcDbLine
 10
-401.30948
 20
479.99999
 30
0.0
 11
-390.69053
 21
479.99999
 31
0.0
  0
LINE
  5
CE
100
AcDbEntity
  8
0
  6
CONTINUOUS
 62
     7
100
AcDbLine
 10
-369.30947
 20
479.69999
 30
0.0
 11
-353.0
 21
479.69999
 31
0.0
  0
LINE
  5
CF
100
AcDbEntity
  8
0
  6
CONTINUOUS
 62
     7
100
AcDbLine
 10
-384.0
 20
483.19999
 30
0.0
 11
-376.0
 21
483.19999
 31
0.0
  0
LINE
  5
D0
100
AcDbEntity
  8
0
  6
CONTINUOUS
 62
     7
100
AcDbLine
 10
-384.0
 20
483.19999
 30
0.0
 11
-384.0
 21
474.99999
 31
0.0
  0
LINE
  5
D1
100
AcDbEntity
  8
0
  6
CONTINUOUS
 62
     7
100
AcDbLine
 10
-372.5
 20
474.99999
 30
0.0
 11
-372.5
 21
434.99999
 31
0.0
  0
LINE
  5
D2
100
AcDbEntity
  8
0
  6
CONTINUOUS
 62
     7
100
AcDbLine
 10
-376.0
 20
483.19999
 30
0.0
 11
-376.0
 21
474.99999
 31
0.0
  0
LINE
  5
D3
100
AcDbEntity
  8
0
  6
CONTINUOUS
 62
     7
100
AcDbLine
 10
-369.30947
 20
430.29999
 30
0.0
 11
-353.0
 21
430.29999
 31
0.0
  0
ARC
  5
D4
100
AcDbEntity
  8
0
  6
CONTINUOUS
 62
     7
100
AcDbCircle
 10
-324.0
 20
439.29999
 30
0.0
 40
3.0
100
AcDbArc
 50
0.0
 51
90.000003
  0
CIRCLE
  5
D5
100
AcDbEntity
  8
0
  6
CONTINUOUS
 62
     7
100
AcDbCircle
 10
-328.0
 20
473.69999
 30
0.0
 40
2.9
  0
CIRCLE
  5
D6
100
AcDbEntity
  8
0
  6
CONTINUOUS
 62
     7
100
AcDbCircle
 10
-346.0
 20
473.69999
 30
0.0
 40
2.9
  0
CIRCLE
  5
D7
100
AcDbEntity
  8
0
  6
CONTINUOUS
 62
     7
100
AcDbCircle
 10
-346.0
 20
436.29999
 30
0.0
 40
2.9
  0
CIRCLE
  5
D8
100
AcDbEntity
  8
0
  6
CONTINUOUS
 62
     7
100
AcDbCircle
 10
-328.0
 20
436.29999
 30
0.0
 40
2.9
  0
ARC
  5
D9
100
AcDbEntity
  8
0
  6
CONTINUOUS
 62
     7
100
AcDbCircle
 10
-350.0
 20
439.29999
 30
0.0
 40
3.0
100
AcDbArc
 50
90.000003
 51
180.00001
  0
ARC
  5
DA
100
AcDbEntity
  8
0
  6
CONTINUOUS
 62
     7
100
AcDbCircle
 10
-324.0
 20
470.69999
 30
0.0
 40
3.0
100
AcDbArc
 50
270.0
 51
0.0
  0
ARC
  5
DB
100
AcDbEntity
  8
0
  6
CONTINUOUS
 62
     7
100
AcDbCircle
 10
-350.0
 20
470.69999
 30
0.0
 40
3.0
100
AcDbArc
 50
179.99999
 51
270.0
  0
POLYLINE
  5
DC
100
AcDbEntity
  8
0
  6
CONTINUOUS
 62
     7
100
AcDb2dPolyline
 66
     1
 10
0.0
 20
0.0
 30
0.0
  0
VERTEX
  5
DD
100
AcDbEntity
  8
0
  6
CONTINUOUS
 62
     7
100
AcDbVertex
100
AcDb2dVertex
 10
-353.0
 20
439.29999
 30
0.0
  0
VERTEX
  5
DE
100
AcDbEntity
  8
0
  6
CONTINUOUS
 62
     7
100
AcDbVertex
100
AcDb2dVertex
 10
-353.0
 20
428.299
 30
0.0
  0
SEQEND
  5
DF
100
AcDbEntity
  8
0
 62
     7
  0
POLYLINE
  5
E0
100
AcDbEntity
  8
0
  6
CONTINUOUS
 62
     7
100
AcDb2dPolyline
 66
     1
 10
0.0
 20
0.0
 30
0.0
  0
VERTEX
  5
E1
100
AcDbEntity
  8
0
  6
CONTINUOUS
 62
     7
100
AcDbVertex
100
AcDb2dVertex
 10
-321.0
 20
439.29999
 30
0.0
  0
VERTEX
  5
E2
100
AcDbEntity
  8
0
  6
CONTINUOUS
 62
     7
100
AcDbVertex
100
AcDb2dVertex
 10
-321.0
 20
428.299
 30
0.0
  0
SEQEND
  5
E3
100
AcDbEntity
  8
0
 62
     7
  0
POLYLINE
  5
E4
100
AcDbEntity
  8
0
  6
CONTINUOUS
 62
     7
100
AcDb2dPolyline
 66
     1
 10
0.0
 20
0.0
 30
0.0
  0
VERTEX
  5
E5
100
AcDbEntity
  8
0
  6
CONTINUOUS
 62
     7
100
AcDbVertex
100
AcDb2dVertex
 10
-353.0
 20
470.69999
 30
0.0
  0
VERTEX
  5
E6
100
AcDbEntity
  8
0
  6
CONTINUOUS
 62
     7
100
AcDbVertex
100
AcDb2dVertex
 10
-353.0
 20
481.70098
 30
0.0
  0
SEQEND
  5
E7
100
AcDbEntity
  8
0
 62
     7
  0
POLYLINE
  5
E8
100
AcDbEntity
  8
0
  6
CONTINUOUS
 62
     7
100
AcDb2dPolyline
 66
     1
 10
0.0
 20
0.0
 30
0.0
  0
VERTEX
  5
E9
100
AcDbEntity
  8
0
  6
CONTINUOUS
 62
     7
100
AcDbVertex
100
AcDb2dVertex
 10
-321.0
 20
470.69999
 30
0.0
  0
VERTEX
  5
EA
100
AcDbEntity
  8
0
  6
CONTINUOUS
 62
     7
100
AcDbVertex
100
AcDb2dVertex
 10
-321.0
 20
481.70098
 30
0.0
  0
SEQEND
  5
EB
100
AcDbEntity
  8
0
 62
     7
  0
POINT
  5
EC
100
AcDbEntity
  8
0
  6
CONTINUOUS
 62
     7
100
AcDbPoint
 10
-346.0
 20
370.0
 30
0.0
  0
POINT
  5
ED
100
AcDbEntity
  8
0
  6
CONTINUOUS
 62
     7
100
AcDbPoint
 10
-328.0
 20
370.0
 30
0.0
  0
LINE
  5
EE
100
AcDbEntity
  8
0
  6
CENTER
 62
     7
100
AcDbLine
 10
-364.0
 20
365.0
 30
0.0
 11
-364.0
 21
353.0
 31
0.0
  0
LINE
  5
EF
100
AcDbEntity
  8
0
  6
CENTER
 62
     7
100
AcDbLine
 10
-396.0
 20
365.0
 30
0.0
 11
-396.0
 21
353.0
 31
0.0
  0
LINE
  5
F0
100
AcDbEntity
  8
0
  6
CONTINUOUS
 62
     7
100
AcDbLine
 10
-396.0
 20
370.0
 30
0.0
 11
-358.0
 21
370.0
 31
0.0
  0
LINE
  5
F1
100
AcDbEntity
  8
0
  6
CONTINUOUS
 62
     7
100
AcDbLine
 10
-366.5
 20
362.1225
 30
0.0
 11
-366.5
 21
355.8775
 31
0.0
  0
LINE
  5
F2
100
AcDbEntity
  8
0
  6
CONTINUOUS
 62
     7
100
AcDbLine
 10
-396.0
 20
348.0
 30
0.0
 11
-364.0
 21
348.0
 31
0.0
  0
LINE
  5
F3
100
AcDbEntity
  8
0
  6
CONTINUOUS
 62
     7
100
AcDbLine
 10
-372.74467
 20
351.53135
 30
0.0
 11
-370.43299
 21
348.82472
 31
0.0
  0
LINE
  5
F4
100
AcDbEntity
  8
0
  6
CENTER
 62
     7
100
AcDbLine
 10
-346.0
 20
373.0
 30
0.0
 11
-346.0
 21
365.0
 31
0.0
  0
LINE
  5
F5
100
AcDbEntity
  8
0
  6
CONTINUOUS
 62
     7
100
AcDbLine
 10
-370.69925
 20
358.89999
 30
0.0
 11
-374.68316
 21
358.89999
 31
0.0
  0
LINE
  5
F6
100
AcDbEntity
  8
0
  6
DASHED
 62
     7
100
AcDbLine
 10
-353.0
 20
368.0
 30
0.0
 11
-321.20204
 21
368.0
 31
0.0
  0
LINE
  5
F7
100
AcDbEntity
  8
0
  6
CONTINUOUS
 62
     7
100
AcDbLine
 10
-321.0
 20
370.0
 30
0.0
 11
-321.0
 21
368.0
 31
0.0
  0
LINE
  5
F8
100
AcDbEntity
  8
0
  6
CONTINUOUS
 62
     7
100
AcDbLine
 10
-373.66075
 20
363.1
 30
0.0
 11
-369.29906
 21
363.1
 31
0.0
  0
LINE
  5
F9
100
AcDbEntity
  8
0
  6
CENTER
 62
     7
100
AcDbLine
 10
-328.0
 20
373.0
 30
0.0
 11
-328.0
 21
365.0
 31
0.0
  0
LINE
  5
FA
100
AcDbEntity
  8
0
  6
CENTER
 62
     7
100
AcDbLine
 10
-390.0
 20
359.0
 30
0.0
 11
-402.0
 21
359.0
 31
0.0
  0
LINE
  5
FB
100
AcDbEntity
  8
0
  6
CENTER
 62
     7
100
AcDbLine
 10
-358.0
 20
359.0
 30
0.0
 11
-370.0
 21
359.0
 31
0.0
  0
LINE
  5
FC
100
AcDbEntity
  8
0
  6
DASHED
 62
     7
100
AcDbLine
 10
-353.0
 20
370.0
 30
0.0
 11
-353.0
 21
368.0
 31
0.0
  0
LINE
  5
FD
100
AcDbEntity
  8
0
  6
CONTINUOUS
 62
     7
100
AcDbLine
 10
-360.06721
 20
348.66723
 30
0.0
 11
-327.36816
 21
360.60657
 31
0.0
  0
ARC
  5
FE
100
AcDbEntity
  8
0
  6
CONTINUOUS
 62
     7
100
AcDbCircle
 10
-396.0
 20
359.0
 30
0.0
 40
11.0
100
AcDbArc
 50
90.000003
 51
270.0
  0
CIRCLE
  5
FF
100
AcDbEntity
  8
0
  6
CONTINUOUS
 62
     7
100
AcDbCircle
 10
-364.0
 20
359.0
 30
0.0
 40
4.0
  0
ARC
  5
100
100
AcDbEntity
  8
0
  6
CONTINUOUS
 62
     7
100
AcDbCircle
 10
-373.66075
 20
363.6
 30
0.0
 40
0.5
100
AcDbArc
 50
154.53838
 51
270.0
  0
ARC
  5
101
100
AcDbEntity
  8
0
  6
CONTINUOUS
 62
     7
100
AcDbCircle
 10
-364.0
 20
359.0
 30
0.0
 40
11.5
100
AcDbArc
 50
118.95503
 51
220.49999
  0
ARC
  5
102
100
AcDbEntity
  8
0
  6
CONTINUOUS
 62
     7
100
AcDbCircle
 10
-369.80947
 20
369.5
 30
0.0
 40
0.5
100
AcDbArc
 50
298.95503
 51
90.000003
  0
ARC
  5
103
100
AcDbEntity
  8
0
  6
CONTINUOUS
 62
     7
100
AcDbCircle
 10
-363.84
 20
359.0
 30
0.0
 40
11.0
100
AcDbArc
 50
269.16656
 51
290.1438
  0
ARC
  5
104
100
AcDbEntity
  8
0
  6
CONTINUOUS
 62
     7
100
AcDbCircle
 10
-364.0
 20
359.0
 30
0.0
 40
11.2
100
AcDbArc
 50
183.21457
 51
259.15594
  0
ARC
  5
105
100
AcDbEntity
  8
0
  6
CONTINUOUS
 62
     7
100
AcDbCircle
 10
-374.68316
 20
358.39999
 30
0.0
 40
0.5
100
AcDbArc
 50
90.000003
 51
183.21457
  0
ARC
  5
106
100
AcDbEntity
  8
0
  6
CONTINUOUS
 62
     7
100
AcDbCircle
 10
-370.8132
 20
348.5
 30
0.0
 40
0.5
100
AcDbArc
 50
270.0
 51
40.499999
  0
ARC
  5
107
100
AcDbEntity
  8
0
  6
CONTINUOUS
 62
     7
100
AcDbCircle
 10
-364.0
 20
359.0
 30
0.0
 40
11.2
100
AcDbArc
 50
100.84406
 51
154.53838
  0
ARC
  5
108
100
AcDbEntity
  8
0
  6
CONTINUOUS
 62
     7
100
AcDbCircle
 10
-364.0
 20
359.0
 30
0.0
 40
6.7
100
AcDbArc
 50
142.27008
 51
180.85524
  0
ARC
  5
109
100
AcDbEntity
  8
0
  6
CONTINUOUS
 62
     7
100
AcDbCircle
 10
-355.5
 20
370.0
 30
0.0
 40
2.5
100
AcDbArc
 50
179.99999
 51
0.00001
  0
ARC
  5
10A
100
AcDbEntity
  8
0
  6
CONTINUOUS
 62
     7
100
AcDbCircle
 10
-330.79796
 20
370.0
 30
0.0
 40
10.0
100
AcDbArc
 50
290.05856
 51
348.46304
  0
POLYLINE
  5
10B
100
AcDbEntity
  8
0
  6
CONTINUOUS
 62
     7
100
AcDb2dPolyline
 66
     1
 10
0.0
 20
0.0
 30
0.0
  0
VERTEX
  5
10C
100
AcDbEntity
  8
0
  6
CONTINUOUS
 62
     7
100
AcDbVertex
100
AcDb2dVertex
 10
-353.0
 20
370.0
 30
0.0
  0
VERTEX
  5
10D
100
AcDbEntity
  8
0
  6
CONTINUOUS
 62
     7
100
AcDbVertex
100
AcDb2dVertex
 10
-321.0
 20
370.0
 30
0.0
  0
SEQEND
  5
10E
100
AcDbEntity
  8
0
 62
     7
  0
POINT
  5
10F
100
AcDbEntity
  8
0
  6
CONTINUOUS
 62
     7
100
AcDbPoint
 10
-346.0
 20
281.70001
 30
0.0
  0
POINT
  5
110
100
AcDbEntity
  8
0
  6
CONTINUOUS
 62
     7
100
AcDbPoint
 10
-328.0
 20
281.70001
 30
0.0
  0
LINE
  5
111
100
AcDbEntity
  8
0
  6
CONTINUOUS
 62
     7
100
AcDbLine
 10
-390.69053
 20
283.00001
 30
0.0
 11
-389.0
 21
283.00001
 31
0.0
  0
LINE
  5
112
100
AcDbEntity
  8
0
  6
CENTER
 62
     7
100
AcDbLine
 10
-323.1
 20
281.70001
 30
0.0
 11
-332.9
 21
281.70001
 31
0.0
  0
LINE
  5
113
100
AcDbEntity
  8
0
  6
CONTINUOUS
 62
     7
100
AcDbLine
 10
-371.0
 20
283.00001
 30
0.0
 11
-353.0
 21
283.00001
 31
0.0
  0
LINE
  5
114
100
AcDbEntity
  8
0
  6
CONTINUOUS
 62
     7
100
AcDbLine
 10
-369.31945
 20
293.00001
 30
0.0
 11
-401.30948
 21
293.00001
 31
0.0
  0
LINE
  5
115
100
AcDbEntity
  8
0
  6
CONTINUOUS
 62
     7
100
AcDbLine
 10
-371.0
 20
283.00001
 30
0.0
 11
-371.0
 21
243.00001
 31
0.0
  0
LINE
  5
116
100
AcDbEntity
  8
0
  6
CONTINUOUS
 62
     7
100
AcDbLine
 10
-389.0
 20
283.00001
 30
0.0
 11
-389.0
 21
243.00001
 31
0.0
  0
LINE
  5
117
100
AcDbEntity
  8
0
  6
CONTINUOUS
 62
     7
100
AcDbLine
 10
-390.69053
 20
288.00001
 30
0.0
 11
-390.69053
 21
283.00001
 31
0.0
  0
LINE
  5
118
100
AcDbEntity
  8
0
  6
CONTINUOUS
 62
     7
100
AcDbLine
 10
-401.30948
 20
238.00001
 30
0.0
 11
-390.69053
 21
238.00001
 31
0.0
  0
LINE
  5
119
100
AcDbEntity
  8
0
  6
CONTINUOUS
 62
     7
100
AcDbLine
 10
-390.69053
 20
243.00001
 30
0.0
 11
-389.0
 21
243.00001
 31
0.0
  0
LINE
  5
11A
100
AcDbEntity
  8
0
  6
CONTINUOUS
 62
     7
100
AcDbLine
 10
-371.0
 20
243.00001
 30
0.0
 11
-353.0
 21
243.00001
 31
0.0
  0
LINE
  5
11B
100
AcDbEntity
  8
0
  6
CONTINUOUS
 62
     7
100
AcDbLine
 10
-369.31945
 20
233.00001
 30
0.0
 11
-401.30948
 21
233.00001
 31
0.0
  0
LINE
  5
11C
100
AcDbEntity
  8
0
  6
CONTINUOUS
 62
     7
100
AcDbLine
 10
-390.69053
 20
243.00001
 30
0.0
 11
-390.69053
 21
238.00001
 31
0.0
  0
LINE
  5
11D
100
AcDbEntity
  8
0
  6
CENTER
 62
     7
100
AcDbLine
 10
-408.30948
 20
263.00001
 30
0.0
 11
-328.0
 21
263.00001
 31
0.0
  0
LINE
  5
11E
100
AcDbEntity
  8
0
  6
CONTINUOUS
 62
     7
100
AcDbLine
 10
-369.30947
 20
238.30001
 30
0.0
 11
-369.30947
 21
233.00001
 31
0.0
  0
LINE
  5
11F
100
AcDbEntity
  8
0
  6
CONTINUOUS
 62
     7
100
AcDbLine
 10
-369.30947
 20
293.00001
 30
0.0
 11
-369.30947
 21
287.70001
 31
0.0
  0
LINE
  5
120
100
AcDbEntity
  8
0
  6
CONTINUOUS
 62
     7
100
AcDbLine
 10
-369.30947
 20
236.30001
 30
0.0
 11
-321.0
 21
236.30001
 31
0.0
  0
LINE
  5
121
100
AcDbEntity
  8
0
  6
CENTER
 62
     7
100
AcDbLine
 10
-364.0
 20
226.00001
 30
0.0
 11
-364.0
 21
300.00001
 31
0.0
  0
LINE
  5
122
100
AcDbEntity
  8
0
  6
CENTER
 62
     7
100
AcDbLine
 10
-396.0
 20
226.00001
 30
0.0
 11
-396.0
 21
300.00001
 31
0.0
  0
LINE
  5
123
100
AcDbEntity
  8
0
  6
CENTER
 62
     7
100
AcDbLine
 10
-328.0
 20
249.20001
 30
0.0
 11
-328.0
 21
239.40001
 31
0.0
  0
LINE
  5
124
100
AcDbEntity
  8
0
  6
CENTER
 62
     7
100
AcDbLine
 10
-346.0
 20
249.20001
 30
0.0
 11
-346.0
 21
239.40001
 31
0.0
  0
LINE
  5
125
100
AcDbEntity
  8
0
  6
CENTER
 62
     7
100
AcDbLine
 10
-323.1
 20
244.30001
 30
0.0
 11
-332.9
 21
244.30001
 31
0.0
  0
LINE
  5
126
100
AcDbEntity
  8
0
  6
CONTINUOUS
 62
     7
100
AcDbLine
 10
-401.30948
 20
288.00001
 30
0.0
 11
-390.69053
 21
288.00001
 31
0.0
  0
LINE
  5
127
100
AcDbEntity
  8
0
  6
CENTER
 62
     7
100
AcDbLine
 10
-341.1
 20
244.30001
 30
0.0
 11
-350.9
 21
244.30001
 31
0.0
  0
LINE
  5
128
100
AcDbEntity
  8
0
  6
CENTER
 62
     7
100
AcDbLine
 10
-328.0
 20
286.60001
 30
0.0
 11
-328.0
 21
276.80001
 31
0.0
  0
LINE
  5
129
100
AcDbEntity
  8
0
  6
CONTINUOUS
 62
     7
100
AcDbLine
 10
-350.0
 20
250.30001
 30
0.0
 11
-324.0
 21
250.30001
 31
0.0
  0
LINE
  5
12A
100
AcDbEntity
  8
0
  6
CENTER
 62
     7
100
AcDbLine
 10
-346.0
 20
286.60001
 30
0.0
 11
-346.0
 21
276.80001
 31
0.0
  0
LINE
  5
12B
100
AcDbEntity
  8
0
  6
CONTINUOUS
 62
     7
100
AcDbLine
 10
-369.30947
 20
287.70001
 30
0.0
 11
-321.0
 21
287.70001
 31
0.0
  0
LINE
  5
12C
100
AcDbEntity
  8
0
  6
CENTER
 62
     7
100
AcDbLine
 10
-341.1
 20
281.70001
 30
0.0
 11
-350.9
 21
281.70001
 31
0.0
  0
LINE
  5
12D
100
AcDbEntity
  8
0
  6
CONTINUOUS
 62
     7
100
AcDbLine
 10
-350.0
 20
275.70001
 30
0.0
 11
-324.0
 21
275.70001
 31
0.0
  0
LINE
  5
12E
100
AcDbEntity
  8
0
  6
CONTINUOUS
 62
     7
100
AcDbLine
 10
-369.30947
 20
289.70001
 30
0.0
 11
-321.0
 21
289.70001
 31
0.0
  0
LINE
  5
12F
100
AcDbEntity
  8
0
  6
CONTINUOUS
 62
     7
100
AcDbLine
 10
-369.30947
 20
238.30001
 30
0.0
 11
-321.0
 21
238.30001
 31
0.0
  0
ARC
  5
130
100
AcDbEntity
  8
0
  6
CONTINUOUS
 62
     7
100
AcDbCircle
 10
-350.0
 20
278.70001
 30
0.0
 40
3.0
100
AcDbArc
 50
179.99999
 51
270.0
  0
ARC
  5
131
100
AcDbEntity
  8
0
  6
CONTINUOUS
 62
     7
100
AcDbCircle
 10
-324.0
 20
278.70001
 30
0.0
 40
3.0
100
AcDbArc
 50
270.0
 51
0.0
  0
ARC
  5
132
100
AcDbEntity
  8
0
  6
CONTINUOUS
 62
     7
100
AcDbCircle
 10
-350.0
 20
247.30001
 30
0.0
 40
3.0
100
AcDbArc
 50
90.000003
 51
180.00001
  0
CIRCLE
  5
133
100
AcDbEntity
  8
0
  6
CONTINUOUS
 62
     7
100
AcDbCircle
 10
-328.0
 20
244.30001
 30
0.0
 40
2.9
  0
CIRCLE
  5
134
100
AcDbEntity
  8
0
  6
CONTINUOUS
 62
     7
100
AcDbCircle
 10
-346.0
 20
244.30001
 30
0.0
 40
2.9
  0
CIRCLE
  5
135
100
AcDbEntity
  8
0
  6
CONTINUOUS
 62
     7
100
AcDbCircle
 10
-346.0
 20
281.70001
 30
0.0
 40
2.9
  0
CIRCLE
  5
136
100
AcDbEntity
  8
0
  6
CONTINUOUS
 62
     7
100
AcDbCircle
 10
-328.0
 20
281.70001
 30
0.0
 40
2.9
  0
ARC
  5
137
100
AcDbEntity
  8
0
  6
CONTINUOUS
 62
     7
100
AcDbCircle
 10
-324.0
 20
247.30001
 30
0.0
 40
3.0
100
AcDbArc
 50
0.0
 51
90.000003
  0
POLYLINE
  5
138
100
AcDbEntity
  8
0
  6
CONTINUOUS
 62
     7
100
AcDb2dPolyline
 66
     1
 10
0.0
 20
0.0
 30
0.0
  0
VERTEX
  5
139
100
AcDbEntity
  8
0
  6
CONTINUOUS
 62
     7
100
AcDbVertex
100
AcDb2dVertex
 10
-321.0
 20
278.70001
 30
0.0
  0
VERTEX
  5
13A
100
AcDbEntity
  8
0
  6
CONTINUOUS
 62
     7
100
AcDbVertex
100
AcDb2dVertex
 10
-321.0
 20
289.701
 30
0.0
  0
SEQEND
  5
13B
100
AcDbEntity
  8
0
 62
     7
  0
POLYLINE
  5
13C
100
AcDbEntity
  8
0
  6
CONTINUOUS
 62
     7
100
AcDb2dPolyline
 66
     1
 10
0.0
 20
0.0
 30
0.0
  0
VERTEX
  5
13D
100
AcDbEntity
  8
0
  6
CONTINUOUS
 62
     7
100
AcDbVertex
100
AcDb2dVertex
 10
-353.0
 20
278.70001
 30
0.0
  0
VERTEX
  5
13E
100
AcDbEntity
  8
0
  6
CONTINUOUS
 62
     7
100
AcDbVertex
100
AcDb2dVertex
 10
-353.0
 20
287.70001
 30
0.0
  0
SEQEND
  5
13F
100
AcDbEntity
  8
0
 62
     7
  0
POLYLINE
  5
140
100
AcDbEntity
  8
0
  6
CONTINUOUS
 62
     7
100
AcDb2dPolyline
 66
     1
 10
0.0
 20
0.0
 30
0.0
  0
VERTEX
  5
141
100
AcDbEntity
  8
0
  6
CONTINUOUS
 62
     7
100
AcDbVertex
100
AcDb2dVertex
 10
-321.0
 20
247.30001
 30
0.0
  0
VERTEX
  5
142
100
AcDbEntity
  8
0
  6
CONTINUOUS
 62
     7
100
AcDbVertex
100
AcDb2dVertex
 10
-321.0
 20
236.29902
 30
0.0
  0
SEQEND
  5
143
100
AcDbEntity
  8
0
 62
     7
  0
POLYLINE
  5
144
100
AcDbEntity
  8
0
  6
CONTINUOUS
 62
     7
100
AcDb2dPolyline
 66
     1
 10
0.0
 20
0.0
 30
0.0
  0
VERTEX
  5
145
100
AcDbEntity
  8
0
  6
CONTINUOUS
 62
     7
100
AcDbVertex
100
AcDb2dVertex
 10
-353.0
 20
247.30001
 30
0.0
  0
VERTEX
  5
146
100
AcDbEntity
  8
0
  6
CONTINUOUS
 62
     7
100
AcDbVertex
100
AcDb2dVertex
 10
-353.0
 20
238.30001
 30
0.0
  0
SEQEND
  5
147
100
AcDbEntity
  8
0
 62
     7
  0
POINT
  5
148
100
AcDbEntity
  8
0
  6
CONTINUOUS
 62
     7
100
AcDbPoint
 10
-264.0
 20
370.0
 30
0.0
  0
POINT
  5
149
100
AcDbEntity
  8
0
  6
CONTINUOUS
 62
     7
100
AcDbPoint
 10
-226.6
 20
370.0
 30
0.0
  0
LINE
  5
14A
100
AcDbEntity
  8
0
  6
CENTER
 62
     7
100
AcDbLine
 10
-278.3
 20
359.0
 30
0.0
 11
-212.3
 21
359.0
 31
0.0
  0
LINE
  5
14B
100
AcDbEntity
  8
0
  6
CONTINUOUS
 62
     7
100
AcDbLine
 10
-232.6
 20
369.5
 30
0.0
 11
-258.0
 21
369.5
 31
0.0
  0
LINE
  5
14C
100
AcDbEntity
  8
0
  6
CONTINUOUS
 62
     7
100
AcDbLine
 10
-225.3
 20
366.0
 30
0.0
 11
-265.3
 21
366.0
 31
0.0
  0
LINE
  5
14D
100
AcDbEntity
  8
0
  6
CONTINUOUS
 62
     7
100
AcDbLine
 10
-275.3
 20
348.0
 30
0.0
 11
-275.3
 21
370.0
 31
0.0
  0
LINE
  5
14E
100
AcDbEntity
  8
0
  6
CONTINUOUS
 62
     7
100
AcDbLine
 10
-258.0
 20
368.0
 30
0.0
 11
-258.0
 21
370.0
 31
0.0
  0
LINE
  5
14F
100
AcDbEntity
  8
0
  6
CONTINUOUS
 62
     7
100
AcDbLine
 10
-215.3
 20
370.0
 30
0.0
 11
-232.6
 21
370.0
 31
0.0
  0
LINE
  5
150
100
AcDbEntity
  8
0
  6
CENTER
 62
     7
100
AcDbLine
 10
-226.6
 20
373.0
 30
0.0
 11
-226.6
 21
363.0
 31
0.0
  0
LINE
  5
151
100
AcDbEntity
  8
0
  6
CONTINUOUS
 62
     7
100
AcDbLine
 10
-215.3
 20
348.0
 30
0.0
 11
-215.3
 21
370.0
 31
0.0
  0
LINE
  5
152
100
AcDbEntity
  8
0
  6
CONTINUOUS
 62
     7
100
AcDbLine
 10
-272.0
 20
348.0
 30
0.0
 11
-272.0
 21
370.0
 31
0.0
  0
LINE
  5
153
100
AcDbEntity
  8
0
  6
CONTINUOUS
 62
     7
100
AcDbLine
 10
-225.3
 20
348.0
 30
0.0
 11
-225.3
 21
368.0
 31
0.0
  0
LINE
  5
154
100
AcDbEntity
  8
0
  6
CONTINUOUS
 62
     7
100
AcDbLine
 10
-275.3
 20
348.0
 30
0.0
 11
-215.3
 21
348.0
 31
0.0
  0
LINE
  5
155
100
AcDbEntity
  8
0
  6
CONTINUOUS
 62
     7
100
AcDbLine
 10
-262.8
 20
352.0
 30
0.0
 11
-227.8
 21
352.0
 31
0.0
  0
LINE
  5
156
100
AcDbEntity
  8
0
  6
CONTINUOUS
 62
     7
100
AcDbLine
 10
-275.3
 20
355.0
 30
0.0
 11
-275.3
 21
363.0
 31
0.0
  0
LINE
  5
157
100
AcDbEntity
  8
0
  6
CONTINUOUS
 62
     7
100
AcDbLine
 10
-275.3
 20
370.0
 30
0.0
 11
-258.0
 21
370.0
 31
0.0
  0
LINE
  5
158
100
AcDbEntity
  8
0
  6
CONTINUOUS
 62
     7
100
AcDbLine
 10
-265.3
 20
348.0
 30
0.0
 11
-265.3
 21
368.0
 31
0.0
  0
LINE
  5
159
100
AcDbEntity
  8
0
  6
CENTER
 62
     7
100
AcDbLine
 10
-264.0
 20
373.0
 30
0.0
 11
-264.0
 21
363.0
 31
0.0
  0
LINE
  5
15A
100
AcDbEntity
  8
0
  6
CONTINUOUS
 62
     7
100
AcDbLine
 10
-270.0
 20
368.0
 30
0.0
 11
-258.0
 21
368.0
 31
0.0
  0
LINE
  5
15B
100
AcDbEntity
  8
0
  6
CONTINUOUS
 62
     7
100
AcDbLine
 10
-232.6
 20
368.0
 30
0.0
 11
-232.6
 21
370.0
 31
0.0
  0
LINE
  5
15C
100
AcDbEntity
  8
0
  6
CONTINUOUS
 62
     7
100
AcDbLine
 10
-218.6
 20
348.0
 30
0.0
 11
-218.6
 21
370.0
 31
0.0
  0
LINE
  5
15D
100
AcDbEntity
  8
0
  6
CONTINUOUS
 62
     7
100
AcDbLine
 10
-220.6
 20
348.0
 30
0.0
 11
-220.6
 21
368.0
 31
0.0
  0
LINE
  5
15E
100
AcDbEntity
  8
0
  6
CENTER
 62
     7
100
AcDbLine
 10
-245.3
 20
377.0
 30
0.0
 11
-245.3
 21
341.0
 31
0.0
  0
LINE
  5
15F
100
AcDbEntity
  8
0
  6
CONTINUOUS
 62
     7
100
AcDbLine
 10
-220.6
 20
368.0
 30
0.0
 11
-232.6
 21
368.0
 31
0.0
  0
LINE
  5
160
100
AcDbEntity
  8
0
  6
CONTINUOUS
 62
     7
100
AcDbLine
 10
-270.0
 20
348.0
 30
0.0
 11
-270.0
 21
368.0
 31
0.0
  0
ARC
  5
161
100
AcDbEntity
  8
0
  6
CONTINUOUS
 62
     7
100
AcDbCircle
 10
-227.8
 20
354.5
 30
0.0
 40
2.5
100
AcDbArc
 50
270.0
 51
0.0
  0
ARC
  5
162
100
AcDbEntity
  8
0
  6
CONTINUOUS
 62
     7
100
AcDbCircle
 10
-262.8
 20
354.5
 30
0.0
 40
2.5
100
AcDbArc
 50
179.99999
 51
270.0
  0
POINT
  5
163
100
AcDbEntity
  8
0
  6
CONTINUOUS
 62
     7
100
AcDbPoint
 10
-470.0
 20
87.0
 30
0.0
  0
POINT
  5
164
100
AcDbEntity
  8
0
  6
CONTINUOUS
 62
     7
100
AcDbPoint
 10
-457.69052
 20
87.0
 30
0.0
  0
LINE
  5
165
100
AcDbEntity
  8
0
  6
CONTINUOUS
 62
     7
100
AcDbLine
 10
-496.69053
 20
57.0
 30
0.0
 11
-496.69053
 21
62.0
 31
0.0
  0
LINE
  5
166
100
AcDbEntity
  8
0
  6
CONTINUOUS
 62
     7
100
AcDbLine
 10
-496.69053
 20
112.0
 30
0.0
 11
-496.69053
 21
117.0
 31
0.0
  0
LINE
  5
167
100
AcDbEntity
  8
0
  6
CENTER
 62
     7
100
AcDbLine
 10
-457.69052
 20
87.0
 30
0.0
 11
-514.30948
 21
87.0
 31
0.0
  0
LINE
  5
168
100
AcDbEntity
  8
0
  6
CONTINUOUS
 62
     7
100
AcDbLine
 10
-475.30947
 20
107.0
 30
0.0
 11
-475.30947
 21
112.0
 31
0.0
  0
LINE
  5
169
100
AcDbEntity
  8
0
  6
CONTINUOUS
 62
     7
100
AcDbLine
 10
-496.68055
 20
117.0
 30
0.0
 11
-464.69052
 21
117.0
 31
0.0
  0
LINE
  5
16A
100
AcDbEntity
  8
0
  6
CONTINUOUS
 62
     7
100
AcDbLine
 10
-495.0
 20
107.0
 30
0.0
 11
-507.30948
 21
107.0
 31
0.0
  0
LINE
  5
16B
100
AcDbEntity
  8
0
  6
CONTINUOUS
 62
     7
100
AcDbLine
 10
-475.30947
 20
107.0
 30
0.0
 11
-477.0
 21
107.0
 31
0.0
  0
LINE
  5
16C
100
AcDbEntity
  8
0
  6
CONTINUOUS
 62
     7
100
AcDbLine
 10
-464.69052
 20
112.0
 30
0.0
 11
-475.30947
 21
112.0
 31
0.0
  0
LINE
  5
16D
100
AcDbEntity
  8
0
  6
CONTINUOUS
 62
     7
100
AcDbLine
 10
-496.69053
 20
112.0
 30
0.0
 11
-507.30948
 21
112.0
 31
0.0
  0
LINE
  5
16E
100
AcDbEntity
  8
0
  6
CONTINUOUS
 62
     7
100
AcDbLine
 10
-496.69053
 20
62.0
 30
0.0
 11
-507.30948
 21
62.0
 31
0.0
  0
LINE
  5
16F
100
AcDbEntity
  8
0
  6
CONTINUOUS
 62
     7
100
AcDbLine
 10
-464.69052
 20
62.0
 30
0.0
 11
-475.30947
 21
62.0
 31
0.0
  0
LINE
  5
170
100
AcDbEntity
  8
0
  6
CONTINUOUS
 62
     7
100
AcDbLine
 10
-475.30947
 20
67.0
 30
0.0
 11
-477.0
 21
67.0
 31
0.0
  0
LINE
  5
171
100
AcDbEntity
  8
0
  6
CONTINUOUS
 62
     7
100
AcDbLine
 10
-495.0
 20
67.0
 30
0.0
 11
-507.30948
 21
67.0
 31
0.0
  0
LINE
  5
172
100
AcDbEntity
  8
0
  6
CONTINUOUS
 62
     7
100
AcDbLine
 10
-496.68055
 20
57.0
 30
0.0
 11
-464.69052
 21
57.0
 31
0.0
  0
LINE
  5
173
100
AcDbEntity
  8
0
  6
CONTINUOUS
 62
     7
100
AcDbLine
 10
-495.0
 20
67.0
 30
0.0
 11
-495.0
 21
107.0
 31
0.0
  0
LINE
  5
174
100
AcDbEntity
  8
0
  6
CONTINUOUS
 62
     7
100
AcDbLine
 10
-477.0
 20
67.0
 30
0.0
 11
-477.0
 21
107.0
 31
0.0
  0
LINE
  5
175
100
AcDbEntity
  8
0
  6
CENTER
 62
     7
100
AcDbLine
 10
-470.0
 20
124.0
 30
0.0
 11
-470.0
 21
50.0
 31
0.0
  0
LINE
  5
176
100
AcDbEntity
  8
0
  6
CONTINUOUS
 62
     7
100
AcDbLine
 10
-475.30947
 20
62.0
 30
0.0
 11
-475.30947
 21
67.0
 31
0.0
  0
LINE
  5
177
100
AcDbEntity
  8
0
  6
CENTER
 62
     7
100
AcDbLine
 10
-502.0
 20
124.0
 30
0.0
 11
-502.0
 21
50.0
 31
0.0
  0
POINT
  5
178
100
AcDbEntity
  8
0
  6
CONTINUOUS
 62
     7
100
AcDbPoint
 10
-470.0
 20
-9.0
 30
0.0
  0
POINT
  5
179
100
AcDbEntity
  8
0
  6
CONTINUOUS
 62
     7
100
AcDbPoint
 10
-464.0
 20
-9.0
 30
0.0
  0
LINE
  5
17A
100
AcDbEntity
  8
0
  6
CENTER
 62
     7
100
AcDbLine
 10
-476.0
 20
-9.0
 30
0.0
 11
-464.0
 21
-9.0
 31
0.0
  0
LINE
  5
17B
100
AcDbEntity
  8
0
  6
CONTINUOUS
 62
     7
100
AcDbLine
 10
-470.0
 20
-20.0
 30
0.0
 11
-502.0
 21
-20.0
 31
0.0
  0
LINE
  5
17C
100
AcDbEntity
  8
0
  6
CONTINUOUS
 62
     7
100
AcDbLine
 10
-499.5
 20
-12.122499
 30
0.0
 11
-499.5
 21
-5.877501
 31
0.0
  0
LINE
  5
17D
100
AcDbEntity
  8
0
  6
CONTINUOUS
 62
     7
100
AcDbLine
 10
-470.0
 20
2.0
 30
0.0
 11
-502.0
 21
2.0
 31
0.0
  0
LINE
  5
17E
100
AcDbEntity
  8
0
  6
CONTINUOUS
 62
     7
100
AcDbLine
 10
-493.25533
 20
-1.531347
 30
0.0
 11
-495.56701
 21
1.175277
 31
0.0
  0
LINE
  5
17F
100
AcDbEntity
  8
0
  6
CENTER
 62
     7
100
AcDbLine
 10
-470.0
 20
-15.0
 30
0.0
 11
-470.0
 21
-3.0
 31
0.0
  0
LINE
  5
180
100
AcDbEntity
  8
0
  6
CENTER
 62
     7
100
AcDbLine
 10
-502.0
 20
-15.0
 30
0.0
 11
-502.0
 21
-3.0
 31
0.0
  0
LINE
  5
181
100
AcDbEntity
  8
0
  6
CENTER
 62
     7
100
AcDbLine
 10
-508.0
 20
-9.0
 30
0.0
 11
-496.0
 21
-9.0
 31
0.0
  0
ARC
  5
182
100
AcDbEntity
  8
0
  6
CONTINUOUS
 62
     7
100
AcDbCircle
 10
-495.1868
 20
1.5
 30
0.0
 40
0.5
100
AcDbArc
 50
90.000003
 51
220.49999
  0
ARC
  5
183
100
AcDbEntity
  8
0
  6
CONTINUOUS
 62
     7
100
AcDbCircle
 10
-496.19053
 20
-19.5
 30
0.0
 40
0.5
100
AcDbArc
 50
118.95503
 51
270.0
  0
ARC
  5
184
100
AcDbEntity
  8
0
  6
CONTINUOUS
 62
     7
100
AcDbCircle
 10
-470.0
 20
-9.0
 30
0.0
 40
11.0
100
AcDbArc
 50
270.0
 51
90.000003
  0
ARC
  5
185
100
AcDbEntity
  8
0
  6
CONTINUOUS
 62
     7
100
AcDbCircle
 10
-502.0
 20
-9.0
 30
0.0
 40
11.5
100
AcDbArc
 50
298.95503
 51
40.499999
  0
CIRCLE
  5
186
100
AcDbEntity
  8
0
  6
CONTINUOUS
 62
     7
100
AcDbCircle
 10
-502.0
 20
-9.0
 30
0.0
 40
4.0
  0
POINT
  5
187
100
AcDbEntity
  8
0
  6
CONTINUOUS
 62
     7
100
AcDbPoint
 10
-470.0
 20
-105.0
 30
0.0
  0
POINT
  5
188
100
AcDbEntity
  8
0
  6
CONTINUOUS
 62
     7
100
AcDbPoint
 10
-457.69052
 20
-105.0
 30
0.0
  0
LINE
  5
189
100
AcDbEntity
  8
0
  6
CONTINUOUS
 62
     7
100
AcDbLine
 10
-482.0
 20
-76.799011
 30
0.0
 11
-482.0
 21
-85.0
 31
0.0
  0
LINE
  5
18A
100
AcDbEntity
  8
0
  6
CONTINUOUS
 62
     7
100
AcDbLine
 10
-477.0
 20
-125.0
 30
0.0
 11
-477.0
 21
-85.0
 31
0.0
  0
LINE
  5
18B
100
AcDbEntity
  8
0
  6
CONTINUOUS
 62
     7
100
AcDbLine
 10
-495.0
 20
-125.0
 30
0.0
 11
-495.0
 21
-85.0
 31
0.0
  0
LINE
  5
18C
100
AcDbEntity
  8
0
  6
CONTINUOUS
 62
     7
100
AcDbLine
 10
-478.5
 20
-125.0
 30
0.0
 11
-478.5
 21
-85.0
 31
0.0
  0
LINE
  5
18D
100
AcDbEntity
  8
0
  6
CENTER
 62
     7
100
AcDbLine
 10
-480.0
 20
-129.0
 30
0.0
 11
-492.0
 21
-129.0
 31
0.0
  0
LINE
  5
18E
100
AcDbEntity
  8
0
  6
CONTINUOUS
 62
     7
100
AcDbLine
 10
-482.0
 20
-132.5
 30
0.0
 11
-490.0
 21
-132.5
 31
0.0
  0
LINE
  5
18F
100
AcDbEntity
  8
0
  6
CONTINUOUS
 62
     7
100
AcDbLine
 10
-496.68055
 20
-135.0
 30
0.0
 11
-464.69052
 21
-135.0
 31
0.0
  0
LINE
  5
190
100
AcDbEntity
  8
0
  6
CONTINUOUS
 62
     7
100
AcDbLine
 10
-490.0
 20
-125.0
 30
0.0
 11
-507.30948
 21
-125.0
 31
0.0
  0
LINE
  5
191
100
AcDbEntity
  8
0
  6
CONTINUOUS
 62
     7
100
AcDbLine
 10
-490.0
 20
-76.799011
 30
0.0
 11
-490.0
 21
-85.0
 31
0.0
  0
LINE
  5
192
100
AcDbEntity
  8
0
  6
CONTINUOUS
 62
     7
100
AcDbLine
 10
-475.30947
 20
-125.0
 30
0.0
 11
-482.0
 21
-125.0
 31
0.0
  0
LINE
  5
193
100
AcDbEntity
  8
0
  6
CONTINUOUS
 62
     7
100
AcDbLine
 10
-496.69053
 20
-130.0
 30
0.0
 11
-507.30948
 21
-130.0
 31
0.0
  0
LINE
  5
194
100
AcDbEntity
  8
0
  6
CONTINUOUS
 62
     7
100
AcDbLine
 10
-496.69053
 20
-135.0
 30
0.0
 11
-496.69053
 21
-130.0
 31
0.0
  0
LINE
  5
195
100
AcDbEntity
  8
0
  6
CONTINUOUS
 62
     7
100
AcDbLine
 10
-496.69053
 20
-80.0
 30
0.0
 11
-496.69053
 21
-75.0
 31
0.0
  0
LINE
  5
196
100
AcDbEntity
  8
0
  6
CENTER
 62
     7
100
AcDbLine
 10
-457.69052
 20
-105.0
 30
0.0
 11
-514.30948
 21
-105.0
 31
0.0
  0
LINE
  5
197
100
AcDbEntity
  8
0
  6
CONTINUOUS
 62
     7
100
AcDbLine
 10
-475.30947
 20
-85.0
 30
0.0
 11
-475.30947
 21
-80.0
 31
0.0
  0
LINE
  5
198
100
AcDbEntity
  8
0
  6
CENTER
 62
     7
100
AcDbLine
 10
-480.0
 20
-81.0
 30
0.0
 11
-492.0
 21
-81.0
 31
0.0
  0
LINE
  5
199
100
AcDbEntity
  8
0
  6
CONTINUOUS
 62
     7
100
AcDbLine
 10
-482.0
 20
-77.5
 30
0.0
 11
-490.0
 21
-77.5
 31
0.0
  0
LINE
  5
19A
100
AcDbEntity
  8
0
  6
CONTINUOUS
 62
     7
100
AcDbLine
 10
-496.68055
 20
-75.0
 30
0.0
 11
-464.69052
 21
-75.0
 31
0.0
  0
LINE
  5
19B
100
AcDbEntity
  8
0
  6
CONTINUOUS
 62
     7
100
AcDbLine
 10
-490.0
 20
-85.0
 30
0.0
 11
-507.30948
 21
-85.0
 31
0.0
  0
LINE
  5
19C
100
AcDbEntity
  8
0
  6
CONTINUOUS
 62
     7
100
AcDbLine
 10
-475.30947
 20
-85.0
 30
0.0
 11
-482.0
 21
-85.0
 31
0.0
  0
LINE
  5
19D
100
AcDbEntity
  8
0
  6
CONTINUOUS
 62
     7
100
AcDbLine
 10
-464.69052
 20
-80.0
 30
0.0
 11
-475.30947
 21
-80.0
 31
0.0
  0
LINE
  5
19E
100
AcDbEntity
  8
0
  6
CONTINUOUS
 62
     7
100
AcDbLine
 10
-482.0
 20
-76.799999
 30
0.0
 11
-490.0
 21
-76.799999
 31
0.0
  0
LINE
  5
19F
100
AcDbEntity
  8
0
  6
CENTER
 62
     7
100
AcDbLine
 10
-502.0
 20
-68.0
 30
0.0
 11
-502.0
 21
-142.0
 31
0.0
  0
LINE
  5
1A0
100
AcDbEntity
  8
0
  6
CONTINUOUS
 62
     7
100
AcDbLine
 10
-475.30947
 20
-130.0
 30
0.0
 11
-475.30947
 21
-125.0
 31
0.0
  0
LINE
  5
1A1
100
AcDbEntity
  8
0
  6
CENTER
 62
     7
100
AcDbLine
 10
-470.0
 20
-68.0
 30
0.0
 11
-470.0
 21
-142.0
 31
0.0
  0
LINE
  5
1A2
100
AcDbEntity
  8
0
  6
CONTINUOUS
 62
     7
100
AcDbLine
 10
-464.69052
 20
-130.0
 30
0.0
 11
-475.30947
 21
-130.0
 31
0.0
  0
LINE
  5
1A3
100
AcDbEntity
  8
0
  6
CONTINUOUS
 62
     7
100
AcDbLine
 10
-496.69053
 20
-80.0
 30
0.0
 11
-507.30948
 21
-80.0
 31
0.0
  0
LINE
  5
1A4
100
AcDbEntity
  8
0
  6
CONTINUOUS
 62
     7
100
AcDbLine
 10
-482.0
 20
-133.2
 30
0.0
 11
-490.0
 21
-133.2
 31
0.0
  0
LINE
  5
1A5
100
AcDbEntity
  8
0
  6
CONTINUOUS
 62
     7
100
AcDbLine
 10
-482.0
 20
-133.2
 30
0.0
 11
-482.0
 21
-125.0
 31
0.0
  0
LINE
  5
1A6
100
AcDbEntity
  8
0
  6
CONTINUOUS
 62
     7
100
AcDbLine
 10
-493.5
 20
-125.0
 30
0.0
 11
-493.5
 21
-85.0
 31
0.0
  0
LINE
  5
1A7
100
AcDbEntity
  8
0
  6
CONTINUOUS
 62
     7
100
AcDbLine
 10
-490.0
 20
-133.2
 30
0.0
 11
-490.0
 21
-125.0
 31
0.0
  0
POINT
  5
1A8
100
AcDbEntity
  8
0
  6
CONTINUOUS
 62
     7
100
AcDbPoint
 10
-116.0
 20
436.29999
 30
0.0
  0
POINT
  5
1A9
100
AcDbEntity
  8
0
  6
CONTINUOUS
 62
     7
100
AcDbPoint
 10
-98.0
 20
436.29999
 30
0.0
  0
LINE
  5
1AA
100
AcDbEntity
  8
0
  6
CENTER
 62
     7
100
AcDbLine
 10
-134.0
 20
417.99999
 30
0.0
 11
-134.0
 21
491.99999
 31
0.0
  0
LINE
  5
1AB
100
AcDbEntity
  8
0
  6
CENTER
 62
     7
100
AcDbLine
 10
-93.1
 20
473.69999
 30
0.0
 11
-102.9
 21
473.69999
 31
0.0
  0
LINE
  5
1AC
100
AcDbEntity
  8
0
  6
CONTINUOUS
 62
     7
100
AcDbLine
 10
-139.30947
 20
430.29999
 30
0.0
 11
-91.0
 21
430.29999
 31
0.0
  0
LINE
  5
1AD
100
AcDbEntity
  8
0
  6
CONTINUOUS
 62
     7
100
AcDbLine
 10
-146.0
 20
483.19999
 30
0.0
 11
-146.0
 21
474.99999
 31
0.0
  0
LINE
  5
1AE
100
AcDbEntity
  8
0
  6
CONTINUOUS
 62
     7
100
AcDbLine
 10
-142.5
 20
474.99999
 30
0.0
 11
-142.5
 21
434.99999
 31
0.0
  0
LINE
  5
1AF
100
AcDbEntity
  8
0
  6
CONTINUOUS
 62
     7
100
AcDbLine
 10
-154.0
 20
483.19999
 30
0.0
 11
-154.0
 21
474.99999
 31
0.0
  0
LINE
  5
1B0
100
AcDbEntity
  8
0
  6
CONTINUOUS
 62
     7
100
AcDbLine
 10
-154.0
 20
483.19999
 30
0.0
 11
-146.0
 21
483.19999
 31
0.0
  0
LINE
  5
1B1
100
AcDbEntity
  8
0
  6
CONTINUOUS
 62
     7
100
AcDbLine
 10
-139.30947
 20
479.69999
 30
0.0
 11
-91.0
 21
479.69999
 31
0.0
  0
LINE
  5
1B2
100
AcDbEntity
  8
0
  6
CONTINUOUS
 62
     7
100
AcDbLine
 10
-171.30948
 20
479.99999
 30
0.0
 11
-160.69053
 21
479.99999
 31
0.0
  0
LINE
  5
1B3
100
AcDbEntity
  8
0
  6
CONTINUOUS
 62
     7
100
AcDbLine
 10
-160.69053
 20
474.99999
 30
0.0
 11
-154.0
 21
474.99999
 31
0.0
  0
LINE
  5
1B4
100
AcDbEntity
  8
0
  6
CONTINUOUS
 62
     7
100
AcDbLine
 10
-146.0
 20
426.799
 30
0.0
 11
-146.0
 21
434.99999
 31
0.0
  0
LINE
  5
1B5
100
AcDbEntity
  8
0
  6
CONTINUOUS
 62
     7
100
AcDbLine
 10
-146.0
 20
474.99999
 30
0.0
 11
-123.0
 21
474.99999
 31
0.0
  0
LINE
  5
1B6
100
AcDbEntity
  8
0
  6
CONTINUOUS
 62
     7
100
AcDbLine
 10
-139.31945
 20
484.99999
 30
0.0
 11
-171.30948
 21
484.99999
 31
0.0
  0
LINE
  5
1B7
100
AcDbEntity
  8
0
  6
CONTINUOUS
 62
     7
100
AcDbLine
 10
-154.0
 20
482.49999
 30
0.0
 11
-146.0
 21
482.49999
 31
0.0
  0
LINE
  5
1B8
100
AcDbEntity
  8
0
  6
CENTER
 62
     7
100
AcDbLine
 10
-156.0
 20
478.99999
 30
0.0
 11
-144.0
 21
478.99999
 31
0.0
  0
LINE
  5
1B9
100
AcDbEntity
  8
0
  6
CONTINUOUS
 62
     7
100
AcDbLine
 10
-157.5
 20
474.99999
 30
0.0
 11
-157.5
 21
434.99999
 31
0.0
  0
LINE
  5
1BA
100
AcDbEntity
  8
0
  6
CONTINUOUS
 62
     7
100
AcDbLine
 10
-141.0
 20
474.99999
 30
0.0
 11
-141.0
 21
434.99999
 31
0.0
  0
LINE
  5
1BB
100
AcDbEntity
  8
0
  6
CONTINUOUS
 62
     7
100
AcDbLine
 10
-159.0
 20
474.99999
 30
0.0
 11
-159.0
 21
434.99999
 31
0.0
  0
LINE
  5
1BC
100
AcDbEntity
  8
0
  6
CONTINUOUS
 62
     7
100
AcDbLine
 10
-154.0
 20
426.799
 30
0.0
 11
-154.0
 21
434.99999
 31
0.0
  0
LINE
  5
1BD
100
AcDbEntity
  8
0
  6
CONTINUOUS
 62
     7
100
AcDbLine
 10
-160.69053
 20
479.99999
 30
0.0
 11
-160.69053
 21
474.99999
 31
0.0
  0
LINE
  5
1BE
100
AcDbEntity
  8
0
  6
CONTINUOUS
 62
     7
100
AcDbLine
 10
-154.0
 20
426.79999
 30
0.0
 11
-146.0
 21
426.79999
 31
0.0
  0
LINE
  5
1BF
100
AcDbEntity
  8
0
  6
CENTER
 62
     7
100
AcDbLine
 10
-166.0
 20
417.99999
 30
0.0
 11
-166.0
 21
491.99999
 31
0.0
  0
LINE
  5
1C0
100
AcDbEntity
  8
0
  6
CONTINUOUS
 62
     7
100
AcDbLine
 10
-139.30947
 20
428.29999
 30
0.0
 11
-91.0
 21
428.29999
 31
0.0
  0
LINE
  5
1C1
100
AcDbEntity
  8
0
  6
CENTER
 62
     7
100
AcDbLine
 10
-98.0
 20
441.19999
 30
0.0
 11
-98.0
 21
431.39999
 31
0.0
  0
LINE
  5
1C2
100
AcDbEntity
  8
0
  6
CENTER
 62
     7
100
AcDbLine
 10
-116.0
 20
441.19999
 30
0.0
 11
-116.0
 21
431.39999
 31
0.0
  0
LINE
  5
1C3
100
AcDbEntity
  8
0
  6
CENTER
 62
     7
100
AcDbLine
 10
-93.1
 20
436.29999
 30
0.0
 11
-102.9
 21
436.29999
 31
0.0
  0
LINE
  5
1C4
100
AcDbEntity
  8
0
  6
CENTER
 62
     7
100
AcDbLine
 10
-111.1
 20
436.29999
 30
0.0
 11
-120.9
 21
436.29999
 31
0.0
  0
LINE
  5
1C5
100
AcDbEntity
  8
0
  6
CENTER
 62
     7
100
AcDbLine
 10
-98.0
 20
478.59999
 30
0.0
 11
-98.0
 21
468.79999
 31
0.0
  0
LINE
  5
1C6
100
AcDbEntity
  8
0
  6
CONTINUOUS
 62
     7
100
AcDbLine
 10
-120.0
 20
442.29999
 30
0.0
 11
-94.0
 21
442.29999
 31
0.0
  0
LINE
  5
1C7
100
AcDbEntity
  8
0
  6
CENTER
 62
     7
100
AcDbLine
 10
-116.0
 20
478.59999
 30
0.0
 11
-116.0
 21
468.79999
 31
0.0
  0
LINE
  5
1C8
100
AcDbEntity
  8
0
  6
CENTER
 62
     7
100
AcDbLine
 10
-111.1
 20
473.69999
 30
0.0
 11
-120.9
 21
473.69999
 31
0.0
  0
LINE
  5
1C9
100
AcDbEntity
  8
0
  6
CONTINUOUS
 62
     7
100
AcDbLine
 10
-120.0
 20
467.69999
 30
0.0
 11
-94.0
 21
467.69999
 31
0.0
  0
LINE
  5
1CA
100
AcDbEntity
  8
0
  6
CONTINUOUS
 62
     7
100
AcDbLine
 10
-171.30948
 20
429.99999
 30
0.0
 11
-160.69053
 21
429.99999
 31
0.0
  0
LINE
  5
1CB
100
AcDbEntity
  8
0
  6
CONTINUOUS
 62
     7
100
AcDbLine
 10
-160.69053
 20
434.99999
 30
0.0
 11
-154.0
 21
434.99999
 31
0.0
  0
LINE
  5
1CC
100
AcDbEntity
  8
0
  6
CONTINUOUS
 62
     7
100
AcDbLine
 10
-146.0
 20
434.99999
 30
0.0
 11
-123.0
 21
434.99999
 31
0.0
  0
LINE
  5
1CD
100
AcDbEntity
  8
0
  6
CONTINUOUS
 62
     7
100
AcDbLine
 10
-139.31945
 20
424.99999
 30
0.0
 11
-171.30948
 21
424.99999
 31
0.0
  0
LINE
  5
1CE
100
AcDbEntity
  8
0
  6
CONTINUOUS
 62
     7
100
AcDbLine
 10
-139.30947
 20
481.69999
 30
0.0
 11
-91.0
 21
481.69999
 31
0.0
  0
LINE
  5
1CF
100
AcDbEntity
  8
0
  6
CONTINUOUS
 62
     7
100
AcDbLine
 10
-154.0
 20
427.49999
 30
0.0
 11
-146.0
 21
427.49999
 31
0.0
  0
LINE
  5
1D0
100
AcDbEntity
  8
0
  6
CENTER
 62
     7
100
AcDbLine
 10
-156.0
 20
430.99999
 30
0.0
 11
-144.0
 21
430.99999
 31
0.0
  0
LINE
  5
1D1
100
AcDbEntity
  8
0
  6
CONTINUOUS
 62
     7
100
AcDbLine
 10
-160.69053
 20
434.99999
 30
0.0
 11
-160.69053
 21
429.99999
 31
0.0
  0
LINE
  5
1D2
100
AcDbEntity
  8
0
  6
CENTER
 62
     7
100
AcDbLine
 10
-178.30948
 20
454.99999
 30
0.0
 11
-98.0
 21
454.99999
 31
0.0
  0
LINE
  5
1D3
100
AcDbEntity
  8
0
  6
CONTINUOUS
 62
     7
100
AcDbLine
 10
-139.30947
 20
430.29999
 30
0.0
 11
-139.30947
 21
424.99999
 31
0.0
  0
LINE
  5
1D4
100
AcDbEntity
  8
0
  6
CONTINUOUS
 62
     7
100
AcDbLine
 10
-139.30947
 20
484.99999
 30
0.0
 11
-139.30947
 21
479.69999
 31
0.0
  0
ARC
  5
1D5
100
AcDbEntity
  8
0
  6
CONTINUOUS
 62
     7
100
AcDbCircle
 10
-94.0
 20
470.69999
 30
0.0
 40
3.0
100
AcDbArc
 50
270.0
 51
0.0
  0
ARC
  5
1D6
100
AcDbEntity
  8
0
  6
CONTINUOUS
 62
     7
100
AcDbCircle
 10
-120.0
 20
439.29999
 30
0.0
 40
3.0
100
AcDbArc
 50
90.000003
 51
180.00001
  0
CIRCLE
  5
1D7
100
AcDbEntity
  8
0
  6
CONTINUOUS
 62
     7
100
AcDbCircle
 10
-98.0
 20
436.29999
 30
0.0
 40
2.9
  0
CIRCLE
  5
1D8
100
AcDbEntity
  8
0
  6
CONTINUOUS
 62
     7
100
AcDbCircle
 10
-116.0
 20
436.29999
 30
0.0
 40
2.9
  0
CIRCLE
  5
1D9
100
AcDbEntity
  8
0
  6
CONTINUOUS
 62
     7
100
AcDbCircle
 10
-116.0
 20
473.69999
 30
0.0
 40
2.9
  0
CIRCLE
  5
1DA
100
AcDbEntity
  8
0
  6
CONTINUOUS
 62
     7
100
AcDbCircle
 10
-98.0
 20
473.69999
 30
0.0
 40
2.9
  0
ARC
  5
1DB
100
AcDbEntity
  8
0
  6
CONTINUOUS
 62
     7
100
AcDbCircle
 10
-94.0
 20
439.29999
 30
0.0
 40
3.0
100
AcDbArc
 50
0.0
 51
90.000003
  0
ARC
  5
1DC
100
AcDbEntity
  8
0
  6
CONTINUOUS
 62
     7
100
AcDbCircle
 10
-120.0
 20
470.69999
 30
0.0
 40
3.0
100
AcDbArc
 50
179.99999
 51
270.0
  0
POLYLINE
  5
1DD
100
AcDbEntity
  8
0
  6
CONTINUOUS
 62
     7
100
AcDb2dPolyline
 66
     1
 10
0.0
 20
0.0
 30
0.0
  0
VERTEX
  5
1DE
100
AcDbEntity
  8
0
  6
CONTINUOUS
 62
     7
100
AcDbVertex
100
AcDb2dVertex
 10
-91.0
 20
470.69999
 30
0.0
  0
VERTEX
  5
1DF
100
AcDbEntity
  8
0
  6
CONTINUOUS
 62
     7
100
AcDbVertex
100
AcDb2dVertex
 10
-91.0
 20
481.70098
 30
0.0
  0
SEQEND
  5
1E0
100
AcDbEntity
  8
0
 62
     7
  0
POLYLINE
  5
1E1
100
AcDbEntity
  8
0
  6
CONTINUOUS
 62
     7
100
AcDb2dPolyline
 66
     1
 10
0.0
 20
0.0
 30
0.0
  0
VERTEX
  5
1E2
100
AcDbEntity
  8
0
  6
CONTINUOUS
 62
     7
100
AcDbVertex
100
AcDb2dVertex
 10
-123.0
 20
470.69999
 30
0.0
  0
VERTEX
  5
1E3
100
AcDbEntity
  8
0
  6
CONTINUOUS
 62
     7
100
AcDbVertex
100
AcDb2dVertex
 10
-123.0
 20
479.69999
 30
0.0
  0
SEQEND
  5
1E4
100
AcDbEntity
  8
0
 62
     7
  0
POLYLINE
  5
1E5
100
AcDbEntity
  8
0
  6
CONTINUOUS
 62
     7
100
AcDb2dPolyline
 66
     1
 10
0.0
 20
0.0
 30
0.0
  0
VERTEX
  5
1E6
100
AcDbEntity
  8
0
  6
CONTINUOUS
 62
     7
100
AcDbVertex
100
AcDb2dVertex
 10
-91.0
 20
439.29999
 30
0.0
  0
VERTEX
  5
1E7
100
AcDbEntity
  8
0
  6
CONTINUOUS
 62
     7
100
AcDbVertex
100
AcDb2dVertex
 10
-91.0
 20
428.299
 30
0.0
  0
SEQEND
  5
1E8
100
AcDbEntity
  8
0
 62
     7
  0
POLYLINE
  5
1E9
100
AcDbEntity
  8
0
  6
CONTINUOUS
 62
     7
100
AcDb2dPolyline
 66
     1
 10
0.0
 20
0.0
 30
0.0
  0
VERTEX
  5
1EA
100
AcDbEntity
  8
0
  6
CONTINUOUS
 62
     7
100
AcDbVertex
100
AcDb2dVertex
 10
-123.0
 20
439.29999
 30
0.0
  0
VERTEX
  5
1EB
100
AcDbEntity
  8
0
  6
CONTINUOUS
 62
     7
100
AcDbVertex
100
AcDb2dVertex
 10
-123.0
 20
430.29999
 30
0.0
  0
SEQEND
  5
1EC
100
AcDbEntity
  8
0
 62
     7
  0
POINT
  5
1ED
100
AcDbEntity
  8
0
  6
CONTINUOUS
 62
     7
100
AcDbPoint
 10
-116.0
 20
348.0
 30
0.0
  0
POINT
  5
1EE
100
AcDbEntity
  8
0
  6
CONTINUOUS
 62
     7
100
AcDbPoint
 10
-98.0
 20
348.0
 30
0.0
  0
LINE
  5
1EF
100
AcDbEntity
  8
0
  6
DASHED
 62
     7
100
AcDbLine
 10
-123.0
 20
350.0
 30
0.0
 11
-91.202042
 21
350.0
 31
0.0
  0
LINE
  5
1F0
100
AcDbEntity
  8
0
  6
CONTINUOUS
 62
     7
100
AcDbLine
 10
-130.06721
 20
369.33277
 30
0.0
 11
-97.368156
 21
357.39343
 31
0.0
  0
LINE
  5
1F1
100
AcDbEntity
  8
0
  6
DASHED
 62
     7
100
AcDbLine
 10
-123.0
 20
348.0
 30
0.0
 11
-123.0
 21
350.0
 31
0.0
  0
LINE
  5
1F2
100
AcDbEntity
  8
0
  6
CENTER
 62
     7
100
AcDbLine
 10
-98.0
 20
345.0
 30
0.0
 11
-98.0
 21
353.0
 31
0.0
  0
LINE
  5
1F3
100
AcDbEntity
  8
0
  6
CONTINUOUS
 62
     7
100
AcDbLine
 10
-91.0
 20
348.0
 30
0.0
 11
-91.0
 21
350.0
 31
0.0
  0
LINE
  5
1F4
100
AcDbEntity
  8
0
  6
CENTER
 62
     7
100
AcDbLine
 10
-116.0
 20
345.0
 30
0.0
 11
-116.0
 21
353.0
 31
0.0
  0
LINE
  5
1F5
100
AcDbEntity
  8
0
  6
CENTER
 62
     7
100
AcDbLine
 10
-128.0
 20
359.0
 30
0.0
 11
-140.0
 21
359.0
 31
0.0
  0
LINE
  5
1F6
100
AcDbEntity
  8
0
  6
CENTER
 62
     7
100
AcDbLine
 10
-160.0
 20
359.0
 30
0.0
 11
-172.0
 21
359.0
 31
0.0
  0
LINE
  5
1F7
100
AcDbEntity
  8
0
  6
CONTINUOUS
 62
     7
100
AcDbLine
 10
-143.66075
 20
363.1
 30
0.0
 11
-139.29906
 21
363.1
 31
0.0
  0
LINE
  5
1F8
100
AcDbEntity
  8
0
  6
CONTINUOUS
 62
     7
100
AcDbLine
 10
-140.69925
 20
358.89999
 30
0.0
 11
-144.68316
 21
358.89999
 31
0.0
  0
LINE
  5
1F9
100
AcDbEntity
  8
0
  6
CONTINUOUS
 62
     7
100
AcDbLine
 10
-142.74467
 20
351.53135
 30
0.0
 11
-140.43299
 21
348.82472
 31
0.0
  0
LINE
  5
1FA
100
AcDbEntity
  8
0
  6
CONTINUOUS
 62
     7
100
AcDbLine
 10
-166.0
 20
348.0
 30
0.0
 11
-128.0
 21
348.0
 31
0.0
  0
LINE
  5
1FB
100
AcDbEntity
  8
0
  6
CONTINUOUS
 62
     7
100
AcDbLine
 10
-136.5
 20
362.1225
 30
0.0
 11
-136.5
 21
355.8775
 31
0.0
  0
LINE
  5
1FC
100
AcDbEntity
  8
0
  6
CONTINUOUS
 62
     7
100
AcDbLine
 10
-166.0
 20
370.0
 30
0.0
 11
-134.0
 21
370.0
 31
0.0
  0
LINE
  5
1FD
100
AcDbEntity
  8
0
  6
CENTER
 62
     7
100
AcDbLine
 10
-166.0
 20
365.0
 30
0.0
 11
-166.0
 21
353.0
 31
0.0
  0
LINE
  5
1FE
100
AcDbEntity
  8
0
  6
CENTER
 62
     7
100
AcDbLine
 10
-134.0
 20
365.0
 30
0.0
 11
-134.0
 21
353.0
 31
0.0
  0
ARC
  5
1FF
100
AcDbEntity
  8
0
  6
CONTINUOUS
 62
     7
100
AcDbCircle
 10
-100.79796
 20
348.0
 30
0.0
 40
10.0
100
AcDbArc
 50
11.536959
 51
69.941444
  0
ARC
  5
200
100
AcDbEntity
  8
0
  6
CONTINUOUS
 62
     7
100
AcDbCircle
 10
-125.5
 20
348.0
 30
0.0
 40
2.5
100
AcDbArc
 50
0.0
 51
180.00001
  0
ARC
  5
201
100
AcDbEntity
  8
0
  6
CONTINUOUS
 62
     7
100
AcDbCircle
 10
-134.0
 20
359.0
 30
0.0
 40
6.7
100
AcDbArc
 50
142.27008
 51
180.85524
  0
ARC
  5
202
100
AcDbEntity
  8
0
  6
CONTINUOUS
 62
     7
100
AcDbCircle
 10
-134.0
 20
359.0
 30
0.0
 40
11.2
100
AcDbArc
 50
100.84406
 51
154.53838
  0
ARC
  5
203
100
AcDbEntity
  8
0
  6
CONTINUOUS
 62
     7
100
AcDbCircle
 10
-140.8132
 20
348.5
 30
0.0
 40
0.5
100
AcDbArc
 50
270.0
 51
40.499999
  0
ARC
  5
204
100
AcDbEntity
  8
0
  6
CONTINUOUS
 62
     7
100
AcDbCircle
 10
-144.68316
 20
358.39999
 30
0.0
 40
0.5
100
AcDbArc
 50
90.000003
 51
183.21457
  0
ARC
  5
205
100
AcDbEntity
  8
0
  6
CONTINUOUS
 62
     7
100
AcDbCircle
 10
-134.0
 20
359.0
 30
0.0
 40
11.2
100
AcDbArc
 50
183.21457
 51
259.15594
  0
ARC
  5
206
100
AcDbEntity
  8
0
  6
CONTINUOUS
 62
     7
100
AcDbCircle
 10
-139.80947
 20
369.5
 30
0.0
 40
0.5
100
AcDbArc
 50
298.95503
 51
90.000003
  0
ARC
  5
207
100
AcDbEntity
  8
0
  6
CONTINUOUS
 62
     7
100
AcDbCircle
 10
-134.0
 20
359.0
 30
0.0
 40
11.5
100
AcDbArc
 50
118.95503
 51
220.49999
  0
ARC
  5
208
100
AcDbEntity
  8
0
  6
CONTINUOUS
 62
     7
100
AcDbCircle
 10
-143.66075
 20
363.6
 30
0.0
 40
0.5
100
AcDbArc
 50
154.53838
 51
270.0
  0
CIRCLE
  5
209
100
AcDbEntity
  8
0
  6
CONTINUOUS
 62
     7
100
AcDbCircle
 10
-134.0
 20
359.0
 30
0.0
 40
4.0
  0
ARC
  5
20A
100
AcDbEntity
  8
0
  6
CONTINUOUS
 62
     7
100
AcDbCircle
 10
-166.0
 20
359.0
 30
0.0
 40
11.0
100
AcDbArc
 50
90.000003
 51
270.0
  0
ARC
  5
20B
100
AcDbEntity
  8
0
  6
CONTINUOUS
 62
     7
100
AcDbCircle
 10
-133.84
 20
359.0
 30
0.0
 40
11.0
100
AcDbArc
 50
69.856197
 51
90.833443
  0
POLYLINE
  5
20C
100
AcDbEntity
  8
0
  6
CONTINUOUS
 62
     7
100
AcDb2dPolyline
 66
     1
 10
0.0
 20
0.0
 30
0.0
  0
VERTEX
  5
20D
100
AcDbEntity
  8
0
  6
CONTINUOUS
 62
     7
100
AcDbVertex
100
AcDb2dVertex
 10
-123.0
 20
348.0
 30
0.0
  0
VERTEX
  5
20E
100
AcDbEntity
  8
0
  6
CONTINUOUS
 62
     7
100
AcDbVertex
100
AcDb2dVertex
 10
-91.0
 20
348.0
 30
0.0
  0
SEQEND
  5
20F
100
AcDbEntity
  8
0
 62
     7
  0
POINT
  5
210
100
AcDbEntity
  8
0
  6
CONTINUOUS
 62
     7
100
AcDbPoint
 10
-116.0
 20
281.70001
 30
0.0
  0
POINT
  5
211
100
AcDbEntity
  8
0
  6
CONTINUOUS
 62
     7
100
AcDbPoint
 10
-98.0
 20
281.70001
 30
0.0
  0
LINE
  5
212
100
AcDbEntity
  8
0
  6
CONTINUOUS
 62
     7
100
AcDbLine
 10
-139.30947
 20
238.30001
 30
0.0
 11
-123.0
 21
238.30001
 31
0.0
  0
LINE
  5
213
100
AcDbEntity
  8
0
  6
CONTINUOUS
 62
     7
100
AcDbLine
 10
-139.30947
 20
289.70001
 30
0.0
 11
-91.0
 21
289.70001
 31
0.0
  0
LINE
  5
214
100
AcDbEntity
  8
0
  6
CONTINUOUS
 62
     7
100
AcDbLine
 10
-120.0
 20
275.70001
 30
0.0
 11
-94.0
 21
275.70001
 31
0.0
  0
LINE
  5
215
100
AcDbEntity
  8
0
  6
CENTER
 62
     7
100
AcDbLine
 10
-111.1
 20
281.70001
 30
0.0
 11
-120.9
 21
281.70001
 31
0.0
  0
LINE
  5
216
100
AcDbEntity
  8
0
  6
CONTINUOUS
 62
     7
100
AcDbLine
 10
-139.30947
 20
287.70001
 30
0.0
 11
-123.0
 21
287.70001
 31
0.0
  0
LINE
  5
217
100
AcDbEntity
  8
0
  6
CENTER
 62
     7
100
AcDbLine
 10
-116.0
 20
286.60001
 30
0.0
 11
-116.0
 21
276.80001
 31
0.0
  0
LINE
  5
218
100
AcDbEntity
  8
0
  6
CONTINUOUS
 62
     7
100
AcDbLine
 10
-120.0
 20
250.30001
 30
0.0
 11
-94.0
 21
250.30001
 31
0.0
  0
LINE
  5
219
100
AcDbEntity
  8
0
  6
CENTER
 62
     7
100
AcDbLine
 10
-98.0
 20
286.60001
 30
0.0
 11
-98.0
 21
276.80001
 31
0.0
  0
LINE
  5
21A
100
AcDbEntity
  8
0
  6
CENTER
 62
     7
100
AcDbLine
 10
-111.1
 20
244.30001
 30
0.0
 11
-120.9
 21
244.30001
 31
0.0
  0
LINE
  5
21B
100
AcDbEntity
  8
0
  6
CONTINUOUS
 62
     7
100
AcDbLine
 10
-171.30948
 20
288.00001
 30
0.0
 11
-160.69053
 21
288.00001
 31
0.0
  0
LINE
  5
21C
100
AcDbEntity
  8
0
  6
CENTER
 62
     7
100
AcDbLine
 10
-93.1
 20
244.30001
 30
0.0
 11
-102.9
 21
244.30001
 31
0.0
  0
LINE
  5
21D
100
AcDbEntity
  8
0
  6
CENTER
 62
     7
100
AcDbLine
 10
-116.0
 20
249.20001
 30
0.0
 11
-116.0
 21
239.40001
 31
0.0
  0
LINE
  5
21E
100
AcDbEntity
  8
0
  6
CENTER
 62
     7
100
AcDbLine
 10
-98.0
 20
249.20001
 30
0.0
 11
-98.0
 21
239.40001
 31
0.0
  0
LINE
  5
21F
100
AcDbEntity
  8
0
  6
CENTER
 62
     7
100
AcDbLine
 10
-166.0
 20
226.00001
 30
0.0
 11
-166.0
 21
300.00001
 31
0.0
  0
LINE
  5
220
100
AcDbEntity
  8
0
  6
CENTER
 62
     7
100
AcDbLine
 10
-134.0
 20
226.00001
 30
0.0
 11
-134.0
 21
300.00001
 31
0.0
  0
LINE
  5
221
100
AcDbEntity
  8
0
  6
CONTINUOUS
 62
     7
100
AcDbLine
 10
-139.30947
 20
236.30001
 30
0.0
 11
-91.0
 21
236.30001
 31
0.0
  0
LINE
  5
222
100
AcDbEntity
  8
0
  6
CONTINUOUS
 62
     7
100
AcDbLine
 10
-139.30947
 20
293.00001
 30
0.0
 11
-139.30947
 21
287.70001
 31
0.0
  0
LINE
  5
223
100
AcDbEntity
  8
0
  6
CONTINUOUS
 62
     7
100
AcDbLine
 10
-139.30947
 20
238.30001
 30
0.0
 11
-139.30947
 21
233.00001
 31
0.0
  0
LINE
  5
224
100
AcDbEntity
  8
0
  6
CENTER
 62
     7
100
AcDbLine
 10
-178.30948
 20
263.00001
 30
0.0
 11
-98.0
 21
263.00001
 31
0.0
  0
LINE
  5
225
100
AcDbEntity
  8
0
  6
CONTINUOUS
 62
     7
100
AcDbLine
 10
-160.69053
 20
243.00001
 30
0.0
 11
-160.69053
 21
238.00001
 31
0.0
  0
LINE
  5
226
100
AcDbEntity
  8
0
  6
CONTINUOUS
 62
     7
100
AcDbLine
 10
-139.31945
 20
233.00001
 30
0.0
 11
-171.30948
 21
233.00001
 31
0.0
  0
LINE
  5
227
100
AcDbEntity
  8
0
  6
CONTINUOUS
 62
     7
100
AcDbLine
 10
-141.0
 20
243.00001
 30
0.0
 11
-123.0
 21
243.00001
 31
0.0
  0
LINE
  5
228
100
AcDbEntity
  8
0
  6
CONTINUOUS
 62
     7
100
AcDbLine
 10
-160.69053
 20
243.00001
 30
0.0
 11
-159.0
 21
243.00001
 31
0.0
  0
LINE
  5
229
100
AcDbEntity
  8
0
  6
CONTINUOUS
 62
     7
100
AcDbLine
 10
-171.30948
 20
238.00001
 30
0.0
 11
-160.69053
 21
238.00001
 31
0.0
  0
LINE
  5
22A
100
AcDbEntity
  8
0
  6
CONTINUOUS
 62
     7
100
AcDbLine
 10
-160.69053
 20
288.00001
 30
0.0
 11
-160.69053
 21
283.00001
 31
0.0
  0
LINE
  5
22B
100
AcDbEntity
  8
0
  6
CONTINUOUS
 62
     7
100
AcDbLine
 10
-159.0
 20
283.00001
 30
0.0
 11
-159.0
 21
243.00001
 31
0.0
  0
LINE
  5
22C
100
AcDbEntity
  8
0
  6
CONTINUOUS
 62
     7
100
AcDbLine
 10
-141.0
 20
283.00001
 30
0.0
 11
-141.0
 21
243.00001
 31
0.0
  0
LINE
  5
22D
100
AcDbEntity
  8
0
  6
CONTINUOUS
 62
     7
100
AcDbLine
 10
-139.31945
 20
293.00001
 30
0.0
 11
-171.30948
 21
293.00001
 31
0.0
  0
LINE
  5
22E
100
AcDbEntity
  8
0
  6
CONTINUOUS
 62
     7
100
AcDbLine
 10
-141.0
 20
283.00001
 30
0.0
 11
-123.0
 21
283.00001
 31
0.0
  0
LINE
  5
22F
100
AcDbEntity
  8
0
  6
CENTER
 62
     7
100
AcDbLine
 10
-93.1
 20
281.70001
 30
0.0
 11
-102.9
 21
281.70001
 31
0.0
  0
LINE
  5
230
100
AcDbEntity
  8
0
  6
CONTINUOUS
 62
     7
100
AcDbLine
 10
-160.69053
 20
283.00001
 30
0.0
 11
-159.0
 21
283.00001
 31
0.0
  0
ARC
  5
231
100
AcDbEntity
  8
0
  6
CONTINUOUS
 62
     7
100
AcDbCircle
 10
-94.0
 20
247.30001
 30
0.0
 40
3.0
100
AcDbArc
 50
0.0
 51
90.000003
  0
CIRCLE
  5
232
100
AcDbEntity
  8
0
  6
CONTINUOUS
 62
     7
100
AcDbCircle
 10
-98.0
 20
281.70001
 30
0.0
 40
2.9
  0
CIRCLE
  5
233
100
AcDbEntity
  8
0
  6
CONTINUOUS
 62
     7
100
AcDbCircle
 10
-116.0
 20
281.70001
 30
0.0
 40
2.9
  0
CIRCLE
  5
234
100
AcDbEntity
  8
0
  6
CONTINUOUS
 62
     7
100
AcDbCircle
 10
-116.0
 20
244.30001
 30
0.0
 40
2.9
  0
CIRCLE
  5
235
100
AcDbEntity
  8
0
  6
CONTINUOUS
 62
     7
100
AcDbCircle
 10
-98.0
 20
244.30001
 30
0.0
 40
2.9
  0
ARC
  5
236
100
AcDbEntity
  8
0
  6
CONTINUOUS
 62
     7
100
AcDbCircle
 10
-120.0
 20
247.30001
 30
0.0
 40
3.0
100
AcDbArc
 50
90.000003
 51
180.00001
  0
ARC
  5
237
100
AcDbEntity
  8
0
  6
CONTINUOUS
 62
     7
100
AcDbCircle
 10
-94.0
 20
278.70001
 30
0.0
 40
3.0
100
AcDbArc
 50
270.0
 51
0.0
  0
ARC
  5
238
100
AcDbEntity
  8
0
  6
CONTINUOUS
 62
     7
100
AcDbCircle
 10
-120.0
 20
278.70001
 30
0.0
 40
3.0
100
AcDbArc
 50
179.99999
 51
270.0
  0
POLYLINE
  5
239
100
AcDbEntity
  8
0
  6
CONTINUOUS
 62
     7
100
AcDb2dPolyline
 66
     1
 10
0.0
 20
0.0
 30
0.0
  0
VERTEX
  5
23A
100
AcDbEntity
  8
0
  6
CONTINUOUS
 62
     7
100
AcDbVertex
100
AcDb2dVertex
 10
-123.0
 20
247.30001
 30
0.0
  0
VERTEX
  5
23B
100
AcDbEntity
  8
0
  6
CONTINUOUS
 62
     7
100
AcDbVertex
100
AcDb2dVertex
 10
-123.0
 20
236.29902
 30
0.0
  0
SEQEND
  5
23C
100
AcDbEntity
  8
0
 62
     7
  0
POLYLINE
  5
23D
100
AcDbEntity
  8
0
  6
CONTINUOUS
 62
     7
100
AcDb2dPolyline
 66
     1
 10
0.0
 20
0.0
 30
0.0
  0
VERTEX
  5
23E
100
AcDbEntity
  8
0
  6
CONTINUOUS
 62
     7
100
AcDbVertex
100
AcDb2dVertex
 10
-91.0
 20
247.30001
 30
0.0
  0
VERTEX
  5
23F
100
AcDbEntity
  8
0
  6
CONTINUOUS
 62
     7
100
AcDbVertex
100
AcDb2dVertex
 10
-91.0
 20
236.29902
 30
0.0
  0
SEQEND
  5
240
100
AcDbEntity
  8
0
 62
     7
  0
POLYLINE
  5
241
100
AcDbEntity
  8
0
  6
CONTINUOUS
 62
     7
100
AcDb2dPolyline
 66
     1
 10
0.0
 20
0.0
 30
0.0
  0
VERTEX
  5
242
100
AcDbEntity
  8
0
  6
CONTINUOUS
 62
     7
100
AcDbVertex
100
AcDb2dVertex
 10
-123.0
 20
278.70001
 30
0.0
  0
VERTEX
  5
243
100
AcDbEntity
  8
0
  6
CONTINUOUS
 62
     7
100
AcDbVertex
100
AcDb2dVertex
 10
-123.0
 20
289.701
 30
0.0
  0
SEQEND
  5
244
100
AcDbEntity
  8
0
 62
     7
  0
POLYLINE
  5
245
100
AcDbEntity
  8
0
  6
CONTINUOUS
 62
     7
100
AcDb2dPolyline
 66
     1
 10
0.0
 20
0.0
 30
0.0
  0
VERTEX
  5
246
100
AcDbEntity
  8
0
  6
CONTINUOUS
 62
     7
100
AcDbVertex
100
AcDb2dVertex
 10
-91.0
 20
278.70001
 30
0.0
  0
VERTEX
  5
247
100
AcDbEntity
  8
0
  6
CONTINUOUS
 62
     7
100
AcDbVertex
100
AcDb2dVertex
 10
-91.0
 20
289.701
 30
0.0
  0
SEQEND
  5
248
100
AcDbEntity
  8
0
 62
     7
  0
POINT
  5
249
100
AcDbEntity
  8
0
  6
CONTINUOUS
 62
     7
100
AcDbPoint
 10
-34.0
 20
348.0
 30
0.0
  0
POINT
  5
24A
100
AcDbEntity
  8
0
  6
CONTINUOUS
 62
     7
100
AcDbPoint
 10
3.400002
 20
348.0
 30
0.0
  0
LINE
  5
24B
100
AcDbEntity
  8
0
  6
CONTINUOUS
 62
     7
100
AcDbLine
 10
-40.0
 20
350.0
 30
0.0
 11
-40.0
 21
370.0
 31
0.0
  0
LINE
  5
24C
100
AcDbEntity
  8
0
  6
CONTINUOUS
 62
     7
100
AcDbLine
 10
9.400002
 20
350.0
 30
0.0
 11
-2.6
 21
350.0
 31
0.0
  0
LINE
  5
24D
100
AcDbEntity
  8
0
  6
CENTER
 62
     7
100
AcDbLine
 10
-15.299999
 20
377.0
 30
0.0
 11
-15.299999
 21
341.0
 31
0.0
  0
LINE
  5
24E
100
AcDbEntity
  8
0
  6
CONTINUOUS
 62
     7
100
AcDbLine
 10
9.400002
 20
350.0
 30
0.0
 11
9.400002
 21
370.0
 31
0.0
  0
LINE
  5
24F
100
AcDbEntity
  8
0
  6
CONTINUOUS
 62
     7
100
AcDbLine
 10
11.400002
 20
348.0
 30
0.0
 11
11.400002
 21
370.0
 31
0.0
  0
LINE
  5
250
100
AcDbEntity
  8
0
  6
CONTINUOUS
 62
     7
100
AcDbLine
 10
-2.6
 20
350.0
 30
0.0
 11
-2.6
 21
348.0
 31
0.0
  0
LINE
  5
251
100
AcDbEntity
  8
0
  6
CONTINUOUS
 62
     7
100
AcDbLine
 10
-40.0
 20
350.0
 30
0.0
 11
-28.0
 21
350.0
 31
0.0
  0
LINE
  5
252
100
AcDbEntity
  8
0
  6
CENTER
 62
     7
100
AcDbLine
 10
-34.0
 20
345.0
 30
0.0
 11
-34.0
 21
355.0
 31
0.0
  0
LINE
  5
253
100
AcDbEntity
  8
0
  6
CONTINUOUS
 62
     7
100
AcDbLine
 10
-35.3
 20
350.0
 30
0.0
 11
-35.3
 21
370.0
 31
0.0
  0
LINE
  5
254
100
AcDbEntity
  8
0
  6
CONTINUOUS
 62
     7
100
AcDbLine
 10
-45.3
 20
370.0
 30
0.0
 11
-35.3
 21
370.0
 31
0.0
  0
LINE
  5
255
100
AcDbEntity
  8
0
  6
CONTINUOUS
 62
     7
100
AcDbLine
 10
-45.3
 20
355.0
 30
0.0
 11
-45.3
 21
363.0
 31
0.0
  0
LINE
  5
256
100
AcDbEntity
  8
0
  6
CONTINUOUS
 62
     7
100
AcDbLine
 10
-32.8
 20
352.0
 30
0.0
 11
2.200001
 21
352.0
 31
0.0
  0
LINE
  5
257
100
AcDbEntity
  8
0
  6
CONTINUOUS
 62
     7
100
AcDbLine
 10
-45.3
 20
348.0
 30
0.0
 11
14.700001
 21
348.0
 31
0.0
  0
LINE
  5
258
100
AcDbEntity
  8
0
  6
CONTINUOUS
 62
     7
100
AcDbLine
 10
4.700001
 20
350.0
 30
0.0
 11
4.700001
 21
370.0
 31
0.0
  0
LINE
  5
259
100
AcDbEntity
  8
0
  6
CONTINUOUS
 62
     7
100
AcDbLine
 10
-42.0
 20
348.0
 30
0.0
 11
-42.0
 21
370.0
 31
0.0
  0
LINE
  5
25A
100
AcDbEntity
  8
0
  6
CONTINUOUS
 62
     7
100
AcDbLine
 10
14.700001
 20
348.0
 30
0.0
 11
14.700001
 21
370.0
 31
0.0
  0
LINE
  5
25B
100
AcDbEntity
  8
0
  6
CENTER
 62
     7
100
AcDbLine
 10
3.400002
 20
345.0
 30
0.0
 11
3.400002
 21
355.0
 31
0.0
  0
LINE
  5
25C
100
AcDbEntity
  8
0
  6
CONTINUOUS
 62
     7
100
AcDbLine
 10
14.700001
 20
370.0
 30
0.0
 11
4.700001
 21
370.0
 31
0.0
  0
LINE
  5
25D
100
AcDbEntity
  8
0
  6
CONTINUOUS
 62
     7
100
AcDbLine
 10
-28.0
 20
350.0
 30
0.0
 11
-28.0
 21
348.0
 31
0.0
  0
LINE
  5
25E
100
AcDbEntity
  8
0
  6
CONTINUOUS
 62
     7
100
AcDbLine
 10
-45.3
 20
348.0
 30
0.0
 11
-45.3
 21
370.0
 31
0.0
  0
LINE
  5
25F
100
AcDbEntity
  8
0
  6
CONTINUOUS
 62
     7
100
AcDbLine
 10
4.700001
 20
366.0
 30
0.0
 11
-35.3
 21
366.0
 31
0.0
  0
LINE
  5
260
100
AcDbEntity
  8
0
  6
CONTINUOUS
 62
     7
100
AcDbLine
 10
4.700001
 20
369.5
 30
0.0
 11
-35.3
 21
369.5
 31
0.0
  0
LINE
  5
261
100
AcDbEntity
  8
0
  6
CENTER
 62
     7
100
AcDbLine
 10
-48.3
 20
359.0
 30
0.0
 11
17.700001
 21
359.0
 31
0.0
  0
ARC
  5
262
100
AcDbEntity
  8
0
  6
CONTINUOUS
 62
     7
100
AcDbCircle
 10
-32.8
 20
354.5
 30
0.0
 40
2.5
100
AcDbArc
 50
179.99999
 51
270.0
  0
ARC
  5
263
100
AcDbEntity
  8
0
  6
CONTINUOUS
 62
     7
100
AcDbCircle
 10
2.200001
 20
354.5
 30
0.0
 40
2.5
100
AcDbArc
 50
270.0
 51
0.0
  0
POINT
  5
264
100
AcDbEntity
  8
0
  6
CONTINUOUS
 62
     7
100
AcDbPoint
 10
114.0
 20
422.29999
 30
0.0
  0
POINT
  5
265
100
AcDbEntity
  8
0
  6
CONTINUOUS
 62
     7
100
AcDbPoint
 10
132.0
 20
422.29999
 30
0.0
  0
LINE
  5
266
100
AcDbEntity
  8
0
  6
CONTINUOUS
 62
     7
100
AcDbLine
 10
90.690525
 20
484.99999
 30
0.0
 11
90.690525
 21
479.69999
 31
0.0
  0
LINE
  5
267
100
AcDbEntity
  8
0
  6
CENTER
 62
     7
100
AcDbLine
 10
96.0
 20
417.99999
 30
0.0
 11
96.0
 21
491.99998
 31
0.0
  0
LINE
  5
268
100
AcDbEntity
  8
0
  6
CONTINUOUS
 62
     7
100
AcDbLine
 10
90.690525
 20
430.29999
 30
0.0
 11
90.690525
 21
424.99999
 31
0.0
  0
LINE
  5
269
100
AcDbEntity
  8
0
  6
CENTER
 62
     7
100
AcDbLine
 10
51.690521
 20
454.99999
 30
0.0
 11
132.0
 21
454.99999
 31
0.0
  0
LINE
  5
26A
100
AcDbEntity
  8
0
  6
CONTINUOUS
 62
     7
100
AcDbLine
 10
90.680546
 20
481.69999
 30
0.0
 11
107.0
 21
481.69999
 31
0.0
  0
LINE
  5
26B
100
AcDbEntity
  8
0
  6
CONTINUOUS
 62
     7
100
AcDbLine
 10
90.690525
 20
430.29999
 30
0.0
 11
139.0
 21
430.29999
 31
0.0
  0
LINE
  5
26C
100
AcDbEntity
  8
0
  6
CENTER
 62
     7
100
AcDbLine
 10
64.0
 20
417.99999
 30
0.0
 11
64.0
 21
491.99998
 31
0.0
  0
LINE
  5
26D
100
AcDbEntity
  8
0
  6
CONTINUOUS
 62
     7
100
AcDbLine
 10
69.309475
 20
434.99999
 30
0.0
 11
69.309475
 21
429.99999
 31
0.0
  0
LINE
  5
26E
100
AcDbEntity
  8
0
  6
CENTER
 62
     7
100
AcDbLine
 10
74.0
 20
430.99999
 30
0.0
 11
86.0
 21
430.99999
 31
0.0
  0
LINE
  5
26F
100
AcDbEntity
  8
0
  6
CONTINUOUS
 62
     7
100
AcDbLine
 10
110.0
 20
493.69999
 30
0.0
 11
136.0
 21
493.69999
 31
0.0
  0
LINE
  5
270
100
AcDbEntity
  8
0
  6
CONTINUOUS
 62
     7
100
AcDbLine
 10
76.0
 20
427.49999
 30
0.0
 11
84.0
 21
427.49999
 31
0.0
  0
LINE
  5
271
100
AcDbEntity
  8
0
  6
CONTINUOUS
 62
     7
100
AcDbLine
 10
90.680546
 20
424.99999
 30
0.0
 11
58.690521
 21
424.99999
 31
0.0
  0
LINE
  5
272
100
AcDbEntity
  8
0
  6
CONTINUOUS
 62
     7
100
AcDbLine
 10
84.0
 20
434.99999
 30
0.0
 11
107.0
 21
434.99999
 31
0.0
  0
LINE
  5
273
100
AcDbEntity
  8
0
  6
CONTINUOUS
 62
     7
100
AcDbLine
 10
69.309475
 20
434.99999
 30
0.0
 11
76.0
 21
434.99999
 31
0.0
  0
LINE
  5
274
100
AcDbEntity
  8
0
  6
CONTINUOUS
 62
     7
100
AcDbLine
 10
58.690521
 20
429.99999
 30
0.0
 11
69.309475
 21
429.99999
 31
0.0
  0
LINE
  5
275
100
AcDbEntity
  8
0
  6
CONTINUOUS
 62
     7
100
AcDbLine
 10
76.0
 20
426.79999
 30
0.0
 11
84.0
 21
426.79999
 31
0.0
  0
LINE
  5
276
100
AcDbEntity
  8
0
  6
CONTINUOUS
 62
     7
100
AcDbLine
 10
69.309475
 20
479.99999
 30
0.0
 11
69.309475
 21
474.99999
 31
0.0
  0
LINE
  5
277
100
AcDbEntity
  8
0
  6
CONTINUOUS
 62
     7
100
AcDbLine
 10
76.0
 20
426.799
 30
0.0
 11
76.0
 21
434.99999
 31
0.0
  0
LINE
  5
278
100
AcDbEntity
  8
0
  6
CONTINUOUS
 62
     7
100
AcDbLine
 10
71.0
 20
474.99999
 30
0.0
 11
71.0
 21
434.99999
 31
0.0
  0
LINE
  5
279
100
AcDbEntity
  8
0
  6
CENTER
 62
     7
100
AcDbLine
 10
132.0
 20
427.19999
 30
0.0
 11
132.0
 21
417.39999
 31
0.0
  0
LINE
  5
27A
100
AcDbEntity
  8
0
  6
CENTER
 62
     7
100
AcDbLine
 10
136.9
 20
422.29999
 30
0.0
 11
127.1
 21
422.29999
 31
0.0
  0
LINE
  5
27B
100
AcDbEntity
  8
0
  6
CONTINUOUS
 62
     7
100
AcDbLine
 10
89.0
 20
474.99999
 30
0.0
 11
89.0
 21
434.99999
 31
0.0
  0
LINE
  5
27C
100
AcDbEntity
  8
0
  6
CONTINUOUS
 62
     7
100
AcDbLine
 10
72.5
 20
474.99999
 30
0.0
 11
72.5
 21
434.99999
 31
0.0
  0
LINE
  5
27D
100
AcDbEntity
  8
0
  6
CONTINUOUS
 62
     7
100
AcDbLine
 10
110.0
 20
416.29999
 30
0.0
 11
136.0
 21
416.29999
 31
0.0
  0
LINE
  5
27E
100
AcDbEntity
  8
0
  6
CENTER
 62
     7
100
AcDbLine
 10
118.9
 20
422.29999
 30
0.0
 11
109.1
 21
422.29999
 31
0.0
  0
LINE
  5
27F
100
AcDbEntity
  8
0
  6
CENTER
 62
     7
100
AcDbLine
 10
114.0
 20
492.59999
 30
0.0
 11
114.0
 21
482.79999
 31
0.0
  0
LINE
  5
280
100
AcDbEntity
  8
0
  6
CENTER
 62
     7
100
AcDbLine
 10
114.0
 20
427.19999
 30
0.0
 11
114.0
 21
417.39999
 31
0.0
  0
LINE
  5
281
100
AcDbEntity
  8
0
  6
CENTER
 62
     7
100
AcDbLine
 10
118.9
 20
487.69999
 30
0.0
 11
109.1
 21
487.69999
 31
0.0
  0
LINE
  5
282
100
AcDbEntity
  8
0
  6
CENTER
 62
     7
100
AcDbLine
 10
74.0
 20
478.99999
 30
0.0
 11
86.0
 21
478.99999
 31
0.0
  0
LINE
  5
283
100
AcDbEntity
  8
0
  6
CONTINUOUS
 62
     7
100
AcDbLine
 10
76.0
 20
482.49999
 30
0.0
 11
84.0
 21
482.49999
 31
0.0
  0
LINE
  5
284
100
AcDbEntity
  8
0
  6
CONTINUOUS
 62
     7
100
AcDbLine
 10
90.680546
 20
484.99999
 30
0.0
 11
58.690521
 21
484.99999
 31
0.0
  0
LINE
  5
285
100
AcDbEntity
  8
0
  6
CONTINUOUS
 62
     7
100
AcDbLine
 10
84.0
 20
474.99999
 30
0.0
 11
107.0
 21
474.99999
 31
0.0
  0
LINE
  5
286
100
AcDbEntity
  8
0
  6
CONTINUOUS
 62
     7
100
AcDbLine
 10
84.0
 20
426.799
 30
0.0
 11
84.0
 21
434.99999
 31
0.0
  0
LINE
  5
287
100
AcDbEntity
  8
0
  6
CONTINUOUS
 62
     7
100
AcDbLine
 10
90.680546
 20
428.29999
 30
0.0
 11
107.0
 21
428.29999
 31
0.0
  0
LINE
  5
288
100
AcDbEntity
  8
0
  6
CENTER
 62
     7
100
AcDbLine
 10
136.9
 20
487.69999
 30
0.0
 11
127.1
 21
487.69999
 31
0.0
  0
LINE
  5
289
100
AcDbEntity
  8
0
  6
CONTINUOUS
 62
     7
100
AcDbLine
 10
69.309475
 20
474.99999
 30
0.0
 11
76.0
 21
474.99999
 31
0.0
  0
LINE
  5
28A
100
AcDbEntity
  8
0
  6
CENTER
 62
     7
100
AcDbLine
 10
132.0
 20
492.59999
 30
0.0
 11
132.0
 21
482.79999
 31
0.0
  0
LINE
  5
28B
100
AcDbEntity
  8
0
  6
CONTINUOUS
 62
     7
100
AcDbLine
 10
58.690521
 20
479.99999
 30
0.0
 11
69.309475
 21
479.99999
 31
0.0
  0
LINE
  5
28C
100
AcDbEntity
  8
0
  6
CONTINUOUS
 62
     7
100
AcDbLine
 10
90.690525
 20
479.69999
 30
0.0
 11
139.0
 21
479.69999
 31
0.0
  0
LINE
  5
28D
100
AcDbEntity
  8
0
  6
CONTINUOUS
 62
     7
100
AcDbLine
 10
76.0
 20
483.19999
 30
0.0
 11
84.0
 21
483.19999
 31
0.0
  0
LINE
  5
28E
100
AcDbEntity
  8
0
  6
CONTINUOUS
 62
     7
100
AcDbLine
 10
76.0
 20
483.19999
 30
0.0
 11
76.0
 21
474.99999
 31
0.0
  0
LINE
  5
28F
100
AcDbEntity
  8
0
  6
CONTINUOUS
 62
     7
100
AcDbLine
 10
87.5
 20
474.99999
 30
0.0
 11
87.5
 21
434.99999
 31
0.0
  0
LINE
  5
290
100
AcDbEntity
  8
0
  6
CONTINUOUS
 62
     7
100
AcDbLine
 10
84.0
 20
483.19999
 30
0.0
 11
84.0
 21
474.99999
 31
0.0
  0
ARC
  5
291
100
AcDbEntity
  8
0
  6
CONTINUOUS
 62
     7
100
AcDbCircle
 10
136.0
 20
419.29999
 30
0.0
 40
3.0
100
AcDbArc
 50
270.0
 51
0.0
  0
CIRCLE
  5
292
100
AcDbEntity
  8
0
  6
CONTINUOUS
 62
     7
100
AcDbCircle
 10
132.0
 20
487.69999
 30
0.0
 40
2.9
  0
CIRCLE
  5
293
100
AcDbEntity
  8
0
  6
CONTINUOUS
 62
     7
100
AcDbCircle
 10
114.0
 20
487.69999
 30
0.0
 40
2.9
  0
CIRCLE
  5
294
100
AcDbEntity
  8
0
  6
CONTINUOUS
 62
     7
100
AcDbCircle
 10
114.0
 20
422.29999
 30
0.0
 40
2.9
  0
CIRCLE
  5
295
100
AcDbEntity
  8
0
  6
CONTINUOUS
 62
     7
100
AcDbCircle
 10
132.0
 20
422.29999
 30
0.0
 40
2.9
  0
ARC
  5
296
100
AcDbEntity
  8
0
  6
CONTINUOUS
 62
     7
100
AcDbCircle
 10
110.0
 20
490.69999
 30
0.0
 40
3.0
100
AcDbArc
 50
90.000003
 51
180.00001
  0
ARC
  5
297
100
AcDbEntity
  8
0
  6
CONTINUOUS
 62
     7
100
AcDbCircle
 10
110.0
 20
419.29999
 30
0.0
 40
3.0
100
AcDbArc
 50
179.99999
 51
270.0
  0
ARC
  5
298
100
AcDbEntity
  8
0
  6
CONTINUOUS
 62
     7
100
AcDbCircle
 10
136.0
 20
490.69999
 30
0.0
 40
3.0
100
AcDbArc
 50
0.0
 51
90.000003
  0
POLYLINE
  5
299
100
AcDbEntity
  8
0
  6
CONTINUOUS
 62
     7
100
AcDb2dPolyline
 66
     1
 10
0.0
 20
0.0
 30
0.0
  0
VERTEX
  5
29A
100
AcDbEntity
  8
0
  6
CONTINUOUS
 62
     7
100
AcDbVertex
100
AcDb2dVertex
 10
107.0
 20
419.29999
 30
0.0
  0
VERTEX
  5
29B
100
AcDbEntity
  8
0
  6
CONTINUOUS
 62
     7
100
AcDbVertex
100
AcDb2dVertex
 10
107.0
 20
434.99999
 30
0.0
  0
SEQEND
  5
29C
100
AcDbEntity
  8
0
 62
     7
  0
POLYLINE
  5
29D
100
AcDbEntity
  8
0
  6
CONTINUOUS
 62
     7
100
AcDb2dPolyline
 66
     1
 10
0.0
 20
0.0
 30
0.0
  0
VERTEX
  5
29E
100
AcDbEntity
  8
0
  6
CONTINUOUS
 62
     7
100
AcDbVertex
100
AcDb2dVertex
 10
139.0
 20
419.29999
 30
0.0
  0
VERTEX
  5
29F
100
AcDbEntity
  8
0
  6
CONTINUOUS
 62
     7
100
AcDbVertex
100
AcDb2dVertex
 10
139.0
 20
430.29999
 30
0.0
  0
SEQEND
  5
2A0
100
AcDbEntity
  8
0
 62
     7
  0
POLYLINE
  5
2A1
100
AcDbEntity
  8
0
  6
CONTINUOUS
 62
     7
100
AcDb2dPolyline
 66
     1
 10
0.0
 20
0.0
 30
0.0
  0
VERTEX
  5
2A2
100
AcDbEntity
  8
0
  6
CONTINUOUS
 62
     7
100
AcDbVertex
100
AcDb2dVertex
 10
107.0
 20
490.69999
 30
0.0
  0
VERTEX
  5
2A3
100
AcDbEntity
  8
0
  6
CONTINUOUS
 62
     7
100
AcDbVertex
100
AcDb2dVertex
 10
107.0
 20
474.99999
 30
0.0
  0
SEQEND
  5
2A4
100
AcDbEntity
  8
0
 62
     7
  0
POLYLINE
  5
2A5
100
AcDbEntity
  8
0
  6
CONTINUOUS
 62
     7
100
AcDb2dPolyline
 66
     1
 10
0.0
 20
0.0
 30
0.0
  0
VERTEX
  5
2A6
100
AcDbEntity
  8
0
  6
CONTINUOUS
 62
     7
100
AcDbVertex
100
AcDb2dVertex
 10
139.0
 20
490.69999
 30
0.0
  0
VERTEX
  5
2A7
100
AcDbEntity
  8
0
  6
CONTINUOUS
 62
     7
100
AcDbVertex
100
AcDb2dVertex
 10
139.0
 20
479.69999
 30
0.0
  0
SEQEND
  5
2A8
100
AcDbEntity
  8
0
 62
     7
  0
POINT
  5
2A9
100
AcDbEntity
  8
0
  6
CONTINUOUS
 62
     7
100
AcDbPoint
 10
114.0
 20
370.0
 30
0.0
  0
POINT
  5
2AA
100
AcDbEntity
  8
0
  6
CONTINUOUS
 62
     7
100
AcDbPoint
 10
132.0
 20
370.0
 30
0.0
  0
LINE
  5
2AB
100
AcDbEntity
  8
0
  6
CONTINUOUS
 62
     7
100
AcDbLine
 10
99.932788
 20
348.66723
 30
0.0
 11
132.63184
 21
360.60657
 31
0.0
  0
LINE
  5
2AC
100
AcDbEntity
  8
0
  6
CONTINUOUS
 62
     7
100
AcDbLine
 10
107.0
 20
370.0
 30
0.0
 11
107.0
 21
368.0
 31
0.0
  0
LINE
  5
2AD
100
AcDbEntity
  8
0
  6
CENTER
 62
     7
100
AcDbLine
 10
102.0
 20
359.0
 30
0.0
 11
90.0
 21
359.0
 31
0.0
  0
LINE
  5
2AE
100
AcDbEntity
  8
0
  6
CENTER
 62
     7
100
AcDbLine
 10
70.0
 20
359.0
 30
0.0
 11
58.0
 21
359.0
 31
0.0
  0
LINE
  5
2AF
100
AcDbEntity
  8
0
  6
CENTER
 62
     7
100
AcDbLine
 10
132.0
 20
373.0
 30
0.0
 11
132.0
 21
365.0
 31
0.0
  0
LINE
  5
2B0
100
AcDbEntity
  8
0
  6
CONTINUOUS
 62
     7
100
AcDbLine
 10
86.339254
 20
363.1
 30
0.0
 11
90.700943
 21
363.1
 31
0.0
  0
LINE
  5
2B1
100
AcDbEntity
  8
0
  6
CONTINUOUS
 62
     7
100
AcDbLine
 10
139.0
 20
370.0
 30
0.0
 11
139.0
 21
368.0
 31
0.0
  0
LINE
  5
2B2
100
AcDbEntity
  8
0
  6
CONTINUOUS
 62
     7
100
AcDbLine
 10
107.0
 20
368.0
 30
0.0
 11
139.0
 21
368.0
 31
0.0
  0
LINE
  5
2B3
100
AcDbEntity
  8
0
  6
CONTINUOUS
 62
     7
100
AcDbLine
 10
89.300747
 20
358.89999
 30
0.0
 11
85.316835
 21
358.89999
 31
0.0
  0
LINE
  5
2B4
100
AcDbEntity
  8
0
  6
CENTER
 62
     7
100
AcDbLine
 10
114.0
 20
373.0
 30
0.0
 11
114.0
 21
365.0
 31
0.0
  0
LINE
  5
2B5
100
AcDbEntity
  8
0
  6
CONTINUOUS
 62
     7
100
AcDbLine
 10
87.255329
 20
351.53135
 30
0.0
 11
89.567005
 21
348.82472
 31
0.0
  0
LINE
  5
2B6
100
AcDbEntity
  8
0
  6
CONTINUOUS
 62
     7
100
AcDbLine
 10
64.0
 20
348.0
 30
0.0
 11
96.0
 21
348.0
 31
0.0
  0
LINE
  5
2B7
100
AcDbEntity
  8
0
  6
CONTINUOUS
 62
     7
100
AcDbLine
 10
93.5
 20
362.1225
 30
0.0
 11
93.5
 21
355.8775
 31
0.0
  0
LINE
  5
2B8
100
AcDbEntity
  8
0
  6
CONTINUOUS
 62
     7
100
AcDbLine
 10
64.0
 20
370.0
 30
0.0
 11
102.0
 21
370.0
 31
0.0
  0
LINE
  5
2B9
100
AcDbEntity
  8
0
  6
CENTER
 62
     7
100
AcDbLine
 10
64.0
 20
365.0
 30
0.0
 11
64.0
 21
353.0
 31
0.0
  0
LINE
  5
2BA
100
AcDbEntity
  8
0
  6
CENTER
 62
     7
100
AcDbLine
 10
96.0
 20
365.0
 30
0.0
 11
96.0
 21
353.0
 31
0.0
  0
ARC
  5
2BB
100
AcDbEntity
  8
0
  6
CONTINUOUS
 62
     7
100
AcDbCircle
 10
129.20204
 20
370.0
 30
0.0
 40
10.0
100
AcDbArc
 50
290.05856
 51
348.46304
  0
ARC
  5
2BC
100
AcDbEntity
  8
0
  6
CONTINUOUS
 62
     7
100
AcDbCircle
 10
104.5
 20
370.0
 30
0.0
 40
2.5
100
AcDbArc
 50
179.99999
 51
0.00001
  0
ARC
  5
2BD
100
AcDbEntity
  8
0
  6
CONTINUOUS
 62
     7
100
AcDbCircle
 10
96.0
 20
359.0
 30
0.0
 40
6.7
100
AcDbArc
 50
142.27008
 51
180.85524
  0
ARC
  5
2BE
100
AcDbEntity
  8
0
  6
CONTINUOUS
 62
     7
100
AcDbCircle
 10
96.0
 20
359.0
 30
0.0
 40
11.2
100
AcDbArc
 50
100.84406
 51
154.53838
  0
ARC
  5
2BF
100
AcDbEntity
  8
0
  6
CONTINUOUS
 62
     7
100
AcDbCircle
 10
89.186804
 20
348.5
 30
0.0
 40
0.5
100
AcDbArc
 50
270.0
 51
40.499999
  0
ARC
  5
2C0
100
AcDbEntity
  8
0
  6
CONTINUOUS
 62
     7
100
AcDbCircle
 10
85.316835
 20
358.39999
 30
0.0
 40
0.5
100
AcDbArc
 50
90.000003
 51
183.21457
  0
ARC
  5
2C1
100
AcDbEntity
  8
0
  6
CONTINUOUS
 62
     7
100
AcDbCircle
 10
96.0
 20
359.0
 30
0.0
 40
11.2
100
AcDbArc
 50
183.21457
 51
259.15594
  0
ARC
  5
2C2
100
AcDbEntity
  8
0
  6
CONTINUOUS
 62
     7
100
AcDbCircle
 10
96.160004
 20
359.0
 30
0.0
 40
11.0
100
AcDbArc
 50
269.16656
 51
290.1438
  0
ARC
  5
2C3
100
AcDbEntity
  8
0
  6
CONTINUOUS
 62
     7
100
AcDbCircle
 10
90.190525
 20
369.5
 30
0.0
 40
0.5
100
AcDbArc
 50
298.95503
 51
90.000003
  0
ARC
  5
2C4
100
AcDbEntity
  8
0
  6
CONTINUOUS
 62
     7
100
AcDbCircle
 10
96.0
 20
359.0
 30
0.0
 40
11.5
100
AcDbArc
 50
118.95503
 51
220.49999
  0
ARC
  5
2C5
100
AcDbEntity
  8
0
  6
CONTINUOUS
 62
     7
100
AcDbCircle
 10
86.339254
 20
363.6
 30
0.0
 40
0.5
100
AcDbArc
 50
154.53838
 51
270.0
  0
CIRCLE
  5
2C6
100
AcDbEntity
  8
0
  6
CONTINUOUS
 62
     7
100
AcDbCircle
 10
96.0
 20
359.0
 30
0.0
 40
4.0
  0
ARC
  5
2C7
100
AcDbEntity
  8
0
  6
CONTINUOUS
 62
     7
100
AcDbCircle
 10
64.0
 20
359.0
 30
0.0
 40
11.0
100
AcDbArc
 50
90.000003
 51
270.0
  0
POLYLINE
  5
2C8
100
AcDbEntity
  8
0
  6
CONTINUOUS
 62
     7
100
AcDb2dPolyline
 66
     1
 10
0.0
 20
0.0
 30
0.0
  0
VERTEX
  5
2C9
100
AcDbEntity
  8
0
  6
CONTINUOUS
 62
     7
100
AcDbVertex
100
AcDb2dVertex
 10
107.0
 20
370.0
 30
0.0
  0
VERTEX
  5
2CA
100
AcDbEntity
  8
0
  6
CONTINUOUS
 62
     7
100
AcDbVertex
100
AcDb2dVertex
 10
139.0
 20
370.0
 30
0.0
  0
SEQEND
  5
2CB
100
AcDbEntity
  8
0
 62
     7
  0
POINT
  5
2CC
100
AcDbEntity
  8
0
  6
CONTINUOUS
 62
     7
100
AcDbPoint
 10
114.0
 20
295.70001
 30
0.0
  0
POINT
  5
2CD
100
AcDbEntity
  8
0
  6
CONTINUOUS
 62
     7
100
AcDbPoint
 10
132.0
 20
295.70001
 30
0.0
  0
LINE
  5
2CE
100
AcDbEntity
  8
0
  6
CONTINUOUS
 62
     7
100
AcDbLine
 10
58.690521
 20
288.00001
 30
0.0
 11
69.309475
 21
288.00001
 31
0.0
  0
LINE
  5
2CF
100
AcDbEntity
  8
0
  6
CENTER
 62
     7
100
AcDbLine
 10
132.0
 20
300.60001
 30
0.0
 11
132.0
 21
290.80001
 31
0.0
  0
LINE
  5
2D0
100
AcDbEntity
  8
0
  6
CONTINUOUS
 62
     7
100
AcDbLine
 10
69.309475
 20
283.00001
 30
0.0
 11
71.0
 21
283.00001
 31
0.0
  0
LINE
  5
2D1
100
AcDbEntity
  8
0
  6
CONTINUOUS
 62
     7
100
AcDbLine
 10
90.690525
 20
287.70001
 30
0.0
 11
139.0
 21
287.70001
 31
0.0
  0
LINE
  5
2D2
100
AcDbEntity
  8
0
  6
CENTER
 62
     7
100
AcDbLine
 10
136.9
 20
295.70001
 30
0.0
 11
127.1
 21
295.70001
 31
0.0
  0
LINE
  5
2D3
100
AcDbEntity
  8
0
  6
CONTINUOUS
 62
     7
100
AcDbLine
 10
90.690525
 20
236.30001
 30
0.0
 11
139.0
 21
236.30001
 31
0.0
  0
LINE
  5
2D4
100
AcDbEntity
  8
0
  6
CONTINUOUS
 62
     7
100
AcDbLine
 10
89.0
 20
283.00001
 30
0.0
 11
107.0
 21
283.00001
 31
0.0
  0
LINE
  5
2D5
100
AcDbEntity
  8
0
  6
CONTINUOUS
 62
     7
100
AcDbLine
 10
90.680546
 20
293.00001
 30
0.0
 11
58.690521
 21
293.00001
 31
0.0
  0
LINE
  5
2D6
100
AcDbEntity
  8
0
  6
CENTER
 62
     7
100
AcDbLine
 10
118.9
 20
295.70001
 30
0.0
 11
109.1
 21
295.70001
 31
0.0
  0
LINE
  5
2D7
100
AcDbEntity
  8
0
  6
CENTER
 62
     7
100
AcDbLine
 10
114.0
 20
235.20001
 30
0.0
 11
114.0
 21
225.40001
 31
0.0
  0
LINE
  5
2D8
100
AcDbEntity
  8
0
  6
CENTER
 62
     7
100
AcDbLine
 10
114.0
 20
300.60001
 30
0.0
 11
114.0
 21
290.80001
 31
0.0
  0
LINE
  5
2D9
100
AcDbEntity
  8
0
  6
CENTER
 62
     7
100
AcDbLine
 10
118.9
 20
230.30001
 30
0.0
 11
109.1
 21
230.30001
 31
0.0
  0
LINE
  5
2DA
100
AcDbEntity
  8
0
  6
CONTINUOUS
 62
     7
100
AcDbLine
 10
110.0
 20
224.30001
 30
0.0
 11
136.0
 21
224.30001
 31
0.0
  0
LINE
  5
2DB
100
AcDbEntity
  8
0
  6
CONTINUOUS
 62
     7
100
AcDbLine
 10
89.0
 20
283.00001
 30
0.0
 11
89.0
 21
243.00001
 31
0.0
  0
LINE
  5
2DC
100
AcDbEntity
  8
0
  6
CENTER
 62
     7
100
AcDbLine
 10
136.9
 20
230.30001
 30
0.0
 11
127.1
 21
230.30001
 31
0.0
  0
LINE
  5
2DD
100
AcDbEntity
  8
0
  6
CENTER
 62
     7
100
AcDbLine
 10
132.0
 20
235.20001
 30
0.0
 11
132.0
 21
225.40001
 31
0.0
  0
LINE
  5
2DE
100
AcDbEntity
  8
0
  6
CONTINUOUS
 62
     7
100
AcDbLine
 10
71.0
 20
283.00001
 30
0.0
 11
71.0
 21
243.00001
 31
0.0
  0
LINE
  5
2DF
100
AcDbEntity
  8
0
  6
CONTINUOUS
 62
     7
100
AcDbLine
 10
69.309475
 20
288.00001
 30
0.0
 11
69.309475
 21
283.00001
 31
0.0
  0
LINE
  5
2E0
100
AcDbEntity
  8
0
  6
CONTINUOUS
 62
     7
100
AcDbLine
 10
58.690521
 20
238.00001
 30
0.0
 11
69.309475
 21
238.00001
 31
0.0
  0
LINE
  5
2E1
100
AcDbEntity
  8
0
  6
CONTINUOUS
 62
     7
100
AcDbLine
 10
69.309475
 20
243.00001
 30
0.0
 11
71.0
 21
243.00001
 31
0.0
  0
LINE
  5
2E2
100
AcDbEntity
  8
0
  6
CONTINUOUS
 62
     7
100
AcDbLine
 10
89.0
 20
243.00001
 30
0.0
 11
107.0
 21
243.00001
 31
0.0
  0
LINE
  5
2E3
100
AcDbEntity
  8
0
  6
CONTINUOUS
 62
     7
100
AcDbLine
 10
90.680546
 20
233.00001
 30
0.0
 11
58.690521
 21
233.00001
 31
0.0
  0
LINE
  5
2E4
100
AcDbEntity
  8
0
  6
CONTINUOUS
 62
     7
100
AcDbLine
 10
110.0
 20
301.70001
 30
0.0
 11
136.0
 21
301.70001
 31
0.0
  0
LINE
  5
2E5
100
AcDbEntity
  8
0
  6
CONTINUOUS
 62
     7
100
AcDbLine
 10
69.309475
 20
243.00001
 30
0.0
 11
69.309475
 21
238.00001
 31
0.0
  0
LINE
  5
2E6
100
AcDbEntity
  8
0
  6
CENTER
 62
     7
100
AcDbLine
 10
64.0
 20
226.00002
 30
0.0
 11
64.0
 21
300.00001
 31
0.0
  0
LINE
  5
2E7
100
AcDbEntity
  8
0
  6
CONTINUOUS
 62
     7
100
AcDbLine
 10
90.690525
 20
238.30001
 30
0.0
 11
139.0
 21
238.30001
 31
0.0
  0
LINE
  5
2E8
100
AcDbEntity
  8
0
  6
CONTINUOUS
 62
     7
100
AcDbLine
 10
90.690525
 20
289.70001
 30
0.0
 11
139.0
 21
289.70001
 31
0.0
  0
LINE
  5
2E9
100
AcDbEntity
  8
0
  6
CENTER
 62
     7
100
AcDbLine
 10
51.690521
 20
263.00001
 30
0.0
 11
132.0
 21
263.00001
 31
0.0
  0
LINE
  5
2EA
100
AcDbEntity
  8
0
  6
CONTINUOUS
 62
     7
100
AcDbLine
 10
90.690525
 20
238.30001
 30
0.0
 11
90.690525
 21
233.00001
 31
0.0
  0
LINE
  5
2EB
100
AcDbEntity
  8
0
  6
CENTER
 62
     7
100
AcDbLine
 10
96.0
 20
226.00002
 30
0.0
 11
96.0
 21
300.00001
 31
0.0
  0
LINE
  5
2EC
100
AcDbEntity
  8
0
  6
CONTINUOUS
 62
     7
100
AcDbLine
 10
90.690525
 20
293.00001
 30
0.0
 11
90.690525
 21
287.70001
 31
0.0
  0
ARC
  5
2ED
100
AcDbEntity
  8
0
  6
CONTINUOUS
 62
     7
100
AcDbCircle
 10
136.0
 20
298.70001
 30
0.0
 40
3.0
100
AcDbArc
 50
0.0
 51
90.000003
  0
ARC
  5
2EE
100
AcDbEntity
  8
0
  6
CONTINUOUS
 62
     7
100
AcDbCircle
 10
110.0
 20
227.30001
 30
0.0
 40
3.0
100
AcDbArc
 50
179.99999
 51
270.0
  0
ARC
  5
2EF
100
AcDbEntity
  8
0
  6
CONTINUOUS
 62
     7
100
AcDbCircle
 10
110.0
 20
298.70001
 30
0.0
 40
3.0
100
AcDbArc
 50
90.000003
 51
180.00001
  0
CIRCLE
  5
2F0
100
AcDbEntity
  8
0
  6
CONTINUOUS
 62
     7
100
AcDbCircle
 10
132.0
 20
230.30001
 30
0.0
 40
2.9
  0
CIRCLE
  5
2F1
100
AcDbEntity
  8
0
  6
CONTINUOUS
 62
     7
100
AcDbCircle
 10
114.0
 20
230.30001
 30
0.0
 40
2.9
  0
CIRCLE
  5
2F2
100
AcDbEntity
  8
0
  6
CONTINUOUS
 62
     7
100
AcDbCircle
 10
114.0
 20
295.70001
 30
0.0
 40
2.9
  0
CIRCLE
  5
2F3
100
AcDbEntity
  8
0
  6
CONTINUOUS
 62
     7
100
AcDbCircle
 10
132.0
 20
295.70001
 30
0.0
 40
2.9
  0
ARC
  5
2F4
100
AcDbEntity
  8
0
  6
CONTINUOUS
 62
     7
100
AcDbCircle
 10
136.0
 20
227.30001
 30
0.0
 40
3.0
100
AcDbArc
 50
270.0
 51
0.0
  0
POLYLINE
  5
2F5
100
AcDbEntity
  8
0
  6
CONTINUOUS
 62
     7
100
AcDb2dPolyline
 66
     1
 10
0.0
 20
0.0
 30
0.0
  0
VERTEX
  5
2F6
100
AcDbEntity
  8
0
  6
CONTINUOUS
 62
     7
100
AcDbVertex
100
AcDb2dVertex
 10
107.0
 20
227.30001
 30
0.0
  0
VERTEX
  5
2F7
100
AcDbEntity
  8
0
  6
CONTINUOUS
 62
     7
100
AcDbVertex
100
AcDb2dVertex
 10
107.0
 20
236.30001
 30
0.0
  0
SEQEND
  5
2F8
100
AcDbEntity
  8
0
 62
     7
  0
POLYLINE
  5
2F9
100
AcDbEntity
  8
0
  6
CONTINUOUS
 62
     7
100
AcDb2dPolyline
 66
     1
 10
0.0
 20
0.0
 30
0.0
  0
VERTEX
  5
2FA
100
AcDbEntity
  8
0
  6
CONTINUOUS
 62
     7
100
AcDbVertex
100
AcDb2dVertex
 10
139.0
 20
298.70001
 30
0.0
  0
VERTEX
  5
2FB
100
AcDbEntity
  8
0
  6
CONTINUOUS
 62
     7
100
AcDbVertex
100
AcDb2dVertex
 10
139.0
 20
287.70001
 30
0.0
  0
SEQEND
  5
2FC
100
AcDbEntity
  8
0
 62
     7
  0
POLYLINE
  5
2FD
100
AcDbEntity
  8
0
  6
CONTINUOUS
 62
     7
100
AcDb2dPolyline
 66
     1
 10
0.0
 20
0.0
 30
0.0
  0
VERTEX
  5
2FE
100
AcDbEntity
  8
0
  6
CONTINUOUS
 62
     7
100
AcDbVertex
100
AcDb2dVertex
 10
139.0
 20
227.30001
 30
0.0
  0
VERTEX
  5
2FF
100
AcDbEntity
  8
0
  6
CONTINUOUS
 62
     7
100
AcDbVertex
100
AcDb2dVertex
 10
139.0
 20
238.30001
 30
0.0
  0
SEQEND
  5
300
100
AcDbEntity
  8
0
 62
     7
  0
POLYLINE
  5
301
100
AcDbEntity
  8
0
  6
CONTINUOUS
 62
     7
100
AcDb2dPolyline
 66
     1
 10
0.0
 20
0.0
 30
0.0
  0
VERTEX
  5
302
100
AcDbEntity
  8
0
  6
CONTINUOUS
 62
     7
100
AcDbVertex
100
AcDb2dVertex
 10
107.0
 20
287.70001
 30
0.0
  0
VERTEX
  5
303
100
AcDbEntity
  8
0
  6
CONTINUOUS
 62
     7
100
AcDbVertex
100
AcDb2dVertex
 10
107.0
 20
283.00001
 30
0.0
  0
SEQEND
  5
304
100
AcDbEntity
  8
0
 62
     7
  0
POLYLINE
  5
305
100
AcDbEntity
  8
0
  6
CONTINUOUS
 62
     7
100
AcDb2dPolyline
 66
     1
 10
0.0
 20
0.0
 30
0.0
  0
VERTEX
  5
306
100
AcDbEntity
  8
0
  6
CONTINUOUS
 62
     7
100
AcDbVertex
100
AcDb2dVertex
 10
107.0
 20
238.30001
 30
0.0
  0
VERTEX
  5
307
100
AcDbEntity
  8
0
  6
CONTINUOUS
 62
     7
100
AcDbVertex
100
AcDb2dVertex
 10
107.0
 20
243.00001
 30
0.0
  0
SEQEND
  5
308
100
AcDbEntity
  8
0
 62
     7
  0
POLYLINE
  5
309
100
AcDbEntity
  8
0
  6
CONTINUOUS
 62
     7
100
AcDb2dPolyline
 66
     1
 10
0.0
 20
0.0
 30
0.0
  0
VERTEX
  5
30A
100
AcDbEntity
  8
0
  6
CONTINUOUS
 62
     7
100
AcDbVertex
100
AcDb2dVertex
 10
107.0
 20
298.70001
 30
0.0
  0
VERTEX
  5
30B
100
AcDbEntity
  8
0
  6
CONTINUOUS
 62
     7
100
AcDbVertex
100
AcDb2dVertex
 10
107.0
 20
289.70001
 30
0.0
  0
SEQEND
  5
30C
100
AcDbEntity
  8
0
 62
     7
  0
POINT
  5
30D
100
AcDbEntity
  8
0
  6
CONTINUOUS
 62
     7
100
AcDbPoint
 10
184.0
 20
370.0
 30
0.0
  0
POINT
  5
30E
100
AcDbEntity
  8
0
  6
CONTINUOUS
 62
     7
100
AcDbPoint
 10
249.4
 20
370.0
 30
0.0
  0
LINE
  5
30F
100
AcDbEntity
  8
0
  6
CONTINUOUS
 62
     7
100
AcDbLine
 10
236.7
 20
369.5
 30
0.0
 11
196.7
 21
369.5
 31
0.0
  0
LINE
  5
310
100
AcDbEntity
  8
0
  6
CONTINUOUS
 62
     7
100
AcDbLine
 10
236.7
 20
366.0
 30
0.0
 11
196.7
 21
366.0
 31
0.0
  0
LINE
  5
311
100
AcDbEntity
  8
0
  6
CONTINUOUS
 62
     7
100
AcDbLine
 10
186.7
 20
348.0
 30
0.0
 11
186.7
 21
368.0
 31
0.0
  0
LINE
  5
312
100
AcDbEntity
  8
0
  6
CONTINUOUS
 62
     7
100
AcDbLine
 10
255.4
 20
370.0
 30
0.0
 11
236.7
 21
370.0
 31
0.0
  0
LINE
  5
313
100
AcDbEntity
  8
0
  6
CONTINUOUS
 62
     7
100
AcDbLine
 10
246.7
 20
348.0
 30
0.0
 11
246.7
 21
368.0
 31
0.0
  0
LINE
  5
314
100
AcDbEntity
  8
0
  6
CONTINUOUS
 62
     7
100
AcDbLine
 10
236.7
 20
348.0
 30
0.0
 11
236.7
 21
370.0
 31
0.0
  0
LINE
  5
315
100
AcDbEntity
  8
0
  6
CONTINUOUS
 62
     7
100
AcDbLine
 10
186.7
 20
348.0
 30
0.0
 11
246.7
 21
348.0
 31
0.0
  0
LINE
  5
316
100
AcDbEntity
  8
0
  6
CONTINUOUS
 62
     7
100
AcDbLine
 10
186.7
 20
355.0
 30
0.0
 11
186.7
 21
363.0
 31
0.0
  0
LINE
  5
317
100
AcDbEntity
  8
0
  6
CONTINUOUS
 62
     7
100
AcDbLine
 10
178.0
 20
370.0
 30
0.0
 11
196.7
 21
370.0
 31
0.0
  0
LINE
  5
318
100
AcDbEntity
  8
0
  6
CONTINUOUS
 62
     7
100
AcDbLine
 10
196.7
 20
348.0
 30
0.0
 11
196.7
 21
370.0
 31
0.0
  0
LINE
  5
319
100
AcDbEntity
  8
0
  6
CONTINUOUS
 62
     7
100
AcDbLine
 10
199.2
 20
352.0
 30
0.0
 11
234.2
 21
352.0
 31
0.0
  0
LINE
  5
31A
100
AcDbEntity
  8
0
  6
CONTINUOUS
 62
     7
100
AcDbLine
 10
241.4
 20
348.0
 30
0.0
 11
241.4
 21
370.0
 31
0.0
  0
LINE
  5
31B
100
AcDbEntity
  8
0
  6
CENTER
 62
     7
100
AcDbLine
 10
184.0
 20
373.0
 30
0.0
 11
184.0
 21
365.0
 31
0.0
  0
LINE
  5
31C
100
AcDbEntity
  8
0
  6
CONTINUOUS
 62
     7
100
AcDbLine
 10
243.4
 20
368.0
 30
0.0
 11
243.4
 21
348.0
 31
0.0
  0
LINE
  5
31D
100
AcDbEntity
  8
0
  6
CONTINUOUS
 62
     7
100
AcDbLine
 10
192.0
 20
348.0
 30
0.0
 11
192.0
 21
370.0
 31
0.0
  0
LINE
  5
31E
100
AcDbEntity
  8
0
  6
CONTINUOUS
 62
     7
100
AcDbLine
 10
190.0
 20
368.0
 30
0.0
 11
190.0
 21
348.0
 31
0.0
  0
LINE
  5
31F
100
AcDbEntity
  8
0
  6
CENTER
 62
     7
100
AcDbLine
 10
249.7
 20
359.0
 30
0.0
 11
183.7
 21
359.0
 31
0.0
  0
LINE
  5
320
100
AcDbEntity
  8
0
  6
CENTER
 62
     7
100
AcDbLine
 10
216.7
 20
377.0
 30
0.0
 11
216.7
 21
341.0
 31
0.0
  0
LINE
  5
321
100
AcDbEntity
  8
0
  6
CONTINUOUS
 62
     7
100
AcDbLine
 10
255.4
 20
368.0
 30
0.0
 11
255.4
 21
370.0
 31
0.0
  0
LINE
  5
322
100
AcDbEntity
  8
0
  6
CONTINUOUS
 62
     7
100
AcDbLine
 10
243.4
 20
368.0
 30
0.0
 11
255.4
 21
368.0
 31
0.0
  0
LINE
  5
323
100
AcDbEntity
  8
0
  6
CONTINUOUS
 62
     7
100
AcDbLine
 10
178.0
 20
368.0
 30
0.0
 11
178.0
 21
370.0
 31
0.0
  0
LINE
  5
324
100
AcDbEntity
  8
0
  6
CONTINUOUS
 62
     7
100
AcDbLine
 10
190.0
 20
368.0
 30
0.0
 11
178.0
 21
368.0
 31
0.0
  0
LINE
  5
325
100
AcDbEntity
  8
0
  6
CENTER
 62
     7
100
AcDbLine
 10
249.4
 20
373.0
 30
0.0
 11
249.4
 21
365.0
 31
0.0
  0
ARC
  5
326
100
AcDbEntity
  8
0
  6
CONTINUOUS
 62
     7
100
AcDbCircle
 10
234.2
 20
354.5
 30
0.0
 40
2.5
100
AcDbArc
 50
270.0
 51
0.0
  0
ARC
  5
327
100
AcDbEntity
  8
0
  6
CONTINUOUS
 62
     7
100
AcDbCircle
 10
199.2
 20
354.5
 30
0.0
 40
2.5
100
AcDbArc
 50
179.99999
 51
270.0
  0
POINT
  5
328
100
AcDbEntity
  8
0
  6
CONTINUOUS
 62
     7
100
AcDbPoint
 10
364.0
 20
422.29999
 30
0.0
  0
POINT
  5
329
100
AcDbEntity
  8
0
  6
CONTINUOUS
 62
     7
100
AcDbPoint
 10
382.0
 20
422.29999
 30
0.0
  0
LINE
  5
32A
100
AcDbEntity
  8
0
  6
CONTINUOUS
 62
     7
100
AcDbLine
 10
340.69053
 20
430.29999
 30
0.0
 11
340.69053
 21
424.99999
 31
0.0
  0
LINE
  5
32B
100
AcDbEntity
  8
0
  6
CONTINUOUS
 62
     7
100
AcDbLine
 10
340.69053
 20
484.99999
 30
0.0
 11
340.69053
 21
479.69999
 31
0.0
  0
LINE
  5
32C
100
AcDbEntity
  8
0
  6
CENTER
 62
     7
100
AcDbLine
 10
368.9
 20
487.69999
 30
0.0
 11
359.1
 21
487.69999
 31
0.0
  0
LINE
  5
32D
100
AcDbEntity
  8
0
  6
CENTER
 62
     7
100
AcDbLine
 10
386.9
 20
422.29999
 30
0.0
 11
377.1
 21
422.29999
 31
0.0
  0
LINE
  5
32E
100
AcDbEntity
  8
0
  6
CENTER
 62
     7
100
AcDbLine
 10
382.0
 20
427.19999
 30
0.0
 11
382.0
 21
417.39999
 31
0.0
  0
LINE
  5
32F
100
AcDbEntity
  8
0
  6
CENTER
 62
     7
100
AcDbLine
 10
364.0
 20
492.59999
 30
0.0
 11
364.0
 21
482.79999
 31
0.0
  0
LINE
  5
330
100
AcDbEntity
  8
0
  6
CENTER
 62
     7
100
AcDbLine
 10
314.0
 20
417.99999
 30
0.0
 11
314.0
 21
491.99998
 31
0.0
  0
LINE
  5
331
100
AcDbEntity
  8
0
  6
CONTINUOUS
 62
     7
100
AcDbLine
 10
334.0
 20
483.19999
 30
0.0
 11
334.0
 21
474.99999
 31
0.0
  0
LINE
  5
332
100
AcDbEntity
  8
0
  6
CONTINUOUS
 62
     7
100
AcDbLine
 10
337.5
 20
474.99999
 30
0.0
 11
337.5
 21
434.99999
 31
0.0
  0
LINE
  5
333
100
AcDbEntity
  8
0
  6
CONTINUOUS
 62
     7
100
AcDbLine
 10
326.0
 20
483.19999
 30
0.0
 11
326.0
 21
474.99999
 31
0.0
  0
LINE
  5
334
100
AcDbEntity
  8
0
  6
CONTINUOUS
 62
     7
100
AcDbLine
 10
326.0
 20
483.19999
 30
0.0
 11
334.0
 21
483.19999
 31
0.0
  0
LINE
  5
335
100
AcDbEntity
  8
0
  6
CONTINUOUS
 62
     7
100
AcDbLine
 10
340.69053
 20
479.69999
 30
0.0
 11
389.0
 21
479.69999
 31
0.0
  0
LINE
  5
336
100
AcDbEntity
  8
0
  6
CONTINUOUS
 62
     7
100
AcDbLine
 10
308.69052
 20
479.99999
 30
0.0
 11
319.30947
 21
479.99999
 31
0.0
  0
LINE
  5
337
100
AcDbEntity
  8
0
  6
CONTINUOUS
 62
     7
100
AcDbLine
 10
319.30947
 20
474.99999
 30
0.0
 11
326.0
 21
474.99999
 31
0.0
  0
LINE
  5
338
100
AcDbEntity
  8
0
  6
CONTINUOUS
 62
     7
100
AcDbLine
 10
334.0
 20
426.799
 30
0.0
 11
334.0
 21
434.99999
 31
0.0
  0
LINE
  5
339
100
AcDbEntity
  8
0
  6
CONTINUOUS
 62
     7
100
AcDbLine
 10
334.0
 20
474.99999
 30
0.0
 11
357.0
 21
474.99999
 31
0.0
  0
LINE
  5
33A
100
AcDbEntity
  8
0
  6
CONTINUOUS
 62
     7
100
AcDbLine
 10
340.68055
 20
484.99999
 30
0.0
 11
308.69052
 21
484.99999
 31
0.0
  0
LINE
  5
33B
100
AcDbEntity
  8
0
  6
CONTINUOUS
 62
     7
100
AcDbLine
 10
326.0
 20
482.49999
 30
0.0
 11
334.0
 21
482.49999
 31
0.0
  0
LINE
  5
33C
100
AcDbEntity
  8
0
  6
CENTER
 62
     7
100
AcDbLine
 10
324.0
 20
478.99999
 30
0.0
 11
336.0
 21
478.99999
 31
0.0
  0
LINE
  5
33D
100
AcDbEntity
  8
0
  6
CONTINUOUS
 62
     7
100
AcDbLine
 10
322.5
 20
474.99999
 30
0.0
 11
322.5
 21
434.99999
 31
0.0
  0
LINE
  5
33E
100
AcDbEntity
  8
0
  6
CONTINUOUS
 62
     7
100
AcDbLine
 10
339.0
 20
474.99999
 30
0.0
 11
339.0
 21
434.99999
 31
0.0
  0
LINE
  5
33F
100
AcDbEntity
  8
0
  6
CONTINUOUS
 62
     7
100
AcDbLine
 10
321.0
 20
474.99999
 30
0.0
 11
321.0
 21
434.99999
 31
0.0
  0
LINE
  5
340
100
AcDbEntity
  8
0
  6
CONTINUOUS
 62
     7
100
AcDbLine
 10
326.0
 20
426.799
 30
0.0
 11
326.0
 21
434.99999
 31
0.0
  0
LINE
  5
341
100
AcDbEntity
  8
0
  6
CONTINUOUS
 62
     7
100
AcDbLine
 10
360.0
 20
493.69999
 30
0.0
 11
386.0
 21
493.69999
 31
0.0
  0
LINE
  5
342
100
AcDbEntity
  8
0
  6
CONTINUOUS
 62
     7
100
AcDbLine
 10
319.30947
 20
479.99999
 30
0.0
 11
319.30947
 21
474.99999
 31
0.0
  0
LINE
  5
343
100
AcDbEntity
  8
0
  6
CONTINUOUS
 62
     7
100
AcDbLine
 10
326.0
 20
426.79999
 30
0.0
 11
334.0
 21
426.79999
 31
0.0
  0
LINE
  5
344
100
AcDbEntity
  8
0
  6
CONTINUOUS
 62
     7
100
AcDbLine
 10
308.69052
 20
429.99999
 30
0.0
 11
319.30947
 21
429.99999
 31
0.0
  0
LINE
  5
345
100
AcDbEntity
  8
0
  6
CONTINUOUS
 62
     7
100
AcDbLine
 10
319.30947
 20
434.99999
 30
0.0
 11
326.0
 21
434.99999
 31
0.0
  0
LINE
  5
346
100
AcDbEntity
  8
0
  6
CONTINUOUS
 62
     7
100
AcDbLine
 10
334.0
 20
434.99999
 30
0.0
 11
357.0
 21
434.99999
 31
0.0
  0
LINE
  5
347
100
AcDbEntity
  8
0
  6
CONTINUOUS
 62
     7
100
AcDbLine
 10
340.68055
 20
424.99999
 30
0.0
 11
308.69052
 21
424.99999
 31
0.0
  0
LINE
  5
348
100
AcDbEntity
  8
0
  6
CONTINUOUS
 62
     7
100
AcDbLine
 10
326.0
 20
427.49999
 30
0.0
 11
334.0
 21
427.49999
 31
0.0
  0
LINE
  5
349
100
AcDbEntity
  8
0
  6
CENTER
 62
     7
100
AcDbLine
 10
324.0
 20
430.99999
 30
0.0
 11
336.0
 21
430.99999
 31
0.0
  0
LINE
  5
34A
100
AcDbEntity
  8
0
  6
CONTINUOUS
 62
     7
100
AcDbLine
 10
340.68055
 20
481.69999
 30
0.0
 11
389.0
 21
481.69999
 31
0.0
  0
LINE
  5
34B
100
AcDbEntity
  8
0
  6
CONTINUOUS
 62
     7
100
AcDbLine
 10
319.30947
 20
434.99999
 30
0.0
 11
319.30947
 21
429.99999
 31
0.0
  0
LINE
  5
34C
100
AcDbEntity
  8
0
  6
CONTINUOUS
 62
     7
100
AcDbLine
 10
340.69053
 20
430.29999
 30
0.0
 11
389.0
 21
430.29999
 31
0.0
  0
LINE
  5
34D
100
AcDbEntity
  8
0
  6
CENTER
 62
     7
100
AcDbLine
 10
301.69052
 20
454.99999
 30
0.0
 11
382.0
 21
454.99999
 31
0.0
  0
LINE
  5
34E
100
AcDbEntity
  8
0
  6
CENTER
 62
     7
100
AcDbLine
 10
346.0
 20
417.99999
 30
0.0
 11
346.0
 21
491.99998
 31
0.0
  0
LINE
  5
34F
100
AcDbEntity
  8
0
  6
CENTER
 62
     7
100
AcDbLine
 10
382.0
 20
492.59999
 30
0.0
 11
382.0
 21
482.79999
 31
0.0
  0
LINE
  5
350
100
AcDbEntity
  8
0
  6
CENTER
 62
     7
100
AcDbLine
 10
386.9
 20
487.69999
 30
0.0
 11
377.1
 21
487.69999
 31
0.0
  0
LINE
  5
351
100
AcDbEntity
  8
0
  6
CONTINUOUS
 62
     7
100
AcDbLine
 10
340.68055
 20
428.29999
 30
0.0
 11
389.0
 21
428.29999
 31
0.0
  0
LINE
  5
352
100
AcDbEntity
  8
0
  6
CONTINUOUS
 62
     7
100
AcDbLine
 10
360.0
 20
416.29999
 30
0.0
 11
386.0
 21
416.29999
 31
0.0
  0
LINE
  5
353
100
AcDbEntity
  8
0
  6
CENTER
 62
     7
100
AcDbLine
 10
368.9
 20
422.29999
 30
0.0
 11
359.1
 21
422.29999
 31
0.0
  0
LINE
  5
354
100
AcDbEntity
  8
0
  6
CENTER
 62
     7
100
AcDbLine
 10
364.0
 20
427.19999
 30
0.0
 11
364.0
 21
417.39999
 31
0.0
  0
CIRCLE
  5
355
100
AcDbEntity
  8
0
  6
CONTINUOUS
 62
     7
100
AcDbCircle
 10
364.0
 20
487.69999
 30
0.0
 40
2.9
  0
CIRCLE
  5
356
100
AcDbEntity
  8
0
  6
CONTINUOUS
 62
     7
100
AcDbCircle
 10
382.0
 20
487.69999
 30
0.0
 40
2.9
  0
ARC
  5
357
100
AcDbEntity
  8
0
  6
CONTINUOUS
 62
     7
100
AcDbCircle
 10
386.0
 20
419.29999
 30
0.0
 40
3.0
100
AcDbArc
 50
270.0
 51
0.0
  0
ARC
  5
358
100
AcDbEntity
  8
0
  6
CONTINUOUS
 62
     7
100
AcDbCircle
 10
386.0
 20
490.69999
 30
0.0
 40
3.0
100
AcDbArc
 50
0.0
 51
90.000003
  0
ARC
  5
359
100
AcDbEntity
  8
0
  6
CONTINUOUS
 62
     7
100
AcDbCircle
 10
360.0
 20
419.29999
 30
0.0
 40
3.0
100
AcDbArc
 50
179.99999
 51
270.0
  0
ARC
  5
35A
100
AcDbEntity
  8
0
  6
CONTINUOUS
 62
     7
100
AcDbCircle
 10
360.0
 20
490.69999
 30
0.0
 40
3.0
100
AcDbArc
 50
90.000003
 51
180.00001
  0
CIRCLE
  5
35B
100
AcDbEntity
  8
0
  6
CONTINUOUS
 62
     7
100
AcDbCircle
 10
364.0
 20
422.29999
 30
0.0
 40
2.9
  0
CIRCLE
  5
35C
100
AcDbEntity
  8
0
  6
CONTINUOUS
 62
     7
100
AcDbCircle
 10
382.0
 20
422.29999
 30
0.0
 40
2.9
  0
POLYLINE
  5
35D
100
AcDbEntity
  8
0
  6
CONTINUOUS
 62
     7
100
AcDb2dPolyline
 66
     1
 10
0.0
 20
0.0
 30
0.0
  0
VERTEX
  5
35E
100
AcDbEntity
  8
0
  6
CONTINUOUS
 62
     7
100
AcDbVertex
100
AcDb2dVertex
 10
389.0
 20
419.29999
 30
0.0
  0
VERTEX
  5
35F
100
AcDbEntity
  8
0
  6
CONTINUOUS
 62
     7
100
AcDbVertex
100
AcDb2dVertex
 10
389.0
 20
430.29999
 30
0.0
  0
SEQEND
  5
360
100
AcDbEntity
  8
0
 62
     7
  0
POLYLINE
  5
361
100
AcDbEntity
  8
0
  6
CONTINUOUS
 62
     7
100
AcDb2dPolyline
 66
     1
 10
0.0
 20
0.0
 30
0.0
  0
VERTEX
  5
362
100
AcDbEntity
  8
0
  6
CONTINUOUS
 62
     7
100
AcDbVertex
100
AcDb2dVertex
 10
357.0
 20
479.69999
 30
0.0
  0
VERTEX
  5
363
100
AcDbEntity
  8
0
  6
CONTINUOUS
 62
     7
100
AcDbVertex
100
AcDb2dVertex
 10
357.0
 20
474.99999
 30
0.0
  0
SEQEND
  5
364
100
AcDbEntity
  8
0
 62
     7
  0
POLYLINE
  5
365
100
AcDbEntity
  8
0
  6
CONTINUOUS
 62
     7
100
AcDb2dPolyline
 66
     1
 10
0.0
 20
0.0
 30
0.0
  0
VERTEX
  5
366
100
AcDbEntity
  8
0
  6
CONTINUOUS
 62
     7
100
AcDbVertex
100
AcDb2dVertex
 10
357.0
 20
490.69999
 30
0.0
  0
VERTEX
  5
367
100
AcDbEntity
  8
0
  6
CONTINUOUS
 62
     7
100
AcDbVertex
100
AcDb2dVertex
 10
357.0
 20
481.69999
 30
0.0
  0
SEQEND
  5
368
100
AcDbEntity
  8
0
 62
     7
  0
POLYLINE
  5
369
100
AcDbEntity
  8
0
  6
CONTINUOUS
 62
     7
100
AcDb2dPolyline
 66
     1
 10
0.0
 20
0.0
 30
0.0
  0
VERTEX
  5
36A
100
AcDbEntity
  8
0
  6
CONTINUOUS
 62
     7
100
AcDbVertex
100
AcDb2dVertex
 10
357.0
 20
419.29999
 30
0.0
  0
VERTEX
  5
36B
100
AcDbEntity
  8
0
  6
CONTINUOUS
 62
     7
100
AcDbVertex
100
AcDb2dVertex
 10
357.0
 20
428.29999
 30
0.0
  0
SEQEND
  5
36C
100
AcDbEntity
  8
0
 62
     7
  0
POLYLINE
  5
36D
100
AcDbEntity
  8
0
  6
CONTINUOUS
 62
     7
100
AcDb2dPolyline
 66
     1
 10
0.0
 20
0.0
 30
0.0
  0
VERTEX
  5
36E
100
AcDbEntity
  8
0
  6
CONTINUOUS
 62
     7
100
AcDbVertex
100
AcDb2dVertex
 10
357.0
 20
430.29999
 30
0.0
  0
VERTEX
  5
36F
100
AcDbEntity
  8
0
  6
CONTINUOUS
 62
     7
100
AcDbVertex
100
AcDb2dVertex
 10
357.0
 20
434.99999
 30
0.0
  0
SEQEND
  5
370
100
AcDbEntity
  8
0
 62
     7
  0
POLYLINE
  5
371
100
AcDbEntity
  8
0
  6
CONTINUOUS
 62
     7
100
AcDb2dPolyline
 66
     1
 10
0.0
 20
0.0
 30
0.0
  0
VERTEX
  5
372
100
AcDbEntity
  8
0
  6
CONTINUOUS
 62
     7
100
AcDbVertex
100
AcDb2dVertex
 10
389.0
 20
490.69999
 30
0.0
  0
VERTEX
  5
373
100
AcDbEntity
  8
0
  6
CONTINUOUS
 62
     7
100
AcDbVertex
100
AcDb2dVertex
 10
389.0
 20
479.69999
 30
0.0
  0
SEQEND
  5
374
100
AcDbEntity
  8
0
 62
     7
  0
POINT
  5
375
100
AcDbEntity
  8
0
  6
CONTINUOUS
 62
     7
100
AcDbPoint
 10
364.0
 20
348.0
 30
0.0
  0
POINT
  5
376
100
AcDbEntity
  8
0
  6
CONTINUOUS
 62
     7
100
AcDbPoint
 10
382.0
 20
348.0
 30
0.0
  0
LINE
  5
377
100
AcDbEntity
  8
0
  6
CENTER
 62
     7
100
AcDbLine
 10
346.0
 20
365.0
 30
0.0
 11
346.0
 21
353.0
 31
0.0
  0
LINE
  5
378
100
AcDbEntity
  8
0
  6
CENTER
 62
     7
100
AcDbLine
 10
314.0
 20
365.0
 30
0.0
 11
314.0
 21
353.0
 31
0.0
  0
LINE
  5
379
100
AcDbEntity
  8
0
  6
CONTINUOUS
 62
     7
100
AcDbLine
 10
314.0
 20
370.0
 30
0.0
 11
346.0
 21
370.0
 31
0.0
  0
LINE
  5
37A
100
AcDbEntity
  8
0
  6
CONTINUOUS
 62
     7
100
AcDbLine
 10
343.5
 20
362.1225
 30
0.0
 11
343.5
 21
355.8775
 31
0.0
  0
LINE
  5
37B
100
AcDbEntity
  8
0
  6
CONTINUOUS
 62
     7
100
AcDbLine
 10
314.0
 20
348.0
 30
0.0
 11
352.0
 21
348.0
 31
0.0
  0
LINE
  5
37C
100
AcDbEntity
  8
0
  6
CONTINUOUS
 62
     7
100
AcDbLine
 10
337.25533
 20
351.53135
 30
0.0
 11
339.56701
 21
348.82472
 31
0.0
  0
LINE
  5
37D
100
AcDbEntity
  8
0
  6
CONTINUOUS
 62
     7
100
AcDbLine
 10
339.30075
 20
358.89999
 30
0.0
 11
335.31684
 21
358.89999
 31
0.0
  0
LINE
  5
37E
100
AcDbEntity
  8
0
  6
CONTINUOUS
 62
     7
100
AcDbLine
 10
336.33925
 20
363.1
 30
0.0
 11
340.70094
 21
363.1
 31
0.0
  0
LINE
  5
37F
100
AcDbEntity
  8
0
  6
CENTER
 62
     7
100
AcDbLine
 10
320.0
 20
359.0
 30
0.0
 11
308.0
 21
359.0
 31
0.0
  0
LINE
  5
380
100
AcDbEntity
  8
0
  6
CENTER
 62
     7
100
AcDbLine
 10
352.0
 20
359.0
 30
0.0
 11
340.0
 21
359.0
 31
0.0
  0
LINE
  5
381
100
AcDbEntity
  8
0
  6
CENTER
 62
     7
100
AcDbLine
 10
364.0
 20
345.0
 30
0.0
 11
364.0
 21
353.0
 31
0.0
  0
LINE
  5
382
100
AcDbEntity
  8
0
  6
CONTINUOUS
 62
     7
100
AcDbLine
 10
389.0
 20
348.0
 30
0.0
 11
389.0
 21
350.0
 31
0.0
  0
LINE
  5
383
100
AcDbEntity
  8
0
  6
CENTER
 62
     7
100
AcDbLine
 10
382.0
 20
345.0
 30
0.0
 11
382.0
 21
353.0
 31
0.0
  0
LINE
  5
384
100
AcDbEntity
  8
0
  6
CONTINUOUS
 62
     7
100
AcDbLine
 10
357.0
 20
348.0
 30
0.0
 11
357.0
 21
350.0
 31
0.0
  0
LINE
  5
385
100
AcDbEntity
  8
0
  6
CONTINUOUS
 62
     7
100
AcDbLine
 10
349.93279
 20
369.33277
 30
0.0
 11
382.63184
 21
357.39343
 31
0.0
  0
LINE
  5
386
100
AcDbEntity
  8
0
  6
CONTINUOUS
 62
     7
100
AcDbLine
 10
357.0
 20
350.0
 30
0.0
 11
389.0
 21
350.0
 31
0.0
  0
CIRCLE
  5
387
100
AcDbEntity
  8
0
  6
CONTINUOUS
 62
     7
100
AcDbCircle
 10
346.0
 20
359.0
 30
0.0
 40
4.0
  0
ARC
  5
388
100
AcDbEntity
  8
0
  6
CONTINUOUS
 62
     7
100
AcDbCircle
 10
336.33925
 20
363.6
 30
0.0
 40
0.5
100
AcDbArc
 50
154.53838
 51
270.0
  0
ARC
  5
389
100
AcDbEntity
  8
0
  6
CONTINUOUS
 62
     7
100
AcDbCircle
 10
346.0
 20
359.0
 30
0.0
 40
11.5
100
AcDbArc
 50
118.95503
 51
220.49999
  0
ARC
  5
38A
100
AcDbEntity
  8
0
  6
CONTINUOUS
 62
     7
100
AcDbCircle
 10
340.19053
 20
369.5
 30
0.0
 40
0.5
100
AcDbArc
 50
298.95503
 51
90.000003
  0
ARC
  5
38B
100
AcDbEntity
  8
0
  6
CONTINUOUS
 62
     7
100
AcDbCircle
 10
346.0
 20
359.0
 30
0.0
 40
11.2
100
AcDbArc
 50
183.21457
 51
259.15594
  0
ARC
  5
38C
100
AcDbEntity
  8
0
  6
CONTINUOUS
 62
     7
100
AcDbCircle
 10
335.31684
 20
358.39999
 30
0.0
 40
0.5
100
AcDbArc
 50
90.000003
 51
183.21457
  0
ARC
  5
38D
100
AcDbEntity
  8
0
  6
CONTINUOUS
 62
     7
100
AcDbCircle
 10
339.1868
 20
348.5
 30
0.0
 40
0.5
100
AcDbArc
 50
270.0
 51
40.499999
  0
ARC
  5
38E
100
AcDbEntity
  8
0
  6
CONTINUOUS
 62
     7
100
AcDbCircle
 10
346.0
 20
359.0
 30
0.0
 40
11.2
100
AcDbArc
 50
100.84406
 51
154.53838
  0
ARC
  5
38F
100
AcDbEntity
  8
0
  6
CONTINUOUS
 62
     7
100
AcDbCircle
 10
346.0
 20
359.0
 30
0.0
 40
6.7
100
AcDbArc
 50
142.27008
 51
180.85524
  0
ARC
  5
390
100
AcDbEntity
  8
0
  6
CONTINUOUS
 62
     7
100
AcDbCircle
 10
354.5
 20
348.0
 30
0.0
 40
2.5
100
AcDbArc
 50
0.0
 51
180.00001
  0
ARC
  5
391
100
AcDbEntity
  8
0
  6
CONTINUOUS
 62
     7
100
AcDbCircle
 10
379.20204
 20
348.0
 30
0.0
 40
10.0
100
AcDbArc
 50
11.536959
 51
69.941444
  0
ARC
  5
392
100
AcDbEntity
  8
0
  6
CONTINUOUS
 62
     7
100
AcDbCircle
 10
346.16
 20
359.0
 30
0.0
 40
11.0
100
AcDbArc
 50
69.856197
 51
90.833443
  0
ARC
  5
393
100
AcDbEntity
  8
0
  6
CONTINUOUS
 62
     7
100
AcDbCircle
 10
314.0
 20
359.0
 30
0.0
 40
11.0
100
AcDbArc
 50
90.000003
 51
270.0
  0
POLYLINE
  5
394
100
AcDbEntity
  8
0
  6
CONTINUOUS
 62
     7
100
AcDb2dPolyline
 66
     1
 10
0.0
 20
0.0
 30
0.0
  0
VERTEX
  5
395
100
AcDbEntity
  8
0
  6
CONTINUOUS
 62
     7
100
AcDbVertex
100
AcDb2dVertex
 10
357.0
 20
348.0
 30
0.0
  0
VERTEX
  5
396
100
AcDbEntity
  8
0
  6
CONTINUOUS
 62
     7
100
AcDbVertex
100
AcDb2dVertex
 10
389.0
 20
348.0
 30
0.0
  0
SEQEND
  5
397
100
AcDbEntity
  8
0
 62
     7
  0
POINT
  5
398
100
AcDbEntity
  8
0
  6
CONTINUOUS
 62
     7
100
AcDbPoint
 10
364.0
 20
295.70001
 30
0.0
  0
POINT
  5
399
100
AcDbEntity
  8
0
  6
CONTINUOUS
 62
     7
100
AcDbPoint
 10
382.0
 20
295.70001
 30
0.0
  0
LINE
  5
39A
100
AcDbEntity
  8
0
  6
CONTINUOUS
 62
     7
100
AcDbLine
 10
339.0
 20
283.00001
 30
0.0
 11
357.0
 21
283.00001
 31
0.0
  0
LINE
  5
39B
100
AcDbEntity
  8
0
  6
CONTINUOUS
 62
     7
100
AcDbLine
 10
308.69052
 20
288.00001
 30
0.0
 11
319.30947
 21
288.00001
 31
0.0
  0
LINE
  5
39C
100
AcDbEntity
  8
0
  6
CONTINUOUS
 62
     7
100
AcDbLine
 10
340.69053
 20
287.70001
 30
0.0
 11
389.0
 21
287.70001
 31
0.0
  0
LINE
  5
39D
100
AcDbEntity
  8
0
  6
CENTER
 62
     7
100
AcDbLine
 10
382.0
 20
300.60001
 30
0.0
 11
382.0
 21
290.80001
 31
0.0
  0
LINE
  5
39E
100
AcDbEntity
  8
0
  6
CONTINUOUS
 62
     7
100
AcDbLine
 10
319.30947
 20
283.00001
 30
0.0
 11
321.0
 21
283.00001
 31
0.0
  0
LINE
  5
39F
100
AcDbEntity
  8
0
  6
CENTER
 62
     7
100
AcDbLine
 10
386.9
 20
295.70001
 30
0.0
 11
377.1
 21
295.70001
 31
0.0
  0
LINE
  5
3A0
100
AcDbEntity
  8
0
  6
CONTINUOUS
 62
     7
100
AcDbLine
 10
340.69053
 20
293.00001
 30
0.0
 11
340.69053
 21
287.70001
 31
0.0
  0
LINE
  5
3A1
100
AcDbEntity
  8
0
  6
CENTER
 62
     7
100
AcDbLine
 10
346.0
 20
226.00002
 30
0.0
 11
346.0
 21
300.00001
 31
0.0
  0
LINE
  5
3A2
100
AcDbEntity
  8
0
  6
CONTINUOUS
 62
     7
100
AcDbLine
 10
340.69053
 20
238.30001
 30
0.0
 11
340.69053
 21
233.00001
 31
0.0
  0
LINE
  5
3A3
100
AcDbEntity
  8
0
  6
CENTER
 62
     7
100
AcDbLine
 10
301.69052
 20
263.00001
 30
0.0
 11
382.0
 21
263.00001
 31
0.0
  0
LINE
  5
3A4
100
AcDbEntity
  8
0
  6
CONTINUOUS
 62
     7
100
AcDbLine
 10
340.69053
 20
289.70001
 30
0.0
 11
357.0
 21
289.70001
 31
0.0
  0
LINE
  5
3A5
100
AcDbEntity
  8
0
  6
CONTINUOUS
 62
     7
100
AcDbLine
 10
340.69053
 20
238.30001
 30
0.0
 11
389.0
 21
238.30001
 31
0.0
  0
LINE
  5
3A6
100
AcDbEntity
  8
0
  6
CENTER
 62
     7
100
AcDbLine
 10
314.0
 20
226.00002
 30
0.0
 11
314.0
 21
300.00001
 31
0.0
  0
LINE
  5
3A7
100
AcDbEntity
  8
0
  6
CONTINUOUS
 62
     7
100
AcDbLine
 10
319.30947
 20
243.00001
 30
0.0
 11
319.30947
 21
238.00001
 31
0.0
  0
LINE
  5
3A8
100
AcDbEntity
  8
0
  6
CONTINUOUS
 62
     7
100
AcDbLine
 10
360.0
 20
301.70001
 30
0.0
 11
386.0
 21
301.70001
 31
0.0
  0
LINE
  5
3A9
100
AcDbEntity
  8
0
  6
CONTINUOUS
 62
     7
100
AcDbLine
 10
340.68055
 20
233.00001
 30
0.0
 11
308.69052
 21
233.00001
 31
0.0
  0
LINE
  5
3AA
100
AcDbEntity
  8
0
  6
CONTINUOUS
 62
     7
100
AcDbLine
 10
339.0
 20
243.00001
 30
0.0
 11
357.0
 21
243.00001
 31
0.0
  0
LINE
  5
3AB
100
AcDbEntity
  8
0
  6
CONTINUOUS
 62
     7
100
AcDbLine
 10
319.30947
 20
243.00001
 30
0.0
 11
321.0
 21
243.00001
 31
0.0
  0
LINE
  5
3AC
100
AcDbEntity
  8
0
  6
CONTINUOUS
 62
     7
100
AcDbLine
 10
308.69052
 20
238.00001
 30
0.0
 11
319.30947
 21
238.00001
 31
0.0
  0
LINE
  5
3AD
100
AcDbEntity
  8
0
  6
CONTINUOUS
 62
     7
100
AcDbLine
 10
319.30947
 20
288.00001
 30
0.0
 11
319.30947
 21
283.00001
 31
0.0
  0
LINE
  5
3AE
100
AcDbEntity
  8
0
  6
CONTINUOUS
 62
     7
100
AcDbLine
 10
321.0
 20
283.00001
 30
0.0
 11
321.0
 21
243.00001
 31
0.0
  0
LINE
  5
3AF
100
AcDbEntity
  8
0
  6
CENTER
 62
     7
100
AcDbLine
 10
382.0
 20
235.20001
 30
0.0
 11
382.0
 21
225.40001
 31
0.0
  0
LINE
  5
3B0
100
AcDbEntity
  8
0
  6
CENTER
 62
     7
100
AcDbLine
 10
386.9
 20
230.30001
 30
0.0
 11
377.1
 21
230.30001
 31
0.0
  0
LINE
  5
3B1
100
AcDbEntity
  8
0
  6
CONTINUOUS
 62
     7
100
AcDbLine
 10
339.0
 20
283.00001
 30
0.0
 11
339.0
 21
243.00001
 31
0.0
  0
LINE
  5
3B2
100
AcDbEntity
  8
0
  6
CONTINUOUS
 62
     7
100
AcDbLine
 10
360.0
 20
224.30001
 30
0.0
 11
386.0
 21
224.30001
 31
0.0
  0
LINE
  5
3B3
100
AcDbEntity
  8
0
  6
CENTER
 62
     7
100
AcDbLine
 10
368.9
 20
230.30001
 30
0.0
 11
359.1
 21
230.30001
 31
0.0
  0
LINE
  5
3B4
100
AcDbEntity
  8
0
  6
CENTER
 62
     7
100
AcDbLine
 10
364.0
 20
300.60001
 30
0.0
 11
364.0
 21
290.80001
 31
0.0
  0
LINE
  5
3B5
100
AcDbEntity
  8
0
  6
CONTINUOUS
 62
     7
100
AcDbLine
 10
340.69053
 20
236.30001
 30
0.0
 11
357.0
 21
236.30001
 31
0.0
  0
LINE
  5
3B6
100
AcDbEntity
  8
0
  6
CENTER
 62
     7
100
AcDbLine
 10
364.0
 20
235.20001
 30
0.0
 11
364.0
 21
225.40001
 31
0.0
  0
LINE
  5
3B7
100
AcDbEntity
  8
0
  6
CENTER
 62
     7
100
AcDbLine
 10
368.9
 20
295.70001
 30
0.0
 11
359.1
 21
295.70001
 31
0.0
  0
LINE
  5
3B8
100
AcDbEntity
  8
0
  6
CONTINUOUS
 62
     7
100
AcDbLine
 10
340.68055
 20
293.00001
 30
0.0
 11
308.69052
 21
293.00001
 31
0.0
  0
ARC
  5
3B9
100
AcDbEntity
  8
0
  6
CONTINUOUS
 62
     7
100
AcDbCircle
 10
386.0
 20
298.70001
 30
0.0
 40
3.0
100
AcDbArc
 50
0.0
 51
90.000003
  0
CIRCLE
  5
3BA
100
AcDbEntity
  8
0
  6
CONTINUOUS
 62
     7
100
AcDbCircle
 10
382.0
 20
230.30001
 30
0.0
 40
2.9
  0
ARC
  5
3BB
100
AcDbEntity
  8
0
  6
CONTINUOUS
 62
     7
100
AcDbCircle
 10
360.0
 20
227.30001
 30
0.0
 40
3.0
100
AcDbArc
 50
179.99999
 51
270.0
  0
ARC
  5
3BC
100
AcDbEntity
  8
0
  6
CONTINUOUS
 62
     7
100
AcDbCircle
 10
360.0
 20
298.70001
 30
0.0
 40
3.0
100
AcDbArc
 50
90.000003
 51
180.00001
  0
ARC
  5
3BD
100
AcDbEntity
  8
0
  6
CONTINUOUS
 62
     7
100
AcDbCircle
 10
386.0
 20
227.30001
 30
0.0
 40
3.0
100
AcDbArc
 50
270.0
 51
0.0
  0
CIRCLE
  5
3BE
100
AcDbEntity
  8
0
  6
CONTINUOUS
 62
     7
100
AcDbCircle
 10
382.0
 20
295.70001
 30
0.0
 40
2.9
  0
CIRCLE
  5
3BF
100
AcDbEntity
  8
0
  6
CONTINUOUS
 62
     7
100
AcDbCircle
 10
364.0
 20
295.70001
 30
0.0
 40
2.9
  0
CIRCLE
  5
3C0
100
AcDbEntity
  8
0
  6
CONTINUOUS
 62
     7
100
AcDbCircle
 10
364.0
 20
230.30001
 30
0.0
 40
2.9
  0
POLYLINE
  5
3C1
100
AcDbEntity
  8
0
  6
CONTINUOUS
 62
     7
100
AcDb2dPolyline
 66
     1
 10
0.0
 20
0.0
 30
0.0
  0
VERTEX
  5
3C2
100
AcDbEntity
  8
0
  6
CONTINUOUS
 62
     7
100
AcDbVertex
100
AcDb2dVertex
 10
357.0
 20
298.70001
 30
0.0
  0
VERTEX
  5
3C3
100
AcDbEntity
  8
0
  6
CONTINUOUS
 62
     7
100
AcDbVertex
100
AcDb2dVertex
 10
357.0
 20
283.00001
 30
0.0
  0
SEQEND
  5
3C4
100
AcDbEntity
  8
0
 62
     7
  0
POLYLINE
  5
3C5
100
AcDbEntity
  8
0
  6
CONTINUOUS
 62
     7
100
AcDb2dPolyline
 66
     1
 10
0.0
 20
0.0
 30
0.0
  0
VERTEX
  5
3C6
100
AcDbEntity
  8
0
  6
CONTINUOUS
 62
     7
100
AcDbVertex
100
AcDb2dVertex
 10
389.0
 20
298.70001
 30
0.0
  0
VERTEX
  5
3C7
100
AcDbEntity
  8
0
  6
CONTINUOUS
 62
     7
100
AcDbVertex
100
AcDb2dVertex
 10
389.0
 20
287.70001
 30
0.0
  0
SEQEND
  5
3C8
100
AcDbEntity
  8
0
 62
     7
  0
POLYLINE
  5
3C9
100
AcDbEntity
  8
0
  6
CONTINUOUS
 62
     7
100
AcDb2dPolyline
 66
     1
 10
0.0
 20
0.0
 30
0.0
  0
VERTEX
  5
3CA
100
AcDbEntity
  8
0
  6
CONTINUOUS
 62
     7
100
AcDbVertex
100
AcDb2dVertex
 10
357.0
 20
227.30001
 30
0.0
  0
VERTEX
  5
3CB
100
AcDbEntity
  8
0
  6
CONTINUOUS
 62
     7
100
AcDbVertex
100
AcDb2dVertex
 10
357.0
 20
243.00001
 30
0.0
  0
SEQEND
  5
3CC
100
AcDbEntity
  8
0
 62
     7
  0
POLYLINE
  5
3CD
100
AcDbEntity
  8
0
  6
CONTINUOUS
 62
     7
100
AcDb2dPolyline
 66
     1
 10
0.0
 20
0.0
 30
0.0
  0
VERTEX
  5
3CE
100
AcDbEntity
  8
0
  6
CONTINUOUS
 62
     7
100
AcDbVertex
100
AcDb2dVertex
 10
389.0
 20
227.30001
 30
0.0
  0
VERTEX
  5
3CF
100
AcDbEntity
  8
0
  6
CONTINUOUS
 62
     7
100
AcDbVertex
100
AcDb2dVertex
 10
389.0
 20
238.30001
 30
0.0
  0
SEQEND
  5
3D0
100
AcDbEntity
  8
0
 62
     7
  0
POINT
  5
3D1
100
AcDbEntity
  8
0
  6
CONTINUOUS
 62
     7
100
AcDbPoint
 10
434.0
 20
348.0
 30
0.0
  0
POINT
  5
3D2
100
AcDbEntity
  8
0
  6
CONTINUOUS
 62
     7
100
AcDbPoint
 10
499.4
 20
348.0
 30
0.0
  0
LINE
  5
3D3
100
AcDbEntity
  8
0
  6
CENTER
 62
     7
100
AcDbLine
 10
499.4
 20
345.0
 30
0.0
 11
499.4
 21
353.0
 31
0.0
  0
LINE
  5
3D4
100
AcDbEntity
  8
0
  6
CONTINUOUS
 62
     7
100
AcDbLine
 10
440.0
 20
350.0
 30
0.0
 11
428.0
 21
350.0
 31
0.0
  0
LINE
  5
3D5
100
AcDbEntity
  8
0
  6
CONTINUOUS
 62
     7
100
AcDbLine
 10
428.0
 20
350.0
 30
0.0
 11
428.0
 21
348.0
 31
0.0
  0
LINE
  5
3D6
100
AcDbEntity
  8
0
  6
CONTINUOUS
 62
     7
100
AcDbLine
 10
493.4
 20
350.0
 30
0.0
 11
505.4
 21
350.0
 31
0.0
  0
LINE
  5
3D7
100
AcDbEntity
  8
0
  6
CONTINUOUS
 62
     7
100
AcDbLine
 10
505.4
 20
350.0
 30
0.0
 11
505.4
 21
348.0
 31
0.0
  0
LINE
  5
3D8
100
AcDbEntity
  8
0
  6
CENTER
 62
     7
100
AcDbLine
 10
466.7
 20
377.0
 30
0.0
 11
466.7
 21
341.0
 31
0.0
  0
LINE
  5
3D9
100
AcDbEntity
  8
0
  6
CENTER
 62
     7
100
AcDbLine
 10
499.7
 20
359.0
 30
0.0
 11
433.7
 21
359.0
 31
0.0
  0
LINE
  5
3DA
100
AcDbEntity
  8
0
  6
CONTINUOUS
 62
     7
100
AcDbLine
 10
440.0
 20
370.0
 30
0.0
 11
440.0
 21
350.0
 31
0.0
  0
LINE
  5
3DB
100
AcDbEntity
  8
0
  6
CONTINUOUS
 62
     7
100
AcDbLine
 10
442.0
 20
348.0
 30
0.0
 11
442.0
 21
370.0
 31
0.0
  0
LINE
  5
3DC
100
AcDbEntity
  8
0
  6
CONTINUOUS
 62
     7
100
AcDbLine
 10
493.4
 20
370.0
 30
0.0
 11
493.4
 21
350.0
 31
0.0
  0
LINE
  5
3DD
100
AcDbEntity
  8
0
  6
CENTER
 62
     7
100
AcDbLine
 10
434.0
 20
345.0
 30
0.0
 11
434.0
 21
353.0
 31
0.0
  0
LINE
  5
3DE
100
AcDbEntity
  8
0
  6
CONTINUOUS
 62
     7
100
AcDbLine
 10
491.4
 20
348.0
 30
0.0
 11
491.4
 21
370.0
 31
0.0
  0
LINE
  5
3DF
100
AcDbEntity
  8
0
  6
CONTINUOUS
 62
     7
100
AcDbLine
 10
449.2
 20
352.0
 30
0.0
 11
484.2
 21
352.0
 31
0.0
  0
LINE
  5
3E0
100
AcDbEntity
  8
0
  6
CONTINUOUS
 62
     7
100
AcDbLine
 10
446.7
 20
348.0
 30
0.0
 11
446.7
 21
370.0
 31
0.0
  0
LINE
  5
3E1
100
AcDbEntity
  8
0
  6
CONTINUOUS
 62
     7
100
AcDbLine
 10
436.7
 20
370.0
 30
0.0
 11
446.7
 21
370.0
 31
0.0
  0
LINE
  5
3E2
100
AcDbEntity
  8
0
  6
CONTINUOUS
 62
     7
100
AcDbLine
 10
436.7
 20
355.0
 30
0.0
 11
436.7
 21
363.0
 31
0.0
  0
LINE
  5
3E3
100
AcDbEntity
  8
0
  6
CONTINUOUS
 62
     7
100
AcDbLine
 10
428.0
 20
348.0
 30
0.0
 11
505.4
 21
348.0
 31
0.0
  0
LINE
  5
3E4
100
AcDbEntity
  8
0
  6
CONTINUOUS
 62
     7
100
AcDbLine
 10
486.7
 20
348.0
 30
0.0
 11
486.7
 21
370.0
 31
0.0
  0
LINE
  5
3E5
100
AcDbEntity
  8
0
  6
CONTINUOUS
 62
     7
100
AcDbLine
 10
496.7
 20
350.0
 30
0.0
 11
496.7
 21
370.0
 31
0.0
  0
LINE
  5
3E6
100
AcDbEntity
  8
0
  6
CONTINUOUS
 62
     7
100
AcDbLine
 10
496.7
 20
370.0
 30
0.0
 11
486.7
 21
370.0
 31
0.0
  0
LINE
  5
3E7
100
AcDbEntity
  8
0
  6
CONTINUOUS
 62
     7
100
AcDbLine
 10
436.7
 20
350.0
 30
0.0
 11
436.7
 21
370.0
 31
0.0
  0
LINE
  5
3E8
100
AcDbEntity
  8
0
  6
CONTINUOUS
 62
     7
100
AcDbLine
 10
486.7
 20
366.0
 30
0.0
 11
446.7
 21
366.0
 31
0.0
  0
LINE
  5
3E9
100
AcDbEntity
  8
0
  6
CONTINUOUS
 62
     7
100
AcDbLine
 10
486.7
 20
369.5
 30
0.0
 11
446.7
 21
369.5
 31
0.0
  0
ARC
  5
3EA
100
AcDbEntity
  8
0
  6
CONTINUOUS
 62
     7
100
AcDbCircle
 10
449.2
 20
354.5
 30
0.0
 40
2.5
100
AcDbArc
 50
179.99999
 51
270.0
  0
ARC
  5
3EB
100
AcDbEntity
  8
0
  6
CONTINUOUS
 62
     7
100
AcDbCircle
 10
484.2
 20
354.5
 30
0.0
 40
2.5
100
AcDbArc
 50
270.0
 51
0.0
  0
POINT
  5
3EC
100
AcDbEntity
  8
0
  6
CONTINUOUS
 62
     7
100
AcDbPoint
 10
-346.0
 20
70.0
 30
0.0
  0
POINT
  5
3ED
100
AcDbEntity
  8
0
  6
CONTINUOUS
 62
     7
100
AcDbPoint
 10
-328.0
 20
70.0
 30
0.0
  0
LINE
  5
3EE
100
AcDbEntity
  8
0
  6
CONTINUOUS
 62
     7
100
AcDbLine
 10
-353.0
 20
110.0
 30
0.0
 11
-353.0
 21
101.0
 31
0.0
  0
LINE
  5
3EF
100
AcDbEntity
  8
0
  6
CENTER
 62
     7
100
AcDbLine
 10
-346.0
 20
109.44
 30
0.0
 11
-346.0
 21
98.559999
 31
0.0
  0
LINE
  5
3F0
100
AcDbEntity
  8
0
  6
CENTER
 62
     7
100
AcDbLine
 10
-340.56
 20
104.0
 30
0.0
 11
-351.44
 21
104.0
 31
0.0
  0
LINE
  5
3F1
100
AcDbEntity
  8
0
  6
CENTER
 62
     7
100
AcDbLine
 10
-328.0
 20
109.44
 30
0.0
 11
-328.0
 21
98.559999
 31
0.0
  0
LINE
  5
3F2
100
AcDbEntity
  8
0
  6
CENTER
 62
     7
100
AcDbLine
 10
-322.56
 20
104.0
 30
0.0
 11
-333.44
 21
104.0
 31
0.0
  0
LINE
  5
3F3
100
AcDbEntity
  8
0
  6
CONTINUOUS
 62
     7
100
AcDbLine
 10
-353.0
 20
57.0
 30
0.0
 11
-353.0
 21
62.0
 31
0.0
  0
LINE
  5
3F4
100
AcDbEntity
  8
0
  6
CONTINUOUS
 62
     7
100
AcDbLine
 10
-350.0
 20
76.0
 30
0.0
 11
-324.0
 21
76.0
 31
0.0
  0
LINE
  5
3F5
100
AcDbEntity
  8
0
  6
CENTER
 62
     7
100
AcDbLine
 10
-346.0
 20
75.44
 30
0.0
 11
-346.0
 21
64.56
 31
0.0
  0
LINE
  5
3F6
100
AcDbEntity
  8
0
  6
CONTINUOUS
 62
     7
100
AcDbLine
 10
-350.0
 20
98.0
 30
0.0
 11
-324.0
 21
98.0
 31
0.0
  0
LINE
  5
3F7
100
AcDbEntity
  8
0
  6
CENTER
 62
     7
100
AcDbLine
 10
-322.56
 20
70.0
 30
0.0
 11
-333.44
 21
70.0
 31
0.0
  0
LINE
  5
3F8
100
AcDbEntity
  8
0
  6
CENTER
 62
     7
100
AcDbLine
 10
-328.0
 20
75.44
 30
0.0
 11
-328.0
 21
64.56
 31
0.0
  0
LINE
  5
3F9
100
AcDbEntity
  8
0
  6
CONTINUOUS
 62
     7
100
AcDbLine
 10
-353.0
 20
117.0
 30
0.0
 11
-353.0
 21
112.0
 31
0.0
  0
LINE
  5
3FA
100
AcDbEntity
  8
0
  6
CENTER
 62
     7
100
AcDbLine
 10
-396.0
 20
124.0
 30
0.0
 11
-396.0
 21
50.0
 31
0.0
  0
LINE
  5
3FB
100
AcDbEntity
  8
0
  6
CONTINUOUS
 62
     7
100
AcDbLine
 10
-369.30947
 20
62.0
 30
0.0
 11
-369.30947
 21
67.0
 31
0.0
  0
LINE
  5
3FC
100
AcDbEntity
  8
0
  6
CENTER
 62
     7
100
AcDbLine
 10
-364.0
 20
124.0
 30
0.0
 11
-364.0
 21
50.0
 31
0.0
  0
LINE
  5
3FD
100
AcDbEntity
  8
0
  6
CONTINUOUS
 62
     7
100
AcDbLine
 10
-371.0
 20
67.0
 30
0.0
 11
-371.0
 21
107.0
 31
0.0
  0
LINE
  5
3FE
100
AcDbEntity
  8
0
  6
CONTINUOUS
 62
     7
100
AcDbLine
 10
-389.0
 20
67.0
 30
0.0
 11
-389.0
 21
107.0
 31
0.0
  0
LINE
  5
3FF
100
AcDbEntity
  8
0
  6
CONTINUOUS
 62
     7
100
AcDbLine
 10
-390.68055
 20
57.0
 30
0.0
 11
-353.0
 21
57.0
 31
0.0
  0
LINE
  5
400
100
AcDbEntity
  8
0
  6
CONTINUOUS
 62
     7
100
AcDbLine
 10
-389.0
 20
67.0
 30
0.0
 11
-401.30948
 21
67.0
 31
0.0
  0
LINE
  5
401
100
AcDbEntity
  8
0
  6
CONTINUOUS
 62
     7
100
AcDbLine
 10
-369.30947
 20
67.0
 30
0.0
 11
-371.0
 21
67.0
 31
0.0
  0
LINE
  5
402
100
AcDbEntity
  8
0
  6
CONTINUOUS
 62
     7
100
AcDbLine
 10
-321.0
 20
62.0
 30
0.0
 11
-369.30947
 21
62.0
 31
0.0
  0
LINE
  5
403
100
AcDbEntity
  8
0
  6
CONTINUOUS
 62
     7
100
AcDbLine
 10
-390.69053
 20
62.0
 30
0.0
 11
-401.30948
 21
62.0
 31
0.0
  0
LINE
  5
404
100
AcDbEntity
  8
0
  6
CONTINUOUS
 62
     7
100
AcDbLine
 10
-390.69053
 20
112.0
 30
0.0
 11
-401.30948
 21
112.0
 31
0.0
  0
LINE
  5
405
100
AcDbEntity
  8
0
  6
CENTER
 62
     7
100
AcDbLine
 10
-340.56
 20
70.0
 30
0.0
 11
-351.44
 21
70.0
 31
0.0
  0
LINE
  5
406
100
AcDbEntity
  8
0
  6
CONTINUOUS
 62
     7
100
AcDbLine
 10
-321.0
 20
112.0
 30
0.0
 11
-369.30947
 21
112.0
 31
0.0
  0
LINE
  5
407
100
AcDbEntity
  8
0
  6
CONTINUOUS
 62
     7
100
AcDbLine
 10
-369.30947
 20
107.0
 30
0.0
 11
-371.0
 21
107.0
 31
0.0
  0
LINE
  5
408
100
AcDbEntity
  8
0
  6
CONTINUOUS
 62
     7
100
AcDbLine
 10
-389.0
 20
107.0
 30
0.0
 11
-401.30948
 21
107.0
 31
0.0
  0
LINE
  5
409
100
AcDbEntity
  8
0
  6
CONTINUOUS
 62
     7
100
AcDbLine
 10
-353.0
 20
64.0
 30
0.0
 11
-353.0
 21
73.0
 31
0.0
  0
LINE
  5
40A
100
AcDbEntity
  8
0
  6
CONTINUOUS
 62
     7
100
AcDbLine
 10
-390.68055
 20
117.0
 30
0.0
 11
-353.0
 21
117.0
 31
0.0
  0
LINE
  5
40B
100
AcDbEntity
  8
0
  6
CONTINUOUS
 62
     7
100
AcDbLine
 10
-369.30947
 20
112.0
 30
0.0
 11
-369.30947
 21
107.0
 31
0.0
  0
LINE
  5
40C
100
AcDbEntity
  8
0
  6
CENTER
 62
     7
100
AcDbLine
 10
-328.0
 20
87.0
 30
0.0
 11
-408.30948
 21
87.0
 31
0.0
  0
LINE
  5
40D
100
AcDbEntity
  8
0
  6
CONTINUOUS
 62
     7
100
AcDbLine
 10
-390.69053
 20
112.0
 30
0.0
 11
-390.69053
 21
117.0
 31
0.0
  0
LINE
  5
40E
100
AcDbEntity
  8
0
  6
CONTINUOUS
 62
     7
100
AcDbLine
 10
-390.69053
 20
57.0
 30
0.0
 11
-390.69053
 21
62.0
 31
0.0
  0
ARC
  5
40F
100
AcDbEntity
  8
0
  6
CONTINUOUS
 62
     7
100
AcDbCircle
 10
-350.0
 20
73.0
 30
0.0
 40
3.0
100
AcDbArc
 50
89.999996
 51
180.00001
  0
ARC
  5
410
100
AcDbEntity
  8
0
  6
CONTINUOUS
 62
     7
100
AcDbCircle
 10
-324.0
 20
73.0
 30
0.0
 40
3.0
100
AcDbArc
 50
0.000005
 51
90.000003
  0
CIRCLE
  5
411
100
AcDbEntity
  8
0
  6
CONTINUOUS
 62
     7
100
AcDbCircle
 10
-328.0
 20
70.0
 30
0.0
 40
2.9
  0
CIRCLE
  5
412
100
AcDbEntity
  8
0
  6
CONTINUOUS
 62
     7
100
AcDbCircle
 10
-346.0
 20
70.0
 30
0.0
 40
2.9
  0
CIRCLE
  5
413
100
AcDbEntity
  8
0
  6
CONTINUOUS
 62
     7
100
AcDbCircle
 10
-346.0
 20
104.0
 30
0.0
 40
2.9
  0
CIRCLE
  5
414
100
AcDbEntity
  8
0
  6
CONTINUOUS
 62
     7
100
AcDbCircle
 10
-328.0
 20
104.0
 30
0.0
 40
2.9
  0
ARC
  5
415
100
AcDbEntity
  8
0
  6
CONTINUOUS
 62
     7
100
AcDbCircle
 10
-324.0
 20
101.0
 30
0.0
 40
3.0
100
AcDbArc
 50
270.0
 51
359.99999
  0
ARC
  5
416
100
AcDbEntity
  8
0
  6
CONTINUOUS
 62
     7
100
AcDbCircle
 10
-350.0
 20
101.0
 30
0.0
 40
3.0
100
AcDbArc
 50
179.99999
 51
270.0
  0
POLYLINE
  5
417
100
AcDbEntity
  8
0
  6
CONTINUOUS
 62
     7
100
AcDb2dPolyline
 66
     1
 10
0.0
 20
0.0
 30
0.0
  0
VERTEX
  5
418
100
AcDbEntity
  8
0
  6
CONTINUOUS
 62
     7
100
AcDbVertex
100
AcDb2dVertex
 10
-321.0
 20
110.0
 30
0.0
  0
VERTEX
  5
419
100
AcDbEntity
  8
0
  6
CONTINUOUS
 62
     7
100
AcDbVertex
100
AcDb2dVertex
 10
-369.30947
 20
110.0
 30
0.0
  0
SEQEND
  5
41A
100
AcDbEntity
  8
0
 62
     7
  0
POLYLINE
  5
41B
100
AcDbEntity
  8
0
  6
CONTINUOUS
 62
     7
100
AcDb2dPolyline
 66
     1
 10
0.0
 20
0.0
 30
0.0
  0
VERTEX
  5
41C
100
AcDbEntity
  8
0
  6
CONTINUOUS
 62
     7
100
AcDbVertex
100
AcDb2dVertex
 10
-321.0
 20
73.0
 30
0.0
  0
VERTEX
  5
41D
100
AcDbEntity
  8
0
  6
CONTINUOUS
 62
     7
100
AcDbVertex
100
AcDb2dVertex
 10
-321.0
 20
62.0
 30
0.0
  0
SEQEND
  5
41E
100
AcDbEntity
  8
0
 62
     7
  0
POLYLINE
  5
41F
100
AcDbEntity
  8
0
  6
CONTINUOUS
 62
     7
100
AcDb2dPolyline
 66
     1
 10
0.0
 20
0.0
 30
0.0
  0
VERTEX
  5
420
100
AcDbEntity
  8
0
  6
CONTINUOUS
 62
     7
100
AcDbVertex
100
AcDb2dVertex
 10
-321.0
 20
64.0
 30
0.0
  0
VERTEX
  5
421
100
AcDbEntity
  8
0
  6
CONTINUOUS
 62
     7
100
AcDbVertex
100
AcDb2dVertex
 10
-369.30947
 20
64.0
 30
0.0
  0
SEQEND
  5
422
100
AcDbEntity
  8
0
 62
     7
  0
POLYLINE
  5
423
100
AcDbEntity
  8
0
  6
CONTINUOUS
 62
     7
100
AcDb2dPolyline
 66
     1
 10
0.0
 20
0.0
 30
0.0
  0
VERTEX
  5
424
100
AcDbEntity
  8
0
  6
CONTINUOUS
 62
     7
100
AcDbVertex
100
AcDb2dVertex
 10
-321.0
 20
101.0
 30
0.0
  0
VERTEX
  5
425
100
AcDbEntity
  8
0
  6
CONTINUOUS
 62
     7
100
AcDbVertex
100
AcDb2dVertex
 10
-321.0
 20
112.0
 30
0.0
  0
SEQEND
  5
426
100
AcDbEntity
  8
0
 62
     7
  0
POINT
  5
427
100
AcDbEntity
  8
0
  6
CONTINUOUS
 62
     7
100
AcDbPoint
 10
-346.0
 20
-20.0
 30
0.0
  0
POINT
  5
428
100
AcDbEntity
  8
0
  6
CONTINUOUS
 62
     7
100
AcDbPoint
 10
-328.0
 20
-20.0
 30
0.0
  0
LINE
  5
429
100
AcDbEntity
  8
0
  6
CENTER
 62
     7
100
AcDbLine
 10
-328.0
 20
-23.0
 30
0.0
 11
-328.0
 21
-15.0
 31
0.0
  0
LINE
  5
42A
100
AcDbEntity
  8
0
  6
CENTER
 62
     7
100
AcDbLine
 10
-402.0
 20
-9.0
 30
0.0
 11
-390.0
 21
-9.0
 31
0.0
  0
LINE
  5
42B
100
AcDbEntity
  8
0
  6
CENTER
 62
     7
100
AcDbLine
 10
-346.0
 20
-23.0
 30
0.0
 11
-346.0
 21
-15.0
 31
0.0
  0
LINE
  5
42C
100
AcDbEntity
  8
0
  6
DASHED
 62
     7
100
AcDbLine
 10
-353.0
 20
-20.0
 30
0.0
 11
-353.0
 21
-18.0
 31
0.0
  0
LINE
  5
42D
100
AcDbEntity
  8
0
  6
CONTINUOUS
 62
     7
100
AcDbLine
 10
-321.0
 20
-20.0
 30
0.0
 11
-321.0
 21
-18.0
 31
0.0
  0
LINE
  5
42E
100
AcDbEntity
  8
0
  6
CENTER
 62
     7
100
AcDbLine
 10
-396.0
 20
-15.0
 30
0.0
 11
-396.0
 21
-3.0
 31
0.0
  0
LINE
  5
42F
100
AcDbEntity
  8
0
  6
CENTER
 62
     7
100
AcDbLine
 10
-364.0
 20
-15.0
 30
0.0
 11
-364.0
 21
-3.0
 31
0.0
  0
LINE
  5
430
100
AcDbEntity
  8
0
  6
CONTINUOUS
 62
     7
100
AcDbLine
 10
-387.25533
 20
-1.531347
 30
0.0
 11
-389.56701
 21
1.175276
 31
0.0
  0
LINE
  5
431
100
AcDbEntity
  8
0
  6
CONTINUOUS
 62
     7
100
AcDbLine
 10
-364.0
 20
2.0
 30
0.0
 11
-396.0
 21
2.0
 31
0.0
  0
LINE
  5
432
100
AcDbEntity
  8
0
  6
CONTINUOUS
 62
     7
100
AcDbLine
 10
-393.5
 20
-12.122499
 30
0.0
 11
-393.5
 21
-5.877501
 31
0.0
  0
LINE
  5
433
100
AcDbEntity
  8
0
  6
CONTINUOUS
 62
     7
100
AcDbLine
 10
-358.0
 20
-20.0
 30
0.0
 11
-396.0
 21
-20.0
 31
0.0
  0
LINE
  5
434
100
AcDbEntity
  8
0
  6
DASHED
 62
     7
100
AcDbLine
 10
-353.0
 20
-18.0
 30
0.0
 11
-321.0
 21
-18.0
 31
0.0
  0
LINE
  5
435
100
AcDbEntity
  8
0
  6
CONTINUOUS
 62
     7
100
AcDbLine
 10
-360.24344
 20
1.338678
 30
0.0
 11
-327.3829
 21
-10.601202
 31
0.0
  0
LINE
  5
436
100
AcDbEntity
  8
0
  6
CENTER
 62
     7
100
AcDbLine
 10
-370.0
 20
-9.0
 30
0.0
 11
-358.0
 21
-9.0
 31
0.0
  0
CIRCLE
  5
437
100
AcDbEntity
  8
0
  6
CONTINUOUS
 62
     7
100
AcDbCircle
 10
-364.0
 20
-9.0
 30
0.0
 40
4.0
  0
ARC
  5
438
100
AcDbEntity
  8
0
  6
CONTINUOUS
 62
     7
100
AcDbCircle
 10
-330.79796
 20
-20.0
 30
0.0
 40
10.0
100
AcDbArc
 50
11.536959
 51
70.031378
  0
CIRCLE
  5
439
100
AcDbEntity
  8
0
  6
CONTINUOUS
 62
     7
100
AcDbCircle
 10
-396.0
 20
-9.0
 30
0.0
 40
4.0
  0
ARC
  5
43A
100
AcDbEntity
  8
0
  6
CONTINUOUS
 62
     7
100
AcDbCircle
 10
-396.0
 20
-9.0
 30
0.0
 40
11.5
100
AcDbArc
 50
298.95503
 51
40.499999
  0
ARC
  5
43B
100
AcDbEntity
  8
0
  6
CONTINUOUS
 62
     7
100
AcDbCircle
 10
-364.0
 20
-9.0
 30
0.0
 40
11.0
100
AcDbArc
 50
270.0
 51
90.000003
  0
ARC
  5
43C
100
AcDbEntity
  8
0
  6
CONTINUOUS
 62
     7
100
AcDbCircle
 10
-390.19053
 20
-19.5
 30
0.0
 40
0.5
100
AcDbArc
 50
118.95503
 51
270.0
  0
ARC
  5
43D
100
AcDbEntity
  8
0
  6
CONTINUOUS
 62
     7
100
AcDbCircle
 10
-389.1868
 20
1.5
 30
0.0
 40
0.5
100
AcDbArc
 50
90.000003
 51
220.49999
  0
ARC
  5
43E
100
AcDbEntity
  8
0
  6
CONTINUOUS
 62
     7
100
AcDbCircle
 10
-355.5
 20
-20.0
 30
0.0
 40
2.5
100
AcDbArc
 50
0.0
 51
180.00001
  0
POLYLINE
  5
43F
100
AcDbEntity
  8
0
  6
CONTINUOUS
 62
     7
100
AcDb2dPolyline
 66
     1
 10
0.0
 20
0.0
 30
0.0
  0
VERTEX
  5
440
100
AcDbEntity
  8
0
  6
CONTINUOUS
 62
     7
100
AcDbVertex
100
AcDb2dVertex
 10
-352.99479
 20
-20.0
 30
0.0
  0
VERTEX
  5
441
100
AcDbEntity
  8
0
  6
CONTINUOUS
 62
     7
100
AcDbVertex
100
AcDb2dVertex
 10
-321.0
 20
-20.0
 30
0.0
  0
SEQEND
  5
442
100
AcDbEntity
  8
0
 62
     7
  0
POINT
  5
443
100
AcDbEntity
  8
0
  6
CONTINUOUS
 62
     7
100
AcDbPoint
 10
-346.0
 20
-88.0
 30
0.0
  0
POINT
  5
444
100
AcDbEntity
  8
0
  6
CONTINUOUS
 62
     7
100
AcDbPoint
 10
-328.0
 20
-88.0
 30
0.0
  0
LINE
  5
445
100
AcDbEntity
  8
0
  6
CONTINUOUS
 62
     7
100
AcDbLine
 10
-353.0
 20
-135.0
 30
0.0
 11
-353.0
 21
-119.0
 31
0.0
  0
LINE
  5
446
100
AcDbEntity
  8
0
  6
CONTINUOUS
 62
     7
100
AcDbLine
 10
-350.0
 20
-94.0
 30
0.0
 11
-324.0
 21
-94.0
 31
0.0
  0
LINE
  5
447
100
AcDbEntity
  8
0
  6
CENTER
 62
     7
100
AcDbLine
 10
-328.0
 20
-126.9
 30
0.0
 11
-328.0
 21
-117.1
 31
0.0
  0
LINE
  5
448
100
AcDbEntity
  8
0
  6
CENTER
 62
     7
100
AcDbLine
 10
-323.1
 20
-122.0
 30
0.0
 11
-332.9
 21
-122.0
 31
0.0
  0
LINE
  5
449
100
AcDbEntity
  8
0
  6
CENTER
 62
     7
100
AcDbLine
 10
-346.0
 20
-126.9
 30
0.0
 11
-346.0
 21
-117.1
 31
0.0
  0
LINE
  5
44A
100
AcDbEntity
  8
0
  6
CENTER
 62
     7
100
AcDbLine
 10
-341.1
 20
-122.0
 30
0.0
 11
-350.9
 21
-122.0
 31
0.0
  0
LINE
  5
44B
100
AcDbEntity
  8
0
  6
CENTER
 62
     7
100
AcDbLine
 10
-341.1
 20
-88.0
 30
0.0
 11
-350.9
 21
-88.0
 31
0.0
  0
LINE
  5
44C
100
AcDbEntity
  8
0
  6
CENTER
 62
     7
100
AcDbLine
 10
-346.0
 20
-83.1
 30
0.0
 11
-346.0
 21
-92.9
 31
0.0
  0
LINE
  5
44D
100
AcDbEntity
  8
0
  6
CENTER
 62
     7
100
AcDbLine
 10
-323.1
 20
-88.0
 30
0.0
 11
-332.9
 21
-88.0
 31
0.0
  0
LINE
  5
44E
100
AcDbEntity
  8
0
  6
CONTINUOUS
 62
     7
100
AcDbLine
 10
-350.0
 20
-116.0
 30
0.0
 11
-324.0
 21
-116.0
 31
0.0
  0
LINE
  5
44F
100
AcDbEntity
  8
0
  6
CENTER
 62
     7
100
AcDbLine
 10
-328.0
 20
-83.1
 30
0.0
 11
-328.0
 21
-92.9
 31
0.0
  0
LINE
  5
450
100
AcDbEntity
  8
0
  6
CONTINUOUS
 62
     7
100
AcDbLine
 10
-384.0
 20
-133.2
 30
0.0
 11
-384.0
 21
-125.0
 31
0.0
  0
LINE
  5
451
100
AcDbEntity
  8
0
  6
CONTINUOUS
 62
     7
100
AcDbLine
 10
-387.5
 20
-125.0
 30
0.0
 11
-387.5
 21
-85.0
 31
0.0
  0
LINE
  5
452
100
AcDbEntity
  8
0
  6
CONTINUOUS
 62
     7
100
AcDbLine
 10
-376.0
 20
-133.2
 30
0.0
 11
-376.0
 21
-125.0
 31
0.0
  0
LINE
  5
453
100
AcDbEntity
  8
0
  6
CONTINUOUS
 62
     7
100
AcDbLine
 10
-376.0
 20
-133.2
 30
0.0
 11
-384.0
 21
-133.2
 31
0.0
  0
LINE
  5
454
100
AcDbEntity
  8
0
  6
CONTINUOUS
 62
     7
100
AcDbLine
 10
-390.69053
 20
-80.0
 30
0.0
 11
-401.30948
 21
-80.0
 31
0.0
  0
LINE
  5
455
100
AcDbEntity
  8
0
  6
CONTINUOUS
 62
     7
100
AcDbLine
 10
-321.0
 20
-130.0
 30
0.0
 11
-369.30947
 21
-130.0
 31
0.0
  0
LINE
  5
456
100
AcDbEntity
  8
0
  6
CENTER
 62
     7
100
AcDbLine
 10
-364.0
 20
-68.0
 30
0.0
 11
-364.0
 21
-142.0
 31
0.0
  0
LINE
  5
457
100
AcDbEntity
  8
0
  6
CONTINUOUS
 62
     7
100
AcDbLine
 10
-369.30947
 20
-130.0
 30
0.0
 11
-369.30947
 21
-125.0
 31
0.0
  0
LINE
  5
458
100
AcDbEntity
  8
0
  6
CENTER
 62
     7
100
AcDbLine
 10
-396.0
 20
-68.0
 30
0.0
 11
-396.0
 21
-142.0
 31
0.0
  0
LINE
  5
459
100
AcDbEntity
  8
0
  6
CONTINUOUS
 62
     7
100
AcDbLine
 10
-376.0
 20
-76.8
 30
0.0
 11
-384.0
 21
-76.8
 31
0.0
  0
LINE
  5
45A
100
AcDbEntity
  8
0
  6
CONTINUOUS
 62
     7
100
AcDbLine
 10
-321.0
 20
-80.0
 30
0.0
 11
-369.30947
 21
-80.0
 31
0.0
  0
LINE
  5
45B
100
AcDbEntity
  8
0
  6
CONTINUOUS
 62
     7
100
AcDbLine
 10
-369.30947
 20
-85.0
 30
0.0
 11
-376.0
 21
-85.0
 31
0.0
  0
LINE
  5
45C
100
AcDbEntity
  8
0
  6
CONTINUOUS
 62
     7
100
AcDbLine
 10
-384.0
 20
-85.0
 30
0.0
 11
-401.30948
 21
-85.0
 31
0.0
  0
LINE
  5
45D
100
AcDbEntity
  8
0
  6
CONTINUOUS
 62
     7
100
AcDbLine
 10
-390.68055
 20
-75.0
 30
0.0
 11
-353.0
 21
-75.0
 31
0.0
  0
LINE
  5
45E
100
AcDbEntity
  8
0
  6
CONTINUOUS
 62
     7
100
AcDbLine
 10
-376.0
 20
-77.5
 30
0.0
 11
-384.0
 21
-77.5
 31
0.0
  0
LINE
  5
45F
100
AcDbEntity
  8
0
  6
CENTER
 62
     7
100
AcDbLine
 10
-374.0
 20
-81.0
 30
0.0
 11
-386.0
 21
-81.0
 31
0.0
  0
LINE
  5
460
100
AcDbEntity
  8
0
  6
CONTINUOUS
 62
     7
100
AcDbLine
 10
-369.30947
 20
-85.0
 30
0.0
 11
-369.30947
 21
-80.0
 31
0.0
  0
LINE
  5
461
100
AcDbEntity
  8
0
  6
CENTER
 62
     7
100
AcDbLine
 10
-328.0
 20
-105.0
 30
0.0
 11
-408.30948
 21
-105.0
 31
0.0
  0
LINE
  5
462
100
AcDbEntity
  8
0
  6
CONTINUOUS
 62
     7
100
AcDbLine
 10
-390.69053
 20
-80.0
 30
0.0
 11
-390.69053
 21
-75.0
 31
0.0
  0
LINE
  5
463
100
AcDbEntity
  8
0
  6
CONTINUOUS
 62
     7
100
AcDbLine
 10
-390.69053
 20
-135.0
 30
0.0
 11
-390.69053
 21
-130.0
 31
0.0
  0
LINE
  5
464
100
AcDbEntity
  8
0
  6
CONTINUOUS
 62
     7
100
AcDbLine
 10
-390.69053
 20
-130.0
 30
0.0
 11
-401.30948
 21
-130.0
 31
0.0
  0
LINE
  5
465
100
AcDbEntity
  8
0
  6
CONTINUOUS
 62
     7
100
AcDbLine
 10
-369.30947
 20
-125.0
 30
0.0
 11
-376.0
 21
-125.0
 31
0.0
  0
LINE
  5
466
100
AcDbEntity
  8
0
  6
CONTINUOUS
 62
     7
100
AcDbLine
 10
-384.0
 20
-76.799011
 30
0.0
 11
-384.0
 21
-85.0
 31
0.0
  0
LINE
  5
467
100
AcDbEntity
  8
0
  6
CONTINUOUS
 62
     7
100
AcDbLine
 10
-384.0
 20
-125.0
 30
0.0
 11
-401.30948
 21
-125.0
 31
0.0
  0
LINE
  5
468
100
AcDbEntity
  8
0
  6
CONTINUOUS
 62
     7
100
AcDbLine
 10
-390.68055
 20
-135.0
 30
0.0
 11
-353.0
 21
-135.0
 31
0.0
  0
LINE
  5
469
100
AcDbEntity
  8
0
  6
CONTINUOUS
 62
     7
100
AcDbLine
 10
-376.0
 20
-132.5
 30
0.0
 11
-384.0
 21
-132.5
 31
0.0
  0
LINE
  5
46A
100
AcDbEntity
  8
0
  6
CENTER
 62
     7
100
AcDbLine
 10
-374.0
 20
-129.0
 30
0.0
 11
-386.0
 21
-129.0
 31
0.0
  0
LINE
  5
46B
100
AcDbEntity
  8
0
  6
CONTINUOUS
 62
     7
100
AcDbLine
 10
-372.5
 20
-125.0
 30
0.0
 11
-372.5
 21
-85.0
 31
0.0
  0
LINE
  5
46C
100
AcDbEntity
  8
0
  6
CONTINUOUS
 62
     7
100
AcDbLine
 10
-389.0
 20
-125.0
 30
0.0
 11
-389.0
 21
-85.0
 31
0.0
  0
LINE
  5
46D
100
AcDbEntity
  8
0
  6
CONTINUOUS
 62
     7
100
AcDbLine
 10
-371.0
 20
-125.0
 30
0.0
 11
-371.0
 21
-85.0
 31
0.0
  0
LINE
  5
46E
100
AcDbEntity
  8
0
  6
CONTINUOUS
 62
     7
100
AcDbLine
 10
-376.0
 20
-76.799011
 30
0.0
 11
-376.0
 21
-85.0
 31
0.0
  0
LINE
  5
46F
100
AcDbEntity
  8
0
  6
CONTINUOUS
 62
     7
100
AcDbLine
 10
-353.0
 20
-75.0
 30
0.0
 11
-353.0
 21
-91.0
 31
0.0
  0
ARC
  5
470
100
AcDbEntity
  8
0
  6
CONTINUOUS
 62
     7
100
AcDbCircle
 10
-350.0
 20
-91.0
 30
0.0
 40
3.0
100
AcDbArc
 50
179.99999
 51
270.0
  0
ARC
  5
471
100
AcDbEntity
  8
0
  6
CONTINUOUS
 62
     7
100
AcDbCircle
 10
-324.0
 20
-91.0
 30
0.0
 40
3.0
100
AcDbArc
 50
270.0
 51
359.99999
  0
CIRCLE
  5
472
100
AcDbEntity
  8
0
  6
CONTINUOUS
 62
     7
100
AcDbCircle
 10
-328.0
 20
-88.0
 30
0.0
 40
2.9
  0
CIRCLE
  5
473
100
AcDbEntity
  8
0
  6
CONTINUOUS
 62
     7
100
AcDbCircle
 10
-346.0
 20
-88.0
 30
0.0
 40
2.9
  0
CIRCLE
  5
474
100
AcDbEntity
  8
0
  6
CONTINUOUS
 62
     7
100
AcDbCircle
 10
-346.0
 20
-122.0
 30
0.0
 40
2.9
  0
CIRCLE
  5
475
100
AcDbEntity
  8
0
  6
CONTINUOUS
 62
     7
100
AcDbCircle
 10
-328.0
 20
-122.0
 30
0.0
 40
2.9
  0
ARC
  5
476
100
AcDbEntity
  8
0
  6
CONTINUOUS
 62
     7
100
AcDbCircle
 10
-324.0
 20
-119.0
 30
0.0
 40
3.0
100
AcDbArc
 50
0.000005
 51
90.000003
  0
ARC
  5
477
100
AcDbEntity
  8
0
  6
CONTINUOUS
 62
     7
100
AcDbCircle
 10
-350.0
 20
-119.0
 30
0.0
 40
3.0
100
AcDbArc
 50
89.999996
 51
180.00001
  0
POLYLINE
  5
478
100
AcDbEntity
  8
0
  6
CONTINUOUS
 62
     7
100
AcDb2dPolyline
 66
     1
 10
0.0
 20
0.0
 30
0.0
  0
VERTEX
  5
479
100
AcDbEntity
  8
0
  6
CONTINUOUS
 62
     7
100
AcDbVertex
100
AcDb2dVertex
 10
-321.0
 20
-91.0
 30
0.0
  0
VERTEX
  5
47A
100
AcDbEntity
  8
0
  6
CONTINUOUS
 62
     7
100
AcDbVertex
100
AcDb2dVertex
 10
-321.0
 20
-80.0
 30
0.0
  0
SEQEND
  5
47B
100
AcDbEntity
  8
0
 62
     7
  0
POLYLINE
  5
47C
100
AcDbEntity
  8
0
  6
CONTINUOUS
 62
     7
100
AcDb2dPolyline
 66
     1
 10
0.0
 20
0.0
 30
0.0
  0
VERTEX
  5
47D
100
AcDbEntity
  8
0
  6
CONTINUOUS
 62
     7
100
AcDbVertex
100
AcDb2dVertex
 10
-353.0
 20
-128.0
 30
0.0
  0
VERTEX
  5
47E
100
AcDbEntity
  8
0
  6
CONTINUOUS
 62
     7
100
AcDbVertex
100
AcDb2dVertex
 10
-369.30947
 20
-128.0
 30
0.0
  0
SEQEND
  5
47F
100
AcDbEntity
  8
0
 62
     7
  0
POLYLINE
  5
480
100
AcDbEntity
  8
0
  6
CONTINUOUS
 62
     7
100
AcDb2dPolyline
 66
     1
 10
0.0
 20
0.0
 30
0.0
  0
VERTEX
  5
481
100
AcDbEntity
  8
0
  6
CONTINUOUS
 62
     7
100
AcDbVertex
100
AcDb2dVertex
 10
-353.0
 20
-82.0
 30
0.0
  0
VERTEX
  5
482
100
AcDbEntity
  8
0
  6
CONTINUOUS
 62
     7
100
AcDbVertex
100
AcDb2dVertex
 10
-369.30947
 20
-82.0
 30
0.0
  0
SEQEND
  5
483
100
AcDbEntity
  8
0
 62
     7
  0
POLYLINE
  5
484
100
AcDbEntity
  8
0
  6
CONTINUOUS
 62
     7
100
AcDb2dPolyline
 66
     1
 10
0.0
 20
0.0
 30
0.0
  0
VERTEX
  5
485
100
AcDbEntity
  8
0
  6
CONTINUOUS
 62
     7
100
AcDbVertex
100
AcDb2dVertex
 10
-321.0
 20
-119.0
 30
0.0
  0
VERTEX
  5
486
100
AcDbEntity
  8
0
  6
CONTINUOUS
 62
     7
100
AcDbVertex
100
AcDb2dVertex
 10
-321.0
 20
-130.0
 30
0.0
  0
SEQEND
  5
487
100
AcDbEntity
  8
0
 62
     7
  0
POINT
  5
488
100
AcDbEntity
  8
0
  6
CONTINUOUS
 62
     7
100
AcDbPoint
 10
-264.0
 20
-20.0
 30
0.0
  0
POINT
  5
489
100
AcDbEntity
  8
0
  6
CONTINUOUS
 62
     7
100
AcDbPoint
 10
-230.0
 20
-20.0
 30
0.0
  0
LINE
  5
48A
100
AcDbEntity
  8
0
  6
CONTINUOUS
 62
     7
100
AcDbLine
 10
-224.0
 20
-18.0
 30
0.0
 11
-236.0
 21
-18.0
 31
0.0
  0
LINE
  5
48B
100
AcDbEntity
  8
0
  6
CENTER
 62
     7
100
AcDbLine
 10
-247.0
 20
-27.0
 30
0.0
 11
-247.0
 21
9.0
 31
0.0
  0
LINE
  5
48C
100
AcDbEntity
  8
0
  6
CENTER
 62
     7
100
AcDbLine
 10
-214.0
 20
-9.0
 30
0.0
 11
-280.0
 21
-9.0
 31
0.0
  0
LINE
  5
48D
100
AcDbEntity
  8
0
  6
CONTINUOUS
 62
     7
100
AcDbLine
 10
-236.0
 20
-19.5
 30
0.0
 11
-258.0
 21
-19.5
 31
0.0
  0
LINE
  5
48E
100
AcDbEntity
  8
0
  6
CONTINUOUS
 62
     7
100
AcDbLine
 10
-227.0
 20
-16.0
 30
0.0
 11
-267.0
 21
-16.0
 31
0.0
  0
LINE
  5
48F
100
AcDbEntity
  8
0
  6
CENTER
 62
     7
100
AcDbLine
 10
-230.0
 20
-23.0
 30
0.0
 11
-230.0
 21
-13.0
 31
0.0
  0
LINE
  5
490
100
AcDbEntity
  8
0
  6
CONTINUOUS
 62
     7
100
AcDbLine
 10
-277.0
 20
2.0
 30
0.0
 11
-277.0
 21
-20.0
 31
0.0
  0
LINE
  5
491
100
AcDbEntity
  8
0
  6
CONTINUOUS
 62
     7
100
AcDbLine
 10
-217.0
 20
-20.0
 30
0.0
 11
-236.0
 21
-20.0
 31
0.0
  0
LINE
  5
492
100
AcDbEntity
  8
0
  6
CONTINUOUS
 62
     7
100
AcDbLine
 10
-217.0
 20
2.0
 30
0.0
 11
-217.0
 21
-20.0
 31
0.0
  0
LINE
  5
493
100
AcDbEntity
  8
0
  6
CONTINUOUS
 62
     7
100
AcDbLine
 10
-270.0
 20
-18.0
 30
0.0
 11
-258.0
 21
-18.0
 31
0.0
  0
LINE
  5
494
100
AcDbEntity
  8
0
  6
CONTINUOUS
 62
     7
100
AcDbLine
 10
-277.0
 20
-20.0
 30
0.0
 11
-258.0
 21
-20.0
 31
0.0
  0
LINE
  5
495
100
AcDbEntity
  8
0
  6
CONTINUOUS
 62
     7
100
AcDbLine
 10
-277.0
 20
2.0
 30
0.0
 11
-217.0
 21
2.0
 31
0.0
  0
LINE
  5
496
100
AcDbEntity
  8
0
  6
CONTINUOUS
 62
     7
100
AcDbLine
 10
-227.0
 20
2.0
 30
0.0
 11
-227.0
 21
-18.0
 31
0.0
  0
LINE
  5
497
100
AcDbEntity
  8
0
  6
CONTINUOUS
 62
     7
100
AcDbLine
 10
-236.0
 20
-18.0
 30
0.0
 11
-236.0
 21
-20.0
 31
0.0
  0
LINE
  5
498
100
AcDbEntity
  8
0
  6
CONTINUOUS
 62
     7
100
AcDbLine
 10
-272.0
 20
2.0
 30
0.0
 11
-272.0
 21
-20.0
 31
0.0
  0
LINE
  5
499
100
AcDbEntity
  8
0
  6
CONTINUOUS
 62
     7
100
AcDbLine
 10
-270.0
 20
2.0
 30
0.0
 11
-270.0
 21
-18.0
 31
0.0
  0
LINE
  5
49A
100
AcDbEntity
  8
0
  6
CONTINUOUS
 62
     7
100
AcDbLine
 10
-258.0
 20
-18.0
 30
0.0
 11
-258.0
 21
-20.0
 31
0.0
  0
LINE
  5
49B
100
AcDbEntity
  8
0
  6
CONTINUOUS
 62
     7
100
AcDbLine
 10
-267.0
 20
2.0
 30
0.0
 11
-267.0
 21
-18.0
 31
0.0
  0
LINE
  5
49C
100
AcDbEntity
  8
0
  6
CONTINUOUS
 62
     7
100
AcDbLine
 10
-264.5
 20
-2.0
 30
0.0
 11
-229.5
 21
-2.0
 31
0.0
  0
LINE
  5
49D
100
AcDbEntity
  8
0
  6
CONTINUOUS
 62
     7
100
AcDbLine
 10
-222.0
 20
2.0
 30
0.0
 11
-222.0
 21
-20.0
 31
0.0
  0
LINE
  5
49E
100
AcDbEntity
  8
0
  6
CONTINUOUS
 62
     7
100
AcDbLine
 10
-224.0
 20
2.0
 30
0.0
 11
-224.0
 21
-18.0
 31
0.0
  0
LINE
  5
49F
100
AcDbEntity
  8
0
  6
CENTER
 62
     7
100
AcDbLine
 10
-264.0
 20
-23.0
 30
0.0
 11
-264.0
 21
-13.0
 31
0.0
  0
ARC
  5
4A0
100
AcDbEntity
  8
0
  6
CONTINUOUS
 62
     7
100
AcDbCircle
 10
-229.5
 20
-4.5
 30
0.0
 40
2.5
100
AcDbArc
 50
0.0
 51
90.000003
  0
ARC
  5
4A1
100
AcDbEntity
  8
0
  6
CONTINUOUS
 62
     7
100
AcDbCircle
 10
-264.5
 20
-4.5
 30
0.0
 40
2.5
100
AcDbArc
 50
89.999996
 51
180.00001
  0
POINT
  5
4A2
100
AcDbEntity
  8
0
  6
CONTINUOUS
 62
     7
100
AcDbPoint
 10
-116.0
 20
70.0
 30
0.0
  0
POINT
  5
4A3
100
AcDbEntity
  8
0
  6
CONTINUOUS
 62
     7
100
AcDbPoint
 10
-98.0
 20
70.0
 30
0.0
  0
LINE
  5
4A4
100
AcDbEntity
  8
0
  6
CONTINUOUS
 62
     7
100
AcDbLine
 10
-160.69053
 20
57.0
 30
0.0
 11
-160.69053
 21
62.0
 31
0.0
  0
LINE
  5
4A5
100
AcDbEntity
  8
0
  6
CONTINUOUS
 62
     7
100
AcDbLine
 10
-160.69053
 20
112.0
 30
0.0
 11
-160.69053
 21
117.0
 31
0.0
  0
LINE
  5
4A6
100
AcDbEntity
  8
0
  6
CENTER
 62
     7
100
AcDbLine
 10
-98.0
 20
87.0
 30
0.0
 11
-178.30948
 21
87.0
 31
0.0
  0
LINE
  5
4A7
100
AcDbEntity
  8
0
  6
CONTINUOUS
 62
     7
100
AcDbLine
 10
-139.30947
 20
107.0
 30
0.0
 11
-139.30947
 21
112.0
 31
0.0
  0
LINE
  5
4A8
100
AcDbEntity
  8
0
  6
CONTINUOUS
 62
     7
100
AcDbLine
 10
-160.68055
 20
117.0
 30
0.0
 11
-123.0
 21
117.0
 31
0.0
  0
LINE
  5
4A9
100
AcDbEntity
  8
0
  6
CONTINUOUS
 62
     7
100
AcDbLine
 10
-123.0
 20
57.0
 30
0.0
 11
-123.0
 21
73.0
 31
0.0
  0
LINE
  5
4AA
100
AcDbEntity
  8
0
  6
CONTINUOUS
 62
     7
100
AcDbLine
 10
-159.0
 20
107.0
 30
0.0
 11
-171.30948
 21
107.0
 31
0.0
  0
LINE
  5
4AB
100
AcDbEntity
  8
0
  6
CONTINUOUS
 62
     7
100
AcDbLine
 10
-139.30947
 20
107.0
 30
0.0
 11
-141.0
 21
107.0
 31
0.0
  0
LINE
  5
4AC
100
AcDbEntity
  8
0
  6
CONTINUOUS
 62
     7
100
AcDbLine
 10
-91.0
 20
112.0
 30
0.0
 11
-139.30947
 21
112.0
 31
0.0
  0
LINE
  5
4AD
100
AcDbEntity
  8
0
  6
CENTER
 62
     7
100
AcDbLine
 10
-110.56
 20
70.0
 30
0.0
 11
-121.44
 21
70.0
 31
0.0
  0
LINE
  5
4AE
100
AcDbEntity
  8
0
  6
CONTINUOUS
 62
     7
100
AcDbLine
 10
-160.69053
 20
112.0
 30
0.0
 11
-171.30948
 21
112.0
 31
0.0
  0
LINE
  5
4AF
100
AcDbEntity
  8
0
  6
CONTINUOUS
 62
     7
100
AcDbLine
 10
-160.69053
 20
62.0
 30
0.0
 11
-171.30948
 21
62.0
 31
0.0
  0
LINE
  5
4B0
100
AcDbEntity
  8
0
  6
CONTINUOUS
 62
     7
100
AcDbLine
 10
-91.0
 20
62.0
 30
0.0
 11
-139.30947
 21
62.0
 31
0.0
  0
LINE
  5
4B1
100
AcDbEntity
  8
0
  6
CONTINUOUS
 62
     7
100
AcDbLine
 10
-139.30947
 20
67.0
 30
0.0
 11
-141.0
 21
67.0
 31
0.0
  0
LINE
  5
4B2
100
AcDbEntity
  8
0
  6
CONTINUOUS
 62
     7
100
AcDbLine
 10
-159.0
 20
67.0
 30
0.0
 11
-171.30948
 21
67.0
 31
0.0
  0
LINE
  5
4B3
100
AcDbEntity
  8
0
  6
CONTINUOUS
 62
     7
100
AcDbLine
 10
-160.68055
 20
57.0
 30
0.0
 11
-123.0
 21
57.0
 31
0.0
  0
LINE
  5
4B4
100
AcDbEntity
  8
0
  6
CONTINUOUS
 62
     7
100
AcDbLine
 10
-159.0
 20
67.0
 30
0.0
 11
-159.0
 21
107.0
 31
0.0
  0
LINE
  5
4B5
100
AcDbEntity
  8
0
  6
CONTINUOUS
 62
     7
100
AcDbLine
 10
-141.0
 20
67.0
 30
0.0
 11
-141.0
 21
107.0
 31
0.0
  0
LINE
  5
4B6
100
AcDbEntity
  8
0
  6
CENTER
 62
     7
100
AcDbLine
 10
-134.0
 20
124.0
 30
0.0
 11
-134.0
 21
50.0
 31
0.0
  0
LINE
  5
4B7
100
AcDbEntity
  8
0
  6
CONTINUOUS
 62
     7
100
AcDbLine
 10
-139.30947
 20
62.0
 30
0.0
 11
-139.30947
 21
67.0
 31
0.0
  0
LINE
  5
4B8
100
AcDbEntity
  8
0
  6
CENTER
 62
     7
100
AcDbLine
 10
-166.0
 20
124.0
 30
0.0
 11
-166.0
 21
50.0
 31
0.0
  0
LINE
  5
4B9
100
AcDbEntity
  8
0
  6
CENTER
 62
     7
100
AcDbLine
 10
-98.0
 20
75.44
 30
0.0
 11
-98.0
 21
64.56
 31
0.0
  0
LINE
  5
4BA
100
AcDbEntity
  8
0
  6
CENTER
 62
     7
100
AcDbLine
 10
-92.559999
 20
70.0
 30
0.0
 11
-103.44
 21
70.0
 31
0.0
  0
LINE
  5
4BB
100
AcDbEntity
  8
0
  6
CONTINUOUS
 62
     7
100
AcDbLine
 10
-120.0
 20
98.0
 30
0.0
 11
-94.0
 21
98.0
 31
0.0
  0
LINE
  5
4BC
100
AcDbEntity
  8
0
  6
CENTER
 62
     7
100
AcDbLine
 10
-116.0
 20
75.44
 30
0.0
 11
-116.0
 21
64.56
 31
0.0
  0
LINE
  5
4BD
100
AcDbEntity
  8
0
  6
CONTINUOUS
 62
     7
100
AcDbLine
 10
-120.0
 20
76.0
 30
0.0
 11
-94.0
 21
76.0
 31
0.0
  0
LINE
  5
4BE
100
AcDbEntity
  8
0
  6
CENTER
 62
     7
100
AcDbLine
 10
-92.559999
 20
104.0
 30
0.0
 11
-103.44
 21
104.0
 31
0.0
  0
LINE
  5
4BF
100
AcDbEntity
  8
0
  6
CENTER
 62
     7
100
AcDbLine
 10
-98.0
 20
109.44
 30
0.0
 11
-98.0
 21
98.559999
 31
0.0
  0
LINE
  5
4C0
100
AcDbEntity
  8
0
  6
CENTER
 62
     7
100
AcDbLine
 10
-110.56
 20
104.0
 30
0.0
 11
-121.44
 21
104.0
 31
0.0
  0
LINE
  5
4C1
100
AcDbEntity
  8
0
  6
CENTER
 62
     7
100
AcDbLine
 10
-116.0
 20
109.44
 30
0.0
 11
-116.0
 21
98.559999
 31
0.0
  0
LINE
  5
4C2
100
AcDbEntity
  8
0
  6
CONTINUOUS
 62
     7
100
AcDbLine
 10
-123.0
 20
117.0
 30
0.0
 11
-123.0
 21
101.0
 31
0.0
  0
ARC
  5
4C3
100
AcDbEntity
  8
0
  6
CONTINUOUS
 62
     7
100
AcDbCircle
 10
-120.0
 20
101.0
 30
0.0
 40
3.0
100
AcDbArc
 50
179.99999
 51
270.0
  0
ARC
  5
4C4
100
AcDbEntity
  8
0
  6
CONTINUOUS
 62
     7
100
AcDbCircle
 10
-94.0
 20
101.0
 30
0.0
 40
3.0
100
AcDbArc
 50
270.0
 51
359.99999
  0
CIRCLE
  5
4C5
100
AcDbEntity
  8
0
  6
CONTINUOUS
 62
     7
100
AcDbCircle
 10
-98.0
 20
104.0
 30
0.0
 40
2.9
  0
CIRCLE
  5
4C6
100
AcDbEntity
  8
0
  6
CONTINUOUS
 62
     7
100
AcDbCircle
 10
-116.0
 20
104.0
 30
0.0
 40
2.9
  0
CIRCLE
  5
4C7
100
AcDbEntity
  8
0
  6
CONTINUOUS
 62
     7
100
AcDbCircle
 10
-116.0
 20
70.0
 30
0.0
 40
2.9
  0
CIRCLE
  5
4C8
100
AcDbEntity
  8
0
  6
CONTINUOUS
 62
     7
100
AcDbCircle
 10
-98.0
 20
70.0
 30
0.0
 40
2.9
  0
ARC
  5
4C9
100
AcDbEntity
  8
0
  6
CONTINUOUS
 62
     7
100
AcDbCircle
 10
-94.0
 20
73.0
 30
0.0
 40
3.0
100
AcDbArc
 50
0.000005
 51
90.000003
  0
ARC
  5
4CA
100
AcDbEntity
  8
0
  6
CONTINUOUS
 62
     7
100
AcDbCircle
 10
-120.0
 20
73.0
 30
0.0
 40
3.0
100
AcDbArc
 50
89.999996
 51
180.00001
  0
POLYLINE
  5
4CB
100
AcDbEntity
  8
0
  6
CONTINUOUS
 62
     7
100
AcDb2dPolyline
 66
     1
 10
0.0
 20
0.0
 30
0.0
  0
VERTEX
  5
4CC
100
AcDbEntity
  8
0
  6
CONTINUOUS
 62
     7
100
AcDbVertex
100
AcDb2dVertex
 10
-91.0
 20
101.0
 30
0.0
  0
VERTEX
  5
4CD
100
AcDbEntity
  8
0
  6
CONTINUOUS
 62
     7
100
AcDbVertex
100
AcDb2dVertex
 10
-91.0
 20
112.0
 30
0.0
  0
SEQEND
  5
4CE
100
AcDbEntity
  8
0
 62
     7
  0
POLYLINE
  5
4CF
100
AcDbEntity
  8
0
  6
CONTINUOUS
 62
     7
100
AcDb2dPolyline
 66
     1
 10
0.0
 20
0.0
 30
0.0
  0
VERTEX
  5
4D0
100
AcDbEntity
  8
0
  6
CONTINUOUS
 62
     7
100
AcDbVertex
100
AcDb2dVertex
 10
-123.0
 20
64.0
 30
0.0
  0
VERTEX
  5
4D1
100
AcDbEntity
  8
0
  6
CONTINUOUS
 62
     7
100
AcDbVertex
100
AcDb2dVertex
 10
-139.30947
 20
64.0
 30
0.0
  0
SEQEND
  5
4D2
100
AcDbEntity
  8
0
 62
     7
  0
POLYLINE
  5
4D3
100
AcDbEntity
  8
0
  6
CONTINUOUS
 62
     7
100
AcDb2dPolyline
 66
     1
 10
0.0
 20
0.0
 30
0.0
  0
VERTEX
  5
4D4
100
AcDbEntity
  8
0
  6
CONTINUOUS
 62
     7
100
AcDbVertex
100
AcDb2dVertex
 10
-91.0
 20
73.0
 30
0.0
  0
VERTEX
  5
4D5
100
AcDbEntity
  8
0
  6
CONTINUOUS
 62
     7
100
AcDbVertex
100
AcDb2dVertex
 10
-91.0
 20
62.0
 30
0.0
  0
SEQEND
  5
4D6
100
AcDbEntity
  8
0
 62
     7
  0
POLYLINE
  5
4D7
100
AcDbEntity
  8
0
  6
CONTINUOUS
 62
     7
100
AcDb2dPolyline
 66
     1
 10
0.0
 20
0.0
 30
0.0
  0
VERTEX
  5
4D8
100
AcDbEntity
  8
0
  6
CONTINUOUS
 62
     7
100
AcDbVertex
100
AcDb2dVertex
 10
-123.0
 20
110.0
 30
0.0
  0
VERTEX
  5
4D9
100
AcDbEntity
  8
0
  6
CONTINUOUS
 62
     7
100
AcDbVertex
100
AcDb2dVertex
 10
-139.30947
 20
110.0
 30
0.0
  0
SEQEND
  5
4DA
100
AcDbEntity
  8
0
 62
     7
  0
POINT
  5
4DB
100
AcDbEntity
  8
0
  6
CONTINUOUS
 62
     7
100
AcDbPoint
 10
-116.0
 20
2.0
 30
0.0
  0
POINT
  5
4DC
100
AcDbEntity
  8
0
  6
CONTINUOUS
 62
     7
100
AcDbPoint
 10
-98.0
 20
2.0
 30
0.0
  0
LINE
  5
4DD
100
AcDbEntity
  8
0
  6
CENTER
 62
     7
100
AcDbLine
 10
-140.0
 20
-9.0
 30
0.0
 11
-128.0
 21
-9.0
 31
0.0
  0
LINE
  5
4DE
100
AcDbEntity
  8
0
  6
CONTINUOUS
 62
     7
100
AcDbLine
 10
-130.24344
 20
-19.338678
 30
0.0
 11
-97.382904
 21
-7.398798
 31
0.0
  0
LINE
  5
4DF
100
AcDbEntity
  8
0
  6
DASHED
 62
     7
100
AcDbLine
 10
-123.0
 20
0.0
 30
0.0
 11
-91.0
 21
0.0
 31
0.0
  0
LINE
  5
4E0
100
AcDbEntity
  8
0
  6
CONTINUOUS
 62
     7
100
AcDbLine
 10
-163.5
 20
-12.122499
 30
0.0
 11
-163.5
 21
-5.877501
 31
0.0
  0
LINE
  5
4E1
100
AcDbEntity
  8
0
  6
CONTINUOUS
 62
     7
100
AcDbLine
 10
-128.0
 20
2.0
 30
0.0
 11
-166.0
 21
2.0
 31
0.0
  0
LINE
  5
4E2
100
AcDbEntity
  8
0
  6
CONTINUOUS
 62
     7
100
AcDbLine
 10
-157.25533
 20
-1.531347
 30
0.0
 11
-159.56701
 21
1.175276
 31
0.0
  0
LINE
  5
4E3
100
AcDbEntity
  8
0
  6
CENTER
 62
     7
100
AcDbLine
 10
-134.0
 20
-15.0
 30
0.0
 11
-134.0
 21
-3.0
 31
0.0
  0
LINE
  5
4E4
100
AcDbEntity
  8
0
  6
CENTER
 62
     7
100
AcDbLine
 10
-166.0
 20
-15.0
 30
0.0
 11
-166.0
 21
-3.0
 31
0.0
  0
LINE
  5
4E5
100
AcDbEntity
  8
0
  6
CONTINUOUS
 62
     7
100
AcDbLine
 10
-91.0
 20
2.0
 30
0.0
 11
-91.0
 21
0.0
 31
0.0
  0
LINE
  5
4E6
100
AcDbEntity
  8
0
  6
DASHED
 62
     7
100
AcDbLine
 10
-123.0
 20
2.0
 30
0.0
 11
-123.0
 21
0.0
 31
0.0
  0
LINE
  5
4E7
100
AcDbEntity
  8
0
  6
CENTER
 62
     7
100
AcDbLine
 10
-116.0
 20
5.0
 30
0.0
 11
-116.0
 21
-3.0
 31
0.0
  0
LINE
  5
4E8
100
AcDbEntity
  8
0
  6
CENTER
 62
     7
100
AcDbLine
 10
-172.0
 20
-9.0
 30
0.0
 11
-160.0
 21
-9.0
 31
0.0
  0
LINE
  5
4E9
100
AcDbEntity
  8
0
  6
CENTER
 62
     7
100
AcDbLine
 10
-98.0
 20
5.0
 30
0.0
 11
-98.0
 21
-3.0
 31
0.0
  0
LINE
  5
4EA
100
AcDbEntity
  8
0
  6
CONTINUOUS
 62
     7
100
AcDbLine
 10
-134.0
 20
-20.0
 30
0.0
 11
-166.0
 21
-20.0
 31
0.0
  0
ARC
  5
4EB
100
AcDbEntity
  8
0
  6
CONTINUOUS
 62
     7
100
AcDbCircle
 10
-125.5
 20
2.0
 30
0.0
 40
2.5
100
AcDbArc
 50
179.99999
 51
0.00001
  0
ARC
  5
4EC
100
AcDbEntity
  8
0
  6
CONTINUOUS
 62
     7
100
AcDbCircle
 10
-159.1868
 20
1.5
 30
0.0
 40
0.5
100
AcDbArc
 50
90.000003
 51
220.49999
  0
ARC
  5
4ED
100
AcDbEntity
  8
0
  6
CONTINUOUS
 62
     7
100
AcDbCircle
 10
-160.19053
 20
-19.5
 30
0.0
 40
0.5
100
AcDbArc
 50
118.95503
 51
270.0
  0
ARC
  5
4EE
100
AcDbEntity
  8
0
  6
CONTINUOUS
 62
     7
100
AcDbCircle
 10
-166.0
 20
-9.0
 30
0.0
 40
11.5
100
AcDbArc
 50
298.95503
 51
40.499999
  0
CIRCLE
  5
4EF
100
AcDbEntity
  8
0
  6
CONTINUOUS
 62
     7
100
AcDbCircle
 10
-166.0
 20
-9.0
 30
0.0
 40
4.0
  0
ARC
  5
4F0
100
AcDbEntity
  8
0
  6
CONTINUOUS
 62
     7
100
AcDbCircle
 10
-100.79796
 20
2.0
 30
0.0
 40
10.0
100
AcDbArc
 50
289.96862
 51
348.46304
  0
CIRCLE
  5
4F1
100
AcDbEntity
  8
0
  6
CONTINUOUS
 62
     7
100
AcDbCircle
 10
-134.0
 20
-9.0
 30
0.0
 40
4.0
  0
ARC
  5
4F2
100
AcDbEntity
  8
0
  6
CONTINUOUS
 62
     7
100
AcDbCircle
 10
-134.0
 20
-9.0
 30
0.0
 40
11.0
100
AcDbArc
 50
270.0
 51
90.000003
  0
POLYLINE
  5
4F3
100
AcDbEntity
  8
0
  6
CONTINUOUS
 62
     7
100
AcDb2dPolyline
 66
     1
 10
0.0
 20
0.0
 30
0.0
  0
VERTEX
  5
4F4
100
AcDbEntity
  8
0
  6
CONTINUOUS
 62
     7
100
AcDbVertex
100
AcDb2dVertex
 10
-122.99479
 20
2.0
 30
0.0
  0
VERTEX
  5
4F5
100
AcDbEntity
  8
0
  6
CONTINUOUS
 62
     7
100
AcDbVertex
100
AcDb2dVertex
 10
-91.0
 20
2.0
 30
0.0
  0
SEQEND
  5
4F6
100
AcDbEntity
  8
0
 62
     7
  0
POINT
  5
4F7
100
AcDbEntity
  8
0
  6
CONTINUOUS
 62
     7
100
AcDbPoint
 10
-116.0
 20
-88.0
 30
0.0
  0
POINT
  5
4F8
100
AcDbEntity
  8
0
  6
CONTINUOUS
 62
     7
100
AcDbPoint
 10
-98.0
 20
-88.0
 30
0.0
  0
LINE
  5
4F9
100
AcDbEntity
  8
0
  6
CENTER
 62
     7
100
AcDbLine
 10
-93.1
 20
-88.0
 30
0.0
 11
-102.9
 21
-88.0
 31
0.0
  0
LINE
  5
4FA
100
AcDbEntity
  8
0
  6
CENTER
 62
     7
100
AcDbLine
 10
-116.0
 20
-83.1
 30
0.0
 11
-116.0
 21
-92.9
 31
0.0
  0
LINE
  5
4FB
100
AcDbEntity
  8
0
  6
CENTER
 62
     7
100
AcDbLine
 10
-111.1
 20
-88.0
 30
0.0
 11
-120.9
 21
-88.0
 31
0.0
  0
LINE
  5
4FC
100
AcDbEntity
  8
0
  6
CENTER
 62
     7
100
AcDbLine
 10
-111.1
 20
-122.0
 30
0.0
 11
-120.9
 21
-122.0
 31
0.0
  0
LINE
  5
4FD
100
AcDbEntity
  8
0
  6
CENTER
 62
     7
100
AcDbLine
 10
-116.0
 20
-126.9
 30
0.0
 11
-116.0
 21
-117.1
 31
0.0
  0
LINE
  5
4FE
100
AcDbEntity
  8
0
  6
CENTER
 62
     7
100
AcDbLine
 10
-93.1
 20
-122.0
 30
0.0
 11
-102.9
 21
-122.0
 31
0.0
  0
LINE
  5
4FF
100
AcDbEntity
  8
0
  6
CENTER
 62
     7
100
AcDbLine
 10
-98.0
 20
-126.9
 30
0.0
 11
-98.0
 21
-117.1
 31
0.0
  0
LINE
  5
500
100
AcDbEntity
  8
0
  6
CONTINUOUS
 62
     7
100
AcDbLine
 10
-120.0
 20
-94.0
 30
0.0
 11
-94.0
 21
-94.0
 31
0.0
  0
LINE
  5
501
100
AcDbEntity
  8
0
  6
CONTINUOUS
 62
     7
100
AcDbLine
 10
-160.69053
 20
-80.0
 30
0.0
 11
-160.69053
 21
-75.0
 31
0.0
  0
LINE
  5
502
100
AcDbEntity
  8
0
  6
CONTINUOUS
 62
     7
100
AcDbLine
 10
-123.0
 20
-75.0
 30
0.0
 11
-123.0
 21
-80.0
 31
0.0
  0
LINE
  5
503
100
AcDbEntity
  8
0
  6
CONTINUOUS
 62
     7
100
AcDbLine
 10
-146.0
 20
-76.799011
 30
0.0
 11
-146.0
 21
-85.0
 31
0.0
  0
LINE
  5
504
100
AcDbEntity
  8
0
  6
CONTINUOUS
 62
     7
100
AcDbLine
 10
-141.0
 20
-125.0
 30
0.0
 11
-141.0
 21
-85.0
 31
0.0
  0
LINE
  5
505
100
AcDbEntity
  8
0
  6
CONTINUOUS
 62
     7
100
AcDbLine
 10
-159.0
 20
-125.0
 30
0.0
 11
-159.0
 21
-85.0
 31
0.0
  0
LINE
  5
506
100
AcDbEntity
  8
0
  6
CONTINUOUS
 62
     7
100
AcDbLine
 10
-142.5
 20
-125.0
 30
0.0
 11
-142.5
 21
-85.0
 31
0.0
  0
LINE
  5
507
100
AcDbEntity
  8
0
  6
CENTER
 62
     7
100
AcDbLine
 10
-144.0
 20
-129.0
 30
0.0
 11
-156.0
 21
-129.0
 31
0.0
  0
LINE
  5
508
100
AcDbEntity
  8
0
  6
CONTINUOUS
 62
     7
100
AcDbLine
 10
-146.0
 20
-132.5
 30
0.0
 11
-154.0
 21
-132.5
 31
0.0
  0
LINE
  5
509
100
AcDbEntity
  8
0
  6
CONTINUOUS
 62
     7
100
AcDbLine
 10
-160.68055
 20
-135.0
 30
0.0
 11
-123.0
 21
-135.0
 31
0.0
  0
LINE
  5
50A
100
AcDbEntity
  8
0
  6
CONTINUOUS
 62
     7
100
AcDbLine
 10
-123.0
 20
-128.0
 30
0.0
 11
-123.0
 21
-119.0
 31
0.0
  0
LINE
  5
50B
100
AcDbEntity
  8
0
  6
CONTINUOUS
 62
     7
100
AcDbLine
 10
-123.0
 20
-82.0
 30
0.0
 11
-123.0
 21
-91.0
 31
0.0
  0
LINE
  5
50C
100
AcDbEntity
  8
0
  6
CENTER
 62
     7
100
AcDbLine
 10
-98.0
 20
-105.0
 30
0.0
 11
-178.30948
 21
-105.0
 31
0.0
  0
LINE
  5
50D
100
AcDbEntity
  8
0
  6
CONTINUOUS
 62
     7
100
AcDbLine
 10
-154.0
 20
-125.0
 30
0.0
 11
-171.30948
 21
-125.0
 31
0.0
  0
LINE
  5
50E
100
AcDbEntity
  8
0
  6
CONTINUOUS
 62
     7
100
AcDbLine
 10
-139.30947
 20
-85.0
 30
0.0
 11
-139.30947
 21
-80.0
 31
0.0
  0
LINE
  5
50F
100
AcDbEntity
  8
0
  6
CONTINUOUS
 62
     7
100
AcDbLine
 10
-154.0
 20
-76.799011
 30
0.0
 11
-154.0
 21
-85.0
 31
0.0
  0
LINE
  5
510
100
AcDbEntity
  8
0
  6
CENTER
 62
     7
100
AcDbLine
 10
-144.0
 20
-81.0
 30
0.0
 11
-156.0
 21
-81.0
 31
0.0
  0
LINE
  5
511
100
AcDbEntity
  8
0
  6
CONTINUOUS
 62
     7
100
AcDbLine
 10
-146.0
 20
-77.5
 30
0.0
 11
-154.0
 21
-77.5
 31
0.0
  0
LINE
  5
512
100
AcDbEntity
  8
0
  6
CONTINUOUS
 62
     7
100
AcDbLine
 10
-139.30947
 20
-125.0
 30
0.0
 11
-146.0
 21
-125.0
 31
0.0
  0
LINE
  5
513
100
AcDbEntity
  8
0
  6
CONTINUOUS
 62
     7
100
AcDbLine
 10
-160.69053
 20
-130.0
 30
0.0
 11
-171.30948
 21
-130.0
 31
0.0
  0
LINE
  5
514
100
AcDbEntity
  8
0
  6
CONTINUOUS
 62
     7
100
AcDbLine
 10
-160.69053
 20
-135.0
 30
0.0
 11
-160.69053
 21
-130.0
 31
0.0
  0
LINE
  5
515
100
AcDbEntity
  8
0
  6
CONTINUOUS
 62
     7
100
AcDbLine
 10
-160.68055
 20
-75.0
 30
0.0
 11
-123.0
 21
-75.0
 31
0.0
  0
LINE
  5
516
100
AcDbEntity
  8
0
  6
CONTINUOUS
 62
     7
100
AcDbLine
 10
-154.0
 20
-85.0
 30
0.0
 11
-171.30948
 21
-85.0
 31
0.0
  0
LINE
  5
517
100
AcDbEntity
  8
0
  6
CONTINUOUS
 62
     7
100
AcDbLine
 10
-139.30947
 20
-85.0
 30
0.0
 11
-146.0
 21
-85.0
 31
0.0
  0
LINE
  5
518
100
AcDbEntity
  8
0
  6
CONTINUOUS
 62
     7
100
AcDbLine
 10
-91.0
 20
-80.0
 30
0.0
 11
-139.30947
 21
-80.0
 31
0.0
  0
LINE
  5
519
100
AcDbEntity
  8
0
  6
CONTINUOUS
 62
     7
100
AcDbLine
 10
-146.0
 20
-76.8
 30
0.0
 11
-154.0
 21
-76.8
 31
0.0
  0
LINE
  5
51A
100
AcDbEntity
  8
0
  6
CENTER
 62
     7
100
AcDbLine
 10
-166.0
 20
-68.0
 30
0.0
 11
-166.0
 21
-142.0
 31
0.0
  0
LINE
  5
51B
100
AcDbEntity
  8
0
  6
CONTINUOUS
 62
     7
100
AcDbLine
 10
-139.30947
 20
-130.0
 30
0.0
 11
-139.30947
 21
-125.0
 31
0.0
  0
LINE
  5
51C
100
AcDbEntity
  8
0
  6
CENTER
 62
     7
100
AcDbLine
 10
-134.0
 20
-68.0
 30
0.0
 11
-134.0
 21
-142.0
 31
0.0
  0
LINE
  5
51D
100
AcDbEntity
  8
0
  6
CONTINUOUS
 62
     7
100
AcDbLine
 10
-91.0
 20
-130.0
 30
0.0
 11
-139.30947
 21
-130.0
 31
0.0
  0
LINE
  5
51E
100
AcDbEntity
  8
0
  6
CONTINUOUS
 62
     7
100
AcDbLine
 10
-160.69053
 20
-80.0
 30
0.0
 11
-171.30948
 21
-80.0
 31
0.0
  0
LINE
  5
51F
100
AcDbEntity
  8
0
  6
CONTINUOUS
 62
     7
100
AcDbLine
 10
-146.0
 20
-133.2
 30
0.0
 11
-154.0
 21
-133.2
 31
0.0
  0
LINE
  5
520
100
AcDbEntity
  8
0
  6
CONTINUOUS
 62
     7
100
AcDbLine
 10
-146.0
 20
-133.2
 30
0.0
 11
-146.0
 21
-125.0
 31
0.0
  0
LINE
  5
521
100
AcDbEntity
  8
0
  6
CONTINUOUS
 62
     7
100
AcDbLine
 10
-157.5
 20
-125.0
 30
0.0
 11
-157.5
 21
-85.0
 31
0.0
  0
LINE
  5
522
100
AcDbEntity
  8
0
  6
CONTINUOUS
 62
     7
100
AcDbLine
 10
-154.0
 20
-133.2
 30
0.0
 11
-154.0
 21
-125.0
 31
0.0
  0
LINE
  5
523
100
AcDbEntity
  8
0
  6
CENTER
 62
     7
100
AcDbLine
 10
-98.0
 20
-83.1
 30
0.0
 11
-98.0
 21
-92.9
 31
0.0
  0
LINE
  5
524
100
AcDbEntity
  8
0
  6
CONTINUOUS
 62
     7
100
AcDbLine
 10
-123.0
 20
-135.0
 30
0.0
 11
-123.0
 21
-130.0
 31
0.0
  0
LINE
  5
525
100
AcDbEntity
  8
0
  6
CONTINUOUS
 62
     7
100
AcDbLine
 10
-120.0
 20
-116.0
 30
0.0
 11
-94.0
 21
-116.0
 31
0.0
  0
ARC
  5
526
100
AcDbEntity
  8
0
  6
CONTINUOUS
 62
     7
100
AcDbCircle
 10
-120.0
 20
-119.0
 30
0.0
 40
3.0
100
AcDbArc
 50
89.999996
 51
180.00001
  0
ARC
  5
527
100
AcDbEntity
  8
0
  6
CONTINUOUS
 62
     7
100
AcDbCircle
 10
-94.0
 20
-119.0
 30
0.0
 40
3.0
100
AcDbArc
 50
0.000005
 51
90.000003
  0
CIRCLE
  5
528
100
AcDbEntity
  8
0
  6
CONTINUOUS
 62
     7
100
AcDbCircle
 10
-98.0
 20
-122.0
 30
0.0
 40
2.9
  0
CIRCLE
  5
529
100
AcDbEntity
  8
0
  6
CONTINUOUS
 62
     7
100
AcDbCircle
 10
-116.0
 20
-122.0
 30
0.0
 40
2.9
  0
CIRCLE
  5
52A
100
AcDbEntity
  8
0
  6
CONTINUOUS
 62
     7
100
AcDbCircle
 10
-116.0
 20
-88.0
 30
0.0
 40
2.9
  0
CIRCLE
  5
52B
100
AcDbEntity
  8
0
  6
CONTINUOUS
 62
     7
100
AcDbCircle
 10
-98.0
 20
-88.0
 30
0.0
 40
2.9
  0
ARC
  5
52C
100
AcDbEntity
  8
0
  6
CONTINUOUS
 62
     7
100
AcDbCircle
 10
-94.0
 20
-91.0
 30
0.0
 40
3.0
100
AcDbArc
 50
270.0
 51
359.99999
  0
ARC
  5
52D
100
AcDbEntity
  8
0
  6
CONTINUOUS
 62
     7
100
AcDbCircle
 10
-120.0
 20
-91.0
 30
0.0
 40
3.0
100
AcDbArc
 50
179.99999
 51
270.0
  0
POLYLINE
  5
52E
100
AcDbEntity
  8
0
  6
CONTINUOUS
 62
     7
100
AcDb2dPolyline
 66
     1
 10
0.0
 20
0.0
 30
0.0
  0
VERTEX
  5
52F
100
AcDbEntity
  8
0
  6
CONTINUOUS
 62
     7
100
AcDbVertex
100
AcDb2dVertex
 10
-91.0
 20
-82.0
 30
0.0
  0
VERTEX
  5
530
100
AcDbEntity
  8
0
  6
CONTINUOUS
 62
     7
100
AcDbVertex
100
AcDb2dVertex
 10
-139.30947
 20
-82.0
 30
0.0
  0
SEQEND
  5
531
100
AcDbEntity
  8
0
 62
     7
  0
POLYLINE
  5
532
100
AcDbEntity
  8
0
  6
CONTINUOUS
 62
     7
100
AcDb2dPolyline
 66
     1
 10
0.0
 20
0.0
 30
0.0
  0
VERTEX
  5
533
100
AcDbEntity
  8
0
  6
CONTINUOUS
 62
     7
100
AcDbVertex
100
AcDb2dVertex
 10
-91.0
 20
-128.0
 30
0.0
  0
VERTEX
  5
534
100
AcDbEntity
  8
0
  6
CONTINUOUS
 62
     7
100
AcDbVertex
100
AcDb2dVertex
 10
-139.30947
 20
-128.0
 30
0.0
  0
SEQEND
  5
535
100
AcDbEntity
  8
0
 62
     7
  0
POLYLINE
  5
536
100
AcDbEntity
  8
0
  6
CONTINUOUS
 62
     7
100
AcDb2dPolyline
 66
     1
 10
0.0
 20
0.0
 30
0.0
  0
VERTEX
  5
537
100
AcDbEntity
  8
0
  6
CONTINUOUS
 62
     7
100
AcDbVertex
100
AcDb2dVertex
 10
-91.0
 20
-91.0
 30
0.0
  0
VERTEX
  5
538
100
AcDbEntity
  8
0
  6
CONTINUOUS
 62
     7
100
AcDbVertex
100
AcDb2dVertex
 10
-91.0
 20
-80.0
 30
0.0
  0
SEQEND
  5
539
100
AcDbEntity
  8
0
 62
     7
  0
POLYLINE
  5
53A
100
AcDbEntity
  8
0
  6
CONTINUOUS
 62
     7
100
AcDb2dPolyline
 66
     1
 10
0.0
 20
0.0
 30
0.0
  0
VERTEX
  5
53B
100
AcDbEntity
  8
0
  6
CONTINUOUS
 62
     7
100
AcDbVertex
100
AcDb2dVertex
 10
-91.0
 20
-119.0
 30
0.0
  0
VERTEX
  5
53C
100
AcDbEntity
  8
0
  6
CONTINUOUS
 62
     7
100
AcDbVertex
100
AcDb2dVertex
 10
-91.0
 20
-130.0
 30
0.0
  0
SEQEND
  5
53D
100
AcDbEntity
  8
0
 62
     7
  0
POINT
  5
53E
100
AcDbEntity
  8
0
  6
CONTINUOUS
 62
     7
100
AcDbPoint
 10
-34.0
 20
2.0
 30
0.0
  0
POINT
  5
53F
100
AcDbEntity
  8
0
  6
CONTINUOUS
 62
     7
100
AcDbPoint
 10
0.0
 20
2.0
 30
0.0
  0
LINE
  5
540
100
AcDbEntity
  8
0
  6
CONTINUOUS
 62
     7
100
AcDbLine
 10
6.0
 20
0.0
 30
0.0
 11
-6.0
 21
0.0
 31
0.0
  0
LINE
  5
541
100
AcDbEntity
  8
0
  6
CENTER
 62
     7
100
AcDbLine
 10
-34.0
 20
5.0
 30
0.0
 11
-34.0
 21
-5.0
 31
0.0
  0
LINE
  5
542
100
AcDbEntity
  8
0
  6
CENTER
 62
     7
100
AcDbLine
 10
0.0
 20
5.0
 30
0.0
 11
0.0
 21
-5.0
 31
0.0
  0
LINE
  5
543
100
AcDbEntity
  8
0
  6
CONTINUOUS
 62
     7
100
AcDbLine
 10
-28.0
 20
0.0
 30
0.0
 11
-28.0
 21
2.0
 31
0.0
  0
LINE
  5
544
100
AcDbEntity
  8
0
  6
CONTINUOUS
 62
     7
100
AcDbLine
 10
6.0
 20
0.0
 30
0.0
 11
6.0
 21
-20.0
 31
0.0
  0
LINE
  5
545
100
AcDbEntity
  8
0
  6
CONTINUOUS
 62
     7
100
AcDbLine
 10
8.0
 20
2.0
 30
0.0
 11
8.0
 21
-20.0
 31
0.0
  0
LINE
  5
546
100
AcDbEntity
  8
0
  6
CONTINUOUS
 62
     7
100
AcDbLine
 10
-34.5
 20
-2.0
 30
0.0
 11
0.5
 21
-2.0
 31
0.0
  0
LINE
  5
547
100
AcDbEntity
  8
0
  6
CONTINUOUS
 62
     7
100
AcDbLine
 10
-37.0
 20
0.0
 30
0.0
 11
-37.0
 21
-20.0
 31
0.0
  0
LINE
  5
548
100
AcDbEntity
  8
0
  6
CONTINUOUS
 62
     7
100
AcDbLine
 10
-40.0
 20
0.0
 30
0.0
 11
-40.0
 21
-20.0
 31
0.0
  0
LINE
  5
549
100
AcDbEntity
  8
0
  6
CONTINUOUS
 62
     7
100
AcDbLine
 10
-42.0
 20
2.0
 30
0.0
 11
-42.0
 21
-20.0
 31
0.0
  0
LINE
  5
54A
100
AcDbEntity
  8
0
  6
CONTINUOUS
 62
     7
100
AcDbLine
 10
3.0
 20
0.0
 30
0.0
 11
3.0
 21
-20.0
 31
0.0
  0
LINE
  5
54B
100
AcDbEntity
  8
0
  6
CONTINUOUS
 62
     7
100
AcDbLine
 10
-47.0
 20
2.0
 30
0.0
 11
13.0
 21
2.0
 31
0.0
  0
LINE
  5
54C
100
AcDbEntity
  8
0
  6
CONTINUOUS
 62
     7
100
AcDbLine
 10
-6.0
 20
0.0
 30
0.0
 11
-6.0
 21
2.0
 31
0.0
  0
LINE
  5
54D
100
AcDbEntity
  8
0
  6
CONTINUOUS
 62
     7
100
AcDbLine
 10
-47.0
 20
-20.0
 30
0.0
 11
-37.0
 21
-20.0
 31
0.0
  0
LINE
  5
54E
100
AcDbEntity
  8
0
  6
CONTINUOUS
 62
     7
100
AcDbLine
 10
13.0
 20
2.0
 30
0.0
 11
13.0
 21
-20.0
 31
0.0
  0
LINE
  5
54F
100
AcDbEntity
  8
0
  6
CONTINUOUS
 62
     7
100
AcDbLine
 10
13.0
 20
-20.0
 30
0.0
 11
3.0
 21
-20.0
 31
0.0
  0
LINE
  5
550
100
AcDbEntity
  8
0
  6
CONTINUOUS
 62
     7
100
AcDbLine
 10
-47.0
 20
2.0
 30
0.0
 11
-47.0
 21
-20.0
 31
0.0
  0
LINE
  5
551
100
AcDbEntity
  8
0
  6
CONTINUOUS
 62
     7
100
AcDbLine
 10
3.0
 20
-16.0
 30
0.0
 11
-37.0
 21
-16.0
 31
0.0
  0
LINE
  5
552
100
AcDbEntity
  8
0
  6
CONTINUOUS
 62
     7
100
AcDbLine
 10
3.0
 20
-19.5
 30
0.0
 11
-37.0
 21
-19.5
 31
0.0
  0
LINE
  5
553
100
AcDbEntity
  8
0
  6
CENTER
 62
     7
100
AcDbLine
 10
16.0
 20
-9.0
 30
0.0
 11
-50.0
 21
-9.0
 31
0.0
  0
LINE
  5
554
100
AcDbEntity
  8
0
  6
CENTER
 62
     7
100
AcDbLine
 10
-17.0
 20
-27.0
 30
0.0
 11
-17.0
 21
9.0
 31
0.0
  0
LINE
  5
555
100
AcDbEntity
  8
0
  6
CONTINUOUS
 62
     7
100
AcDbLine
 10
-40.0
 20
0.0
 30
0.0
 11
-28.0
 21
0.0
 31
0.0
  0
ARC
  5
556
100
AcDbEntity
  8
0
  6
CONTINUOUS
 62
     7
100
AcDbCircle
 10
-34.5
 20
-4.5
 30
0.0
 40
2.5
100
AcDbArc
 50
89.999996
 51
180.00001
  0
ARC
  5
557
100
AcDbEntity
  8
0
  6
CONTINUOUS
 62
     7
100
AcDbCircle
 10
0.5
 20
-4.5
 30
0.0
 40
2.5
100
AcDbArc
 50
0.0
 51
90.000003
  0
POINT
  5
558
100
AcDbEntity
  8
0
  6
CONTINUOUS
 62
     7
100
AcDbPoint
 10
114.0
 20
56.0
 30
0.0
  0
POINT
  5
559
100
AcDbEntity
  8
0
  6
CONTINUOUS
 62
     7
100
AcDbPoint
 10
132.0
 20
56.0
 30
0.0
  0
LINE
  5
55A
100
AcDbEntity
  8
0
  6
CONTINUOUS
 62
     7
100
AcDbLine
 10
107.0
 20
62.0
 30
0.0
 11
107.0
 21
53.0
 31
0.0
  0
LINE
  5
55B
100
AcDbEntity
  8
0
  6
CONTINUOUS
 62
     7
100
AcDbLine
 10
69.309475
 20
112.0
 30
0.0
 11
69.309475
 21
117.0
 31
0.0
  0
LINE
  5
55C
100
AcDbEntity
  8
0
  6
CONTINUOUS
 62
     7
100
AcDbLine
 10
139.0
 20
64.0
 30
0.0
 11
90.690525
 21
64.0
 31
0.0
  0
LINE
  5
55D
100
AcDbEntity
  8
0
  6
CENTER
 62
     7
100
AcDbLine
 10
132.0
 20
60.9
 30
0.0
 11
132.0
 21
51.1
 31
0.0
  0
LINE
  5
55E
100
AcDbEntity
  8
0
  6
CENTER
 62
     7
100
AcDbLine
 10
118.9
 20
56.0
 30
0.0
 11
109.1
 21
56.0
 31
0.0
  0
LINE
  5
55F
100
AcDbEntity
  8
0
  6
CONTINUOUS
 62
     7
100
AcDbLine
 10
110.0
 20
124.0
 30
0.0
 11
136.0
 21
124.0
 31
0.0
  0
LINE
  5
560
100
AcDbEntity
  8
0
  6
CONTINUOUS
 62
     7
100
AcDbLine
 10
89.0
 20
67.0
 30
0.0
 11
89.0
 21
107.0
 31
0.0
  0
LINE
  5
561
100
AcDbEntity
  8
0
  6
CONTINUOUS
 62
     7
100
AcDbLine
 10
71.0
 20
67.0
 30
0.0
 11
71.0
 21
107.0
 31
0.0
  0
LINE
  5
562
100
AcDbEntity
  8
0
  6
CONTINUOUS
 62
     7
100
AcDbLine
 10
69.319454
 20
57.0
 30
0.0
 11
107.0
 21
57.0
 31
0.0
  0
LINE
  5
563
100
AcDbEntity
  8
0
  6
CONTINUOUS
 62
     7
100
AcDbLine
 10
139.0
 20
110.0
 30
0.0
 11
90.690525
 21
110.0
 31
0.0
  0
LINE
  5
564
100
AcDbEntity
  8
0
  6
CENTER
 62
     7
100
AcDbLine
 10
132.0
 20
87.0
 30
0.0
 11
51.690521
 21
87.0
 31
0.0
  0
LINE
  5
565
100
AcDbEntity
  8
0
  6
CONTINUOUS
 62
     7
100
AcDbLine
 10
71.0
 20
67.0
 30
0.0
 11
58.690521
 21
67.0
 31
0.0
  0
LINE
  5
566
100
AcDbEntity
  8
0
  6
CONTINUOUS
 62
     7
100
AcDbLine
 10
90.690525
 20
107.0
 30
0.0
 11
90.690525
 21
112.0
 31
0.0
  0
LINE
  5
567
100
AcDbEntity
  8
0
  6
CONTINUOUS
 62
     7
100
AcDbLine
 10
90.690525
 20
67.0
 30
0.0
 11
89.0
 21
67.0
 31
0.0
  0
LINE
  5
568
100
AcDbEntity
  8
0
  6
CONTINUOUS
 62
     7
100
AcDbLine
 10
69.309475
 20
62.0
 30
0.0
 11
58.690521
 21
62.0
 31
0.0
  0
LINE
  5
569
100
AcDbEntity
  8
0
  6
CONTINUOUS
 62
     7
100
AcDbLine
 10
69.309475
 20
57.0
 30
0.0
 11
69.309475
 21
62.0
 31
0.0
  0
LINE
  5
56A
100
AcDbEntity
  8
0
  6
CONTINUOUS
 62
     7
100
AcDbLine
 10
69.319454
 20
117.0
 30
0.0
 11
107.0
 21
117.0
 31
0.0
  0
LINE
  5
56B
100
AcDbEntity
  8
0
  6
CONTINUOUS
 62
     7
100
AcDbLine
 10
71.0
 20
107.0
 30
0.0
 11
58.690521
 21
107.0
 31
0.0
  0
LINE
  5
56C
100
AcDbEntity
  8
0
  6
CONTINUOUS
 62
     7
100
AcDbLine
 10
90.690525
 20
107.0
 30
0.0
 11
89.0
 21
107.0
 31
0.0
  0
LINE
  5
56D
100
AcDbEntity
  8
0
  6
CONTINUOUS
 62
     7
100
AcDbLine
 10
139.0
 20
112.0
 30
0.0
 11
90.690525
 21
112.0
 31
0.0
  0
LINE
  5
56E
100
AcDbEntity
  8
0
  6
CENTER
 62
     7
100
AcDbLine
 10
64.0
 20
124.0
 30
0.0
 11
64.0
 21
50.0
 31
0.0
  0
LINE
  5
56F
100
AcDbEntity
  8
0
  6
CONTINUOUS
 62
     7
100
AcDbLine
 10
90.690525
 20
62.0
 30
0.0
 11
90.690525
 21
67.0
 31
0.0
  0
LINE
  5
570
100
AcDbEntity
  8
0
  6
CENTER
 62
     7
100
AcDbLine
 10
96.0
 20
124.0
 30
0.0
 11
96.0
 21
50.0
 31
0.0
  0
LINE
  5
571
100
AcDbEntity
  8
0
  6
CONTINUOUS
 62
     7
100
AcDbLine
 10
110.0
 20
50.0
 30
0.0
 11
136.0
 21
50.0
 31
0.0
  0
LINE
  5
572
100
AcDbEntity
  8
0
  6
CONTINUOUS
 62
     7
100
AcDbLine
 10
139.0
 20
62.0
 30
0.0
 11
90.690525
 21
62.0
 31
0.0
  0
LINE
  5
573
100
AcDbEntity
  8
0
  6
CONTINUOUS
 62
     7
100
AcDbLine
 10
69.309475
 20
112.0
 30
0.0
 11
58.690521
 21
112.0
 31
0.0
  0
LINE
  5
574
100
AcDbEntity
  8
0
  6
CENTER
 62
     7
100
AcDbLine
 10
132.0
 20
113.1
 30
0.0
 11
132.0
 21
122.9
 31
0.0
  0
LINE
  5
575
100
AcDbEntity
  8
0
  6
CENTER
 62
     7
100
AcDbLine
 10
136.9
 20
118.0
 30
0.0
 11
127.1
 21
118.0
 31
0.0
  0
LINE
  5
576
100
AcDbEntity
  8
0
  6
CENTER
 62
     7
100
AcDbLine
 10
114.0
 20
113.1
 30
0.0
 11
114.0
 21
122.9
 31
0.0
  0
LINE
  5
577
100
AcDbEntity
  8
0
  6
CENTER
 62
     7
100
AcDbLine
 10
118.9
 20
118.0
 30
0.0
 11
109.1
 21
118.0
 31
0.0
  0
LINE
  5
578
100
AcDbEntity
  8
0
  6
CONTINUOUS
 62
     7
100
AcDbLine
 10
107.0
 20
112.0
 30
0.0
 11
107.0
 21
121.0
 31
0.0
  0
LINE
  5
579
100
AcDbEntity
  8
0
  6
CENTER
 62
     7
100
AcDbLine
 10
136.9
 20
56.0
 30
0.0
 11
127.1
 21
56.0
 31
0.0
  0
LINE
  5
57A
100
AcDbEntity
  8
0
  6
CENTER
 62
     7
100
AcDbLine
 10
114.0
 20
60.9
 30
0.0
 11
114.0
 21
51.1
 31
0.0
  0
CIRCLE
  5
57B
100
AcDbEntity
  8
0
  6
CONTINUOUS
 62
     7
100
AcDbCircle
 10
132.0
 20
118.0
 30
0.0
 40
2.9
  0
CIRCLE
  5
57C
100
AcDbEntity
  8
0
  6
CONTINUOUS
 62
     7
100
AcDbCircle
 10
114.0
 20
118.0
 30
0.0
 40
2.9
  0
ARC
  5
57D
100
AcDbEntity
  8
0
  6
CONTINUOUS
 62
     7
100
AcDbCircle
 10
136.0
 20
121.0
 30
0.0
 40
3.0
100
AcDbArc
 50
0.000005
 51
90.000003
  0
ARC
  5
57E
100
AcDbEntity
  8
0
  6
CONTINUOUS
 62
     7
100
AcDbCircle
 10
110.0
 20
121.0
 30
0.0
 40
3.0
100
AcDbArc
 50
89.999996
 51
180.00001
  0
ARC
  5
57F
100
AcDbEntity
  8
0
  6
CONTINUOUS
 62
     7
100
AcDbCircle
 10
110.0
 20
53.0
 30
0.0
 40
3.0
100
AcDbArc
 50
179.99999
 51
270.0
  0
ARC
  5
580
100
AcDbEntity
  8
0
  6
CONTINUOUS
 62
     7
100
AcDbCircle
 10
136.0
 20
53.0
 30
0.0
 40
3.0
100
AcDbArc
 50
270.0
 51
359.99999
  0
CIRCLE
  5
581
100
AcDbEntity
  8
0
  6
CONTINUOUS
 62
     7
100
AcDbCircle
 10
132.0
 20
56.0
 30
0.0
 40
2.9
  0
CIRCLE
  5
582
100
AcDbEntity
  8
0
  6
CONTINUOUS
 62
     7
100
AcDbCircle
 10
114.0
 20
56.0
 30
0.0
 40
2.9
  0
POLYLINE
  5
583
100
AcDbEntity
  8
0
  6
CONTINUOUS
 62
     7
100
AcDb2dPolyline
 66
     1
 10
0.0
 20
0.0
 30
0.0
  0
VERTEX
  5
584
100
AcDbEntity
  8
0
  6
CONTINUOUS
 62
     7
100
AcDbVertex
100
AcDb2dVertex
 10
139.0
 20
121.0
 30
0.0
  0
VERTEX
  5
585
100
AcDbEntity
  8
0
  6
CONTINUOUS
 62
     7
100
AcDbVertex
100
AcDb2dVertex
 10
139.0
 20
110.0
 30
0.0
  0
SEQEND
  5
586
100
AcDbEntity
  8
0
 62
     7
  0
POLYLINE
  5
587
100
AcDbEntity
  8
0
  6
CONTINUOUS
 62
     7
100
AcDb2dPolyline
 66
     1
 10
0.0
 20
0.0
 30
0.0
  0
VERTEX
  5
588
100
AcDbEntity
  8
0
  6
CONTINUOUS
 62
     7
100
AcDbVertex
100
AcDb2dVertex
 10
139.0
 20
53.0
 30
0.0
  0
VERTEX
  5
589
100
AcDbEntity
  8
0
  6
CONTINUOUS
 62
     7
100
AcDbVertex
100
AcDb2dVertex
 10
139.0
 20
64.0
 30
0.0
  0
SEQEND
  5
58A
100
AcDbEntity
  8
0
 62
     7
  0
POINT
  5
58B
100
AcDbEntity
  8
0
  6
CONTINUOUS
 62
     7
100
AcDbPoint
 10
114.0
 20
-20.0
 30
0.0
  0
POINT
  5
58C
100
AcDbEntity
  8
0
  6
CONTINUOUS
 62
     7
100
AcDbPoint
 10
132.0
 20
-20.0
 30
0.0
  0
LINE
  5
58D
100
AcDbEntity
  8
0
  6
CONTINUOUS
 62
     7
100
AcDbLine
 10
107.0
 20
-18.0
 30
0.0
 11
139.0
 21
-18.0
 31
0.0
  0
LINE
  5
58E
100
AcDbEntity
  8
0
  6
CONTINUOUS
 62
     7
100
AcDbLine
 10
102.0
 20
-20.0
 30
0.0
 11
64.0
 21
-20.0
 31
0.0
  0
LINE
  5
58F
100
AcDbEntity
  8
0
  6
CONTINUOUS
 62
     7
100
AcDbLine
 10
66.5
 20
-12.122499
 30
0.0
 11
66.5
 21
-5.877501
 31
0.0
  0
LINE
  5
590
100
AcDbEntity
  8
0
  6
CONTINUOUS
 62
     7
100
AcDbLine
 10
96.0
 20
2.0
 30
0.0
 11
64.0
 21
2.0
 31
0.0
  0
LINE
  5
591
100
AcDbEntity
  8
0
  6
CONTINUOUS
 62
     7
100
AcDbLine
 10
72.744667
 20
-1.531347
 30
0.0
 11
70.432995
 21
1.175276
 31
0.0
  0
LINE
  5
592
100
AcDbEntity
  8
0
  6
CENTER
 62
     7
100
AcDbLine
 10
96.0
 20
-15.0
 30
0.0
 11
96.0
 21
-3.0
 31
0.0
  0
LINE
  5
593
100
AcDbEntity
  8
0
  6
CENTER
 62
     7
100
AcDbLine
 10
64.0
 20
-15.0
 30
0.0
 11
64.0
 21
-3.0
 31
0.0
  0
LINE
  5
594
100
AcDbEntity
  8
0
  6
CENTER
 62
     7
100
AcDbLine
 10
90.0
 20
-9.0
 30
0.0
 11
102.0
 21
-9.0
 31
0.0
  0
LINE
  5
595
100
AcDbEntity
  8
0
  6
CONTINUOUS
 62
     7
100
AcDbLine
 10
99.756559
 20
1.338678
 30
0.0
 11
132.6171
 21
-10.601202
 31
0.0
  0
LINE
  5
596
100
AcDbEntity
  8
0
  6
CONTINUOUS
 62
     7
100
AcDbLine
 10
139.0
 20
-20.0
 30
0.0
 11
139.0
 21
-18.0
 31
0.0
  0
LINE
  5
597
100
AcDbEntity
  8
0
  6
CONTINUOUS
 62
     7
100
AcDbLine
 10
107.0
 20
-20.0
 30
0.0
 11
107.0
 21
-18.0
 31
0.0
  0
LINE
  5
598
100
AcDbEntity
  8
0
  6
CENTER
 62
     7
100
AcDbLine
 10
114.0
 20
-23.0
 30
0.0
 11
114.0
 21
-15.0
 31
0.0
  0
LINE
  5
599
100
AcDbEntity
  8
0
  6
CENTER
 62
     7
100
AcDbLine
 10
58.0
 20
-9.0
 30
0.0
 11
70.0
 21
-9.0
 31
0.0
  0
LINE
  5
59A
100
AcDbEntity
  8
0
  6
CENTER
 62
     7
100
AcDbLine
 10
132.0
 20
-23.0
 30
0.0
 11
132.0
 21
-15.0
 31
0.0
  0
ARC
  5
59B
100
AcDbEntity
  8
0
  6
CONTINUOUS
 62
     7
100
AcDbCircle
 10
104.5
 20
-20.0
 30
0.0
 40
2.5
100
AcDbArc
 50
0.0
 51
180.00001
  0
ARC
  5
59C
100
AcDbEntity
  8
0
  6
CONTINUOUS
 62
     7
100
AcDbCircle
 10
70.813198
 20
1.5
 30
0.0
 40
0.5
100
AcDbArc
 50
90.000003
 51
220.49999
  0
ARC
  5
59D
100
AcDbEntity
  8
0
  6
CONTINUOUS
 62
     7
100
AcDbCircle
 10
69.809475
 20
-19.5
 30
0.0
 40
0.5
100
AcDbArc
 50
118.95503
 51
270.0
  0
ARC
  5
59E
100
AcDbEntity
  8
0
  6
CONTINUOUS
 62
     7
100
AcDbCircle
 10
96.0
 20
-9.0
 30
0.0
 40
11.0
100
AcDbArc
 50
270.0
 51
90.000003
  0
ARC
  5
59F
100
AcDbEntity
  8
0
  6
CONTINUOUS
 62
     7
100
AcDbCircle
 10
64.0
 20
-9.0
 30
0.0
 40
11.5
100
AcDbArc
 50
298.95503
 51
40.499999
  0
CIRCLE
  5
5A0
100
AcDbEntity
  8
0
  6
CONTINUOUS
 62
     7
100
AcDbCircle
 10
64.0
 20
-9.0
 30
0.0
 40
4.0
  0
ARC
  5
5A1
100
AcDbEntity
  8
0
  6
CONTINUOUS
 62
     7
100
AcDbCircle
 10
129.20204
 20
-20.0
 30
0.0
 40
10.0
100
AcDbArc
 50
11.536959
 51
70.031378
  0
CIRCLE
  5
5A2
100
AcDbEntity
  8
0
  6
CONTINUOUS
 62
     7
100
AcDbCircle
 10
96.0
 20
-9.0
 30
0.0
 40
4.0
  0
POLYLINE
  5
5A3
100
AcDbEntity
  8
0
  6
CONTINUOUS
 62
     7
100
AcDb2dPolyline
 66
     1
 10
0.0
 20
0.0
 30
0.0
  0
VERTEX
  5
5A4
100
AcDbEntity
  8
0
  6
CONTINUOUS
 62
     7
100
AcDbVertex
100
AcDb2dVertex
 10
107.00521
 20
-20.0
 30
0.0
  0
VERTEX
  5
5A5
100
AcDbEntity
  8
0
  6
CONTINUOUS
 62
     7
100
AcDbVertex
100
AcDb2dVertex
 10
139.0
 20
-20.0
 30
0.0
  0
SEQEND
  5
5A6
100
AcDbEntity
  8
0
 62
     7
  0
POINT
  5
5A7
100
AcDbEntity
  8
0
  6
CONTINUOUS
 62
     7
100
AcDbPoint
 10
114.0
 20
-74.0
 30
0.0
  0
POINT
  5
5A8
100
AcDbEntity
  8
0
  6
CONTINUOUS
 62
     7
100
AcDbPoint
 10
132.0
 20
-74.0
 30
0.0
  0
LINE
  5
5A9
100
AcDbEntity
  8
0
  6
CONTINUOUS
 62
     7
100
AcDbLine
 10
107.0
 20
-82.0
 30
0.0
 11
107.0
 21
-71.0
 31
0.0
  0
LINE
  5
5AA
100
AcDbEntity
  8
0
  6
CENTER
 62
     7
100
AcDbLine
 10
118.9
 20
-74.0
 30
0.0
 11
109.1
 21
-74.0
 31
0.0
  0
LINE
  5
5AB
100
AcDbEntity
  8
0
  6
CENTER
 62
     7
100
AcDbLine
 10
114.0
 20
-78.9
 30
0.0
 11
114.0
 21
-69.1
 31
0.0
  0
LINE
  5
5AC
100
AcDbEntity
  8
0
  6
CENTER
 62
     7
100
AcDbLine
 10
136.9
 20
-74.0
 30
0.0
 11
127.1
 21
-74.0
 31
0.0
  0
LINE
  5
5AD
100
AcDbEntity
  8
0
  6
CENTER
 62
     7
100
AcDbLine
 10
132.0
 20
-78.9
 30
0.0
 11
132.0
 21
-69.1
 31
0.0
  0
LINE
  5
5AE
100
AcDbEntity
  8
0
  6
CONTINUOUS
 62
     7
100
AcDbLine
 10
76.0
 20
-133.2
 30
0.0
 11
76.0
 21
-125.0
 31
0.0
  0
LINE
  5
5AF
100
AcDbEntity
  8
0
  6
CONTINUOUS
 62
     7
100
AcDbLine
 10
72.5
 20
-125.0
 30
0.0
 11
72.5
 21
-85.0
 31
0.0
  0
LINE
  5
5B0
100
AcDbEntity
  8
0
  6
CONTINUOUS
 62
     7
100
AcDbLine
 10
84.0
 20
-133.2
 30
0.0
 11
84.0
 21
-125.0
 31
0.0
  0
LINE
  5
5B1
100
AcDbEntity
  8
0
  6
CONTINUOUS
 62
     7
100
AcDbLine
 10
84.0
 20
-133.2
 30
0.0
 11
76.0
 21
-133.2
 31
0.0
  0
LINE
  5
5B2
100
AcDbEntity
  8
0
  6
CONTINUOUS
 62
     7
100
AcDbLine
 10
69.309475
 20
-80.0
 30
0.0
 11
58.690521
 21
-80.0
 31
0.0
  0
LINE
  5
5B3
100
AcDbEntity
  8
0
  6
CONTINUOUS
 62
     7
100
AcDbLine
 10
107.0
 20
-130.0
 30
0.0
 11
90.690525
 21
-130.0
 31
0.0
  0
LINE
  5
5B4
100
AcDbEntity
  8
0
  6
CONTINUOUS
 62
     7
100
AcDbLine
 10
110.0
 20
-142.0
 30
0.0
 11
136.0
 21
-142.0
 31
0.0
  0
LINE
  5
5B5
100
AcDbEntity
  8
0
  6
CENTER
 62
     7
100
AcDbLine
 10
96.0
 20
-68.0
 30
0.0
 11
96.0
 21
-142.0
 31
0.0
  0
LINE
  5
5B6
100
AcDbEntity
  8
0
  6
CONTINUOUS
 62
     7
100
AcDbLine
 10
90.690525
 20
-130.0
 30
0.0
 11
90.690525
 21
-125.0
 31
0.0
  0
LINE
  5
5B7
100
AcDbEntity
  8
0
  6
CENTER
 62
     7
100
AcDbLine
 10
64.0
 20
-68.0
 30
0.0
 11
64.0
 21
-142.0
 31
0.0
  0
LINE
  5
5B8
100
AcDbEntity
  8
0
  6
CONTINUOUS
 62
     7
100
AcDbLine
 10
84.0
 20
-76.8
 30
0.0
 11
76.0
 21
-76.8
 31
0.0
  0
LINE
  5
5B9
100
AcDbEntity
  8
0
  6
CONTINUOUS
 62
     7
100
AcDbLine
 10
107.0
 20
-80.0
 30
0.0
 11
90.690525
 21
-80.0
 31
0.0
  0
LINE
  5
5BA
100
AcDbEntity
  8
0
  6
CONTINUOUS
 62
     7
100
AcDbLine
 10
90.690525
 20
-85.0
 30
0.0
 11
84.0
 21
-85.0
 31
0.0
  0
LINE
  5
5BB
100
AcDbEntity
  8
0
  6
CONTINUOUS
 62
     7
100
AcDbLine
 10
76.0
 20
-85.0
 30
0.0
 11
58.690521
 21
-85.0
 31
0.0
  0
LINE
  5
5BC
100
AcDbEntity
  8
0
  6
CONTINUOUS
 62
     7
100
AcDbLine
 10
69.319454
 20
-75.0
 30
0.0
 11
107.0
 21
-75.0
 31
0.0
  0
LINE
  5
5BD
100
AcDbEntity
  8
0
  6
CONTINUOUS
 62
     7
100
AcDbLine
 10
69.309475
 20
-135.0
 30
0.0
 11
69.309475
 21
-130.0
 31
0.0
  0
LINE
  5
5BE
100
AcDbEntity
  8
0
  6
CONTINUOUS
 62
     7
100
AcDbLine
 10
69.309475
 20
-130.0
 30
0.0
 11
58.690521
 21
-130.0
 31
0.0
  0
LINE
  5
5BF
100
AcDbEntity
  8
0
  6
CONTINUOUS
 62
     7
100
AcDbLine
 10
90.690525
 20
-125.0
 30
0.0
 11
84.0
 21
-125.0
 31
0.0
  0
LINE
  5
5C0
100
AcDbEntity
  8
0
  6
CONTINUOUS
 62
     7
100
AcDbLine
 10
84.0
 20
-77.5
 30
0.0
 11
76.0
 21
-77.5
 31
0.0
  0
LINE
  5
5C1
100
AcDbEntity
  8
0
  6
CENTER
 62
     7
100
AcDbLine
 10
86.0
 20
-81.0
 30
0.0
 11
74.0
 21
-81.0
 31
0.0
  0
LINE
  5
5C2
100
AcDbEntity
  8
0
  6
CONTINUOUS
 62
     7
100
AcDbLine
 10
76.0
 20
-76.799011
 30
0.0
 11
76.0
 21
-85.0
 31
0.0
  0
LINE
  5
5C3
100
AcDbEntity
  8
0
  6
CONTINUOUS
 62
     7
100
AcDbLine
 10
90.690525
 20
-85.0
 30
0.0
 11
90.690525
 21
-80.0
 31
0.0
  0
LINE
  5
5C4
100
AcDbEntity
  8
0
  6
CONTINUOUS
 62
     7
100
AcDbLine
 10
76.0
 20
-125.0
 30
0.0
 11
58.690521
 21
-125.0
 31
0.0
  0
LINE
  5
5C5
100
AcDbEntity
  8
0
  6
CENTER
 62
     7
100
AcDbLine
 10
132.0
 20
-105.0
 30
0.0
 11
51.690521
 21
-105.0
 31
0.0
  0
LINE
  5
5C6
100
AcDbEntity
  8
0
  6
CONTINUOUS
 62
     7
100
AcDbLine
 10
139.0
 20
-82.0
 30
0.0
 11
90.690525
 21
-82.0
 31
0.0
  0
LINE
  5
5C7
100
AcDbEntity
  8
0
  6
CONTINUOUS
 62
     7
100
AcDbLine
 10
69.319454
 20
-135.0
 30
0.0
 11
107.0
 21
-135.0
 31
0.0
  0
LINE
  5
5C8
100
AcDbEntity
  8
0
  6
CONTINUOUS
 62
     7
100
AcDbLine
 10
84.0
 20
-132.5
 30
0.0
 11
76.0
 21
-132.5
 31
0.0
  0
LINE
  5
5C9
100
AcDbEntity
  8
0
  6
CENTER
 62
     7
100
AcDbLine
 10
86.0
 20
-129.0
 30
0.0
 11
74.0
 21
-129.0
 31
0.0
  0
LINE
  5
5CA
100
AcDbEntity
  8
0
  6
CONTINUOUS
 62
     7
100
AcDbLine
 10
87.5
 20
-125.0
 30
0.0
 11
87.5
 21
-85.0
 31
0.0
  0
LINE
  5
5CB
100
AcDbEntity
  8
0
  6
CONTINUOUS
 62
     7
100
AcDbLine
 10
71.0
 20
-125.0
 30
0.0
 11
71.0
 21
-85.0
 31
0.0
  0
LINE
  5
5CC
100
AcDbEntity
  8
0
  6
CONTINUOUS
 62
     7
100
AcDbLine
 10
89.0
 20
-125.0
 30
0.0
 11
89.0
 21
-85.0
 31
0.0
  0
LINE
  5
5CD
100
AcDbEntity
  8
0
  6
CONTINUOUS
 62
     7
100
AcDbLine
 10
84.0
 20
-76.799011
 30
0.0
 11
84.0
 21
-85.0
 31
0.0
  0
LINE
  5
5CE
100
AcDbEntity
  8
0
  6
CONTINUOUS
 62
     7
100
AcDbLine
 10
110.0
 20
-68.0
 30
0.0
 11
136.0
 21
-68.0
 31
0.0
  0
LINE
  5
5CF
100
AcDbEntity
  8
0
  6
CONTINUOUS
 62
     7
100
AcDbLine
 10
139.0
 20
-128.0
 30
0.0
 11
90.690525
 21
-128.0
 31
0.0
  0
LINE
  5
5D0
100
AcDbEntity
  8
0
  6
CENTER
 62
     7
100
AcDbLine
 10
132.0
 20
-131.1
 30
0.0
 11
132.0
 21
-140.9
 31
0.0
  0
LINE
  5
5D1
100
AcDbEntity
  8
0
  6
CENTER
 62
     7
100
AcDbLine
 10
136.9
 20
-136.0
 30
0.0
 11
127.1
 21
-136.0
 31
0.0
  0
LINE
  5
5D2
100
AcDbEntity
  8
0
  6
CENTER
 62
     7
100
AcDbLine
 10
114.0
 20
-131.1
 30
0.0
 11
114.0
 21
-140.9
 31
0.0
  0
LINE
  5
5D3
100
AcDbEntity
  8
0
  6
CENTER
 62
     7
100
AcDbLine
 10
118.9
 20
-136.0
 30
0.0
 11
109.1
 21
-136.0
 31
0.0
  0
LINE
  5
5D4
100
AcDbEntity
  8
0
  6
CONTINUOUS
 62
     7
100
AcDbLine
 10
69.309475
 20
-80.0
 30
0.0
 11
69.309475
 21
-75.0
 31
0.0
  0
LINE
  5
5D5
100
AcDbEntity
  8
0
  6
CONTINUOUS
 62
     7
100
AcDbLine
 10
107.0
 20
-128.0
 30
0.0
 11
107.0
 21
-139.0
 31
0.0
  0
CIRCLE
  5
5D6
100
AcDbEntity
  8
0
  6
CONTINUOUS
 62
     7
100
AcDbCircle
 10
114.0
 20
-136.0
 30
0.0
 40
2.9
  0
CIRCLE
  5
5D7
100
AcDbEntity
  8
0
  6
CONTINUOUS
 62
     7
100
AcDbCircle
 10
132.0
 20
-136.0
 30
0.0
 40
2.9
  0
ARC
  5
5D8
100
AcDbEntity
  8
0
  6
CONTINUOUS
 62
     7
100
AcDbCircle
 10
136.0
 20
-139.0
 30
0.0
 40
3.0
100
AcDbArc
 50
270.0
 51
359.99999
  0
ARC
  5
5D9
100
AcDbEntity
  8
0
  6
CONTINUOUS
 62
     7
100
AcDbCircle
 10
110.0
 20
-139.0
 30
0.0
 40
3.0
100
AcDbArc
 50
179.99999
 51
270.0
  0
ARC
  5
5DA
100
AcDbEntity
  8
0
  6
CONTINUOUS
 62
     7
100
AcDbCircle
 10
110.0
 20
-71.0
 30
0.0
 40
3.0
100
AcDbArc
 50
89.999996
 51
180.00001
  0
ARC
  5
5DB
100
AcDbEntity
  8
0
  6
CONTINUOUS
 62
     7
100
AcDbCircle
 10
136.0
 20
-71.0
 30
0.0
 40
3.0
100
AcDbArc
 50
0.000005
 51
90.000003
  0
CIRCLE
  5
5DC
100
AcDbEntity
  8
0
  6
CONTINUOUS
 62
     7
100
AcDbCircle
 10
132.0
 20
-74.0
 30
0.0
 40
2.9
  0
CIRCLE
  5
5DD
100
AcDbEntity
  8
0
  6
CONTINUOUS
 62
     7
100
AcDbCircle
 10
114.0
 20
-74.0
 30
0.0
 40
2.9
  0
POLYLINE
  5
5DE
100
AcDbEntity
  8
0
  6
CONTINUOUS
 62
     7
100
AcDb2dPolyline
 66
     1
 10
0.0
 20
0.0
 30
0.0
  0
VERTEX
  5
5DF
100
AcDbEntity
  8
0
  6
CONTINUOUS
 62
     7
100
AcDbVertex
100
AcDb2dVertex
 10
139.0
 20
-139.0
 30
0.0
  0
VERTEX
  5
5E0
100
AcDbEntity
  8
0
  6
CONTINUOUS
 62
     7
100
AcDbVertex
100
AcDb2dVertex
 10
139.0
 20
-128.0
 30
0.0
  0
SEQEND
  5
5E1
100
AcDbEntity
  8
0
 62
     7
  0
POLYLINE
  5
5E2
100
AcDbEntity
  8
0
  6
CONTINUOUS
 62
     7
100
AcDb2dPolyline
 66
     1
 10
0.0
 20
0.0
 30
0.0
  0
VERTEX
  5
5E3
100
AcDbEntity
  8
0
  6
CONTINUOUS
 62
     7
100
AcDbVertex
100
AcDb2dVertex
 10
139.0
 20
-71.0
 30
0.0
  0
VERTEX
  5
5E4
100
AcDbEntity
  8
0
  6
CONTINUOUS
 62
     7
100
AcDbVertex
100
AcDb2dVertex
 10
139.0
 20
-82.0
 30
0.0
  0
SEQEND
  5
5E5
100
AcDbEntity
  8
0
 62
     7
  0
POINT
  5
5E6
100
AcDbEntity
  8
0
  6
CONTINUOUS
 62
     7
100
AcDbPoint
 10
184.0
 20
-20.0
 30
0.0
  0
POINT
  5
5E7
100
AcDbEntity
  8
0
  6
CONTINUOUS
 62
     7
100
AcDbPoint
 10
246.0
 20
-20.0
 30
0.0
  0
LINE
  5
5E8
100
AcDbEntity
  8
0
  6
CONTINUOUS
 62
     7
100
AcDbLine
 10
252.0
 20
-18.0
 30
0.0
 11
252.0
 21
-20.0
 31
0.0
  0
LINE
  5
5E9
100
AcDbEntity
  8
0
  6
CENTER
 62
     7
100
AcDbLine
 10
246.0
 20
-23.0
 30
0.0
 11
246.0
 21
-13.0
 31
0.0
  0
LINE
  5
5EA
100
AcDbEntity
  8
0
  6
CONTINUOUS
 62
     7
100
AcDbLine
 10
238.0
 20
2.0
 30
0.0
 11
238.0
 21
-20.0
 31
0.0
  0
LINE
  5
5EB
100
AcDbEntity
  8
0
  6
CONTINUOUS
 62
     7
100
AcDbLine
 10
178.0
 20
-18.0
 30
0.0
 11
178.0
 21
-20.0
 31
0.0
  0
LINE
  5
5EC
100
AcDbEntity
  8
0
  6
CONTINUOUS
 62
     7
100
AcDbLine
 10
240.0
 20
2.0
 30
0.0
 11
240.0
 21
-18.0
 31
0.0
  0
LINE
  5
5ED
100
AcDbEntity
  8
0
  6
CONTINUOUS
 62
     7
100
AcDbLine
 10
197.5
 20
-2.0
 30
0.0
 11
232.5
 21
-2.0
 31
0.0
  0
LINE
  5
5EE
100
AcDbEntity
  8
0
  6
CONTINUOUS
 62
     7
100
AcDbLine
 10
195.0
 20
2.0
 30
0.0
 11
195.0
 21
-20.0
 31
0.0
  0
LINE
  5
5EF
100
AcDbEntity
  8
0
  6
CONTINUOUS
 62
     7
100
AcDbLine
 10
192.0
 20
2.0
 30
0.0
 11
192.0
 21
-20.0
 31
0.0
  0
LINE
  5
5F0
100
AcDbEntity
  8
0
  6
CONTINUOUS
 62
     7
100
AcDbLine
 10
190.0
 20
2.0
 30
0.0
 11
190.0
 21
-18.0
 31
0.0
  0
LINE
  5
5F1
100
AcDbEntity
  8
0
  6
CONTINUOUS
 62
     7
100
AcDbLine
 10
235.0
 20
2.0
 30
0.0
 11
235.0
 21
-20.0
 31
0.0
  0
LINE
  5
5F2
100
AcDbEntity
  8
0
  6
CONTINUOUS
 62
     7
100
AcDbLine
 10
185.0
 20
2.0
 30
0.0
 11
245.0
 21
2.0
 31
0.0
  0
LINE
  5
5F3
100
AcDbEntity
  8
0
  6
CONTINUOUS
 62
     7
100
AcDbLine
 10
178.0
 20
-20.0
 30
0.0
 11
195.0
 21
-20.0
 31
0.0
  0
LINE
  5
5F4
100
AcDbEntity
  8
0
  6
CENTER
 62
     7
100
AcDbLine
 10
184.0
 20
-23.0
 30
0.0
 11
184.0
 21
-13.0
 31
0.0
  0
LINE
  5
5F5
100
AcDbEntity
  8
0
  6
CONTINUOUS
 62
     7
100
AcDbLine
 10
245.0
 20
2.0
 30
0.0
 11
245.0
 21
-18.0
 31
0.0
  0
LINE
  5
5F6
100
AcDbEntity
  8
0
  6
CONTINUOUS
 62
     7
100
AcDbLine
 10
252.0
 20
-20.0
 30
0.0
 11
235.0
 21
-20.0
 31
0.0
  0
LINE
  5
5F7
100
AcDbEntity
  8
0
  6
CONTINUOUS
 62
     7
100
AcDbLine
 10
185.0
 20
2.0
 30
0.0
 11
185.0
 21
-18.0
 31
0.0
  0
LINE
  5
5F8
100
AcDbEntity
  8
0
  6
CONTINUOUS
 62
     7
100
AcDbLine
 10
235.0
 20
-16.0
 30
0.0
 11
195.0
 21
-16.0
 31
0.0
  0
LINE
  5
5F9
100
AcDbEntity
  8
0
  6
CONTINUOUS
 62
     7
100
AcDbLine
 10
235.0
 20
-19.5
 30
0.0
 11
195.0
 21
-19.5
 31
0.0
  0
LINE
  5
5FA
100
AcDbEntity
  8
0
  6
CENTER
 62
     7
100
AcDbLine
 10
248.0
 20
-9.0
 30
0.0
 11
182.0
 21
-9.0
 31
0.0
  0
LINE
  5
5FB
100
AcDbEntity
  8
0
  6
CENTER
 62
     7
100
AcDbLine
 10
215.0
 20
-27.0
 30
0.0
 11
215.0
 21
9.0
 31
0.0
  0
LINE
  5
5FC
100
AcDbEntity
  8
0
  6
CONTINUOUS
 62
     7
100
AcDbLine
 10
252.0
 20
-18.0
 30
0.0
 11
240.0
 21
-18.0
 31
0.0
  0
LINE
  5
5FD
100
AcDbEntity
  8
0
  6
CONTINUOUS
 62
     7
100
AcDbLine
 10
178.0
 20
-18.0
 30
0.0
 11
190.0
 21
-18.0
 31
0.0
  0
ARC
  5
5FE
100
AcDbEntity
  8
0
  6
CONTINUOUS
 62
     7
100
AcDbCircle
 10
197.5
 20
-4.5
 30
0.0
 40
2.5
100
AcDbArc
 50
89.999996
 51
180.00001
  0
ARC
  5
5FF
100
AcDbEntity
  8
0
  6
CONTINUOUS
 62
     7
100
AcDbCircle
 10
232.5
 20
-4.5
 30
0.0
 40
2.5
100
AcDbArc
 50
0.0
 51
90.000003
  0
POINT
  5
600
100
AcDbEntity
  8
0
  6
CONTINUOUS
 62
     7
100
AcDbPoint
 10
364.0
 20
56.0
 30
0.0
  0
POINT
  5
601
100
AcDbEntity
  8
0
  6
CONTINUOUS
 62
     7
100
AcDbPoint
 10
382.0
 20
56.0
 30
0.0
  0
LINE
  5
602
100
AcDbEntity
  8
0
  6
CENTER
 62
     7
100
AcDbLine
 10
364.0
 20
60.9
 30
0.0
 11
364.0
 21
51.1
 31
0.0
  0
LINE
  5
603
100
AcDbEntity
  8
0
  6
CENTER
 62
     7
100
AcDbLine
 10
386.9
 20
56.0
 30
0.0
 11
377.1
 21
56.0
 31
0.0
  0
LINE
  5
604
100
AcDbEntity
  8
0
  6
CONTINUOUS
 62
     7
100
AcDbLine
 10
357.0
 20
110.0
 30
0.0
 11
357.0
 21
121.0
 31
0.0
  0
LINE
  5
605
100
AcDbEntity
  8
0
  6
CENTER
 62
     7
100
AcDbLine
 10
368.9
 20
118.0
 30
0.0
 11
359.1
 21
118.0
 31
0.0
  0
LINE
  5
606
100
AcDbEntity
  8
0
  6
CENTER
 62
     7
100
AcDbLine
 10
364.0
 20
113.1
 30
0.0
 11
364.0
 21
122.9
 31
0.0
  0
LINE
  5
607
100
AcDbEntity
  8
0
  6
CENTER
 62
     7
100
AcDbLine
 10
386.9
 20
118.0
 30
0.0
 11
377.1
 21
118.0
 31
0.0
  0
LINE
  5
608
100
AcDbEntity
  8
0
  6
CENTER
 62
     7
100
AcDbLine
 10
382.0
 20
113.1
 30
0.0
 11
382.0
 21
122.9
 31
0.0
  0
LINE
  5
609
100
AcDbEntity
  8
0
  6
CONTINUOUS
 62
     7
100
AcDbLine
 10
319.30947
 20
112.0
 30
0.0
 11
308.69052
 21
112.0
 31
0.0
  0
LINE
  5
60A
100
AcDbEntity
  8
0
  6
CONTINUOUS
 62
     7
100
AcDbLine
 10
357.0
 20
62.0
 30
0.0
 11
340.69053
 21
62.0
 31
0.0
  0
LINE
  5
60B
100
AcDbEntity
  8
0
  6
CONTINUOUS
 62
     7
100
AcDbLine
 10
360.0
 20
50.0
 30
0.0
 11
386.0
 21
50.0
 31
0.0
  0
LINE
  5
60C
100
AcDbEntity
  8
0
  6
CENTER
 62
     7
100
AcDbLine
 10
346.0
 20
124.0
 30
0.0
 11
346.0
 21
50.0
 31
0.0
  0
LINE
  5
60D
100
AcDbEntity
  8
0
  6
CONTINUOUS
 62
     7
100
AcDbLine
 10
340.69053
 20
62.0
 30
0.0
 11
340.69053
 21
67.0
 31
0.0
  0
LINE
  5
60E
100
AcDbEntity
  8
0
  6
CENTER
 62
     7
100
AcDbLine
 10
314.0
 20
124.0
 30
0.0
 11
314.0
 21
50.0
 31
0.0
  0
LINE
  5
60F
100
AcDbEntity
  8
0
  6
CONTINUOUS
 62
     7
100
AcDbLine
 10
357.0
 20
112.0
 30
0.0
 11
340.69053
 21
112.0
 31
0.0
  0
LINE
  5
610
100
AcDbEntity
  8
0
  6
CONTINUOUS
 62
     7
100
AcDbLine
 10
340.69053
 20
107.0
 30
0.0
 11
339.0
 21
107.0
 31
0.0
  0
LINE
  5
611
100
AcDbEntity
  8
0
  6
CONTINUOUS
 62
     7
100
AcDbLine
 10
321.0
 20
107.0
 30
0.0
 11
308.69052
 21
107.0
 31
0.0
  0
LINE
  5
612
100
AcDbEntity
  8
0
  6
CONTINUOUS
 62
     7
100
AcDbLine
 10
319.31945
 20
117.0
 30
0.0
 11
357.0
 21
117.0
 31
0.0
  0
LINE
  5
613
100
AcDbEntity
  8
0
  6
CONTINUOUS
 62
     7
100
AcDbLine
 10
319.30947
 20
57.0
 30
0.0
 11
319.30947
 21
62.0
 31
0.0
  0
LINE
  5
614
100
AcDbEntity
  8
0
  6
CONTINUOUS
 62
     7
100
AcDbLine
 10
319.30947
 20
62.0
 30
0.0
 11
308.69052
 21
62.0
 31
0.0
  0
LINE
  5
615
100
AcDbEntity
  8
0
  6
CONTINUOUS
 62
     7
100
AcDbLine
 10
340.69053
 20
67.0
 30
0.0
 11
339.0
 21
67.0
 31
0.0
  0
LINE
  5
616
100
AcDbEntity
  8
0
  6
CONTINUOUS
 62
     7
100
AcDbLine
 10
340.69053
 20
107.0
 30
0.0
 11
340.69053
 21
112.0
 31
0.0
  0
LINE
  5
617
100
AcDbEntity
  8
0
  6
CONTINUOUS
 62
     7
100
AcDbLine
 10
321.0
 20
67.0
 30
0.0
 11
308.69052
 21
67.0
 31
0.0
  0
LINE
  5
618
100
AcDbEntity
  8
0
  6
CENTER
 62
     7
100
AcDbLine
 10
382.0
 20
87.0
 30
0.0
 11
301.69052
 21
87.0
 31
0.0
  0
LINE
  5
619
100
AcDbEntity
  8
0
  6
CONTINUOUS
 62
     7
100
AcDbLine
 10
389.0
 20
110.0
 30
0.0
 11
340.69053
 21
110.0
 31
0.0
  0
LINE
  5
61A
100
AcDbEntity
  8
0
  6
CONTINUOUS
 62
     7
100
AcDbLine
 10
319.31945
 20
57.0
 30
0.0
 11
357.0
 21
57.0
 31
0.0
  0
LINE
  5
61B
100
AcDbEntity
  8
0
  6
CONTINUOUS
 62
     7
100
AcDbLine
 10
321.0
 20
67.0
 30
0.0
 11
321.0
 21
107.0
 31
0.0
  0
LINE
  5
61C
100
AcDbEntity
  8
0
  6
CONTINUOUS
 62
     7
100
AcDbLine
 10
339.0
 20
67.0
 30
0.0
 11
339.0
 21
107.0
 31
0.0
  0
LINE
  5
61D
100
AcDbEntity
  8
0
  6
CONTINUOUS
 62
     7
100
AcDbLine
 10
360.0
 20
124.0
 30
0.0
 11
386.0
 21
124.0
 31
0.0
  0
LINE
  5
61E
100
AcDbEntity
  8
0
  6
CENTER
 62
     7
100
AcDbLine
 10
368.9
 20
56.0
 30
0.0
 11
359.1
 21
56.0
 31
0.0
  0
LINE
  5
61F
100
AcDbEntity
  8
0
  6
CENTER
 62
     7
100
AcDbLine
 10
382.0
 20
60.9
 30
0.0
 11
382.0
 21
51.1
 31
0.0
  0
LINE
  5
620
100
AcDbEntity
  8
0
  6
CONTINUOUS
 62
     7
100
AcDbLine
 10
389.0
 20
64.0
 30
0.0
 11
340.69053
 21
64.0
 31
0.0
  0
LINE
  5
621
100
AcDbEntity
  8
0
  6
CONTINUOUS
 62
     7
100
AcDbLine
 10
319.30947
 20
112.0
 30
0.0
 11
319.30947
 21
117.0
 31
0.0
  0
LINE
  5
622
100
AcDbEntity
  8
0
  6
CONTINUOUS
 62
     7
100
AcDbLine
 10
357.0
 20
64.0
 30
0.0
 11
357.0
 21
53.0
 31
0.0
  0
CIRCLE
  5
623
100
AcDbEntity
  8
0
  6
CONTINUOUS
 62
     7
100
AcDbCircle
 10
364.0
 20
56.0
 30
0.0
 40
2.9
  0
CIRCLE
  5
624
100
AcDbEntity
  8
0
  6
CONTINUOUS
 62
     7
100
AcDbCircle
 10
382.0
 20
56.0
 30
0.0
 40
2.9
  0
ARC
  5
625
100
AcDbEntity
  8
0
  6
CONTINUOUS
 62
     7
100
AcDbCircle
 10
386.0
 20
53.0
 30
0.0
 40
3.0
100
AcDbArc
 50
270.0
 51
359.99999
  0
ARC
  5
626
100
AcDbEntity
  8
0
  6
CONTINUOUS
 62
     7
100
AcDbCircle
 10
360.0
 20
53.0
 30
0.0
 40
3.0
100
AcDbArc
 50
179.99999
 51
270.0
  0
ARC
  5
627
100
AcDbEntity
  8
0
  6
CONTINUOUS
 62
     7
100
AcDbCircle
 10
360.0
 20
121.0
 30
0.0
 40
3.0
100
AcDbArc
 50
89.999996
 51
180.00001
  0
ARC
  5
628
100
AcDbEntity
  8
0
  6
CONTINUOUS
 62
     7
100
AcDbCircle
 10
386.0
 20
121.0
 30
0.0
 40
3.0
100
AcDbArc
 50
0.000005
 51
90.000003
  0
CIRCLE
  5
629
100
AcDbEntity
  8
0
  6
CONTINUOUS
 62
     7
100
AcDbCircle
 10
364.0
 20
118.0
 30
0.0
 40
2.9
  0
CIRCLE
  5
62A
100
AcDbEntity
  8
0
  6
CONTINUOUS
 62
     7
100
AcDbCircle
 10
382.0
 20
118.0
 30
0.0
 40
2.9
  0
POLYLINE
  5
62B
100
AcDbEntity
  8
0
  6
CONTINUOUS
 62
     7
100
AcDb2dPolyline
 66
     1
 10
0.0
 20
0.0
 30
0.0
  0
VERTEX
  5
62C
100
AcDbEntity
  8
0
  6
CONTINUOUS
 62
     7
100
AcDbVertex
100
AcDb2dVertex
 10
389.0
 20
53.0
 30
0.0
  0
VERTEX
  5
62D
100
AcDbEntity
  8
0
  6
CONTINUOUS
 62
     7
100
AcDbVertex
100
AcDb2dVertex
 10
389.0
 20
64.0
 30
0.0
  0
SEQEND
  5
62E
100
AcDbEntity
  8
0
 62
     7
  0
POLYLINE
  5
62F
100
AcDbEntity
  8
0
  6
CONTINUOUS
 62
     7
100
AcDb2dPolyline
 66
     1
 10
0.0
 20
0.0
 30
0.0
  0
VERTEX
  5
630
100
AcDbEntity
  8
0
  6
CONTINUOUS
 62
     7
100
AcDbVertex
100
AcDb2dVertex
 10
389.0
 20
121.0
 30
0.0
  0
VERTEX
  5
631
100
AcDbEntity
  8
0
  6
CONTINUOUS
 62
     7
100
AcDbVertex
100
AcDb2dVertex
 10
389.0
 20
110.0
 30
0.0
  0
SEQEND
  5
632
100
AcDbEntity
  8
0
 62
     7
  0
POINT
  5
633
100
AcDbEntity
  8
0
  6
CONTINUOUS
 62
     7
100
AcDbPoint
 10
364.0
 20
2.0
 30
0.0
  0
POINT
  5
634
100
AcDbEntity
  8
0
  6
CONTINUOUS
 62
     7
100
AcDbPoint
 10
382.0
 20
2.0
 30
0.0
  0
LINE
  5
635
100
AcDbEntity
  8
0
  6
CONTINUOUS
 62
     7
100
AcDbLine
 10
346.0
 20
-20.0
 30
0.0
 11
314.0
 21
-20.0
 31
0.0
  0
LINE
  5
636
100
AcDbEntity
  8
0
  6
CENTER
 62
     7
100
AcDbLine
 10
382.0
 20
5.0
 30
0.0
 11
382.0
 21
-3.0
 31
0.0
  0
LINE
  5
637
100
AcDbEntity
  8
0
  6
CENTER
 62
     7
100
AcDbLine
 10
308.0
 20
-9.0
 30
0.0
 11
320.0
 21
-9.0
 31
0.0
  0
LINE
  5
638
100
AcDbEntity
  8
0
  6
CENTER
 62
     7
100
AcDbLine
 10
364.0
 20
5.0
 30
0.0
 11
364.0
 21
-3.0
 31
0.0
  0
LINE
  5
639
100
AcDbEntity
  8
0
  6
CONTINUOUS
 62
     7
100
AcDbLine
 10
357.0
 20
2.0
 30
0.0
 11
357.0
 21
0.0
 31
0.0
  0
LINE
  5
63A
100
AcDbEntity
  8
0
  6
CONTINUOUS
 62
     7
100
AcDbLine
 10
389.0
 20
2.0
 30
0.0
 11
389.0
 21
0.0
 31
0.0
  0
LINE
  5
63B
100
AcDbEntity
  8
0
  6
CENTER
 62
     7
100
AcDbLine
 10
314.0
 20
-15.0
 30
0.0
 11
314.0
 21
-3.0
 31
0.0
  0
LINE
  5
63C
100
AcDbEntity
  8
0
  6
CENTER
 62
     7
100
AcDbLine
 10
346.0
 20
-15.0
 30
0.0
 11
346.0
 21
-3.0
 31
0.0
  0
LINE
  5
63D
100
AcDbEntity
  8
0
  6
CONTINUOUS
 62
     7
100
AcDbLine
 10
322.74467
 20
-1.531347
 30
0.0
 11
320.43299
 21
1.175276
 31
0.0
  0
LINE
  5
63E
100
AcDbEntity
  8
0
  6
CONTINUOUS
 62
     7
100
AcDbLine
 10
352.0
 20
2.0
 30
0.0
 11
314.0
 21
2.0
 31
0.0
  0
LINE
  5
63F
100
AcDbEntity
  8
0
  6
CONTINUOUS
 62
     7
100
AcDbLine
 10
316.5
 20
-12.122499
 30
0.0
 11
316.5
 21
-5.877501
 31
0.0
  0
LINE
  5
640
100
AcDbEntity
  8
0
  6
CONTINUOUS
 62
     7
100
AcDbLine
 10
357.0
 20
0.0
 30
0.0
 11
389.0
 21
0.0
 31
0.0
  0
LINE
  5
641
100
AcDbEntity
  8
0
  6
CONTINUOUS
 62
     7
100
AcDbLine
 10
349.75656
 20
-19.338678
 30
0.0
 11
382.6171
 21
-7.398798
 31
0.0
  0
LINE
  5
642
100
AcDbEntity
  8
0
  6
CENTER
 62
     7
100
AcDbLine
 10
340.0
 20
-9.0
 30
0.0
 11
352.0
 21
-9.0
 31
0.0
  0
CIRCLE
  5
643
100
AcDbEntity
  8
0
  6
CONTINUOUS
 62
     7
100
AcDbCircle
 10
346.0
 20
-9.0
 30
0.0
 40
4.0
  0
ARC
  5
644
100
AcDbEntity
  8
0
  6
CONTINUOUS
 62
     7
100
AcDbCircle
 10
379.20204
 20
2.0
 30
0.0
 40
10.0
100
AcDbArc
 50
289.96862
 51
348.46304
  0
CIRCLE
  5
645
100
AcDbEntity
  8
0
  6
CONTINUOUS
 62
     7
100
AcDbCircle
 10
314.0
 20
-9.0
 30
0.0
 40
4.0
  0
ARC
  5
646
100
AcDbEntity
  8
0
  6
CONTINUOUS
 62
     7
100
AcDbCircle
 10
314.0
 20
-9.0
 30
0.0
 40
11.5
100
AcDbArc
 50
298.95503
 51
40.499999
  0
ARC
  5
647
100
AcDbEntity
  8
0
  6
CONTINUOUS
 62
     7
100
AcDbCircle
 10
319.80947
 20
-19.5
 30
0.0
 40
0.5
100
AcDbArc
 50
118.95503
 51
270.0
  0
ARC
  5
648
100
AcDbEntity
  8
0
  6
CONTINUOUS
 62
     7
100
AcDbCircle
 10
320.8132
 20
1.5
 30
0.0
 40
0.5
100
AcDbArc
 50
90.000003
 51
220.49999
  0
ARC
  5
649
100
AcDbEntity
  8
0
  6
CONTINUOUS
 62
     7
100
AcDbCircle
 10
354.5
 20
2.0
 30
0.0
 40
2.5
100
AcDbArc
 50
179.99999
 51
0.00001
  0
ARC
  5
64A
100
AcDbEntity
  8
0
  6
CONTINUOUS
 62
     7
100
AcDbCircle
 10
346.0
 20
-9.0
 30
0.0
 40
11.0
100
AcDbArc
 50
270.0
 51
90.000003
  0
POLYLINE
  5
64B
100
AcDbEntity
  8
0
  6
CONTINUOUS
 62
     7
100
AcDb2dPolyline
 66
     1
 10
0.0
 20
0.0
 30
0.0
  0
VERTEX
  5
64C
100
AcDbEntity
  8
0
  6
CONTINUOUS
 62
     7
100
AcDbVertex
100
AcDb2dVertex
 10
357.00521
 20
2.0
 30
0.0
  0
VERTEX
  5
64D
100
AcDbEntity
  8
0
  6
CONTINUOUS
 62
     7
100
AcDbVertex
100
AcDb2dVertex
 10
389.0
 20
2.0
 30
0.0
  0
SEQEND
  5
64E
100
AcDbEntity
  8
0
 62
     7
  0
POINT
  5
64F
100
AcDbEntity
  8
0
  6
CONTINUOUS
 62
     7
100
AcDbPoint
 10
364.0
 20
-74.0
 30
0.0
  0
POINT
  5
650
100
AcDbEntity
  8
0
  6
CONTINUOUS
 62
     7
100
AcDbPoint
 10
382.0
 20
-74.0
 30
0.0
  0
LINE
  5
651
100
AcDbEntity
  8
0
  6
CONTINUOUS
 62
     7
100
AcDbLine
 10
357.0
 20
-130.0
 30
0.0
 11
357.0
 21
-139.0
 31
0.0
  0
LINE
  5
652
100
AcDbEntity
  8
0
  6
CONTINUOUS
 62
     7
100
AcDbLine
 10
319.30947
 20
-80.0
 30
0.0
 11
319.30947
 21
-75.0
 31
0.0
  0
LINE
  5
653
100
AcDbEntity
  8
0
  6
CENTER
 62
     7
100
AcDbLine
 10
368.9
 20
-136.0
 30
0.0
 11
359.1
 21
-136.0
 31
0.0
  0
LINE
  5
654
100
AcDbEntity
  8
0
  6
CENTER
 62
     7
100
AcDbLine
 10
364.0
 20
-131.1
 30
0.0
 11
364.0
 21
-140.9
 31
0.0
  0
LINE
  5
655
100
AcDbEntity
  8
0
  6
CENTER
 62
     7
100
AcDbLine
 10
386.9
 20
-136.0
 30
0.0
 11
377.1
 21
-136.0
 31
0.0
  0
LINE
  5
656
100
AcDbEntity
  8
0
  6
CENTER
 62
     7
100
AcDbLine
 10
382.0
 20
-131.1
 30
0.0
 11
382.0
 21
-140.9
 31
0.0
  0
LINE
  5
657
100
AcDbEntity
  8
0
  6
CONTINUOUS
 62
     7
100
AcDbLine
 10
389.0
 20
-128.0
 30
0.0
 11
340.69053
 21
-128.0
 31
0.0
  0
LINE
  5
658
100
AcDbEntity
  8
0
  6
CONTINUOUS
 62
     7
100
AcDbLine
 10
360.0
 20
-68.0
 30
0.0
 11
386.0
 21
-68.0
 31
0.0
  0
LINE
  5
659
100
AcDbEntity
  8
0
  6
CONTINUOUS
 62
     7
100
AcDbLine
 10
334.0
 20
-76.799011
 30
0.0
 11
334.0
 21
-85.0
 31
0.0
  0
LINE
  5
65A
100
AcDbEntity
  8
0
  6
CONTINUOUS
 62
     7
100
AcDbLine
 10
339.0
 20
-125.0
 30
0.0
 11
339.0
 21
-85.0
 31
0.0
  0
LINE
  5
65B
100
AcDbEntity
  8
0
  6
CONTINUOUS
 62
     7
100
AcDbLine
 10
321.0
 20
-125.0
 30
0.0
 11
321.0
 21
-85.0
 31
0.0
  0
LINE
  5
65C
100
AcDbEntity
  8
0
  6
CONTINUOUS
 62
     7
100
AcDbLine
 10
337.5
 20
-125.0
 30
0.0
 11
337.5
 21
-85.0
 31
0.0
  0
LINE
  5
65D
100
AcDbEntity
  8
0
  6
CENTER
 62
     7
100
AcDbLine
 10
336.0
 20
-129.0
 30
0.0
 11
324.0
 21
-129.0
 31
0.0
  0
LINE
  5
65E
100
AcDbEntity
  8
0
  6
CONTINUOUS
 62
     7
100
AcDbLine
 10
334.0
 20
-132.5
 30
0.0
 11
326.0
 21
-132.5
 31
0.0
  0
LINE
  5
65F
100
AcDbEntity
  8
0
  6
CONTINUOUS
 62
     7
100
AcDbLine
 10
319.31945
 20
-135.0
 30
0.0
 11
357.0
 21
-135.0
 31
0.0
  0
LINE
  5
660
100
AcDbEntity
  8
0
  6
CONTINUOUS
 62
     7
100
AcDbLine
 10
389.0
 20
-82.0
 30
0.0
 11
340.69053
 21
-82.0
 31
0.0
  0
LINE
  5
661
100
AcDbEntity
  8
0
  6
CENTER
 62
     7
100
AcDbLine
 10
382.0
 20
-105.0
 30
0.0
 11
301.69052
 21
-105.0
 31
0.0
  0
LINE
  5
662
100
AcDbEntity
  8
0
  6
CONTINUOUS
 62
     7
100
AcDbLine
 10
326.0
 20
-125.0
 30
0.0
 11
308.69052
 21
-125.0
 31
0.0
  0
LINE
  5
663
100
AcDbEntity
  8
0
  6
CONTINUOUS
 62
     7
100
AcDbLine
 10
340.69053
 20
-85.0
 30
0.0
 11
340.69053
 21
-80.0
 31
0.0
  0
LINE
  5
664
100
AcDbEntity
  8
0
  6
CONTINUOUS
 62
     7
100
AcDbLine
 10
326.0
 20
-76.799011
 30
0.0
 11
326.0
 21
-85.0
 31
0.0
  0
LINE
  5
665
100
AcDbEntity
  8
0
  6
CENTER
 62
     7
100
AcDbLine
 10
336.0
 20
-81.0
 30
0.0
 11
324.0
 21
-81.0
 31
0.0
  0
LINE
  5
666
100
AcDbEntity
  8
0
  6
CONTINUOUS
 62
     7
100
AcDbLine
 10
334.0
 20
-77.5
 30
0.0
 11
326.0
 21
-77.5
 31
0.0
  0
LINE
  5
667
100
AcDbEntity
  8
0
  6
CONTINUOUS
 62
     7
100
AcDbLine
 10
340.69053
 20
-125.0
 30
0.0
 11
334.0
 21
-125.0
 31
0.0
  0
LINE
  5
668
100
AcDbEntity
  8
0
  6
CONTINUOUS
 62
     7
100
AcDbLine
 10
319.30947
 20
-130.0
 30
0.0
 11
308.69052
 21
-130.0
 31
0.0
  0
LINE
  5
669
100
AcDbEntity
  8
0
  6
CONTINUOUS
 62
     7
100
AcDbLine
 10
319.30947
 20
-135.0
 30
0.0
 11
319.30947
 21
-130.0
 31
0.0
  0
LINE
  5
66A
100
AcDbEntity
  8
0
  6
CONTINUOUS
 62
     7
100
AcDbLine
 10
319.31945
 20
-75.0
 30
0.0
 11
357.0
 21
-75.0
 31
0.0
  0
LINE
  5
66B
100
AcDbEntity
  8
0
  6
CONTINUOUS
 62
     7
100
AcDbLine
 10
326.0
 20
-85.0
 30
0.0
 11
308.69052
 21
-85.0
 31
0.0
  0
LINE
  5
66C
100
AcDbEntity
  8
0
  6
CONTINUOUS
 62
     7
100
AcDbLine
 10
340.69053
 20
-85.0
 30
0.0
 11
334.0
 21
-85.0
 31
0.0
  0
LINE
  5
66D
100
AcDbEntity
  8
0
  6
CONTINUOUS
 62
     7
100
AcDbLine
 10
389.0
 20
-80.0
 30
0.0
 11
340.69053
 21
-80.0
 31
0.0
  0
LINE
  5
66E
100
AcDbEntity
  8
0
  6
CONTINUOUS
 62
     7
100
AcDbLine
 10
334.0
 20
-76.8
 30
0.0
 11
326.0
 21
-76.8
 31
0.0
  0
LINE
  5
66F
100
AcDbEntity
  8
0
  6
CENTER
 62
     7
100
AcDbLine
 10
314.0
 20
-68.0
 30
0.0
 11
314.0
 21
-142.0
 31
0.0
  0
LINE
  5
670
100
AcDbEntity
  8
0
  6
CONTINUOUS
 62
     7
100
AcDbLine
 10
340.69053
 20
-130.0
 30
0.0
 11
340.69053
 21
-125.0
 31
0.0
  0
LINE
  5
671
100
AcDbEntity
  8
0
  6
CENTER
 62
     7
100
AcDbLine
 10
346.0
 20
-68.0
 30
0.0
 11
346.0
 21
-142.0
 31
0.0
  0
LINE
  5
672
100
AcDbEntity
  8
0
  6
CONTINUOUS
 62
     7
100
AcDbLine
 10
360.0
 20
-142.0
 30
0.0
 11
386.0
 21
-142.0
 31
0.0
  0
LINE
  5
673
100
AcDbEntity
  8
0
  6
CONTINUOUS
 62
     7
100
AcDbLine
 10
389.0
 20
-130.0
 30
0.0
 11
340.69053
 21
-130.0
 31
0.0
  0
LINE
  5
674
100
AcDbEntity
  8
0
  6
CONTINUOUS
 62
     7
100
AcDbLine
 10
319.30947
 20
-80.0
 30
0.0
 11
308.69052
 21
-80.0
 31
0.0
  0
LINE
  5
675
100
AcDbEntity
  8
0
  6
CONTINUOUS
 62
     7
100
AcDbLine
 10
334.0
 20
-133.2
 30
0.0
 11
326.0
 21
-133.2
 31
0.0
  0
LINE
  5
676
100
AcDbEntity
  8
0
  6
CONTINUOUS
 62
     7
100
AcDbLine
 10
334.0
 20
-133.2
 30
0.0
 11
334.0
 21
-125.0
 31
0.0
  0
LINE
  5
677
100
AcDbEntity
  8
0
  6
CONTINUOUS
 62
     7
100
AcDbLine
 10
322.5
 20
-125.0
 30
0.0
 11
322.5
 21
-85.0
 31
0.0
  0
LINE
  5
678
100
AcDbEntity
  8
0
  6
CONTINUOUS
 62
     7
100
AcDbLine
 10
326.0
 20
-133.2
 30
0.0
 11
326.0
 21
-125.0
 31
0.0
  0
LINE
  5
679
100
AcDbEntity
  8
0
  6
CENTER
 62
     7
100
AcDbLine
 10
382.0
 20
-78.9
 30
0.0
 11
382.0
 21
-69.1
 31
0.0
  0
LINE
  5
67A
100
AcDbEntity
  8
0
  6
CENTER
 62
     7
100
AcDbLine
 10
386.9
 20
-74.0
 30
0.0
 11
377.1
 21
-74.0
 31
0.0
  0
LINE
  5
67B
100
AcDbEntity
  8
0
  6
CENTER
 62
     7
100
AcDbLine
 10
364.0
 20
-78.9
 30
0.0
 11
364.0
 21
-69.1
 31
0.0
  0
LINE
  5
67C
100
AcDbEntity
  8
0
  6
CENTER
 62
     7
100
AcDbLine
 10
368.9
 20
-74.0
 30
0.0
 11
359.1
 21
-74.0
 31
0.0
  0
LINE
  5
67D
100
AcDbEntity
  8
0
  6
CONTINUOUS
 62
     7
100
AcDbLine
 10
357.0
 20
-80.0
 30
0.0
 11
357.0
 21
-71.0
 31
0.0
  0
CIRCLE
  5
67E
100
AcDbEntity
  8
0
  6
CONTINUOUS
 62
     7
100
AcDbCircle
 10
364.0
 20
-74.0
 30
0.0
 40
2.9
  0
CIRCLE
  5
67F
100
AcDbEntity
  8
0
  6
CONTINUOUS
 62
     7
100
AcDbCircle
 10
382.0
 20
-74.0
 30
0.0
 40
2.9
  0
ARC
  5
680
100
AcDbEntity
  8
0
  6
CONTINUOUS
 62
     7
100
AcDbCircle
 10
386.0
 20
-71.0
 30
0.0
 40
3.0
100
AcDbArc
 50
0.000005
 51
90.000003
  0
ARC
  5
681
100
AcDbEntity
  8
0
  6
CONTINUOUS
 62
     7
100
AcDbCircle
 10
360.0
 20
-71.0
 30
0.0
 40
3.0
100
AcDbArc
 50
89.999996
 51
180.00001
  0
ARC
  5
682
100
AcDbEntity
  8
0
  6
CONTINUOUS
 62
     7
100
AcDbCircle
 10
360.0
 20
-139.0
 30
0.0
 40
3.0
100
AcDbArc
 50
179.99999
 51
270.0
  0
ARC
  5
683
100
AcDbEntity
  8
0
  6
CONTINUOUS
 62
     7
100
AcDbCircle
 10
386.0
 20
-139.0
 30
0.0
 40
3.0
100
AcDbArc
 50
270.0
 51
359.99999
  0
CIRCLE
  5
684
100
AcDbEntity
  8
0
  6
CONTINUOUS
 62
     7
100
AcDbCircle
 10
382.0
 20
-136.0
 30
0.0
 40
2.9
  0
CIRCLE
  5
685
100
AcDbEntity
  8
0
  6
CONTINUOUS
 62
     7
100
AcDbCircle
 10
364.0
 20
-136.0
 30
0.0
 40
2.9
  0
POLYLINE
  5
686
100
AcDbEntity
  8
0
  6
CONTINUOUS
 62
     7
100
AcDb2dPolyline
 66
     1
 10
0.0
 20
0.0
 30
0.0
  0
VERTEX
  5
687
100
AcDbEntity
  8
0
  6
CONTINUOUS
 62
     7
100
AcDbVertex
100
AcDb2dVertex
 10
389.0
 20
-71.0
 30
0.0
  0
VERTEX
  5
688
100
AcDbEntity
  8
0
  6
CONTINUOUS
 62
     7
100
AcDbVertex
100
AcDb2dVertex
 10
389.0
 20
-82.0
 30
0.0
  0
SEQEND
  5
689
100
AcDbEntity
  8
0
 62
     7
  0
POLYLINE
  5
68A
100
AcDbEntity
  8
0
  6
CONTINUOUS
 62
     7
100
AcDb2dPolyline
 66
     1
 10
0.0
 20
0.0
 30
0.0
  0
VERTEX
  5
68B
100
AcDbEntity
  8
0
  6
CONTINUOUS
 62
     7
100
AcDbVertex
100
AcDb2dVertex
 10
389.0
 20
-139.0
 30
0.0
  0
VERTEX
  5
68C
100
AcDbEntity
  8
0
  6
CONTINUOUS
 62
     7
100
AcDbVertex
100
AcDb2dVertex
 10
389.0
 20
-128.0
 30
0.0
  0
SEQEND
  5
68D
100
AcDbEntity
  8
0
 62
     7
  0
POINT
  5
68E
100
AcDbEntity
  8
0
  6
CONTINUOUS
 62
     7
100
AcDbPoint
 10
434.0
 20
2.0
 30
0.0
  0
POINT
  5
68F
100
AcDbEntity
  8
0
  6
CONTINUOUS
 62
     7
100
AcDbPoint
 10
496.0
 20
2.0
 30
0.0
  0
LINE
  5
690
100
AcDbEntity
  8
0
  6
CONTINUOUS
 62
     7
100
AcDbLine
 10
428.0
 20
0.0
 30
0.0
 11
440.0
 21
0.0
 31
0.0
  0
LINE
  5
691
100
AcDbEntity
  8
0
  6
CONTINUOUS
 62
     7
100
AcDbLine
 10
502.0
 20
0.0
 30
0.0
 11
490.0
 21
0.0
 31
0.0
  0
LINE
  5
692
100
AcDbEntity
  8
0
  6
CENTER
 62
     7
100
AcDbLine
 10
465.0
 20
-27.0
 30
0.0
 11
465.0
 21
9.0
 31
0.0
  0
LINE
  5
693
100
AcDbEntity
  8
0
  6
CENTER
 62
     7
100
AcDbLine
 10
498.0
 20
-9.0
 30
0.0
 11
432.0
 21
-9.0
 31
0.0
  0
LINE
  5
694
100
AcDbEntity
  8
0
  6
CONTINUOUS
 62
     7
100
AcDbLine
 10
485.0
 20
-19.5
 30
0.0
 11
445.0
 21
-19.5
 31
0.0
  0
LINE
  5
695
100
AcDbEntity
  8
0
  6
CONTINUOUS
 62
     7
100
AcDbLine
 10
485.0
 20
-16.0
 30
0.0
 11
445.0
 21
-16.0
 31
0.0
  0
LINE
  5
696
100
AcDbEntity
  8
0
  6
CONTINUOUS
 62
     7
100
AcDbLine
 10
435.0
 20
0.0
 30
0.0
 11
435.0
 21
-20.0
 31
0.0
  0
LINE
  5
697
100
AcDbEntity
  8
0
  6
CONTINUOUS
 62
     7
100
AcDbLine
 10
495.0
 20
-20.0
 30
0.0
 11
485.0
 21
-20.0
 31
0.0
  0
LINE
  5
698
100
AcDbEntity
  8
0
  6
CONTINUOUS
 62
     7
100
AcDbLine
 10
495.0
 20
0.0
 30
0.0
 11
495.0
 21
-20.0
 31
0.0
  0
LINE
  5
699
100
AcDbEntity
  8
0
  6
CENTER
 62
     7
100
AcDbLine
 10
434.0
 20
5.0
 30
0.0
 11
434.0
 21
-5.0
 31
0.0
  0
LINE
  5
69A
100
AcDbEntity
  8
0
  6
CONTINUOUS
 62
     7
100
AcDbLine
 10
435.0
 20
-20.0
 30
0.0
 11
445.0
 21
-20.0
 31
0.0
  0
LINE
  5
69B
100
AcDbEntity
  8
0
  6
CONTINUOUS
 62
     7
100
AcDbLine
 10
428.0
 20
2.0
 30
0.0
 11
502.0
 21
2.0
 31
0.0
  0
LINE
  5
69C
100
AcDbEntity
  8
0
  6
CONTINUOUS
 62
     7
100
AcDbLine
 10
485.0
 20
2.0
 30
0.0
 11
485.0
 21
-20.0
 31
0.0
  0
LINE
  5
69D
100
AcDbEntity
  8
0
  6
CONTINUOUS
 62
     7
100
AcDbLine
 10
440.0
 20
0.0
 30
0.0
 11
440.0
 21
-20.0
 31
0.0
  0
LINE
  5
69E
100
AcDbEntity
  8
0
  6
CONTINUOUS
 62
     7
100
AcDbLine
 10
442.0
 20
2.0
 30
0.0
 11
442.0
 21
-20.0
 31
0.0
  0
LINE
  5
69F
100
AcDbEntity
  8
0
  6
CONTINUOUS
 62
     7
100
AcDbLine
 10
445.0
 20
2.0
 30
0.0
 11
445.0
 21
-20.0
 31
0.0
  0
LINE
  5
6A0
100
AcDbEntity
  8
0
  6
CONTINUOUS
 62
     7
100
AcDbLine
 10
447.5
 20
-2.0
 30
0.0
 11
482.5
 21
-2.0
 31
0.0
  0
LINE
  5
6A1
100
AcDbEntity
  8
0
  6
CONTINUOUS
 62
     7
100
AcDbLine
 10
490.0
 20
0.0
 30
0.0
 11
490.0
 21
-20.0
 31
0.0
  0
LINE
  5
6A2
100
AcDbEntity
  8
0
  6
CONTINUOUS
 62
     7
100
AcDbLine
 10
428.0
 20
0.0
 30
0.0
 11
428.0
 21
2.0
 31
0.0
  0
LINE
  5
6A3
100
AcDbEntity
  8
0
  6
CONTINUOUS
 62
     7
100
AcDbLine
 10
488.0
 20
2.0
 30
0.0
 11
488.0
 21
-20.0
 31
0.0
  0
LINE
  5
6A4
100
AcDbEntity
  8
0
  6
CENTER
 62
     7
100
AcDbLine
 10
496.0
 20
5.0
 30
0.0
 11
496.0
 21
-5.0
 31
0.0
  0
LINE
  5
6A5
100
AcDbEntity
  8
0
  6
CONTINUOUS
 62
     7
100
AcDbLine
 10
502.0
 20
0.0
 30
0.0
 11
502.0
 21
2.0
 31
0.0
  0
ARC
  5
6A6
100
AcDbEntity
  8
0
  6
CONTINUOUS
 62
     7
100
AcDbCircle
 10
482.5
 20
-4.5
 30
0.0
 40
2.5
100
AcDbArc
 50
0.0
 51
90.000003
  0
ARC
  5
6A7
100
AcDbEntity
  8
0
  6
CONTINUOUS
 62
     7
100
AcDbCircle
 10
447.5
 20
-4.5
 30
0.0
 40
2.5
100
AcDbArc
 50
89.999996
 51
180.00001
  0
POINT
  5
6A8
100
AcDbEntity
  8
0
  6
CONTINUOUS
 62
     7
100
AcDbPoint
 10
-470.0
 20
-377.0
 30
0.0
  0
POINT
  5
6A9
100
AcDbEntity
  8
0
  6
CONTINUOUS
 62
     7
100
AcDbPoint
 10
-450.0
 20
-377.0
 30
0.0
  0
LINE
  5
6AA
100
AcDbEntity
  8
0
  6
CONTINUOUS
 62
     7
100
AcDbLine
 10
-495.0
 20
-386.44746
 30
0.0
 11
-495.0
 21
-367.55252
 31
0.0
  0
LINE
  5
6AB
100
AcDbEntity
  8
0
  6
CONTINUOUS
 62
     7
100
AcDbLine
 10
-500.0
 20
-348.15914
 30
0.0
 11
-495.0
 21
-348.15914
 31
0.0
  0
LINE
  5
6AC
100
AcDbEntity
  8
0
  6
CONTINUOUS
 62
     7
100
AcDbLine
 10
-450.0
 20
-392.51601
 30
0.0
 11
-450.0
 21
-361.48397
 31
0.0
  0
LINE
  5
6AD
100
AcDbEntity
  8
0
  6
CONTINUOUS
 62
     7
100
AcDbLine
 10
-440.0
 20
-328.0
 30
0.0
 11
-440.0
 21
-426.0
 31
0.0
  0
LINE
  5
6AE
100
AcDbEntity
  8
0
  6
CENTER
 62
     7
100
AcDbLine
 10
-470.0
 20
-433.0
 30
0.0
 11
-470.0
 21
-321.0
 31
0.0
  0
LINE
  5
6AF
100
AcDbEntity
  8
0
  6
CONTINUOUS
 62
     7
100
AcDbLine
 10
-490.0
 20
-419.94925
 30
0.0
 11
-490.0
 21
-399.7723
 31
0.0
  0
LINE
  5
6B0
100
AcDbEntity
  8
0
  6
CONTINUOUS
 62
     7
100
AcDbLine
 10
-450.0
 20
-419.94925
 30
0.0
 11
-450.0
 21
-399.7723
 31
0.0
  0
LINE
  5
6B1
100
AcDbEntity
  8
0
  6
CONTINUOUS
 62
     7
100
AcDbLine
 10
-497.5
 20
-354.22769
 30
0.0
 11
-497.5
 21
-361.48397
 31
0.0
  0
LINE
  5
6B2
100
AcDbEntity
  8
0
  6
CONTINUOUS
 62
     7
100
AcDbLine
 10
-450.0
 20
-367.55252
 30
0.0
 11
-445.0
 21
-367.55252
 31
0.0
  0
LINE
  5
6B3
100
AcDbEntity
  8
0
  6
CONTINUOUS
 62
     7
100
AcDbLine
 10
-442.5
 20
-399.7723
 30
0.0
 11
-442.5
 21
-392.51601
 31
0.0
  0
LINE
  5
6B4
100
AcDbEntity
  8
0
  6
CONTINUOUS
 62
     7
100
AcDbLine
 10
-450.0
 20
-361.48397
 30
0.0
 11
-441.8
 21
-361.48397
 31
0.0
  0
LINE
  5
6B5
100
AcDbEntity
  8
0
  6
CONTINUOUS
 62
     7
100
AcDbLine
 10
-490.0
 20
-364.6586
 30
0.0
 11
-450.0
 21
-364.6586
 31
0.0
  0
LINE
  5
6B6
100
AcDbEntity
  8
0
  6
CENTER
 62
     7
100
AcDbLine
 10
-433.0
 20
-415.0
 30
0.0
 11
-507.0
 21
-415.0
 31
0.0
  0
LINE
  5
6B7
100
AcDbEntity
  8
0
  6
CENTER
 62
     7
100
AcDbLine
 10
-433.0
 20
-406.02516
 30
0.0
 11
-507.0
 21
-406.02516
 31
0.0
  0
LINE
  5
6B8
100
AcDbEntity
  8
0
  6
CENTER
 62
     7
100
AcDbLine
 10
-433.0
 20
-339.0
 30
0.0
 11
-507.0
 21
-339.0
 31
0.0
  0
LINE
  5
6B9
100
AcDbEntity
  8
0
  6
CENTER
 62
     7
100
AcDbLine
 10
-433.0
 20
-347.97484
 30
0.0
 11
-507.0
 21
-347.97484
 31
0.0
  0
LINE
  5
6BA
100
AcDbEntity
  8
0
  6
CONTINUOUS
 62
     7
100
AcDbLine
 10
-490.0
 20
-351.05306
 30
0.0
 11
-450.0
 21
-351.05306
 31
0.0
  0
LINE
  5
6BB
100
AcDbEntity
  8
0
  6
CONTINUOUS
 62
     7
100
AcDbLine
 10
-490.0
 20
-335.03239
 30
0.0
 11
-450.0
 21
-335.03239
 31
0.0
  0
LINE
  5
6BC
100
AcDbEntity
  8
0
  6
CONTINUOUS
 62
     7
100
AcDbLine
 10
-450.0
 20
-335.92722
 30
0.0
 11
-445.0
 21
-335.92722
 31
0.0
  0
LINE
  5
6BD
100
AcDbEntity
  8
0
  6
CONTINUOUS
 62
     7
100
AcDbLine
 10
-495.0
 20
-335.92722
 30
0.0
 11
-490.0
 21
-335.92722
 31
0.0
  0
LINE
  5
6BE
100
AcDbEntity
  8
0
  6
CONTINUOUS
 62
     7
100
AcDbLine
 10
-498.2
 20
-354.22769
 30
0.0
 11
-498.2
 21
-361.48397
 31
0.0
  0
LINE
  5
6BF
100
AcDbEntity
  8
0
  6
CONTINUOUS
 62
     7
100
AcDbLine
 10
-500.0
 20
-386.44746
 30
0.0
 11
-495.0
 21
-386.44746
 31
0.0
  0
LINE
  5
6C0
100
AcDbEntity
  8
0
  6
CONTINUOUS
 62
     7
100
AcDbLine
 10
-490.0
 20
-392.51601
 30
0.0
 11
-490.0
 21
-361.48397
 31
0.0
  0
LINE
  5
6C1
100
AcDbEntity
  8
0
  6
CONTINUOUS
 62
     7
100
AcDbLine
 10
-445.0
 20
-418.07279
 30
0.0
 11
-445.0
 21
-405.84085
 31
0.0
  0
LINE
  5
6C2
100
AcDbEntity
  8
0
  6
CONTINUOUS
 62
     7
100
AcDbLine
 10
-497.5
 20
-399.7723
 30
0.0
 11
-497.5
 21
-392.51601
 31
0.0
  0
LINE
  5
6C3
100
AcDbEntity
  8
0
  6
CONTINUOUS
 62
     7
100
AcDbLine
 10
-500.0
 20
-328.0
 30
0.0
 11
-500.0
 21
-426.0
 31
0.0
  0
LINE
  5
6C4
100
AcDbEntity
  8
0
  6
CONTINUOUS
 62
     7
100
AcDbLine
 10
-441.8
 20
-399.7723
 30
0.0
 11
-441.8
 21
-392.51601
 31
0.0
  0
LINE
  5
6C5
100
AcDbEntity
  8
0
  6
CONTINUOUS
 62
     7
100
AcDbLine
 10
-495.0
 20
-367.55252
 30
0.0
 11
-490.0
 21
-367.55252
 31
0.0
  0
LINE
  5
6C6
100
AcDbEntity
  8
0
  6
CENTER
 62
     7
100
AcDbLine
 10
-433.0
 20
-377.0
 30
0.0
 11
-507.0
 21
-377.0
 31
0.0
  0
LINE
  5
6C7
100
AcDbEntity
  8
0
  6
CONTINUOUS
 62
     7
100
AcDbLine
 10
-495.0
 20
-418.07279
 30
0.0
 11
-495.0
 21
-405.84085
 31
0.0
  0
LINE
  5
6C8
100
AcDbEntity
  8
0
  6
CONTINUOUS
 62
     7
100
AcDbLine
 10
-445.0
 20
-386.44746
 30
0.0
 11
-445.0
 21
-367.55252
 31
0.0
  0
LINE
  5
6C9
100
AcDbEntity
  8
0
  6
CONTINUOUS
 62
     7
100
AcDbLine
 10
-498.2
 20
-399.7723
 30
0.0
 11
-498.2
 21
-392.51601
 31
0.0
  0
LINE
  5
6CA
100
AcDbEntity
  8
0
  6
CONTINUOUS
 62
     7
100
AcDbLine
 10
-498.2
 20
-334.05077
 30
0.0
 11
-490.0
 21
-334.05077
 31
0.0
  0
LINE
  5
6CB
100
AcDbEntity
  8
0
  6
CONTINUOUS
 62
     7
100
AcDbLine
 10
-500.0
 20
-329.93061
 30
0.0
 11
-495.0
 21
-329.93061
 31
0.0
  0
LINE
  5
6CC
100
AcDbEntity
  8
0
  6
CONTINUOUS
 62
     7
100
AcDbLine
 10
-498.2
 20
-331.80706
 30
0.0
 11
-490.0
 21
-331.80706
 31
0.0
  0
LINE
  5
6CD
100
AcDbEntity
  8
0
  6
CONTINUOUS
 62
     7
100
AcDbLine
 10
-490.0
 20
-389.34138
 30
0.0
 11
-450.0
 21
-389.34138
 31
0.0
  0
LINE
  5
6CE
100
AcDbEntity
  8
0
  6
CONTINUOUS
 62
     7
100
AcDbLine
 10
-498.2
 20
-392.51601
 30
0.0
 11
-490.0
 21
-392.51601
 31
0.0
  0
LINE
  5
6CF
100
AcDbEntity
  8
0
  6
CONTINUOUS
 62
     7
100
AcDbLine
 10
-498.2
 20
-399.7723
 30
0.0
 11
-490.0
 21
-399.7723
 31
0.0
  0
LINE
  5
6D0
100
AcDbEntity
  8
0
  6
CONTINUOUS
 62
     7
100
AcDbLine
 10
-490.0
 20
-402.94693
 30
0.0
 11
-450.0
 21
-402.94693
 31
0.0
  0
LINE
  5
6D1
100
AcDbEntity
  8
0
  6
CONTINUOUS
 62
     7
100
AcDbLine
 10
-495.0
 20
-405.84085
 30
0.0
 11
-490.0
 21
-405.84085
 31
0.0
  0
LINE
  5
6D2
100
AcDbEntity
  8
0
  6
CONTINUOUS
 62
     7
100
AcDbLine
 10
-498.2
 20
-361.48397
 30
0.0
 11
-490.0
 21
-361.48397
 31
0.0
  0
LINE
  5
6D3
100
AcDbEntity
  8
0
  6
CONTINUOUS
 62
     7
100
AcDbLine
 10
-450.0
 20
-334.05077
 30
0.0
 11
-441.8
 21
-334.05077
 31
0.0
  0
LINE
  5
6D4
100
AcDbEntity
  8
0
  6
CONTINUOUS
 62
     7
100
AcDbLine
 10
-450.0
 20
-331.80706
 30
0.0
 11
-441.8
 21
-331.80706
 31
0.0
  0
LINE
  5
6D5
100
AcDbEntity
  8
0
  6
CONTINUOUS
 62
     7
100
AcDbLine
 10
-445.0
 20
-329.93061
 30
0.0
 11
-440.0
 21
-329.93061
 31
0.0
  0
LINE
  5
6D6
100
AcDbEntity
  8
0
  6
CONTINUOUS
 62
     7
100
AcDbLine
 10
-500.0
 20
-328.0
 30
0.0
 11
-440.0
 21
-328.0
 31
0.0
  0
LINE
  5
6D7
100
AcDbEntity
  8
0
  6
CONTINUOUS
 62
     7
100
AcDbLine
 10
-498.2
 20
-419.94925
 30
0.0
 11
-490.0
 21
-419.94925
 31
0.0
  0
LINE
  5
6D8
100
AcDbEntity
  8
0
  6
CONTINUOUS
 62
     7
100
AcDbLine
 10
-441.8
 20
-354.22769
 30
0.0
 11
-441.8
 21
-361.48397
 31
0.0
  0
LINE
  5
6D9
100
AcDbEntity
  8
0
  6
CONTINUOUS
 62
     7
100
AcDbLine
 10
-442.5
 20
-354.22769
 30
0.0
 11
-442.5
 21
-361.48397
 31
0.0
  0
LINE
  5
6DA
100
AcDbEntity
  8
0
  6
CONTINUOUS
 62
     7
100
AcDbLine
 10
-450.0
 20
-405.84085
 30
0.0
 11
-445.0
 21
-405.84085
 31
0.0
  0
LINE
  5
6DB
100
AcDbEntity
  8
0
  6
CONTINUOUS
 62
     7
100
AcDbLine
 10
-445.0
 20
-348.15914
 30
0.0
 11
-440.0
 21
-348.15914
 31
0.0
  0
LINE
  5
6DC
100
AcDbEntity
  8
0
  6
CONTINUOUS
 62
     7
100
AcDbLine
 10
-450.0
 20
-399.7723
 30
0.0
 11
-441.8
 21
-399.7723
 31
0.0
  0
LINE
  5
6DD
100
AcDbEntity
  8
0
  6
CONTINUOUS
 62
     7
100
AcDbLine
 10
-450.0
 20
-392.51601
 30
0.0
 11
-441.8
 21
-392.51601
 31
0.0
  0
LINE
  5
6DE
100
AcDbEntity
  8
0
  6
CONTINUOUS
 62
     7
100
AcDbLine
 10
-450.0
 20
-354.22769
 30
0.0
 11
-441.8
 21
-354.22769
 31
0.0
  0
LINE
  5
6DF
100
AcDbEntity
  8
0
  6
CONTINUOUS
 62
     7
100
AcDbLine
 10
-445.0
 20
-386.44746
 30
0.0
 11
-440.0
 21
-386.44746
 31
0.0
  0
LINE
  5
6E0
100
AcDbEntity
  8
0
  6
CONTINUOUS
 62
     7
100
AcDbLine
 10
-498.2
 20
-354.22769
 30
0.0
 11
-490.0
 21
-354.22769
 31
0.0
  0
LINE
  5
6E1
100
AcDbEntity
  8
0
  6
CONTINUOUS
 62
     7
100
AcDbLine
 10
-490.0
 20
-330.82544
 30
0.0
 11
-450.0
 21
-330.82544
 31
0.0
  0
LINE
  5
6E2
100
AcDbEntity
  8
0
  6
CONTINUOUS
 62
     7
100
AcDbLine
 10
-445.0
 20
-328.0
 30
0.0
 11
-445.0
 21
-329.93061
 31
0.0
  0
LINE
  5
6E3
100
AcDbEntity
  8
0
  6
CONTINUOUS
 62
     7
100
AcDbLine
 10
-495.0
 20
-328.0
 30
0.0
 11
-495.0
 21
-329.93061
 31
0.0
  0
LINE
  5
6E4
100
AcDbEntity
  8
0
  6
CONTINUOUS
 62
     7
100
AcDbLine
 10
-490.0
 20
-328.0
 30
0.0
 11
-490.0
 21
-331.80706
 31
0.0
  0
LINE
  5
6E5
100
AcDbEntity
  8
0
  6
CONTINUOUS
 62
     7
100
AcDbLine
 10
-450.0
 20
-328.0
 30
0.0
 11
-450.0
 21
-331.80706
 31
0.0
  0
LINE
  5
6E6
100
AcDbEntity
  8
0
  6
CONTINUOUS
 62
     7
100
AcDbLine
 10
-498.2
 20
-422.19298
 30
0.0
 11
-490.0
 21
-422.19298
 31
0.0
  0
LINE
  5
6E7
100
AcDbEntity
  8
0
  6
CONTINUOUS
 62
     7
100
AcDbLine
 10
-490.0
 20
-423.17461
 30
0.0
 11
-450.0
 21
-423.17461
 31
0.0
  0
LINE
  5
6E8
100
AcDbEntity
  8
0
  6
CONTINUOUS
 62
     7
100
AcDbLine
 10
-495.0
 20
-424.06944
 30
0.0
 11
-490.0
 21
-424.06944
 31
0.0
  0
LINE
  5
6E9
100
AcDbEntity
  8
0
  6
CONTINUOUS
 62
     7
100
AcDbLine
 10
-441.8
 20
-419.94925
 30
0.0
 11
-441.8
 21
-422.19298
 31
0.0
  0
LINE
  5
6EA
100
AcDbEntity
  8
0
  6
CONTINUOUS
 62
     7
100
AcDbLine
 10
-445.0
 20
-418.07279
 30
0.0
 11
-440.0
 21
-418.07279
 31
0.0
  0
LINE
  5
6EB
100
AcDbEntity
  8
0
  6
CONTINUOUS
 62
     7
100
AcDbLine
 10
-450.0
 20
-419.94925
 30
0.0
 11
-441.8
 21
-419.94925
 31
0.0
  0
LINE
  5
6EC
100
AcDbEntity
  8
0
  6
CONTINUOUS
 62
     7
100
AcDbLine
 10
-445.0
 20
-335.92722
 30
0.0
 11
-445.0
 21
-348.15914
 31
0.0
  0
LINE
  5
6ED
100
AcDbEntity
  8
0
  6
CONTINUOUS
 62
     7
100
AcDbLine
 10
-450.0
 20
-422.19298
 30
0.0
 11
-441.8
 21
-422.19298
 31
0.0
  0
LINE
  5
6EE
100
AcDbEntity
  8
0
  6
CONTINUOUS
 62
     7
100
AcDbLine
 10
-450.0
 20
-424.06944
 30
0.0
 11
-445.0
 21
-424.06944
 31
0.0
  0
LINE
  5
6EF
100
AcDbEntity
  8
0
  6
CONTINUOUS
 62
     7
100
AcDbLine
 10
-500.0
 20
-426.0
 30
0.0
 11
-440.0
 21
-426.0
 31
0.0
  0
LINE
  5
6F0
100
AcDbEntity
  8
0
  6
CONTINUOUS
 62
     7
100
AcDbLine
 10
-450.0
 20
-422.19298
 30
0.0
 11
-450.0
 21
-426.0
 31
0.0
  0
LINE
  5
6F1
100
AcDbEntity
  8
0
  6
CONTINUOUS
 62
     7
100
AcDbLine
 10
-490.0
 20
-422.19298
 30
0.0
 11
-490.0
 21
-426.0
 31
0.0
  0
LINE
  5
6F2
100
AcDbEntity
  8
0
  6
CONTINUOUS
 62
     7
100
AcDbLine
 10
-442.5
 20
-419.94925
 30
0.0
 11
-442.5
 21
-422.19298
 31
0.0
  0
LINE
  5
6F3
100
AcDbEntity
  8
0
  6
CONTINUOUS
 62
     7
100
AcDbLine
 10
-497.5
 20
-419.94925
 30
0.0
 11
-497.5
 21
-422.19298
 31
0.0
  0
LINE
  5
6F4
100
AcDbEntity
  8
0
  6
CONTINUOUS
 62
     7
100
AcDbLine
 10
-498.2
 20
-419.94925
 30
0.0
 11
-498.2
 21
-422.19298
 31
0.0
  0
LINE
  5
6F5
100
AcDbEntity
  8
0
  6
CONTINUOUS
 62
     7
100
AcDbLine
 10
-450.0
 20
-334.05077
 30
0.0
 11
-450.0
 21
-354.22769
 31
0.0
  0
LINE
  5
6F6
100
AcDbEntity
  8
0
  6
CONTINUOUS
 62
     7
100
AcDbLine
 10
-490.0
 20
-334.05077
 30
0.0
 11
-490.0
 21
-354.22769
 31
0.0
  0
LINE
  5
6F7
100
AcDbEntity
  8
0
  6
CONTINUOUS
 62
     7
100
AcDbLine
 10
-498.2
 20
-331.80706
 30
0.0
 11
-498.2
 21
-334.05077
 31
0.0
  0
LINE
  5
6F8
100
AcDbEntity
  8
0
  6
CONTINUOUS
 62
     7
100
AcDbLine
 10
-497.5
 20
-331.80706
 30
0.0
 11
-497.5
 21
-334.05077
 31
0.0
  0
LINE
  5
6F9
100
AcDbEntity
  8
0
  6
CONTINUOUS
 62
     7
100
AcDbLine
 10
-442.5
 20
-331.80706
 30
0.0
 11
-442.5
 21
-334.05077
 31
0.0
  0
LINE
  5
6FA
100
AcDbEntity
  8
0
  6
CONTINUOUS
 62
     7
100
AcDbLine
 10
-441.8
 20
-331.80706
 30
0.0
 11
-441.8
 21
-334.05077
 31
0.0
  0
LINE
  5
6FB
100
AcDbEntity
  8
0
  6
CONTINUOUS
 62
     7
100
AcDbLine
 10
-495.0
 20
-335.92722
 30
0.0
 11
-495.0
 21
-348.15914
 31
0.0
  0
LINE
  5
6FC
100
AcDbEntity
  8
0
  6
CONTINUOUS
 62
     7
100
AcDbLine
 10
-490.0
 20
-418.96762
 30
0.0
 11
-450.0
 21
-418.96762
 31
0.0
  0
LINE
  5
6FD
100
AcDbEntity
  8
0
  6
CONTINUOUS
 62
     7
100
AcDbLine
 10
-500.0
 20
-418.07279
 30
0.0
 11
-495.0
 21
-418.07279
 31
0.0
  0
LINE
  5
6FE
100
AcDbEntity
  8
0
  6
CONTINUOUS
 62
     7
100
AcDbLine
 10
-445.0
 20
-424.06944
 30
0.0
 11
-445.0
 21
-426.0
 31
0.0
  0
LINE
  5
6FF
100
AcDbEntity
  8
0
  6
CONTINUOUS
 62
     7
100
AcDbLine
 10
-495.0
 20
-424.06944
 30
0.0
 11
-495.0
 21
-426.0
 31
0.0
  0
POINT
  5
700
100
AcDbEntity
  8
0
  6
CONTINUOUS
 62
     7
100
AcDbPoint
 10
-294.0
 20
-339.0
 30
0.0
  0
POINT
  5
701
100
AcDbEntity
  8
0
  6
CONTINUOUS
 62
     7
100
AcDbPoint
 10
-275.991
 20
-339.0
 30
0.0
  0
LINE
  5
702
100
AcDbEntity
  8
0
  6
CENTER
 62
     7
100
AcDbLine
 10
-356.71567
 20
-341.43484
 30
0.0
 11
-356.71567
 21
-354.51484
 31
0.0
  0
LINE
  5
703
100
AcDbEntity
  8
0
  6
CENTER
 62
     7
100
AcDbLine
 10
-326.0
 20
-421.0
 30
0.0
 11
-326.0
 21
-409.0
 31
0.0
  0
LINE
  5
704
100
AcDbEntity
  8
0
  6
CENTER
 62
     7
100
AcDbLine
 10
-294.0
 20
-421.0
 30
0.0
 11
-294.0
 21
-409.0
 31
0.0
  0
LINE
  5
705
100
AcDbEntity
  8
0
  6
CONTINUOUS
 62
     7
100
AcDbLine
 10
-317.25533
 20
-407.53135
 30
0.0
 11
-319.56701
 21
-404.82472
 31
0.0
  0
LINE
  5
706
100
AcDbEntity
  8
0
  6
CONTINUOUS
 62
     7
100
AcDbLine
 10
-294.0
 20
-404.0
 30
0.0
 11
-324.42607
 21
-404.0
 31
0.0
  0
LINE
  5
707
100
AcDbEntity
  8
0
  6
CONTINUOUS
 62
     7
100
AcDbLine
 10
-323.5
 20
-418.1225
 30
0.0
 11
-323.5
 21
-411.8775
 31
0.0
  0
LINE
  5
708
100
AcDbEntity
  8
0
  6
CONTINUOUS
 62
     7
100
AcDbLine
 10
-294.0
 20
-426.0
 30
0.0
 11
-326.0
 21
-426.0
 31
0.0
  0
LINE
  5
709
100
AcDbEntity
  8
0
  6
CONTINUOUS
 62
     7
100
AcDbLine
 10
-346.7383
 20
-401.3936
 30
0.0
 11
-358.06196
 21
-376.99998
 31
0.0
  0
LINE
  5
70A
100
AcDbEntity
  8
0
  6
CENTER
 62
     7
100
AcDbLine
 10
-356.71567
 20
-399.48516
 30
0.0
 11
-356.71567
 21
-412.56516
 31
0.0
  0
LINE
  5
70B
100
AcDbEntity
  8
0
  6
CENTER
 62
     7
100
AcDbLine
 10
-350.17567
 20
-347.97484
 30
0.0
 11
-363.25567
 21
-347.97484
 31
0.0
  0
LINE
  5
70C
100
AcDbEntity
  8
0
  6
CENTER
 62
     7
100
AcDbLine
 10
-363.25567
 20
-406.02516
 30
0.0
 11
-350.17567
 21
-406.02516
 31
0.0
  0
LINE
  5
70D
100
AcDbEntity
  8
0
  6
CONTINUOUS
 62
     7
100
AcDbLine
 10
-355.19176
 20
-409.7235
 30
0.0
 11
-353.44025
 21
-403.72915
 31
0.0
  0
LINE
  5
70E
100
AcDbEntity
  8
0
  6
CONTINUOUS
 62
     7
100
AcDbLine
 10
-353.6233
 20
-359.05127
 30
0.0
 11
-350.19496
 21
-358.09413
 31
0.0
  0
LINE
  5
70F
100
AcDbEntity
  8
0
  6
CONTINUOUS
 62
     7
100
AcDbLine
 10
-360.21198
 20
-381.63157
 30
0.0
 11
-348.83979
 21
-357.13354
 31
0.0
  0
LINE
  5
710
100
AcDbEntity
  8
0
  6
CONTINUOUS
 62
     7
100
AcDbLine
 10
-366.6931
 20
-410.65674
 30
0.0
 11
-380.16676
 21
-381.63157
 31
0.0
  0
LINE
  5
711
100
AcDbEntity
  8
0
  6
CONTINUOUS
 62
     7
100
AcDbLine
 10
-380.16676
 20
-372.3684
 30
0.0
 11
-366.69306
 21
-343.34326
 31
0.0
  0
LINE
  5
712
100
AcDbEntity
  8
0
  6
CONTINUOUS
 62
     7
100
AcDbLine
 10
-322.91489
 20
-404.44155
 30
0.0
 11
-348.83982
 21
-396.86647
 31
0.0
  0
LINE
  5
713
100
AcDbEntity
  8
0
  6
CONTINUOUS
 62
     7
100
AcDbLine
 10
-346.22728
 20
-401.30885
 30
0.0
 11
-347.68705
 21
-398.06251
 31
0.0
  0
LINE
  5
714
100
AcDbEntity
  8
0
  6
CONTINUOUS
 62
     7
100
AcDbLine
 10
-371.96894
 20
-380.58232
 30
0.0
 11
-366.3045
 21
-377.95286
 31
0.0
  0
LINE
  5
715
100
AcDbEntity
  8
0
  6
CONTINUOUS
 62
     7
100
AcDbLine
 10
-329.08514
 20
-425.55856
 30
0.0
 11
-359.80079
 21
-416.58366
 31
0.0
  0
LINE
  5
716
100
AcDbEntity
  8
0
  6
CONTINUOUS
 62
     7
100
AcDbLine
 10
-359.73306
 20
-381.78705
 30
0.0
 11
-358.25138
 21
-378.55064
 31
0.0
  0
LINE
  5
717
100
AcDbEntity
  8
0
  6
CENTER
 62
     7
100
AcDbLine
 10
-370.18935
 20
-370.46
 30
0.0
 11
-370.18935
 21
-383.54
 31
0.0
  0
LINE
  5
718
100
AcDbEntity
  8
0
  6
CONTINUOUS
 62
     7
100
AcDbLine
 10
-359.80077
 20
-337.41634
 30
0.0
 11
-329.08511
 21
-328.44149
 31
0.0
  0
LINE
  5
719
100
AcDbEntity
  8
0
  6
CONTINUOUS
 62
     7
100
AcDbLine
 10
-329.27541
 20
-336.70398
 30
0.0
 11
-327.52391
 21
-342.69834
 31
0.0
  0
LINE
  5
71A
100
AcDbEntity
  8
0
  6
CENTER
 62
     7
100
AcDbLine
 10
-332.18935
 20
-321.0
 30
0.0
 11
-332.18935
 21
-433.0
 31
0.0
  0
LINE
  5
71B
100
AcDbEntity
  8
0
  6
CONTINUOUS
 62
     7
100
AcDbLine
 10
-353.63056
 20
-358.53336
 30
0.0
 11
-324.42586
 21
-350.0
 31
0.0
  0
LINE
  5
71C
100
AcDbEntity
  8
0
  6
CENTER
 62
     7
100
AcDbLine
 10
-388.19316
 20
-377.0
 30
0.0
 11
-275.991
 21
-377.0
 31
0.0
  0
LINE
  5
71D
100
AcDbEntity
  8
0
  6
CONTINUOUS
 62
     7
100
AcDbLine
 10
-332.29901
 20
-348.62146
 30
0.0
 11
-329.321
 21
-350.57111
 31
0.0
  0
LINE
  5
71E
100
AcDbEntity
  8
0
  6
CENTER
 62
     7
100
AcDbLine
 10
-332.18935
 20
-339.0
 30
0.0
 11
-275.991
 21
-339.0
 31
0.0
  0
LINE
  5
71F
100
AcDbEntity
  8
0
  6
CENTER
 62
     7
100
AcDbLine
 10
-332.18935
 20
-415.0
 30
0.0
 11
-275.991
 21
-415.0
 31
0.0
  0
LINE
  5
720
100
AcDbEntity
  8
0
  6
CENTER
 62
     7
100
AcDbLine
 10
-294.0
 20
-333.0
 30
0.0
 11
-294.0
 21
-345.0
 31
0.0
  0
LINE
  5
721
100
AcDbEntity
  8
0
  6
CENTER
 62
     7
100
AcDbLine
 10
-326.0
 20
-333.0
 30
0.0
 11
-326.0
 21
-345.0
 31
0.0
  0
LINE
  5
722
100
AcDbEntity
  8
0
  6
CONTINUOUS
 62
     7
100
AcDbLine
 10
-302.74467
 20
-346.46865
 30
0.0
 11
-300.43299
 21
-349.17528
 31
0.0
  0
LINE
  5
723
100
AcDbEntity
  8
0
  6
CONTINUOUS
 62
     7
100
AcDbLine
 10
-326.0
 20
-350.0
 30
0.0
 11
-294.0
 21
-350.0
 31
0.0
  0
LINE
  5
724
100
AcDbEntity
  8
0
  6
CONTINUOUS
 62
     7
100
AcDbLine
 10
-296.5
 20
-335.8775
 30
0.0
 11
-296.5
 21
-342.1225
 31
0.0
  0
LINE
  5
725
100
AcDbEntity
  8
0
  6
CONTINUOUS
 62
     7
100
AcDbLine
 10
-326.0
 20
-328.0
 30
0.0
 11
-294.0
 21
-328.0
 31
0.0
  0
LINE
  5
726
100
AcDbEntity
  8
0
  6
CONTINUOUS
 62
     7
100
AcDbLine
 10
-360.60052
 20
-348.92769
 30
0.0
 11
-354.93608
 21
-351.55717
 31
0.0
  0
CIRCLE
  5
727
100
AcDbEntity
  8
0
  6
CONTINUOUS
 62
     7
100
AcDbCircle
 10
-356.71567
 20
-406.02516
 30
0.0
 40
4.0
  0
ARC
  5
728
100
AcDbEntity
  8
0
  6
CONTINUOUS
 62
     7
100
AcDbCircle
 10
-320.19053
 20
-425.5
 30
0.0
 40
0.5
100
AcDbArc
 50
118.95503
 51
270.0
  0
CIRCLE
  5
729
100
AcDbEntity
  8
0
  6
CONTINUOUS
 62
     7
100
AcDbCircle
 10
-326.0
 20
-415.0
 30
0.0
 40
4.0
  0
ARC
  5
72A
100
AcDbEntity
  8
0
  6
CONTINUOUS
 62
     7
100
AcDbCircle
 10
-326.0
 20
-415.0
 30
0.0
 40
11.5
100
AcDbArc
 50
298.95503
 51
40.499999
  0
ARC
  5
72B
100
AcDbEntity
  8
0
  6
CONTINUOUS
 62
     7
100
AcDbCircle
 10
-294.0
 20
-415.0
 30
0.0
 40
11.0
100
AcDbArc
 50
270.0
 51
90.000003
  0
ARC
  5
72C
100
AcDbEntity
  8
0
  6
CONTINUOUS
 62
     7
100
AcDbCircle
 10
-356.7157
 20
-406.02518
 30
0.0
 40
11.0
100
AcDbArc
 50
204.90099
 51
24.901
  0
ARC
  5
72D
100
AcDbEntity
  8
0
  6
CONTINUOUS
 62
     7
100
AcDbCircle
 10
-319.1868
 20
-404.5
 30
0.0
 40
0.5
100
AcDbArc
 50
90.000003
 51
220.49999
  0
CIRCLE
  5
72E
100
AcDbEntity
  8
0
  6
CONTINUOUS
 62
     7
100
AcDbCircle
 10
-356.71567
 20
-347.97484
 30
0.0
 40
4.0
  0
ARC
  5
72F
100
AcDbEntity
  8
0
  6
CONTINUOUS
 62
     7
100
AcDbCircle
 10
-356.71567
 20
-347.97484
 30
0.0
 40
11.5
100
AcDbArc
 50
184.05393
 51
285.5989
  0
ARC
  5
730
100
AcDbEntity
  8
0
  6
CONTINUOUS
 62
     7
100
AcDbCircle
 10
-377.26715
 20
-386.69045
 30
0.0
 40
0.5
100
AcDbArc
 50
53.856025
 51
204.901
  0
ARC
  5
731
100
AcDbEntity
  8
0
  6
CONTINUOUS
 62
     7
100
AcDbCircle
 10
-370.18937
 20
-376.99999
 30
0.0
 40
11.0
100
AcDbArc
 50
155.0989
 51
335.09889
  0
ARC
  5
732
100
AcDbEntity
  8
0
  6
CONTINUOUS
 62
     7
100
AcDbCircle
 10
-354.08425
 20
-417.73309
 30
0.0
 40
0.5
100
AcDbArc
 50
102.66703
 51
253.71199
  0
ARC
  5
733
100
AcDbEntity
  8
0
  6
CONTINUOUS
 62
     7
100
AcDbCircle
 10
-347.23103
 20
-397.85745
 30
0.0
 40
0.5
100
AcDbArc
 50
73.712003
 51
204.212
  0
ARC
  5
734
100
AcDbEntity
  8
0
  6
CONTINUOUS
 62
     7
100
AcDbCircle
 10
-326.00002
 20
-415.00006
 30
0.0
 40
11.0
100
AcDbArc
 50
253.712
 51
73.712003
  0
ARC
  5
735
100
AcDbEntity
  8
0
  6
CONTINUOUS
 62
     7
100
AcDbCircle
 10
-356.71567
 20
-406.02516
 30
0.0
 40
11.5
100
AcDbArc
 50
282.66703
 51
24.211999
  0
ARC
  5
736
100
AcDbEntity
  8
0
  6
CONTINUOUS
 62
     7
100
AcDbCircle
 10
-370.18935
 20
-377.0
 30
0.0
 40
11.5
100
AcDbArc
 50
233.85602
 51
335.401
  0
CIRCLE
  5
737
100
AcDbEntity
  8
0
  6
CONTINUOUS
 62
     7
100
AcDbCircle
 10
-370.18935
 20
-377.0
 30
0.0
 40
4.0
  0
ARC
  5
738
100
AcDbEntity
  8
0
  6
CONTINUOUS
 62
     7
100
AcDbCircle
 10
-357.79676
 20
-378.75878
 30
0.0
 40
0.5
100
AcDbArc
 50
24.901
 51
155.401
  0
ARC
  5
739
100
AcDbEntity
  8
0
  6
CONTINUOUS
 62
     7
100
AcDbCircle
 10
-334.52118
 20
-330.55077
 30
0.0
 40
0.5
100
AcDbArc
 50
315.24292
 51
106.2879
  0
ARC
  5
73A
100
AcDbEntity
  8
0
  6
CONTINUOUS
 62
     7
100
AcDbCircle
 10
-356.71566
 20
-347.97485
 30
0.0
 40
11.0
100
AcDbArc
 50
106.2879
 51
286.2879
  0
ARC
  5
73B
100
AcDbEntity
  8
0
  6
CONTINUOUS
 62
     7
100
AcDbCircle
 10
-326.0
 20
-339.0
 30
0.0
 40
11.5
100
AcDbArc
 50
135.24292
 51
236.78791
  0
ARC
  5
73C
100
AcDbEntity
  8
0
  6
CENTER
 62
     7
100
AcDbCircle
 10
-332.18935
 20
-377.0
 30
0.0
 40
38.0
100
AcDbArc
 50
90.000003
 51
270.0
  0
CIRCLE
  5
73D
100
AcDbEntity
  8
0
  6
CONTINUOUS
 62
     7
100
AcDbCircle
 10
-326.0
 20
-339.0
 30
0.0
 40
4.0
  0
CIRCLE
  5
73E
100
AcDbEntity
  8
0
  6
CONTINUOUS
 62
     7
100
AcDbCircle
 10
-294.0
 20
-339.0
 30
0.0
 40
4.0
  0
ARC
  5
73F
100
AcDbEntity
  8
0
  6
CONTINUOUS
 62
     7
100
AcDbCircle
 10
-294.0
 20
-339.0
 30
0.0
 40
11.5
100
AcDbArc
 50
118.95503
 51
220.49999
  0
ARC
  5
740
100
AcDbEntity
  8
0
  6
CONTINUOUS
 62
     7
100
AcDbCircle
 10
-326.0
 20
-339.0
 30
0.0
 40
11.0
100
AcDbArc
 50
90.000003
 51
270.0
  0
ARC
  5
741
100
AcDbEntity
  8
0
  6
CONTINUOUS
 62
     7
100
AcDbCircle
 10
-368.68565
 20
-348.82318
 30
0.0
 40
0.5
100
AcDbArc
 50
4.053924
 51
155.0989
  0
ARC
  5
742
100
AcDbEntity
  8
0
  6
CONTINUOUS
 62
     7
100
AcDbCircle
 10
-350.06051
 20
-358.57571
 30
0.0
 40
0.5
100
AcDbArc
 50
335.0989
 51
105.5989
  0
ARC
  5
743
100
AcDbEntity
  8
0
  6
CONTINUOUS
 62
     7
100
AcDbCircle
 10
-299.80947
 20
-328.5
 30
0.0
 40
0.5
100
AcDbArc
 50
298.95503
 51
90.000003
  0
ARC
  5
744
100
AcDbEntity
  8
0
  6
CONTINUOUS
 62
     7
100
AcDbCircle
 10
-329.59488
 20
-350.98943
 30
0.0
 40
0.5
100
AcDbArc
 50
286.2879
 51
56.7879
  0
ARC
  5
745
100
AcDbEntity
  8
0
  6
CONTINUOUS
 62
     7
100
AcDbCircle
 10
-300.8132
 20
-349.5
 30
0.0
 40
0.5
100
AcDbArc
 50
270.0
 51
40.499999
  0
POINT
  5
746
100
AcDbEntity
  8
0
  6
CONTINUOUS
 62
     7
100
AcDbPoint
 10
-294.0
 20
-249.0
 30
0.0
  0
POINT
  5
747
100
AcDbEntity
  8
0
  6
CONTINUOUS
 62
     7
100
AcDbPoint
 10
-281.69052
 20
-249.0
 30
0.0
  0
LINE
  5
748
100
AcDbEntity
  8
0
  6
CONTINUOUS
 62
     7
100
AcDbLine
 10
-340.60348
 20
-229.0
 30
0.0
 11
-314.0
 21
-229.0
 31
0.0
  0
LINE
  5
749
100
AcDbEntity
  8
0
  6
CONTINUOUS
 62
     7
100
AcDbLine
 10
-375.11413
 20
-221.5
 30
0.0
 11
-371.7457
 21
-221.5
 31
0.0
  0
LINE
  5
74A
100
AcDbEntity
  8
0
  6
CONTINUOUS
 62
     7
100
AcDbLine
 10
-368.92863
 20
-274.0
 30
0.0
 11
-368.92863
 21
-279.0
 31
0.0
  0
LINE
  5
74B
100
AcDbEntity
  8
0
  6
CONTINUOUS
 62
     7
100
AcDbLine
 10
-375.11413
 20
-276.5
 30
0.0
 11
-371.7457
 21
-276.5
 31
0.0
  0
LINE
  5
74C
100
AcDbEntity
  8
0
  6
CONTINUOUS
 62
     7
100
AcDbLine
 10
-340.60348
 20
-269.0
 30
0.0
 11
-314.0
 21
-269.0
 31
0.0
  0
LINE
  5
74D
100
AcDbEntity
  8
0
  6
CONTINUOUS
 62
     7
100
AcDbLine
 10
-377.93119
 20
-224.0
 30
0.0
 11
-377.93119
 21
-229.0
 31
0.0
  0
LINE
  5
74E
100
AcDbEntity
  8
0
  6
CONTINUOUS
 62
     7
100
AcDbLine
 10
-348.28239
 20
-276.5
 30
0.0
 11
-340.60348
 21
-276.5
 31
0.0
  0
LINE
  5
74F
100
AcDbEntity
  8
0
  6
CONTINUOUS
 62
     7
100
AcDbLine
 10
-334.18148
 20
-219.0
 30
0.0
 11
-334.18148
 21
-224.0
 31
0.0
  0
LINE
  5
750
100
AcDbEntity
  8
0
  6
CONTINUOUS
 62
     7
100
AcDbLine
 10
-299.30947
 20
-219.0
 30
0.0
 11
-299.30947
 21
-224.0
 31
0.0
  0
LINE
  5
751
100
AcDbEntity
  8
0
  6
CONTINUOUS
 62
     7
100
AcDbLine
 10
-354.70439
 20
-224.0
 30
0.0
 11
-354.70439
 21
-229.0
 31
0.0
  0
LINE
  5
752
100
AcDbEntity
  8
0
  6
CONTINUOUS
 62
     7
100
AcDbLine
 10
-337.24395
 20
-229.0
 30
0.0
 11
-337.24395
 21
-269.0
 31
0.0
  0
LINE
  5
753
100
AcDbEntity
  8
0
  6
CONTINUOUS
 62
     7
100
AcDbLine
 10
-340.60348
 20
-220.8
 30
0.0
 11
-340.60348
 21
-229.0
 31
0.0
  0
LINE
  5
754
100
AcDbEntity
  8
0
  6
CONTINUOUS
 62
     7
100
AcDbLine
 10
-299.30947
 20
-274.0
 30
0.0
 11
-299.30947
 21
-279.0
 31
0.0
  0
LINE
  5
755
100
AcDbEntity
  8
0
  6
CENTER
 62
     7
100
AcDbLine
 10
-389.99399
 20
-249.0
 30
0.0
 11
-281.69052
 21
-249.0
 31
0.0
  0
LINE
  5
756
100
AcDbEntity
  8
0
  6
CONTINUOUS
 62
     7
100
AcDbLine
 10
-320.69053
 20
-269.0
 30
0.0
 11
-320.69053
 21
-274.0
 31
0.0
  0
LINE
  5
757
100
AcDbEntity
  8
0
  6
CENTER
 62
     7
100
AcDbLine
 10
-316.0
 20
-273.0
 30
0.0
 11
-304.0
 21
-273.0
 31
0.0
  0
LINE
  5
758
100
AcDbEntity
  8
0
  6
CONTINUOUS
 62
     7
100
AcDbLine
 10
-314.0
 20
-276.5
 30
0.0
 11
-306.0
 21
-276.5
 31
0.0
  0
LINE
  5
759
100
AcDbEntity
  8
0
  6
CONTINUOUS
 62
     7
100
AcDbLine
 10
-299.31945
 20
-279.0
 30
0.0
 11
-381.18937
 21
-279.0
 31
0.0
  0
LINE
  5
75A
100
AcDbEntity
  8
0
  6
CONTINUOUS
 62
     7
100
AcDbLine
 10
-306.0
 20
-269.0
 30
0.0
 11
-288.69052
 21
-269.0
 31
0.0
  0
LINE
  5
75B
100
AcDbEntity
  8
0
  6
CONTINUOUS
 62
     7
100
AcDbLine
 10
-381.18937
 20
-269.0
 30
0.0
 11
-375.11413
 21
-269.0
 31
0.0
  0
LINE
  5
75C
100
AcDbEntity
  8
0
  6
CONTINUOUS
 62
     7
100
AcDbLine
 10
-334.18148
 20
-274.0
 30
0.0
 11
-320.69053
 21
-274.0
 31
0.0
  0
LINE
  5
75D
100
AcDbEntity
  8
0
  6
CONTINUOUS
 62
     7
100
AcDbLine
 10
-314.0
 20
-277.2
 30
0.0
 11
-306.0
 21
-277.2
 31
0.0
  0
LINE
  5
75E
100
AcDbEntity
  8
0
  6
CENTER
 62
     7
100
AcDbLine
 10
-294.0
 20
-286.0
 30
0.0
 11
-294.0
 21
-212.0
 31
0.0
  0
LINE
  5
75F
100
AcDbEntity
  8
0
  6
CONTINUOUS
 62
     7
100
AcDbLine
 10
-320.69053
 20
-224.0
 30
0.0
 11
-320.69053
 21
-229.0
 31
0.0
  0
LINE
  5
760
100
AcDbEntity
  8
0
  6
CENTER
 62
     7
100
AcDbLine
 10
-326.0
 20
-286.0
 30
0.0
 11
-326.0
 21
-212.0
 31
0.0
  0
LINE
  5
761
100
AcDbEntity
  8
0
  6
CONTINUOUS
 62
     7
100
AcDbLine
 10
-314.0
 20
-277.20099
 30
0.0
 11
-314.0
 21
-269.0
 31
0.0
  0
LINE
  5
762
100
AcDbEntity
  8
0
  6
CONTINUOUS
 62
     7
100
AcDbLine
 10
-319.0
 20
-229.0
 30
0.0
 11
-319.0
 21
-269.0
 31
0.0
  0
LINE
  5
763
100
AcDbEntity
  8
0
  6
CONTINUOUS
 62
     7
100
AcDbLine
 10
-301.0
 20
-229.0
 30
0.0
 11
-301.0
 21
-269.0
 31
0.0
  0
LINE
  5
764
100
AcDbEntity
  8
0
  6
CONTINUOUS
 62
     7
100
AcDbLine
 10
-317.5
 20
-229.0
 30
0.0
 11
-317.5
 21
-269.0
 31
0.0
  0
LINE
  5
765
100
AcDbEntity
  8
0
  6
CENTER
 62
     7
100
AcDbLine
 10
-316.0
 20
-225.0
 30
0.0
 11
-304.0
 21
-225.0
 31
0.0
  0
LINE
  5
766
100
AcDbEntity
  8
0
  6
CONTINUOUS
 62
     7
100
AcDbLine
 10
-314.0
 20
-221.5
 30
0.0
 11
-306.0
 21
-221.5
 31
0.0
  0
LINE
  5
767
100
AcDbEntity
  8
0
  6
CONTINUOUS
 62
     7
100
AcDbLine
 10
-299.31945
 20
-219.0
 30
0.0
 11
-381.18937
 21
-219.0
 31
0.0
  0
LINE
  5
768
100
AcDbEntity
  8
0
  6
CONTINUOUS
 62
     7
100
AcDbLine
 10
-306.0
 20
-229.0
 30
0.0
 11
-288.69052
 21
-229.0
 31
0.0
  0
LINE
  5
769
100
AcDbEntity
  8
0
  6
CONTINUOUS
 62
     7
100
AcDbLine
 10
-306.0
 20
-277.20099
 30
0.0
 11
-306.0
 21
-269.0
 31
0.0
  0
LINE
  5
76A
100
AcDbEntity
  8
0
  6
CONTINUOUS
 62
     7
100
AcDbLine
 10
-381.18937
 20
-229.0
 30
0.0
 11
-375.11413
 21
-229.0
 31
0.0
  0
LINE
  5
76B
100
AcDbEntity
  8
0
  6
CONTINUOUS
 62
     7
100
AcDbLine
 10
-334.18148
 20
-224.0
 30
0.0
 11
-320.69053
 21
-224.0
 31
0.0
  0
LINE
  5
76C
100
AcDbEntity
  8
0
  6
CONTINUOUS
 62
     7
100
AcDbLine
 10
-299.30947
 20
-274.0
 30
0.0
 11
-288.69052
 21
-274.0
 31
0.0
  0
LINE
  5
76D
100
AcDbEntity
  8
0
  6
CONTINUOUS
 62
     7
100
AcDbLine
 10
-314.0
 20
-220.8
 30
0.0
 11
-306.0
 21
-220.8
 31
0.0
  0
LINE
  5
76E
100
AcDbEntity
  8
0
  6
CONTINUOUS
 62
     7
100
AcDbLine
 10
-314.0
 20
-220.8
 30
0.0
 11
-314.0
 21
-229.0
 31
0.0
  0
LINE
  5
76F
100
AcDbEntity
  8
0
  6
CONTINUOUS
 62
     7
100
AcDbLine
 10
-302.5
 20
-229.0
 30
0.0
 11
-302.5
 21
-269.0
 31
0.0
  0
LINE
  5
770
100
AcDbEntity
  8
0
  6
CONTINUOUS
 62
     7
100
AcDbLine
 10
-306.0
 20
-220.8
 30
0.0
 11
-306.0
 21
-229.0
 31
0.0
  0
LINE
  5
771
100
AcDbEntity
  8
0
  6
CONTINUOUS
 62
     7
100
AcDbLine
 10
-299.30947
 20
-224.0
 30
0.0
 11
-288.69052
 21
-224.0
 31
0.0
  0
LINE
  5
772
100
AcDbEntity
  8
0
  6
CONTINUOUS
 62
     7
100
AcDbLine
 10
-348.28239
 20
-220.8
 30
0.0
 11
-348.28239
 21
-229.0
 31
0.0
  0
LINE
  5
773
100
AcDbEntity
  8
0
  6
CONTINUOUS
 62
     7
100
AcDbLine
 10
-348.28239
 20
-277.2
 30
0.0
 11
-340.60348
 21
-277.2
 31
0.0
  0
LINE
  5
774
100
AcDbEntity
  8
0
  6
CONTINUOUS
 62
     7
100
AcDbLine
 10
-375.11413
 20
-269.0
 30
0.0
 11
-375.11413
 21
-277.2
 31
0.0
  0
LINE
  5
775
100
AcDbEntity
  8
0
  6
CONTINUOUS
 62
     7
100
AcDbLine
 10
-376.58781
 20
-229.0
 30
0.0
 11
-376.58781
 21
-269.0
 31
0.0
  0
LINE
  5
776
100
AcDbEntity
  8
0
  6
CONTINUOUS
 62
     7
100
AcDbLine
 10
-348.28239
 20
-221.5
 30
0.0
 11
-340.60348
 21
-221.5
 31
0.0
  0
LINE
  5
777
100
AcDbEntity
  8
0
  6
CONTINUOUS
 62
     7
100
AcDbLine
 10
-375.11413
 20
-220.8
 30
0.0
 11
-375.11413
 21
-229.0
 31
0.0
  0
LINE
  5
778
100
AcDbEntity
  8
0
  6
CONTINUOUS
 62
     7
100
AcDbLine
 10
-377.93119
 20
-269.0
 30
0.0
 11
-377.93119
 21
-274.0
 31
0.0
  0
LINE
  5
779
100
AcDbEntity
  8
0
  6
CONTINUOUS
 62
     7
100
AcDbLine
 10
-371.7457
 20
-220.8
 30
0.0
 11
-371.7457
 21
-229.0
 31
0.0
  0
LINE
  5
77A
100
AcDbEntity
  8
0
  6
CONTINUOUS
 62
     7
100
AcDbLine
 10
-375.11413
 20
-277.2
 30
0.0
 11
-371.7457
 21
-277.2
 31
0.0
  0
LINE
  5
77B
100
AcDbEntity
  8
0
  6
CONTINUOUS
 62
     7
100
AcDbLine
 10
-371.7457
 20
-269.0
 30
0.0
 11
-371.7457
 21
-277.2
 31
0.0
  0
LINE
  5
77C
100
AcDbEntity
  8
0
  6
CONTINUOUS
 62
     7
100
AcDbLine
 10
-370.27202
 20
-229.0
 30
0.0
 11
-370.27202
 21
-269.0
 31
0.0
  0
LINE
  5
77D
100
AcDbEntity
  8
0
  6
CONTINUOUS
 62
     7
100
AcDbLine
 10
-348.28239
 20
-220.8
 30
0.0
 11
-340.60348
 21
-220.8
 31
0.0
  0
LINE
  5
77E
100
AcDbEntity
  8
0
  6
CONTINUOUS
 62
     7
100
AcDbLine
 10
-368.92863
 20
-219.0
 30
0.0
 11
-368.92863
 21
-224.0
 31
0.0
  0
LINE
  5
77F
100
AcDbEntity
  8
0
  6
CONTINUOUS
 62
     7
100
AcDbLine
 10
-375.11413
 20
-220.8
 30
0.0
 11
-371.7457
 21
-220.8
 31
0.0
  0
LINE
  5
780
100
AcDbEntity
  8
0
  6
CONTINUOUS
 62
     7
100
AcDbLine
 10
-351.64192
 20
-229.0
 30
0.0
 11
-351.64192
 21
-269.0
 31
0.0
  0
LINE
  5
781
100
AcDbEntity
  8
0
  6
CONTINUOUS
 62
     7
100
AcDbLine
 10
-334.18148
 20
-274.0
 30
0.0
 11
-334.18148
 21
-279.0
 31
0.0
  0
LINE
  5
782
100
AcDbEntity
  8
0
  6
CONTINUOUS
 62
     7
100
AcDbLine
 10
-340.60348
 20
-269.0
 30
0.0
 11
-340.60348
 21
-277.2
 31
0.0
  0
LINE
  5
783
100
AcDbEntity
  8
0
  6
CONTINUOUS
 62
     7
100
AcDbLine
 10
-348.28239
 20
-269.0
 30
0.0
 11
-348.28239
 21
-277.2
 31
0.0
  0
LINE
  5
784
100
AcDbEntity
  8
0
  6
CONTINUOUS
 62
     7
100
AcDbLine
 10
-354.70439
 20
-269.0
 30
0.0
 11
-354.70439
 21
-274.0
 31
0.0
  0
LINE
  5
785
100
AcDbEntity
  8
0
  6
CONTINUOUS
 62
     7
100
AcDbLine
 10
-371.7457
 20
-229.0
 30
0.0
 11
-348.28239
 21
-229.0
 31
0.0
  0
LINE
  5
786
100
AcDbEntity
  8
0
  6
CONTINUOUS
 62
     7
100
AcDbLine
 10
-381.18937
 20
-269.0
 30
0.0
 11
-381.18937
 21
-279.0
 31
0.0
  0
LINE
  5
787
100
AcDbEntity
  8
0
  6
CONTINUOUS
 62
     7
100
AcDbLine
 10
-368.92863
 20
-224.0
 30
0.0
 11
-354.70439
 21
-224.0
 31
0.0
  0
LINE
  5
788
100
AcDbEntity
  8
0
  6
CONTINUOUS
 62
     7
100
AcDbLine
 10
-368.92863
 20
-274.0
 30
0.0
 11
-354.70439
 21
-274.0
 31
0.0
  0
LINE
  5
789
100
AcDbEntity
  8
0
  6
CONTINUOUS
 62
     7
100
AcDbLine
 10
-371.7457
 20
-269.0
 30
0.0
 11
-348.28239
 21
-269.0
 31
0.0
  0
LINE
  5
78A
100
AcDbEntity
  8
0
  6
CONTINUOUS
 62
     7
100
AcDbLine
 10
-381.18937
 20
-219.0
 30
0.0
 11
-381.18937
 21
-229.0
 31
0.0
  0
LINE
  5
78B
100
AcDbEntity
  8
0
  6
CONTINUOUS
 62
     7
100
AcDbLine
 10
-381.18937
 20
-274.0
 30
0.0
 11
-377.93119
 21
-274.0
 31
0.0
  0
LINE
  5
78C
100
AcDbEntity
  8
0
  6
CONTINUOUS
 62
     7
100
AcDbLine
 10
-381.18937
 20
-224.0
 30
0.0
 11
-377.93119
 21
-224.0
 31
0.0
  0
LINE
  5
78D
100
AcDbEntity
  8
0
  6
CENTER
 62
     7
100
AcDbLine
 10
-356.71567
 20
-286.0
 30
0.0
 11
-356.71567
 21
-212.0
 31
0.0
  0
LINE
  5
78E
100
AcDbEntity
  8
0
  6
CENTER
 62
     7
100
AcDbLine
 10
-370.18935
 20
-286.0
 30
0.0
 11
-370.18935
 21
-212.0
 31
0.0
  0
POINT
  5
78F
100
AcDbEntity
  8
0
  6
CONTINUOUS
 62
     7
100
AcDbPoint
 10
-294.0
 20
-505.0
 30
0.0
  0
POINT
  5
790
100
AcDbEntity
  8
0
  6
CONTINUOUS
 62
     7
100
AcDbPoint
 10
-281.69052
 20
-505.0
 30
0.0
  0
LINE
  5
791
100
AcDbEntity
  8
0
  6
CONTINUOUS
 62
     7
100
AcDbLine
 10
-334.18151
 20
-480.0
 30
0.0
 11
-334.18151
 21
-485.0
 31
0.0
  0
LINE
  5
792
100
AcDbEntity
  8
0
  6
CONTINUOUS
 62
     7
100
AcDbLine
 10
-306.0
 20
-476.8
 30
0.0
 11
-314.0
 21
-476.8
 31
0.0
  0
LINE
  5
793
100
AcDbEntity
  8
0
  6
CENTER
 62
     7
100
AcDbLine
 10
-326.0
 20
-468.0
 30
0.0
 11
-326.0
 21
-542.0
 31
0.0
  0
LINE
  5
794
100
AcDbEntity
  8
0
  6
CONTINUOUS
 62
     7
100
AcDbLine
 10
-288.69052
 20
-480.0
 30
0.0
 11
-299.30947
 21
-480.0
 31
0.0
  0
LINE
  5
795
100
AcDbEntity
  8
0
  6
CONTINUOUS
 62
     7
100
AcDbLine
 10
-299.30947
 20
-485.0
 30
0.0
 11
-306.0
 21
-485.0
 31
0.0
  0
LINE
  5
796
100
AcDbEntity
  8
0
  6
CONTINUOUS
 62
     7
100
AcDbLine
 10
-314.0
 20
-485.0
 30
0.0
 11
-340.60351
 21
-485.0
 31
0.0
  0
LINE
  5
797
100
AcDbEntity
  8
0
  6
CONTINUOUS
 62
     7
100
AcDbLine
 10
-381.18937
 20
-475.0
 30
0.0
 11
-288.69052
 21
-475.0
 31
0.0
  0
LINE
  5
798
100
AcDbEntity
  8
0
  6
CONTINUOUS
 62
     7
100
AcDbLine
 10
-306.0
 20
-477.5
 30
0.0
 11
-314.0
 21
-477.5
 31
0.0
  0
LINE
  5
799
100
AcDbEntity
  8
0
  6
CENTER
 62
     7
100
AcDbLine
 10
-304.0
 20
-481.0
 30
0.0
 11
-316.0
 21
-481.0
 31
0.0
  0
LINE
  5
79A
100
AcDbEntity
  8
0
  6
CONTINUOUS
 62
     7
100
AcDbLine
 10
-299.30947
 20
-485.0
 30
0.0
 11
-299.30947
 21
-480.0
 31
0.0
  0
LINE
  5
79B
100
AcDbEntity
  8
0
  6
CENTER
 62
     7
100
AcDbLine
 10
-281.69052
 20
-505.0
 30
0.0
 11
-388.19316
 21
-505.0
 31
0.0
  0
LINE
  5
79C
100
AcDbEntity
  8
0
  6
CONTINUOUS
 62
     7
100
AcDbLine
 10
-320.69053
 20
-480.0
 30
0.0
 11
-320.69053
 21
-475.0
 31
0.0
  0
LINE
  5
79D
100
AcDbEntity
  8
0
  6
CONTINUOUS
 62
     7
100
AcDbLine
 10
-320.69053
 20
-535.0
 30
0.0
 11
-320.69053
 21
-530.0
 31
0.0
  0
LINE
  5
79E
100
AcDbEntity
  8
0
  6
CONTINUOUS
 62
     7
100
AcDbLine
 10
-320.69053
 20
-530.0
 30
0.0
 11
-334.18151
 21
-530.0
 31
0.0
  0
LINE
  5
79F
100
AcDbEntity
  8
0
  6
CONTINUOUS
 62
     7
100
AcDbLine
 10
-299.30947
 20
-525.0
 30
0.0
 11
-306.0
 21
-525.0
 31
0.0
  0
LINE
  5
7A0
100
AcDbEntity
  8
0
  6
CONTINUOUS
 62
     7
100
AcDbLine
 10
-314.0
 20
-476.79901
 30
0.0
 11
-314.0
 21
-485.0
 31
0.0
  0
LINE
  5
7A1
100
AcDbEntity
  8
0
  6
CONTINUOUS
 62
     7
100
AcDbLine
 10
-306.0
 20
-476.79901
 30
0.0
 11
-306.0
 21
-485.0
 31
0.0
  0
LINE
  5
7A2
100
AcDbEntity
  8
0
  6
CONTINUOUS
 62
     7
100
AcDbLine
 10
-314.0
 20
-525.0
 30
0.0
 11
-340.60351
 21
-525.0
 31
0.0
  0
LINE
  5
7A3
100
AcDbEntity
  8
0
  6
CONTINUOUS
 62
     7
100
AcDbLine
 10
-301.0
 20
-525.0
 30
0.0
 11
-301.0
 21
-485.0
 31
0.0
  0
LINE
  5
7A4
100
AcDbEntity
  8
0
  6
CONTINUOUS
 62
     7
100
AcDbLine
 10
-319.0
 20
-525.0
 30
0.0
 11
-319.0
 21
-485.0
 31
0.0
  0
LINE
  5
7A5
100
AcDbEntity
  8
0
  6
CONTINUOUS
 62
     7
100
AcDbLine
 10
-302.5
 20
-525.0
 30
0.0
 11
-302.5
 21
-485.0
 31
0.0
  0
LINE
  5
7A6
100
AcDbEntity
  8
0
  6
CENTER
 62
     7
100
AcDbLine
 10
-304.0
 20
-529.0
 30
0.0
 11
-316.0
 21
-529.0
 31
0.0
  0
LINE
  5
7A7
100
AcDbEntity
  8
0
  6
CONTINUOUS
 62
     7
100
AcDbLine
 10
-306.0
 20
-532.5
 30
0.0
 11
-314.0
 21
-532.5
 31
0.0
  0
LINE
  5
7A8
100
AcDbEntity
  8
0
  6
CONTINUOUS
 62
     7
100
AcDbLine
 10
-381.18937
 20
-535.0
 30
0.0
 11
-288.69052
 21
-535.0
 31
0.0
  0
LINE
  5
7A9
100
AcDbEntity
  8
0
  6
CONTINUOUS
 62
     7
100
AcDbLine
 10
-299.30947
 20
-530.0
 30
0.0
 11
-299.30947
 21
-525.0
 31
0.0
  0
LINE
  5
7AA
100
AcDbEntity
  8
0
  6
CENTER
 62
     7
100
AcDbLine
 10
-294.0
 20
-468.0
 30
0.0
 11
-294.0
 21
-542.0
 31
0.0
  0
LINE
  5
7AB
100
AcDbEntity
  8
0
  6
CONTINUOUS
 62
     7
100
AcDbLine
 10
-288.69052
 20
-530.0
 30
0.0
 11
-299.30947
 21
-530.0
 31
0.0
  0
LINE
  5
7AC
100
AcDbEntity
  8
0
  6
CONTINUOUS
 62
     7
100
AcDbLine
 10
-320.69053
 20
-480.0
 30
0.0
 11
-334.18151
 21
-480.0
 31
0.0
  0
LINE
  5
7AD
100
AcDbEntity
  8
0
  6
CONTINUOUS
 62
     7
100
AcDbLine
 10
-306.0
 20
-533.2
 30
0.0
 11
-314.0
 21
-533.2
 31
0.0
  0
LINE
  5
7AE
100
AcDbEntity
  8
0
  6
CONTINUOUS
 62
     7
100
AcDbLine
 10
-306.0
 20
-533.2
 30
0.0
 11
-306.0
 21
-525.0
 31
0.0
  0
LINE
  5
7AF
100
AcDbEntity
  8
0
  6
CONTINUOUS
 62
     7
100
AcDbLine
 10
-317.5
 20
-525.0
 30
0.0
 11
-317.5
 21
-485.0
 31
0.0
  0
LINE
  5
7B0
100
AcDbEntity
  8
0
  6
CONTINUOUS
 62
     7
100
AcDbLine
 10
-314.0
 20
-533.2
 30
0.0
 11
-314.0
 21
-525.0
 31
0.0
  0
LINE
  5
7B1
100
AcDbEntity
  8
0
  6
CONTINUOUS
 62
     7
100
AcDbLine
 10
-337.24398
 20
-485.0
 30
0.0
 11
-337.24398
 21
-525.0
 31
0.0
  0
LINE
  5
7B2
100
AcDbEntity
  8
0
  6
CONTINUOUS
 62
     7
100
AcDbLine
 10
-340.60351
 20
-476.8
 30
0.0
 11
-340.60351
 21
-485.0
 31
0.0
  0
LINE
  5
7B3
100
AcDbEntity
  8
0
  6
CONTINUOUS
 62
     7
100
AcDbLine
 10
-348.28242
 20
-476.8
 30
0.0
 11
-348.28242
 21
-485.0
 31
0.0
  0
LINE
  5
7B4
100
AcDbEntity
  8
0
  6
CONTINUOUS
 62
     7
100
AcDbLine
 10
-351.64194
 20
-485.0
 30
0.0
 11
-351.64194
 21
-525.0
 31
0.0
  0
LINE
  5
7B5
100
AcDbEntity
  8
0
  6
CONTINUOUS
 62
     7
100
AcDbLine
 10
-354.70441
 20
-475.0
 30
0.0
 11
-354.70441
 21
-480.0
 31
0.0
  0
LINE
  5
7B6
100
AcDbEntity
  8
0
  6
CONTINUOUS
 62
     7
100
AcDbLine
 10
-375.11414
 20
-476.8
 30
0.0
 11
-375.11414
 21
-485.0
 31
0.0
  0
LINE
  5
7B7
100
AcDbEntity
  8
0
  6
CONTINUOUS
 62
     7
100
AcDbLine
 10
-371.74572
 20
-476.8
 30
0.0
 11
-371.74572
 21
-485.0
 31
0.0
  0
LINE
  5
7B8
100
AcDbEntity
  8
0
  6
CONTINUOUS
 62
     7
100
AcDbLine
 10
-354.70441
 20
-530.0
 30
0.0
 11
-354.70441
 21
-535.0
 31
0.0
  0
LINE
  5
7B9
100
AcDbEntity
  8
0
  6
CONTINUOUS
 62
     7
100
AcDbLine
 10
-348.28242
 20
-525.0
 30
0.0
 11
-348.28242
 21
-533.2
 31
0.0
  0
LINE
  5
7BA
100
AcDbEntity
  8
0
  6
CONTINUOUS
 62
     7
100
AcDbLine
 10
-340.60351
 20
-525.0
 30
0.0
 11
-340.60351
 21
-533.2
 31
0.0
  0
LINE
  5
7BB
100
AcDbEntity
  8
0
  6
CONTINUOUS
 62
     7
100
AcDbLine
 10
-334.18151
 20
-525.0
 30
0.0
 11
-334.18151
 21
-530.0
 31
0.0
  0
LINE
  5
7BC
100
AcDbEntity
  8
0
  6
CONTINUOUS
 62
     7
100
AcDbLine
 10
-376.58781
 20
-485.0
 30
0.0
 11
-376.58781
 21
-525.0
 31
0.0
  0
LINE
  5
7BD
100
AcDbEntity
  8
0
  6
CONTINUOUS
 62
     7
100
AcDbLine
 10
-377.93119
 20
-475.0
 30
0.0
 11
-377.93119
 21
-480.0
 31
0.0
  0
LINE
  5
7BE
100
AcDbEntity
  8
0
  6
CONTINUOUS
 62
     7
100
AcDbLine
 10
-381.18937
 20
-475.0
 30
0.0
 11
-381.18937
 21
-485.0
 31
0.0
  0
LINE
  5
7BF
100
AcDbEntity
  8
0
  6
CONTINUOUS
 62
     7
100
AcDbLine
 10
-375.11414
 20
-533.2
 30
0.0
 11
-371.74572
 21
-533.2
 31
0.0
  0
LINE
  5
7C0
100
AcDbEntity
  8
0
  6
CONTINUOUS
 62
     7
100
AcDbLine
 10
-375.11414
 20
-532.5
 30
0.0
 11
-371.74572
 21
-532.5
 31
0.0
  0
LINE
  5
7C1
100
AcDbEntity
  8
0
  6
CONTINUOUS
 62
     7
100
AcDbLine
 10
-381.18937
 20
-530.0
 30
0.0
 11
-377.93119
 21
-530.0
 31
0.0
  0
LINE
  5
7C2
100
AcDbEntity
  8
0
  6
CONTINUOUS
 62
     7
100
AcDbLine
 10
-381.18937
 20
-525.0
 30
0.0
 11
-375.11414
 21
-525.0
 31
0.0
  0
LINE
  5
7C3
100
AcDbEntity
  8
0
  6
CONTINUOUS
 62
     7
100
AcDbLine
 10
-381.18937
 20
-525.0
 30
0.0
 11
-381.18937
 21
-535.0
 31
0.0
  0
LINE
  5
7C4
100
AcDbEntity
  8
0
  6
CONTINUOUS
 62
     7
100
AcDbLine
 10
-377.93119
 20
-530.0
 30
0.0
 11
-377.93119
 21
-535.0
 31
0.0
  0
LINE
  5
7C5
100
AcDbEntity
  8
0
  6
CONTINUOUS
 62
     7
100
AcDbLine
 10
-375.11414
 20
-525.0
 30
0.0
 11
-375.11414
 21
-533.2
 31
0.0
  0
LINE
  5
7C6
100
AcDbEntity
  8
0
  6
CONTINUOUS
 62
     7
100
AcDbLine
 10
-371.74572
 20
-525.0
 30
0.0
 11
-371.74572
 21
-533.2
 31
0.0
  0
LINE
  5
7C7
100
AcDbEntity
  8
0
  6
CONTINUOUS
 62
     7
100
AcDbLine
 10
-368.92867
 20
-525.0
 30
0.0
 11
-368.92867
 21
-530.0
 31
0.0
  0
LINE
  5
7C8
100
AcDbEntity
  8
0
  6
CONTINUOUS
 62
     7
100
AcDbLine
 10
-381.18937
 20
-485.0
 30
0.0
 11
-375.11414
 21
-485.0
 31
0.0
  0
LINE
  5
7C9
100
AcDbEntity
  8
0
  6
CONTINUOUS
 62
     7
100
AcDbLine
 10
-348.28242
 20
-477.5
 30
0.0
 11
-340.60351
 21
-477.5
 31
0.0
  0
LINE
  5
7CA
100
AcDbEntity
  8
0
  6
CONTINUOUS
 62
     7
100
AcDbLine
 10
-348.28242
 20
-476.8
 30
0.0
 11
-340.60351
 21
-476.8
 31
0.0
  0
LINE
  5
7CB
100
AcDbEntity
  8
0
  6
CONTINUOUS
 62
     7
100
AcDbLine
 10
-348.28242
 20
-532.5
 30
0.0
 11
-340.60351
 21
-532.5
 31
0.0
  0
LINE
  5
7CC
100
AcDbEntity
  8
0
  6
CONTINUOUS
 62
     7
100
AcDbLine
 10
-348.28242
 20
-533.2
 30
0.0
 11
-340.60351
 21
-533.2
 31
0.0
  0
LINE
  5
7CD
100
AcDbEntity
  8
0
  6
CONTINUOUS
 62
     7
100
AcDbLine
 10
-370.27204
 20
-485.0
 30
0.0
 11
-370.27204
 21
-525.0
 31
0.0
  0
LINE
  5
7CE
100
AcDbEntity
  8
0
  6
CONTINUOUS
 62
     7
100
AcDbLine
 10
-368.92867
 20
-480.0
 30
0.0
 11
-368.92867
 21
-485.0
 31
0.0
  0
LINE
  5
7CF
100
AcDbEntity
  8
0
  6
CONTINUOUS
 62
     7
100
AcDbLine
 10
-381.18937
 20
-480.0
 30
0.0
 11
-377.93119
 21
-480.0
 31
0.0
  0
LINE
  5
7D0
100
AcDbEntity
  8
0
  6
CONTINUOUS
 62
     7
100
AcDbLine
 10
-375.11414
 20
-477.5
 30
0.0
 11
-371.74572
 21
-477.5
 31
0.0
  0
LINE
  5
7D1
100
AcDbEntity
  8
0
  6
CONTINUOUS
 62
     7
100
AcDbLine
 10
-375.11414
 20
-476.8
 30
0.0
 11
-371.74572
 21
-476.8
 31
0.0
  0
LINE
  5
7D2
100
AcDbEntity
  8
0
  6
CONTINUOUS
 62
     7
100
AcDbLine
 10
-371.74572
 20
-485.0
 30
0.0
 11
-348.28242
 21
-485.0
 31
0.0
  0
LINE
  5
7D3
100
AcDbEntity
  8
0
  6
CONTINUOUS
 62
     7
100
AcDbLine
 10
-371.74572
 20
-525.0
 30
0.0
 11
-348.28242
 21
-525.0
 31
0.0
  0
LINE
  5
7D4
100
AcDbEntity
  8
0
  6
CONTINUOUS
 62
     7
100
AcDbLine
 10
-368.92867
 20
-530.0
 30
0.0
 11
-354.70441
 21
-530.0
 31
0.0
  0
LINE
  5
7D5
100
AcDbEntity
  8
0
  6
CONTINUOUS
 62
     7
100
AcDbLine
 10
-368.92867
 20
-480.0
 30
0.0
 11
-354.70441
 21
-480.0
 31
0.0
  0
LINE
  5
7D6
100
AcDbEntity
  8
0
  6
CENTER
 62
     7
100
AcDbLine
 10
-370.18935
 20
-468.0
 30
0.0
 11
-370.18935
 21
-542.0
 31
0.0
  0
LINE
  5
7D7
100
AcDbEntity
  8
0
  6
CENTER
 62
     7
100
AcDbLine
 10
-356.71567
 20
-468.0
 30
0.0
 11
-356.71567
 21
-542.0
 31
0.0
  0
POINT
  5
7D8
100
AcDbEntity
  8
0
  6
CONTINUOUS
 62
     7
100
AcDbPoint
 10
-155.0
 20
-377.0
 30
0.0
  0
POINT
  5
7D9
100
AcDbEntity
  8
0
  6
CONTINUOUS
 62
     7
100
AcDbPoint
 10
-135.0
 20
-377.0
 30
0.0
  0
LINE
  5
7DA
100
AcDbEntity
  8
0
  6
CONTINUOUS
 62
     7
100
AcDbLine
 10
-180.0
 20
-431.36499
 30
0.0
 11
-180.0
 21
-436.49555
 31
0.0
  0
LINE
  5
7DB
100
AcDbEntity
  8
0
  6
CONTINUOUS
 62
     7
100
AcDbLine
 10
-180.0
 20
-405.80707
 30
0.0
 11
-175.0
 21
-405.80707
 31
0.0
  0
LINE
  5
7DC
100
AcDbEntity
  8
0
  6
CENTER
 62
     7
100
AcDbLine
 10
-118.0
 20
-328.78327
 30
0.0
 11
-192.0
 21
-328.78327
 31
0.0
  0
LINE
  5
7DD
100
AcDbEntity
  8
0
  6
CENTER
 62
     7
100
AcDbLine
 10
-118.0
 20
-327.0
 30
0.0
 11
-192.0
 21
-327.0
 31
0.0
  0
LINE
  5
7DE
100
AcDbEntity
  8
0
  6
CONTINUOUS
 62
     7
100
AcDbLine
 10
-130.0
 20
-316.31298
 30
0.0
 11
-125.0
 21
-316.31298
 31
0.0
  0
LINE
  5
7DF
100
AcDbEntity
  8
0
  6
CONTINUOUS
 62
     7
100
AcDbLine
 10
-185.0
 20
-316.0
 30
0.0
 11
-125.0
 21
-316.0
 31
0.0
  0
LINE
  5
7E0
100
AcDbEntity
  8
0
  6
CONTINUOUS
 62
     7
100
AcDbLine
 10
-135.0
 20
-316.68582
 30
0.0
 11
-126.8
 21
-316.68582
 31
0.0
  0
LINE
  5
7E1
100
AcDbEntity
  8
0
  6
CONTINUOUS
 62
     7
100
AcDbLine
 10
-135.0
 20
-317.13163
 30
0.0
 11
-126.8
 21
-317.13163
 31
0.0
  0
LINE
  5
7E2
100
AcDbEntity
  8
0
  6
CONTINUOUS
 62
     7
100
AcDbLine
 10
-135.0
 20
-317.50448
 30
0.0
 11
-130.0
 21
-317.50448
 31
0.0
  0
LINE
  5
7E3
100
AcDbEntity
  8
0
  6
CONTINUOUS
 62
     7
100
AcDbLine
 10
-180.0
 20
-317.50448
 30
0.0
 11
-175.0
 21
-317.50448
 31
0.0
  0
LINE
  5
7E4
100
AcDbEntity
  8
0
  6
CONTINUOUS
 62
     7
100
AcDbLine
 10
-175.0
 20
-317.32668
 30
0.0
 11
-135.0
 21
-317.32668
 31
0.0
  0
LINE
  5
7E5
100
AcDbEntity
  8
0
  6
CONTINUOUS
 62
     7
100
AcDbLine
 10
-126.8
 20
-326.37732
 30
0.0
 11
-126.8
 21
-330.85216
 31
0.0
  0
LINE
  5
7E6
100
AcDbEntity
  8
0
  6
CONTINUOUS
 62
     7
100
AcDbLine
 10
-127.5
 20
-326.37732
 30
0.0
 11
-127.5
 21
-330.85216
 31
0.0
  0
LINE
  5
7E7
100
AcDbEntity
  8
0
  6
CONTINUOUS
 62
     7
100
AcDbLine
 10
-175.0
 20
-330.85216
 30
0.0
 11
-175.0
 21
-354.53166
 31
0.0
  0
LINE
  5
7E8
100
AcDbEntity
  8
0
  6
CONTINUOUS
 62
     7
100
AcDbLine
 10
-135.0
 20
-330.85216
 30
0.0
 11
-135.0
 21
-354.53166
 31
0.0
  0
LINE
  5
7E9
100
AcDbEntity
  8
0
  6
CONTINUOUS
 62
     7
100
AcDbLine
 10
-182.5
 20
-326.37732
 30
0.0
 11
-182.5
 21
-330.85216
 31
0.0
  0
LINE
  5
7EA
100
AcDbEntity
  8
0
  6
CONTINUOUS
 62
     7
100
AcDbLine
 10
-183.2
 20
-326.37732
 30
0.0
 11
-183.2
 21
-330.85216
 31
0.0
  0
LINE
  5
7EB
100
AcDbEntity
  8
0
  6
CONTINUOUS
 62
     7
100
AcDbLine
 10
-185.0
 20
-316.31298
 30
0.0
 11
-180.0
 21
-316.31298
 31
0.0
  0
LINE
  5
7EC
100
AcDbEntity
  8
0
  6
CONTINUOUS
 62
     7
100
AcDbLine
 10
-175.0
 20
-316.49077
 30
0.0
 11
-135.0
 21
-316.49077
 31
0.0
  0
LINE
  5
7ED
100
AcDbEntity
  8
0
  6
CONTINUOUS
 62
     7
100
AcDbLine
 10
-183.2
 20
-316.68582
 30
0.0
 11
-175.0
 21
-316.68582
 31
0.0
  0
LINE
  5
7EE
100
AcDbEntity
  8
0
  6
CONTINUOUS
 62
     7
100
AcDbLine
 10
-183.2
 20
-317.13163
 30
0.0
 11
-175.0
 21
-317.13163
 31
0.0
  0
LINE
  5
7EF
100
AcDbEntity
  8
0
  6
CONTINUOUS
 62
     7
100
AcDbLine
 10
-180.0
 20
-334.59454
 30
0.0
 11
-180.0
 21
-348.19293
 31
0.0
  0
LINE
  5
7F0
100
AcDbEntity
  8
0
  6
CONTINUOUS
 62
     7
100
AcDbLine
 10
-130.0
 20
-334.59454
 30
0.0
 11
-130.0
 21
-348.19293
 31
0.0
  0
LINE
  5
7F1
100
AcDbEntity
  8
0
  6
CONTINUOUS
 62
     7
100
AcDbLine
 10
-130.0
 20
-322.63494
 30
0.0
 11
-125.0
 21
-322.63494
 31
0.0
  0
LINE
  5
7F2
100
AcDbEntity
  8
0
  6
CONTINUOUS
 62
     7
100
AcDbLine
 10
-135.0
 20
-326.37732
 30
0.0
 11
-126.8
 21
-326.37732
 31
0.0
  0
LINE
  5
7F3
100
AcDbEntity
  8
0
  6
CONTINUOUS
 62
     7
100
AcDbLine
 10
-135.0
 20
-330.85216
 30
0.0
 11
-126.8
 21
-330.85216
 31
0.0
  0
LINE
  5
7F4
100
AcDbEntity
  8
0
  6
CONTINUOUS
 62
     7
100
AcDbLine
 10
-135.0
 20
-334.59454
 30
0.0
 11
-130.0
 21
-334.59454
 31
0.0
  0
LINE
  5
7F5
100
AcDbEntity
  8
0
  6
CONTINUOUS
 62
     7
100
AcDbLine
 10
-185.0
 20
-322.63494
 30
0.0
 11
-180.0
 21
-322.63494
 31
0.0
  0
LINE
  5
7F6
100
AcDbEntity
  8
0
  6
CONTINUOUS
 62
     7
100
AcDbLine
 10
-175.0
 20
-316.0
 30
0.0
 11
-175.0
 21
-316.68582
 31
0.0
  0
LINE
  5
7F7
100
AcDbEntity
  8
0
  6
CONTINUOUS
 62
     7
100
AcDbLine
 10
-135.0
 20
-316.0
 30
0.0
 11
-135.0
 21
-316.68582
 31
0.0
  0
LINE
  5
7F8
100
AcDbEntity
  8
0
  6
CONTINUOUS
 62
     7
100
AcDbLine
 10
-180.0
 20
-316.0
 30
0.0
 11
-180.0
 21
-316.31298
 31
0.0
  0
LINE
  5
7F9
100
AcDbEntity
  8
0
  6
CONTINUOUS
 62
     7
100
AcDbLine
 10
-183.2
 20
-326.37732
 30
0.0
 11
-175.0
 21
-326.37732
 31
0.0
  0
LINE
  5
7FA
100
AcDbEntity
  8
0
  6
CONTINUOUS
 62
     7
100
AcDbLine
 10
-175.0
 20
-324.41957
 30
0.0
 11
-135.0
 21
-324.41957
 31
0.0
  0
LINE
  5
7FB
100
AcDbEntity
  8
0
  6
CONTINUOUS
 62
     7
100
AcDbLine
 10
-126.8
 20
-354.53166
 30
0.0
 11
-126.8
 21
-362.111
 31
0.0
  0
LINE
  5
7FC
100
AcDbEntity
  8
0
  6
CONTINUOUS
 62
     7
100
AcDbLine
 10
-127.5
 20
-354.53166
 30
0.0
 11
-127.5
 21
-362.111
 31
0.0
  0
LINE
  5
7FD
100
AcDbEntity
  8
0
  6
CONTINUOUS
 62
     7
100
AcDbLine
 10
-182.5
 20
-354.53166
 30
0.0
 11
-182.5
 21
-362.111
 31
0.0
  0
LINE
  5
7FE
100
AcDbEntity
  8
0
  6
CONTINUOUS
 62
     7
100
AcDbLine
 10
-183.2
 20
-354.53166
 30
0.0
 11
-183.2
 21
-362.111
 31
0.0
  0
LINE
  5
7FF
100
AcDbEntity
  8
0
  6
CONTINUOUS
 62
     7
100
AcDbLine
 10
-175.0
 20
-437.31432
 30
0.0
 11
-175.0
 21
-438.0
 31
0.0
  0
LINE
  5
800
100
AcDbEntity
  8
0
  6
CONTINUOUS
 62
     7
100
AcDbLine
 10
-135.0
 20
-437.31432
 30
0.0
 11
-135.0
 21
-438.0
 31
0.0
  0
LINE
  5
801
100
AcDbEntity
  8
0
  6
CONTINUOUS
 62
     7
100
AcDbLine
 10
-130.0
 20
-437.68721
 30
0.0
 11
-130.0
 21
-438.0
 31
0.0
  0
LINE
  5
802
100
AcDbEntity
  8
0
  6
CONTINUOUS
 62
     7
100
AcDbLine
 10
-180.0
 20
-437.68721
 30
0.0
 11
-180.0
 21
-438.0
 31
0.0
  0
LINE
  5
803
100
AcDbEntity
  8
0
  6
CONTINUOUS
 62
     7
100
AcDbLine
 10
-135.0
 20
-362.111
 30
0.0
 11
-126.8
 21
-362.111
 31
0.0
  0
LINE
  5
804
100
AcDbEntity
  8
0
  6
CONTINUOUS
 62
     7
100
AcDbLine
 10
-175.0
 20
-351.21569
 30
0.0
 11
-135.0
 21
-351.21569
 31
0.0
  0
LINE
  5
805
100
AcDbEntity
  8
0
  6
CONTINUOUS
 62
     7
100
AcDbLine
 10
-183.2
 20
-354.53166
 30
0.0
 11
-175.0
 21
-354.53166
 31
0.0
  0
LINE
  5
806
100
AcDbEntity
  8
0
  6
CONTINUOUS
 62
     7
100
AcDbLine
 10
-183.2
 20
-362.111
 30
0.0
 11
-175.0
 21
-362.111
 31
0.0
  0
LINE
  5
807
100
AcDbEntity
  8
0
  6
CONTINUOUS
 62
     7
100
AcDbLine
 10
-175.0
 20
-365.42696
 30
0.0
 11
-135.0
 21
-365.42696
 31
0.0
  0
LINE
  5
808
100
AcDbEntity
  8
0
  6
CONTINUOUS
 62
     7
100
AcDbLine
 10
-180.0
 20
-368.44972
 30
0.0
 11
-175.0
 21
-368.44972
 31
0.0
  0
LINE
  5
809
100
AcDbEntity
  8
0
  6
CONTINUOUS
 62
     7
100
AcDbLine
 10
-135.0
 20
-368.44972
 30
0.0
 11
-130.0
 21
-368.44972
 31
0.0
  0
LINE
  5
80A
100
AcDbEntity
  8
0
  6
CONTINUOUS
 62
     7
100
AcDbLine
 10
-183.2
 20
-330.85216
 30
0.0
 11
-175.0
 21
-330.85216
 31
0.0
  0
LINE
  5
80B
100
AcDbEntity
  8
0
  6
CONTINUOUS
 62
     7
100
AcDbLine
 10
-126.8
 20
-436.86845
 30
0.0
 11
-126.8
 21
-437.31432
 31
0.0
  0
LINE
  5
80C
100
AcDbEntity
  8
0
  6
CONTINUOUS
 62
     7
100
AcDbLine
 10
-183.2
 20
-436.86845
 30
0.0
 11
-183.2
 21
-437.31432
 31
0.0
  0
LINE
  5
80D
100
AcDbEntity
  8
0
  6
CONTINUOUS
 62
     7
100
AcDbLine
 10
-182.5
 20
-436.86845
 30
0.0
 11
-182.5
 21
-437.31432
 31
0.0
  0
LINE
  5
80E
100
AcDbEntity
  8
0
  6
CONTINUOUS
 62
     7
100
AcDbLine
 10
-127.5
 20
-436.86845
 30
0.0
 11
-127.5
 21
-437.31432
 31
0.0
  0
LINE
  5
80F
100
AcDbEntity
  8
0
  6
CONTINUOUS
 62
     7
100
AcDbLine
 10
-185.0
 20
-436.49555
 30
0.0
 11
-180.0
 21
-436.49555
 31
0.0
  0
LINE
  5
810
100
AcDbEntity
  8
0
  6
CONTINUOUS
 62
     7
100
AcDbLine
 10
-175.0
 20
-436.67337
 30
0.0
 11
-135.0
 21
-436.67337
 31
0.0
  0
LINE
  5
811
100
AcDbEntity
  8
0
  6
CONTINUOUS
 62
     7
100
AcDbLine
 10
-183.2
 20
-436.86845
 30
0.0
 11
-175.0
 21
-436.86845
 31
0.0
  0
LINE
  5
812
100
AcDbEntity
  8
0
  6
CONTINUOUS
 62
     7
100
AcDbLine
 10
-183.2
 20
-437.31432
 30
0.0
 11
-175.0
 21
-437.31432
 31
0.0
  0
LINE
  5
813
100
AcDbEntity
  8
0
  6
CONTINUOUS
 62
     7
100
AcDbLine
 10
-175.0
 20
-437.50939
 30
0.0
 11
-135.0
 21
-437.50939
 31
0.0
  0
LINE
  5
814
100
AcDbEntity
  8
0
  6
CONTINUOUS
 62
     7
100
AcDbLine
 10
-180.0
 20
-437.68721
 30
0.0
 11
-175.0
 21
-437.68721
 31
0.0
  0
LINE
  5
815
100
AcDbEntity
  8
0
  6
CONTINUOUS
 62
     7
100
AcDbLine
 10
-130.0
 20
-436.49555
 30
0.0
 11
-125.0
 21
-436.49555
 31
0.0
  0
LINE
  5
816
100
AcDbEntity
  8
0
  6
CONTINUOUS
 62
     7
100
AcDbLine
 10
-135.0
 20
-436.86845
 30
0.0
 11
-126.8
 21
-436.86845
 31
0.0
  0
LINE
  5
817
100
AcDbEntity
  8
0
  6
CONTINUOUS
 62
     7
100
AcDbLine
 10
-135.0
 20
-437.31432
 30
0.0
 11
-126.8
 21
-437.31432
 31
0.0
  0
LINE
  5
818
100
AcDbEntity
  8
0
  6
CONTINUOUS
 62
     7
100
AcDbLine
 10
-135.0
 20
-437.68721
 30
0.0
 11
-130.0
 21
-437.68721
 31
0.0
  0
LINE
  5
819
100
AcDbEntity
  8
0
  6
CONTINUOUS
 62
     7
100
AcDbLine
 10
-185.0
 20
-438.0
 30
0.0
 11
-125.0
 21
-438.0
 31
0.0
  0
LINE
  5
81A
100
AcDbEntity
  8
0
  6
CONTINUOUS
 62
     7
100
AcDbLine
 10
-126.8
 20
-423.14782
 30
0.0
 11
-126.8
 21
-427.62263
 31
0.0
  0
LINE
  5
81B
100
AcDbEntity
  8
0
  6
CONTINUOUS
 62
     7
100
AcDbLine
 10
-127.5
 20
-423.14782
 30
0.0
 11
-127.5
 21
-427.62263
 31
0.0
  0
LINE
  5
81C
100
AcDbEntity
  8
0
  6
CONTINUOUS
 62
     7
100
AcDbLine
 10
-135.0
 20
-427.62263
 30
0.0
 11
-135.0
 21
-436.86845
 31
0.0
  0
LINE
  5
81D
100
AcDbEntity
  8
0
  6
CONTINUOUS
 62
     7
100
AcDbLine
 10
-135.0
 20
-354.53166
 30
0.0
 11
-126.8
 21
-354.53166
 31
0.0
  0
LINE
  5
81E
100
AcDbEntity
  8
0
  6
CONTINUOUS
 62
     7
100
AcDbLine
 10
-180.0
 20
-334.59454
 30
0.0
 11
-175.0
 21
-334.59454
 31
0.0
  0
LINE
  5
81F
100
AcDbEntity
  8
0
  6
CONTINUOUS
 62
     7
100
AcDbLine
 10
-130.0
 20
-348.19293
 30
0.0
 11
-125.0
 21
-348.19293
 31
0.0
  0
LINE
  5
820
100
AcDbEntity
  8
0
  6
CONTINUOUS
 62
     7
100
AcDbLine
 10
-175.0
 20
-332.8099
 30
0.0
 11
-135.0
 21
-332.8099
 31
0.0
  0
LINE
  5
821
100
AcDbEntity
  8
0
  6
CONTINUOUS
 62
     7
100
AcDbLine
 10
-130.0
 20
-316.0
 30
0.0
 11
-130.0
 21
-316.31298
 31
0.0
  0
LINE
  5
822
100
AcDbEntity
  8
0
  6
CONTINUOUS
 62
     7
100
AcDbLine
 10
-185.0
 20
-419.40546
 30
0.0
 11
-180.0
 21
-419.40546
 31
0.0
  0
LINE
  5
823
100
AcDbEntity
  8
0
  6
CONTINUOUS
 62
     7
100
AcDbLine
 10
-175.0
 20
-421.19009
 30
0.0
 11
-135.0
 21
-421.19009
 31
0.0
  0
LINE
  5
824
100
AcDbEntity
  8
0
  6
CONTINUOUS
 62
     7
100
AcDbLine
 10
-183.2
 20
-423.14782
 30
0.0
 11
-175.0
 21
-423.14782
 31
0.0
  0
LINE
  5
825
100
AcDbEntity
  8
0
  6
CONTINUOUS
 62
     7
100
AcDbLine
 10
-183.2
 20
-427.62263
 30
0.0
 11
-175.0
 21
-427.62263
 31
0.0
  0
LINE
  5
826
100
AcDbEntity
  8
0
  6
CONTINUOUS
 62
     7
100
AcDbLine
 10
-135.0
 20
-405.80707
 30
0.0
 11
-130.0
 21
-405.80707
 31
0.0
  0
LINE
  5
827
100
AcDbEntity
  8
0
  6
CONTINUOUS
 62
     7
100
AcDbLine
 10
-135.0
 20
-399.46836
 30
0.0
 11
-126.8
 21
-399.46836
 31
0.0
  0
LINE
  5
828
100
AcDbEntity
  8
0
  6
CONTINUOUS
 62
     7
100
AcDbLine
 10
-135.0
 20
-391.88902
 30
0.0
 11
-126.8
 21
-391.88902
 31
0.0
  0
LINE
  5
829
100
AcDbEntity
  8
0
  6
CONTINUOUS
 62
     7
100
AcDbLine
 10
-183.2
 20
-399.46836
 30
0.0
 11
-175.0
 21
-399.46836
 31
0.0
  0
LINE
  5
82A
100
AcDbEntity
  8
0
  6
CONTINUOUS
 62
     7
100
AcDbLine
 10
-175.0
 20
-402.78432
 30
0.0
 11
-135.0
 21
-402.78432
 31
0.0
  0
LINE
  5
82B
100
AcDbEntity
  8
0
  6
CONTINUOUS
 62
     7
100
AcDbLine
 10
-130.0
 20
-385.5503
 30
0.0
 11
-125.0
 21
-385.5503
 31
0.0
  0
LINE
  5
82C
100
AcDbEntity
  8
0
  6
CONTINUOUS
 62
     7
100
AcDbLine
 10
-183.2
 20
-423.14782
 30
0.0
 11
-183.2
 21
-427.62263
 31
0.0
  0
LINE
  5
82D
100
AcDbEntity
  8
0
  6
CONTINUOUS
 62
     7
100
AcDbLine
 10
-185.0
 20
-348.19293
 30
0.0
 11
-180.0
 21
-348.19293
 31
0.0
  0
LINE
  5
82E
100
AcDbEntity
  8
0
  6
CONTINUOUS
 62
     7
100
AcDbLine
 10
-180.0
 20
-431.36499
 30
0.0
 11
-175.0
 21
-431.36499
 31
0.0
  0
LINE
  5
82F
100
AcDbEntity
  8
0
  6
CONTINUOUS
 62
     7
100
AcDbLine
 10
-183.2
 20
-399.46836
 30
0.0
 11
-183.2
 21
-391.88902
 31
0.0
  0
LINE
  5
830
100
AcDbEntity
  8
0
  6
CONTINUOUS
 62
     7
100
AcDbLine
 10
-130.0
 20
-385.5503
 30
0.0
 11
-130.0
 21
-368.44972
 31
0.0
  0
LINE
  5
831
100
AcDbEntity
  8
0
  6
CONTINUOUS
 62
     7
100
AcDbLine
 10
-180.0
 20
-419.40546
 30
0.0
 11
-180.0
 21
-405.80707
 31
0.0
  0
LINE
  5
832
100
AcDbEntity
  8
0
  6
CENTER
 62
     7
100
AcDbLine
 10
-118.0
 20
-409.0
 30
0.0
 11
-192.0
 21
-409.0
 31
0.0
  0
LINE
  5
833
100
AcDbEntity
  8
0
  6
CONTINUOUS
 62
     7
100
AcDbLine
 10
-135.0
 20
-431.36499
 30
0.0
 11
-130.0
 21
-431.36499
 31
0.0
  0
LINE
  5
834
100
AcDbEntity
  8
0
  6
CENTER
 62
     7
100
AcDbLine
 10
-118.0
 20
-377.0
 30
0.0
 11
-192.0
 21
-377.0
 31
0.0
  0
LINE
  5
835
100
AcDbEntity
  8
0
  6
CONTINUOUS
 62
     7
100
AcDbLine
 10
-183.2
 20
-391.88902
 30
0.0
 11
-175.0
 21
-391.88902
 31
0.0
  0
LINE
  5
836
100
AcDbEntity
  8
0
  6
CONTINUOUS
 62
     7
100
AcDbLine
 10
-126.8
 20
-399.46836
 30
0.0
 11
-126.8
 21
-391.88902
 31
0.0
  0
LINE
  5
837
100
AcDbEntity
  8
0
  6
CONTINUOUS
 62
     7
100
AcDbLine
 10
-130.0
 20
-419.40546
 30
0.0
 11
-130.0
 21
-405.80707
 31
0.0
  0
LINE
  5
838
100
AcDbEntity
  8
0
  6
CONTINUOUS
 62
     7
100
AcDbLine
 10
-135.0
 20
-423.14782
 30
0.0
 11
-135.0
 21
-399.46836
 31
0.0
  0
LINE
  5
839
100
AcDbEntity
  8
0
  6
CONTINUOUS
 62
     7
100
AcDbLine
 10
-135.0
 20
-391.88902
 30
0.0
 11
-135.0
 21
-362.111
 31
0.0
  0
LINE
  5
83A
100
AcDbEntity
  8
0
  6
CONTINUOUS
 62
     7
100
AcDbLine
 10
-125.0
 20
-316.0
 30
0.0
 11
-125.0
 21
-438.0
 31
0.0
  0
LINE
  5
83B
100
AcDbEntity
  8
0
  6
CONTINUOUS
 62
     7
100
AcDbLine
 10
-127.5
 20
-399.46836
 30
0.0
 11
-127.5
 21
-391.88902
 31
0.0
  0
LINE
  5
83C
100
AcDbEntity
  8
0
  6
CONTINUOUS
 62
     7
100
AcDbLine
 10
-175.0
 20
-388.57306
 30
0.0
 11
-135.0
 21
-388.57306
 31
0.0
  0
LINE
  5
83D
100
AcDbEntity
  8
0
  6
CONTINUOUS
 62
     7
100
AcDbLine
 10
-135.0
 20
-427.62263
 30
0.0
 11
-126.8
 21
-427.62263
 31
0.0
  0
LINE
  5
83E
100
AcDbEntity
  8
0
  6
CENTER
 62
     7
100
AcDbLine
 10
-155.0
 20
-445.0
 30
0.0
 11
-155.0
 21
-309.0
 31
0.0
  0
LINE
  5
83F
100
AcDbEntity
  8
0
  6
CONTINUOUS
 62
     7
100
AcDbLine
 10
-130.0
 20
-431.36499
 30
0.0
 11
-130.0
 21
-436.49555
 31
0.0
  0
LINE
  5
840
100
AcDbEntity
  8
0
  6
CONTINUOUS
 62
     7
100
AcDbLine
 10
-175.0
 20
-427.62263
 30
0.0
 11
-175.0
 21
-436.86845
 31
0.0
  0
LINE
  5
841
100
AcDbEntity
  8
0
  6
CONTINUOUS
 62
     7
100
AcDbLine
 10
-180.0
 20
-385.5503
 30
0.0
 11
-180.0
 21
-368.44972
 31
0.0
  0
LINE
  5
842
100
AcDbEntity
  8
0
  6
CONTINUOUS
 62
     7
100
AcDbLine
 10
-175.0
 20
-423.14782
 30
0.0
 11
-175.0
 21
-399.46836
 31
0.0
  0
LINE
  5
843
100
AcDbEntity
  8
0
  6
CONTINUOUS
 62
     7
100
AcDbLine
 10
-182.5
 20
-423.14782
 30
0.0
 11
-182.5
 21
-427.62263
 31
0.0
  0
LINE
  5
844
100
AcDbEntity
  8
0
  6
CONTINUOUS
 62
     7
100
AcDbLine
 10
-175.0
 20
-391.88902
 30
0.0
 11
-175.0
 21
-362.111
 31
0.0
  0
LINE
  5
845
100
AcDbEntity
  8
0
  6
CONTINUOUS
 62
     7
100
AcDbLine
 10
-185.0
 20
-316.0
 30
0.0
 11
-185.0
 21
-438.0
 31
0.0
  0
LINE
  5
846
100
AcDbEntity
  8
0
  6
CONTINUOUS
 62
     7
100
AcDbLine
 10
-182.5
 20
-399.46836
 30
0.0
 11
-182.5
 21
-391.88902
 31
0.0
  0
LINE
  5
847
100
AcDbEntity
  8
0
  6
CONTINUOUS
 62
     7
100
AcDbLine
 10
-185.0
 20
-385.5503
 30
0.0
 11
-180.0
 21
-385.5503
 31
0.0
  0
LINE
  5
848
100
AcDbEntity
  8
0
  6
CONTINUOUS
 62
     7
100
AcDbLine
 10
-130.0
 20
-419.40546
 30
0.0
 11
-125.0
 21
-419.40546
 31
0.0
  0
LINE
  5
849
100
AcDbEntity
  8
0
  6
CONTINUOUS
 62
     7
100
AcDbLine
 10
-175.0
 20
-429.58037
 30
0.0
 11
-135.0
 21
-429.58037
 31
0.0
  0
LINE
  5
84A
100
AcDbEntity
  8
0
  6
CONTINUOUS
 62
     7
100
AcDbLine
 10
-135.0
 20
-423.14782
 30
0.0
 11
-126.8
 21
-423.14782
 31
0.0
  0
LINE
  5
84B
100
AcDbEntity
  8
0
  6
CENTER
 62
     7
100
AcDbLine
 10
-118.0
 20
-425.21673
 30
0.0
 11
-192.0
 21
-425.21673
 31
0.0
  0
LINE
  5
84C
100
AcDbEntity
  8
0
  6
CONTINUOUS
 62
     7
100
AcDbLine
 10
-175.0
 20
-317.13163
 30
0.0
 11
-175.0
 21
-326.37732
 31
0.0
  0
LINE
  5
84D
100
AcDbEntity
  8
0
  6
CONTINUOUS
 62
     7
100
AcDbLine
 10
-135.0
 20
-317.13163
 30
0.0
 11
-135.0
 21
-326.37732
 31
0.0
  0
LINE
  5
84E
100
AcDbEntity
  8
0
  6
CONTINUOUS
 62
     7
100
AcDbLine
 10
-130.0
 20
-317.50448
 30
0.0
 11
-130.0
 21
-322.63494
 31
0.0
  0
LINE
  5
84F
100
AcDbEntity
  8
0
  6
CONTINUOUS
 62
     7
100
AcDbLine
 10
-180.0
 20
-317.50448
 30
0.0
 11
-180.0
 21
-322.63494
 31
0.0
  0
LINE
  5
850
100
AcDbEntity
  8
0
  6
CONTINUOUS
 62
     7
100
AcDbLine
 10
-183.2
 20
-316.68582
 30
0.0
 11
-183.2
 21
-317.13163
 31
0.0
  0
LINE
  5
851
100
AcDbEntity
  8
0
  6
CONTINUOUS
 62
     7
100
AcDbLine
 10
-182.5
 20
-316.68582
 30
0.0
 11
-182.5
 21
-317.13163
 31
0.0
  0
LINE
  5
852
100
AcDbEntity
  8
0
  6
CONTINUOUS
 62
     7
100
AcDbLine
 10
-127.5
 20
-316.68582
 30
0.0
 11
-127.5
 21
-317.13163
 31
0.0
  0
LINE
  5
853
100
AcDbEntity
  8
0
  6
CONTINUOUS
 62
     7
100
AcDbLine
 10
-126.8
 20
-316.68582
 30
0.0
 11
-126.8
 21
-317.13163
 31
0.0
  0
LINE
  5
854
100
AcDbEntity
  8
0
  6
CENTER
 62
     7
100
AcDbLine
 10
-118.0
 20
-427.0
 30
0.0
 11
-192.0
 21
-427.0
 31
0.0
  0
LINE
  5
855
100
AcDbEntity
  8
0
  6
CENTER
 62
     7
100
AcDbLine
 10
-118.0
 20
-346.68264
 30
0.0
 11
-192.0
 21
-346.68264
 31
0.0
  0
POINT
  5
856
100
AcDbEntity
  8
0
  6
CONTINUOUS
 62
     7
100
AcDbPoint
 10
52.0
 20
-327.0
 30
0.0
  0
POINT
  5
857
100
AcDbEntity
  8
0
  6
CONTINUOUS
 62
     7
100
AcDbPoint
 10
70.009003
 20
-327.0
 30
0.0
  0
LINE
  5
858
100
AcDbEntity
  8
0
  6
CONTINUOUS
 62
     7
100
AcDbLine
 10
-38.841736
 20
-382.89487
 30
0.0
 11
-37.017174
 21
-379.83863
 31
0.0
  0
LINE
  5
859
100
AcDbEntity
  8
0
  6
CONTINUOUS
 62
     7
100
AcDbLine
 10
-28.054344
 20
-403.79733
 30
0.0
 11
-37.105453
 21
-377.00001
 31
0.0
  0
LINE
  5
85A
100
AcDbEntity
  8
0
  6
CONTINUOUS
 62
     7
100
AcDbLine
 10
-50.874275
 20
-380.36774
 30
0.0
 11
-44.957657
 21
-378.36934
 31
0.0
  0
LINE
  5
85B
100
AcDbEntity
  8
0
  6
CENTER
 62
     7
100
AcDbLine
 10
1.284031
 20
-309.0
 30
0.0
 11
1.284031
 21
-445.0
 31
0.0
  0
LINE
  5
85C
100
AcDbEntity
  8
0
  6
CONTINUOUS
 62
     7
100
AcDbLine
 10
-48.897522
 20
-410.83736
 30
0.0
 11
-59.137558
 21
-380.52001
 31
0.0
  0
LINE
  5
85D
100
AcDbEntity
  8
0
  6
CONTINUOUS
 62
     7
100
AcDbLine
 10
-59.13755
 20
-373.48001
 30
0.0
 11
-48.897568
 21
-343.16264
 31
0.0
  0
LINE
  5
85E
100
AcDbEntity
  8
0
  6
CONTINUOUS
 62
     7
100
AcDbLine
 10
-15.021347
 20
-339.86562
 30
0.0
 11
-11.591171
 21
-340.81617
 31
0.0
  0
LINE
  5
85F
100
AcDbEntity
  8
0
  6
CONTINUOUS
 62
     7
100
AcDbLine
 10
-32.323074
 20
-355.80084
 30
0.0
 11
-8.31036
 21
-339.59723
 31
0.0
  0
LINE
  5
860
100
AcDbEntity
  8
0
  6
CONTINUOUS
 62
     7
100
AcDbLine
 10
-15.76918
 20
-327.59333
 30
0.0
 11
-12.276009
 21
-332.76999
 31
0.0
  0
LINE
  5
861
100
AcDbEntity
  8
0
  6
CONTINUOUS
 62
     7
100
AcDbLine
 10
-44.628883
 20
-337.56442
 30
0.0
 11
-18.10318
 21
-319.66506
 31
0.0
  0
LINE
  5
862
100
AcDbEntity
  8
0
  6
CONTINUOUS
 62
     7
100
AcDbLine
 10
-12.563271
 20
-317.80036
 30
0.0
 11
19.387001
 21
-316.01709
 31
0.0
  0
LINE
  5
863
100
AcDbEntity
  8
0
  6
CONTINUOUS
 62
     7
100
AcDbLine
 10
17.32988
 20
-324.02167
 30
0.0
 11
17.677895
 21
-330.25696
 31
0.0
  0
LINE
  5
864
100
AcDbEntity
  8
0
  6
CONTINUOUS
 62
     7
100
AcDbLine
 10
-11.337273
 20
-339.76617
 30
0.0
 11
20.306736
 21
-338.0
 31
0.0
  0
LINE
  5
865
100
AcDbEntity
  8
0
  6
CONTINUOUS
 62
     7
100
AcDbLine
 10
11.685127
 20
-334.94436
 30
0.0
 11
14.144043
 21
-337.51795
 31
0.0
  0
LINE
  5
866
100
AcDbEntity
  8
0
  6
CENTER
 62
     7
100
AcDbLine
 10
1.284031
 20
-427.0
 30
0.0
 11
70.009003
 21
-427.0
 31
0.0
  0
LINE
  5
867
100
AcDbEntity
  8
0
  6
CENTER
 62
     7
100
AcDbLine
 10
1.284031
 20
-327.0
 30
0.0
 11
70.009003
 21
-327.0
 31
0.0
  0
LINE
  5
868
100
AcDbEntity
  8
0
  6
CENTER
 62
     7
100
AcDbLine
 10
-48.715973
 20
-370.46
 30
0.0
 11
-48.715973
 21
-383.54
 31
0.0
  0
LINE
  5
869
100
AcDbEntity
  8
0
  6
CENTER
 62
     7
100
AcDbLine
 10
-45.015968
 20
-407.31736
 30
0.0
 11
-31.935966
 21
-407.31736
 31
0.0
  0
LINE
  5
86A
100
AcDbEntity
  8
0
  6
CENTER
 62
     7
100
AcDbLine
 10
-38.475967
 20
-400.77736
 30
0.0
 11
-38.475967
 21
-413.85736
 31
0.0
  0
LINE
  5
86B
100
AcDbEntity
  8
0
  6
CENTER
 62
     7
100
AcDbLine
 10
-18.490273
 20
-425.21673
 30
0.0
 11
-5.410275
 21
-425.21673
 31
0.0
  0
LINE
  5
86C
100
AcDbEntity
  8
0
  6
CENTER
 62
     7
100
AcDbLine
 10
-11.950272
 20
-418.67673
 30
0.0
 11
-11.950272
 21
-431.75673
 31
0.0
  0
LINE
  5
86D
100
AcDbEntity
  8
0
  6
CENTER
 62
     7
100
AcDbLine
 10
-38.475967
 20
-340.14264
 30
0.0
 11
-38.475967
 21
-353.22264
 31
0.0
  0
LINE
  5
86E
100
AcDbEntity
  8
0
  6
CENTER
 62
     7
100
AcDbLine
 10
-18.490273
 20
-328.78327
 30
0.0
 11
-5.410275
 21
-328.78327
 31
0.0
  0
LINE
  5
86F
100
AcDbEntity
  8
0
  6
CONTINUOUS
 62
     7
100
AcDbLine
 10
-38.294365
 20
-380.52
 30
0.0
 11
-29.243286
 21
-353.72262
 31
0.0
  0
LINE
  5
870
100
AcDbEntity
  8
0
  6
CENTER
 62
     7
100
AcDbLine
 10
-66.718834
 20
-377.0
 30
0.0
 11
70.009003
 21
-377.0
 31
0.0
  0
LINE
  5
871
100
AcDbEntity
  8
0
  6
CENTER
 62
     7
100
AcDbLine
 10
52.0
 20
-321.0
 30
0.0
 11
52.0
 21
-333.0
 31
0.0
  0
LINE
  5
872
100
AcDbEntity
  8
0
  6
CENTER
 62
     7
100
AcDbLine
 10
20.0
 20
-321.0
 30
0.0
 11
20.0
 21
-333.0
 31
0.0
  0
LINE
  5
873
100
AcDbEntity
  8
0
  6
CONTINUOUS
 62
     7
100
AcDbLine
 10
43.255331
 20
-334.46865
 30
0.0
 11
45.567006
 21
-337.17528
 31
0.0
  0
LINE
  5
874
100
AcDbEntity
  8
0
  6
CONTINUOUS
 62
     7
100
AcDbLine
 10
20.0
 20
-338.0
 30
0.0
 11
52.0
 21
-338.0
 31
0.0
  0
LINE
  5
875
100
AcDbEntity
  8
0
  6
CONTINUOUS
 62
     7
100
AcDbLine
 10
49.5
 20
-323.8775
 30
0.0
 11
49.5
 21
-330.1225
 31
0.0
  0
LINE
  5
876
100
AcDbEntity
  8
0
  6
CONTINUOUS
 62
     7
100
AcDbLine
 10
20.0
 20
-316.0
 30
0.0
 11
52.0
 21
-316.0
 31
0.0
  0
LINE
  5
877
100
AcDbEntity
  8
0
  6
CENTER
 62
     7
100
AcDbLine
 10
-45.015968
 20
-346.68264
 30
0.0
 11
-31.935966
 21
-346.68264
 31
0.0
  0
LINE
  5
878
100
AcDbEntity
  8
0
  6
CENTER
 62
     7
100
AcDbLine
 10
-11.950272
 20
-322.24327
 30
0.0
 11
-11.950272
 21
-335.32327
 31
0.0
  0
LINE
  5
879
100
AcDbEntity
  8
0
  6
CONTINUOUS
 62
     7
100
AcDbLine
 10
-42.234276
 20
-348.05198
 30
0.0
 11
-36.317657
 21
-350.05038
 31
0.0
  0
LINE
  5
87A
100
AcDbEntity
  8
0
  6
CONTINUOUS
 62
     7
100
AcDbLine
 10
-34.198326
 20
-357.35746
 30
0.0
 11
-30.894287
 21
-356.03345
 31
0.0
  0
LINE
  5
87B
100
AcDbEntity
  8
0
  6
CONTINUOUS
 62
     7
100
AcDbLine
 10
-2.802933
 20
-418.24706
 30
0.0
 11
-4.960163
 21
-415.41581
 31
0.0
  0
LINE
  5
87C
100
AcDbEntity
  8
0
  6
CONTINUOUS
 62
     7
100
AcDbLine
 10
20.613064
 20
-416.01733
 30
0.0
 11
-8.310104
 21
-414.40281
 31
0.0
  0
LINE
  5
87D
100
AcDbEntity
  8
0
  6
CONTINUOUS
 62
     7
100
AcDbLine
 10
-9.628189
 20
-428.47371
 30
0.0
 11
-9.280129
 21
-422.23843
 31
0.0
  0
LINE
  5
87E
100
AcDbEntity
  8
0
  6
CONTINUOUS
 62
     7
100
AcDbLine
 10
19.386909
 20
-437.98313
 30
0.0
 11
-12.563354
 21
-436.19963
 31
0.0
  0
LINE
  5
87F
100
AcDbEntity
  8
0
  6
CONTINUOUS
 62
     7
100
AcDbLine
 10
-27.049644
 20
-406.01772
 30
0.0
 11
-27.451904
 21
-402.48108
 31
0.0
  0
LINE
  5
880
100
AcDbEntity
  8
0
  6
CONTINUOUS
 62
     7
100
AcDbLine
 10
-5.797333
 20
-416.0984
 30
0.0
 11
-29.243248
 21
-400.27737
 31
0.0
  0
LINE
  5
881
100
AcDbEntity
  8
0
  6
CONTINUOUS
 62
     7
100
AcDbLine
 10
-38.150223
 20
-411.30408
 30
0.0
 11
-34.657066
 21
-406.1274
 31
0.0
  0
LINE
  5
882
100
AcDbEntity
  8
0
  6
CONTINUOUS
 62
     7
100
AcDbLine
 10
-18.103073
 20
-434.33486
 30
0.0
 11
-44.628845
 21
-416.4356
 31
0.0
  0
LINE
  5
883
100
AcDbEntity
  8
0
  6
CONTINUOUS
 62
     7
100
AcDbLine
 10
52.0
 20
-438.0
 30
0.0
 11
20.0
 21
-438.0
 31
0.0
  0
LINE
  5
884
100
AcDbEntity
  8
0
  6
CONTINUOUS
 62
     7
100
AcDbLine
 10
22.5
 20
-430.1225
 30
0.0
 11
22.5
 21
-423.8775
 31
0.0
  0
LINE
  5
885
100
AcDbEntity
  8
0
  6
CONTINUOUS
 62
     7
100
AcDbLine
 10
52.0
 20
-416.0
 30
0.0
 11
20.0
 21
-416.0
 31
0.0
  0
LINE
  5
886
100
AcDbEntity
  8
0
  6
CONTINUOUS
 62
     7
100
AcDbLine
 10
28.744669
 20
-419.53135
 30
0.0
 11
26.432995
 21
-416.82472
 31
0.0
  0
LINE
  5
887
100
AcDbEntity
  8
0
  6
CENTER
 62
     7
100
AcDbLine
 10
52.0
 20
-433.0
 30
0.0
 11
52.0
 21
-421.0
 31
0.0
  0
LINE
  5
888
100
AcDbEntity
  8
0
  6
CENTER
 62
     7
100
AcDbLine
 10
20.0
 20
-433.0
 30
0.0
 11
20.0
 21
-421.0
 31
0.0
  0
CIRCLE
  5
889
100
AcDbEntity
  8
0
  6
CONTINUOUS
 62
     7
100
AcDbCircle
 10
-48.715973
 20
-377.0
 30
0.0
 40
4.0
  0
ARC
  5
88A
100
AcDbEntity
  8
0
  6
CONTINUOUS
 62
     7
100
AcDbCircle
 10
-48.715973
 20
-377.0
 30
0.0
 40
11.5
100
AcDbArc
 50
227.61802
 51
329.163
  0
ARC
  5
88B
100
AcDbEntity
  8
0
  6
CENTER
 62
     7
100
AcDbCircle
 10
1.284031
 20
-377.0
 30
0.0
 40
50.0
100
AcDbArc
 50
90.000003
 51
270.0
  0
ARC
  5
88C
100
AcDbEntity
  8
0
  6
CONTINUOUS
 62
     7
100
AcDbCircle
 10
-38.475929
 20
-407.31734
 30
0.0
 40
11.0
100
AcDbArc
 50
198.663
 51
18.663
  0
ARC
  5
88D
100
AcDbEntity
  8
0
  6
CONTINUOUS
 62
     7
100
AcDbCircle
 10
-39.533516
 20
-419.27067
 30
0.0
 40
0.5
100
AcDbArc
 50
84.944023
 51
235.98899
  0
ARC
  5
88E
100
AcDbEntity
  8
0
  6
CONTINUOUS
 62
     7
100
AcDbCircle
 10
-6.735039
 20
-436.0242
 30
0.0
 40
0.5
100
AcDbArc
 50
115.76003
 51
266.805
  0
CIRCLE
  5
88F
100
AcDbEntity
  8
0
  6
CONTINUOUS
 62
     7
100
AcDbCircle
 10
-38.475967
 20
-346.68264
 30
0.0
 40
4.0
  0
ARC
  5
890
100
AcDbEntity
  8
0
  6
CONTINUOUS
 62
     7
100
AcDbCircle
 10
-50.282883
 20
-348.82664
 30
0.0
 40
0.5
100
AcDbArc
 50
10.292124
 51
161.3371
  0
ARC
  5
891
100
AcDbEntity
  8
0
  6
CONTINUOUS
 62
     7
100
AcDbCircle
 10
-36.58786
 20
-380.09492
 30
0.0
 40
0.5
100
AcDbArc
 50
18.663
 51
149.163
  0
CIRCLE
  5
892
100
AcDbEntity
  8
0
  6
CONTINUOUS
 62
     7
100
AcDbCircle
 10
-11.950272
 20
-328.78327
 30
0.0
 40
4.0
  0
ARC
  5
893
100
AcDbEntity
  8
0
  6
CONTINUOUS
 62
     7
100
AcDbCircle
 10
-11.950272
 20
-328.78327
 30
0.0
 40
11.5
100
AcDbArc
 50
152.96623
 51
254.51121
  0
ARC
  5
894
100
AcDbEntity
  8
0
  6
CONTINUOUS
 62
     7
100
AcDbCircle
 10
-38.475975
 20
-346.68263
 30
0.0
 40
11.0
100
AcDbArc
 50
124.0112
 51
304.0112
  0
ARC
  5
895
100
AcDbEntity
  8
0
  6
CONTINUOUS
 62
     7
100
AcDbCircle
 10
-22.639137
 20
-323.32908
 30
0.0
 40
0.5
100
AcDbArc
 50
332.96622
 51
124.0112
  0
ARC
  5
896
100
AcDbEntity
  8
0
  6
CONTINUOUS
 62
     7
100
AcDbCircle
 10
-11.724697
 20
-341.29801
 30
0.0
 40
0.5
100
AcDbArc
 50
304.0112
 51
74.511203
  0
ARC
  5
897
100
AcDbEntity
  8
0
  6
CONTINUOUS
 62
     7
100
AcDbCircle
 10
-56.80481
 20
-385.86401
 30
0.0
 40
0.5
100
AcDbArc
 50
47.618023
 51
198.66301
  0
ARC
  5
898
100
AcDbEntity
  8
0
  6
CONTINUOUS
 62
     7
100
AcDbCircle
 10
13.782524
 20
-337.86336
 30
0.0
 40
0.5
100
AcDbArc
 50
273.19458
 51
43.694581
  0
ARC
  5
899
100
AcDbEntity
  8
0
  6
CONTINUOUS
 62
     7
100
AcDbCircle
 10
13.614418
 20
-316.84006
 30
0.0
 40
0.5
100
AcDbArc
 50
302.1496
 51
93.194578
  0
ARC
  5
89A
100
AcDbEntity
  8
0
  6
CONTINUOUS
 62
     7
100
AcDbCircle
 10
-11.950272
 20
-328.78327
 30
0.0
 40
11.0
100
AcDbArc
 50
93.194578
 51
273.19459
  0
ARC
  5
89B
100
AcDbEntity
  8
0
  6
CONTINUOUS
 62
     7
100
AcDbCircle
 10
20.0
 20
-327.0
 30
0.0
 40
11.5
100
AcDbArc
 50
122.1496
 51
223.69458
  0
CIRCLE
  5
89C
100
AcDbEntity
  8
0
  6
CONTINUOUS
 62
     7
100
AcDbCircle
 10
20.0
 20
-327.0
 30
0.0
 40
4.0
  0
ARC
  5
89D
100
AcDbEntity
  8
0
  6
CONTINUOUS
 62
     7
100
AcDbCircle
 10
-30.708305
 20
-356.49758
 30
0.0
 40
0.5
100
AcDbArc
 50
341.3371
 51
111.8371
  0
ARC
  5
89E
100
AcDbEntity
  8
0
  6
CONTINUOUS
 62
     7
100
AcDbCircle
 10
-38.475967
 20
-346.68264
 30
0.0
 40
11.5
100
AcDbArc
 50
190.29212
 51
291.8371
  0
ARC
  5
89F
100
AcDbEntity
  8
0
  6
CONTINUOUS
 62
     7
100
AcDbCircle
 10
-48.715958
 20
-377.0
 30
0.0
 40
11.0
100
AcDbArc
 50
161.3371
 51
341.33709
  0
CIRCLE
  5
8A0
100
AcDbEntity
  8
0
  6
CONTINUOUS
 62
     7
100
AcDbCircle
 10
52.0
 20
-327.0
 30
0.0
 40
4.0
  0
ARC
  5
8A1
100
AcDbEntity
  8
0
  6
CONTINUOUS
 62
     7
100
AcDbCircle
 10
52.0
 20
-327.0
 30
0.0
 40
11.5
100
AcDbArc
 50
118.95503
 51
220.49999
  0
ARC
  5
8A2
100
AcDbEntity
  8
0
  6
CONTINUOUS
 62
     7
100
AcDbCircle
 10
20.0
 20
-327.0
 30
0.0
 40
11.0
100
AcDbArc
 50
90.000003
 51
270.0
  0
ARC
  5
8A3
100
AcDbEntity
  8
0
  6
CONTINUOUS
 62
     7
100
AcDbCircle
 10
46.190525
 20
-316.5
 30
0.0
 40
0.5
100
AcDbArc
 50
298.95503
 51
90.000003
  0
ARC
  5
8A4
100
AcDbEntity
  8
0
  6
CONTINUOUS
 62
     7
100
AcDbCircle
 10
45.186803
 20
-337.5
 30
0.0
 40
0.5
100
AcDbArc
 50
270.0
 51
40.499999
  0
CIRCLE
  5
8A5
100
AcDbEntity
  8
0
  6
CONTINUOUS
 62
     7
100
AcDbCircle
 10
-11.950272
 20
-425.21673
 30
0.0
 40
4.0
  0
ARC
  5
8A6
100
AcDbEntity
  8
0
  6
CONTINUOUS
 62
     7
100
AcDbCircle
 10
-11.950272
 20
-425.21673
 30
0.0
 40
11.5
100
AcDbArc
 50
295.76002
 51
37.305001
  0
ARC
  5
8A7
100
AcDbEntity
  8
0
  6
CONTINUOUS
 62
     7
100
AcDbCircle
 10
19.999989
 20
-427.00023
 30
0.0
 40
11.0
100
AcDbArc
 50
266.805
 51
86.804997
  0
ARC
  5
8A8
100
AcDbEntity
  8
0
  6
CONTINUOUS
 62
     7
100
AcDbCircle
 10
-4.562454
 20
-415.11279
 30
0.0
 40
0.5
100
AcDbArc
 50
86.804997
 51
217.305
  0
CIRCLE
  5
8A9
100
AcDbEntity
  8
0
  6
CONTINUOUS
 62
     7
100
AcDbCircle
 10
-38.475967
 20
-407.31736
 30
0.0
 40
4.0
  0
ARC
  5
8AA
100
AcDbEntity
  8
0
  6
CONTINUOUS
 62
     7
100
AcDbCircle
 10
-38.475967
 20
-407.31736
 30
0.0
 40
11.5
100
AcDbArc
 50
264.94403
 51
6.489
  0
ARC
  5
8AB
100
AcDbEntity
  8
0
  6
CONTINUOUS
 62
     7
100
AcDbCircle
 10
-11.950203
 20
-425.21663
 30
0.0
 40
11.0
100
AcDbArc
 50
235.989
 51
55.989
  0
ARC
  5
8AC
100
AcDbEntity
  8
0
  6
CONTINUOUS
 62
     7
100
AcDbCircle
 10
-26.955109
 20
-402.42457
 30
0.0
 40
0.5
100
AcDbArc
 50
55.989
 51
186.489
  0
ARC
  5
8AD
100
AcDbEntity
  8
0
  6
CONTINUOUS
 62
     7
100
AcDbCircle
 10
25.809475
 20
-437.5
 30
0.0
 40
0.5
100
AcDbArc
 50
118.95503
 51
270.0
  0
ARC
  5
8AE
100
AcDbEntity
  8
0
  6
CONTINUOUS
 62
     7
100
AcDbCircle
 10
26.813196
 20
-416.5
 30
0.0
 40
0.5
100
AcDbArc
 50
90.000003
 51
220.49999
  0
ARC
  5
8AF
100
AcDbEntity
  8
0
  6
CONTINUOUS
 62
     7
100
AcDbCircle
 10
52.0
 20
-427.0
 30
0.0
 40
11.0
100
AcDbArc
 50
270.0
 51
90.000003
  0
ARC
  5
8B0
100
AcDbEntity
  8
0
  6
CONTINUOUS
 62
     7
100
AcDbCircle
 10
20.0
 20
-427.0
 30
0.0
 40
11.5
100
AcDbArc
 50
298.95503
 51
40.499999
  0
CIRCLE
  5
8B1
100
AcDbEntity
  8
0
  6
CONTINUOUS
 62
     7
100
AcDbCircle
 10
20.0
 20
-427.0
 30
0.0
 40
4.0
  0
POINT
  5
8B2
100
AcDbEntity
  8
0
  6
CONTINUOUS
 62
     7
100
AcDbPoint
 10
52.0
 20
-249.0
 30
0.0
  0
POINT
  5
8B3
100
AcDbEntity
  8
0
  6
CONTINUOUS
 62
     7
100
AcDbPoint
 10
64.30948
 20
-249.0
 30
0.0
  0
LINE
  5
8B4
100
AcDbEntity
  8
0
  6
CONTINUOUS
 62
     7
100
AcDbLine
 10
-55.297554
 20
-221.5
 30
0.0
 11
-52.737556
 21
-221.5
 31
0.0
  0
LINE
  5
8B5
100
AcDbEntity
  8
0
  6
CONTINUOUS
 62
     7
100
AcDbLine
 10
-55.297554
 20
-276.5
 30
0.0
 11
-52.737556
 21
-276.5
 31
0.0
  0
LINE
  5
8B6
100
AcDbEntity
  8
0
  6
CONTINUOUS
 62
     7
100
AcDbLine
 10
-55.297554
 20
-277.2
 30
0.0
 11
-52.737556
 21
-277.2
 31
0.0
  0
LINE
  5
8B7
100
AcDbEntity
  8
0
  6
CONTINUOUS
 62
     7
100
AcDbLine
 10
-59.715958
 20
-269.0
 30
0.0
 11
-59.715958
 21
-279.0
 31
0.0
  0
LINE
  5
8B8
100
AcDbEntity
  8
0
  6
CONTINUOUS
 62
     7
100
AcDbLine
 10
-50.596596
 20
-274.0
 30
0.0
 11
-40.227707
 21
-274.0
 31
0.0
  0
LINE
  5
8B9
100
AcDbEntity
  8
0
  6
CONTINUOUS
 62
     7
100
AcDbLine
 10
-50.596596
 20
-224.0
 30
0.0
 11
-40.227707
 21
-224.0
 31
0.0
  0
LINE
  5
8BA
100
AcDbEntity
  8
0
  6
CONTINUOUS
 62
     7
100
AcDbLine
 10
-52.737556
 20
-229.0
 30
0.0
 11
-34.68174
 21
-229.0
 31
0.0
  0
LINE
  5
8BB
100
AcDbEntity
  8
0
  6
CONTINUOUS
 62
     7
100
AcDbLine
 10
-52.737556
 20
-269.0
 30
0.0
 11
-34.68174
 21
-269.0
 31
0.0
  0
LINE
  5
8BC
100
AcDbEntity
  8
0
  6
CONTINUOUS
 62
     7
100
AcDbLine
 10
-34.68174
 20
-277.2
 30
0.0
 11
-28.050316
 21
-277.2
 31
0.0
  0
LINE
  5
8BD
100
AcDbEntity
  8
0
  6
CONTINUOUS
 62
     7
100
AcDbLine
 10
-34.68174
 20
-276.5
 30
0.0
 11
-28.050316
 21
-276.5
 31
0.0
  0
LINE
  5
8BE
100
AcDbEntity
  8
0
  6
CONTINUOUS
 62
     7
100
AcDbLine
 10
-22.504349
 20
-224.0
 30
0.0
 11
-7.262047
 21
-224.0
 31
0.0
  0
LINE
  5
8BF
100
AcDbEntity
  8
0
  6
CONTINUOUS
 62
     7
100
AcDbLine
 10
-34.68174
 20
-221.5
 30
0.0
 11
-28.050316
 21
-221.5
 31
0.0
  0
LINE
  5
8C0
100
AcDbEntity
  8
0
  6
CONTINUOUS
 62
     7
100
AcDbLine
 10
-34.68174
 20
-220.8
 30
0.0
 11
-28.050316
 21
-220.8
 31
0.0
  0
LINE
  5
8C1
100
AcDbEntity
  8
0
  6
CONTINUOUS
 62
     7
100
AcDbLine
 10
-59.715958
 20
-219.0
 30
0.0
 11
-59.715958
 21
-229.0
 31
0.0
  0
LINE
  5
8C2
100
AcDbEntity
  8
0
  6
CONTINUOUS
 62
     7
100
AcDbLine
 10
-57.438522
 20
-224.0
 30
0.0
 11
-57.438522
 21
-229.0
 31
0.0
  0
LINE
  5
8C3
100
AcDbEntity
  8
0
  6
CONTINUOUS
 62
     7
100
AcDbLine
 10
-56.417557
 20
-229.0
 30
0.0
 11
-56.417557
 21
-269.0
 31
0.0
  0
LINE
  5
8C4
100
AcDbEntity
  8
0
  6
CONTINUOUS
 62
     7
100
AcDbLine
 10
-55.297554
 20
-220.8
 30
0.0
 11
-55.297554
 21
-229.0
 31
0.0
  0
LINE
  5
8C5
100
AcDbEntity
  8
0
  6
CONTINUOUS
 62
     7
100
AcDbLine
 10
-52.737556
 20
-220.8
 30
0.0
 11
-52.737556
 21
-229.0
 31
0.0
  0
LINE
  5
8C6
100
AcDbEntity
  8
0
  6
CONTINUOUS
 62
     7
100
AcDbLine
 10
-51.617561
 20
-229.0
 30
0.0
 11
-51.617561
 21
-269.0
 31
0.0
  0
LINE
  5
8C7
100
AcDbEntity
  8
0
  6
CONTINUOUS
 62
     7
100
AcDbLine
 10
-50.596596
 20
-219.0
 30
0.0
 11
-50.596596
 21
-224.0
 31
0.0
  0
LINE
  5
8C8
100
AcDbEntity
  8
0
  6
CONTINUOUS
 62
     7
100
AcDbLine
 10
-50.596596
 20
-274.0
 30
0.0
 11
-50.596596
 21
-279.0
 31
0.0
  0
LINE
  5
8C9
100
AcDbEntity
  8
0
  6
CONTINUOUS
 62
     7
100
AcDbLine
 10
-52.737556
 20
-269.0
 30
0.0
 11
-52.737556
 21
-277.2
 31
0.0
  0
LINE
  5
8CA
100
AcDbEntity
  8
0
  6
CONTINUOUS
 62
     7
100
AcDbLine
 10
-55.297554
 20
-269.0
 30
0.0
 11
-55.297554
 21
-277.2
 31
0.0
  0
LINE
  5
8CB
100
AcDbEntity
  8
0
  6
CONTINUOUS
 62
     7
100
AcDbLine
 10
-57.438522
 20
-269.0
 30
0.0
 11
-57.438522
 21
-274.0
 31
0.0
  0
LINE
  5
8CC
100
AcDbEntity
  8
0
  6
CONTINUOUS
 62
     7
100
AcDbLine
 10
-22.504349
 20
-274.0
 30
0.0
 11
-7.262047
 21
-274.0
 31
0.0
  0
LINE
  5
8CD
100
AcDbEntity
  8
0
  6
CONTINUOUS
 62
     7
100
AcDbLine
 10
-28.050316
 20
-269.0
 30
0.0
 11
-0.581917
 21
-269.0
 31
0.0
  0
LINE
  5
8CE
100
AcDbEntity
  8
0
  6
CONTINUOUS
 62
     7
100
AcDbLine
 10
-28.050316
 20
-229.0
 30
0.0
 11
-0.581917
 21
-229.0
 31
0.0
  0
LINE
  5
8CF
100
AcDbEntity
  8
0
  6
CONTINUOUS
 62
     7
100
AcDbLine
 10
-40.227707
 20
-269.0
 30
0.0
 11
-40.227707
 21
-274.0
 31
0.0
  0
LINE
  5
8D0
100
AcDbEntity
  8
0
  6
CONTINUOUS
 62
     7
100
AcDbLine
 10
-34.68174
 20
-269.0
 30
0.0
 11
-34.68174
 21
-277.2
 31
0.0
  0
LINE
  5
8D1
100
AcDbEntity
  8
0
  6
CONTINUOUS
 62
     7
100
AcDbLine
 10
-28.050316
 20
-269.0
 30
0.0
 11
-28.050316
 21
-277.2
 31
0.0
  0
LINE
  5
8D2
100
AcDbEntity
  8
0
  6
CONTINUOUS
 62
     7
100
AcDbLine
 10
-22.504349
 20
-274.0
 30
0.0
 11
-22.504349
 21
-279.0
 31
0.0
  0
LINE
  5
8D3
100
AcDbEntity
  8
0
  6
CONTINUOUS
 62
     7
100
AcDbLine
 10
-40.227707
 20
-224.0
 30
0.0
 11
-40.227707
 21
-229.0
 31
0.0
  0
LINE
  5
8D4
100
AcDbEntity
  8
0
  6
CONTINUOUS
 62
     7
100
AcDbLine
 10
-37.582993
 20
-229.0
 30
0.0
 11
-37.582993
 21
-269.0
 31
0.0
  0
LINE
  5
8D5
100
AcDbEntity
  8
0
  6
CONTINUOUS
 62
     7
100
AcDbLine
 10
-34.68174
 20
-220.8
 30
0.0
 11
-34.68174
 21
-229.0
 31
0.0
  0
LINE
  5
8D6
100
AcDbEntity
  8
0
  6
CONTINUOUS
 62
     7
100
AcDbLine
 10
-59.715958
 20
-269.0
 30
0.0
 11
-55.297554
 21
-269.0
 31
0.0
  0
LINE
  5
8D7
100
AcDbEntity
  8
0
  6
CONTINUOUS
 62
     7
100
AcDbLine
 10
-59.715958
 20
-274.0
 30
0.0
 11
-57.438522
 21
-274.0
 31
0.0
  0
LINE
  5
8D8
100
AcDbEntity
  8
0
  6
CONTINUOUS
 62
     7
100
AcDbLine
 10
-59.715958
 20
-224.0
 30
0.0
 11
-57.438522
 21
-224.0
 31
0.0
  0
LINE
  5
8D9
100
AcDbEntity
  8
0
  6
CONTINUOUS
 62
     7
100
AcDbLine
 10
-25.149071
 20
-229.0
 30
0.0
 11
-25.149071
 21
-269.0
 31
0.0
  0
LINE
  5
8DA
100
AcDbEntity
  8
0
  6
CONTINUOUS
 62
     7
100
AcDbLine
 10
-0.581917
 20
-276.5
 30
0.0
 11
7.405651
 21
-276.5
 31
0.0
  0
LINE
  5
8DB
100
AcDbEntity
  8
0
  6
CONTINUOUS
 62
     7
100
AcDbLine
 10
-59.715958
 20
-229.0
 30
0.0
 11
-55.297554
 21
-229.0
 31
0.0
  0
LINE
  5
8DC
100
AcDbEntity
  8
0
  6
CONTINUOUS
 62
     7
100
AcDbLine
 10
-0.581917
 20
-221.5
 30
0.0
 11
7.405651
 21
-221.5
 31
0.0
  0
LINE
  5
8DD
100
AcDbEntity
  8
0
  6
CONTINUOUS
 62
     7
100
AcDbLine
 10
-0.581917
 20
-277.2
 30
0.0
 11
7.405651
 21
-277.2
 31
0.0
  0
LINE
  5
8DE
100
AcDbEntity
  8
0
  6
CONTINUOUS
 62
     7
100
AcDbLine
 10
-0.581917
 20
-220.8
 30
0.0
 11
7.405651
 21
-220.8
 31
0.0
  0
LINE
  5
8DF
100
AcDbEntity
  8
0
  6
CONTINUOUS
 62
     7
100
AcDbLine
 10
-28.050316
 20
-220.8
 30
0.0
 11
-28.050316
 21
-229.0
 31
0.0
  0
LINE
  5
8E0
100
AcDbEntity
  8
0
  6
CONTINUOUS
 62
     7
100
AcDbLine
 10
-22.504349
 20
-219.0
 30
0.0
 11
-22.504349
 21
-224.0
 31
0.0
  0
LINE
  5
8E1
100
AcDbEntity
  8
0
  6
CONTINUOUS
 62
     7
100
AcDbLine
 10
-7.262047
 20
-269.0
 30
0.0
 11
-7.262047
 21
-274.0
 31
0.0
  0
LINE
  5
8E2
100
AcDbEntity
  8
0
  6
CONTINUOUS
 62
     7
100
AcDbLine
 10
-0.581917
 20
-269.0
 30
0.0
 11
-0.581917
 21
-277.2
 31
0.0
  0
LINE
  5
8E3
100
AcDbEntity
  8
0
  6
CONTINUOUS
 62
     7
100
AcDbLine
 10
7.405651
 20
-269.0
 30
0.0
 11
7.405651
 21
-277.2
 31
0.0
  0
LINE
  5
8E4
100
AcDbEntity
  8
0
  6
CONTINUOUS
 62
     7
100
AcDbLine
 10
14.085777
 20
-274.0
 30
0.0
 11
14.085777
 21
-279.0
 31
0.0
  0
LINE
  5
8E5
100
AcDbEntity
  8
0
  6
CONTINUOUS
 62
     7
100
AcDbLine
 10
-7.262047
 20
-224.0
 30
0.0
 11
-7.262047
 21
-229.0
 31
0.0
  0
LINE
  5
8E6
100
AcDbEntity
  8
0
  6
CONTINUOUS
 62
     7
100
AcDbLine
 10
-4.076481
 20
-229.0
 30
0.0
 11
-4.076481
 21
-269.0
 31
0.0
  0
LINE
  5
8E7
100
AcDbEntity
  8
0
  6
CONTINUOUS
 62
     7
100
AcDbLine
 10
-0.581917
 20
-220.8
 30
0.0
 11
-0.581917
 21
-229.0
 31
0.0
  0
LINE
  5
8E8
100
AcDbEntity
  8
0
  6
CONTINUOUS
 62
     7
100
AcDbLine
 10
7.405651
 20
-220.8
 30
0.0
 11
7.405651
 21
-229.0
 31
0.0
  0
LINE
  5
8E9
100
AcDbEntity
  8
0
  6
CONTINUOUS
 62
     7
100
AcDbLine
 10
10.900211
 20
-229.0
 30
0.0
 11
10.900211
 21
-269.0
 31
0.0
  0
LINE
  5
8EA
100
AcDbEntity
  8
0
  6
CONTINUOUS
 62
     7
100
AcDbLine
 10
40.0
 20
-220.8
 30
0.0
 11
40.0
 21
-229.0
 31
0.0
  0
LINE
  5
8EB
100
AcDbEntity
  8
0
  6
CONTINUOUS
 62
     7
100
AcDbLine
 10
43.5
 20
-229.0
 30
0.0
 11
43.5
 21
-269.0
 31
0.0
  0
LINE
  5
8EC
100
AcDbEntity
  8
0
  6
CONTINUOUS
 62
     7
100
AcDbLine
 10
32.0
 20
-220.8
 30
0.0
 11
32.0
 21
-229.0
 31
0.0
  0
LINE
  5
8ED
100
AcDbEntity
  8
0
  6
CONTINUOUS
 62
     7
100
AcDbLine
 10
32.0
 20
-220.8
 30
0.0
 11
40.0
 21
-220.8
 31
0.0
  0
LINE
  5
8EE
100
AcDbEntity
  8
0
  6
CONTINUOUS
 62
     7
100
AcDbLine
 10
46.690525
 20
-274.0
 30
0.0
 11
57.30948
 21
-274.0
 31
0.0
  0
LINE
  5
8EF
100
AcDbEntity
  8
0
  6
CONTINUOUS
 62
     7
100
AcDbLine
 10
14.085777
 20
-224.0
 30
0.0
 11
25.309475
 21
-224.0
 31
0.0
  0
LINE
  5
8F0
100
AcDbEntity
  8
0
  6
CENTER
 62
     7
100
AcDbLine
 10
20.0
 20
-286.0
 30
0.0
 11
20.0
 21
-212.0
 31
0.0
  0
LINE
  5
8F1
100
AcDbEntity
  8
0
  6
CONTINUOUS
 62
     7
100
AcDbLine
 10
25.309475
 20
-224.0
 30
0.0
 11
25.309475
 21
-229.0
 31
0.0
  0
LINE
  5
8F2
100
AcDbEntity
  8
0
  6
CENTER
 62
     7
100
AcDbLine
 10
52.0
 20
-286.0
 30
0.0
 11
52.0
 21
-212.0
 31
0.0
  0
LINE
  5
8F3
100
AcDbEntity
  8
0
  6
CENTER
 62
     7
100
AcDbLine
 10
-11.950272
 20
-286.0
 30
0.0
 11
-11.950272
 21
-212.0
 31
0.0
  0
LINE
  5
8F4
100
AcDbEntity
  8
0
  6
CONTINUOUS
 62
     7
100
AcDbLine
 10
32.0
 20
-277.2
 30
0.0
 11
40.0
 21
-277.2
 31
0.0
  0
LINE
  5
8F5
100
AcDbEntity
  8
0
  6
CONTINUOUS
 62
     7
100
AcDbLine
 10
14.085777
 20
-274.0
 30
0.0
 11
25.309475
 21
-274.0
 31
0.0
  0
LINE
  5
8F6
100
AcDbEntity
  8
0
  6
CONTINUOUS
 62
     7
100
AcDbLine
 10
7.405651
 20
-269.0
 30
0.0
 11
32.0
 21
-269.0
 31
0.0
  0
LINE
  5
8F7
100
AcDbEntity
  8
0
  6
CONTINUOUS
 62
     7
100
AcDbLine
 10
40.0
 20
-269.0
 30
0.0
 11
57.30948
 21
-269.0
 31
0.0
  0
LINE
  5
8F8
100
AcDbEntity
  8
0
  6
CONTINUOUS
 62
     7
100
AcDbLine
 10
46.680546
 20
-279.0
 30
0.0
 11
-59.715958
 21
-279.0
 31
0.0
  0
LINE
  5
8F9
100
AcDbEntity
  8
0
  6
CONTINUOUS
 62
     7
100
AcDbLine
 10
32.0
 20
-276.5
 30
0.0
 11
40.0
 21
-276.5
 31
0.0
  0
LINE
  5
8FA
100
AcDbEntity
  8
0
  6
CENTER
 62
     7
100
AcDbLine
 10
30.0
 20
-273.0
 30
0.0
 11
42.0
 21
-273.0
 31
0.0
  0
LINE
  5
8FB
100
AcDbEntity
  8
0
  6
CONTINUOUS
 62
     7
100
AcDbLine
 10
25.309475
 20
-269.0
 30
0.0
 11
25.309475
 21
-274.0
 31
0.0
  0
LINE
  5
8FC
100
AcDbEntity
  8
0
  6
CENTER
 62
     7
100
AcDbLine
 10
-66.718834
 20
-249.0
 30
0.0
 11
64.30948
 21
-249.0
 31
0.0
  0
LINE
  5
8FD
100
AcDbEntity
  8
0
  6
CONTINUOUS
 62
     7
100
AcDbLine
 10
46.690525
 20
-274.0
 30
0.0
 11
46.690525
 21
-279.0
 31
0.0
  0
LINE
  5
8FE
100
AcDbEntity
  8
0
  6
CONTINUOUS
 62
     7
100
AcDbLine
 10
46.690525
 20
-219.0
 30
0.0
 11
46.690525
 21
-224.0
 31
0.0
  0
LINE
  5
8FF
100
AcDbEntity
  8
0
  6
CONTINUOUS
 62
     7
100
AcDbLine
 10
46.690525
 20
-224.0
 30
0.0
 11
57.30948
 21
-224.0
 31
0.0
  0
LINE
  5
900
100
AcDbEntity
  8
0
  6
CONTINUOUS
 62
     7
100
AcDbLine
 10
7.405651
 20
-229.0
 30
0.0
 11
32.0
 21
-229.0
 31
0.0
  0
LINE
  5
901
100
AcDbEntity
  8
0
  6
CONTINUOUS
 62
     7
100
AcDbLine
 10
40.0
 20
-277.20099
 30
0.0
 11
40.0
 21
-269.0
 31
0.0
  0
LINE
  5
902
100
AcDbEntity
  8
0
  6
CONTINUOUS
 62
     7
100
AcDbLine
 10
40.0
 20
-229.0
 30
0.0
 11
57.30948
 21
-229.0
 31
0.0
  0
LINE
  5
903
100
AcDbEntity
  8
0
  6
CONTINUOUS
 62
     7
100
AcDbLine
 10
46.680546
 20
-219.0
 30
0.0
 11
-59.715958
 21
-219.0
 31
0.0
  0
LINE
  5
904
100
AcDbEntity
  8
0
  6
CONTINUOUS
 62
     7
100
AcDbLine
 10
14.085777
 20
-219.0
 30
0.0
 11
14.085777
 21
-224.0
 31
0.0
  0
LINE
  5
905
100
AcDbEntity
  8
0
  6
CONTINUOUS
 62
     7
100
AcDbLine
 10
32.0
 20
-277.20099
 30
0.0
 11
32.0
 21
-269.0
 31
0.0
  0
LINE
  5
906
100
AcDbEntity
  8
0
  6
CONTINUOUS
 62
     7
100
AcDbLine
 10
27.0
 20
-229.0
 30
0.0
 11
27.0
 21
-269.0
 31
0.0
  0
LINE
  5
907
100
AcDbEntity
  8
0
  6
CONTINUOUS
 62
     7
100
AcDbLine
 10
45.0
 20
-229.0
 30
0.0
 11
45.0
 21
-269.0
 31
0.0
  0
LINE
  5
908
100
AcDbEntity
  8
0
  6
CONTINUOUS
 62
     7
100
AcDbLine
 10
28.5
 20
-229.0
 30
0.0
 11
28.5
 21
-269.0
 31
0.0
  0
LINE
  5
909
100
AcDbEntity
  8
0
  6
CENTER
 62
     7
100
AcDbLine
 10
30.0
 20
-225.0
 30
0.0
 11
42.0
 21
-225.0
 31
0.0
  0
LINE
  5
90A
100
AcDbEntity
  8
0
  6
CENTER
 62
     7
100
AcDbLine
 10
-48.715973
 20
-286.0
 30
0.0
 11
-48.715973
 21
-212.0
 31
0.0
  0
LINE
  5
90B
100
AcDbEntity
  8
0
  6
CENTER
 62
     7
100
AcDbLine
 10
-38.475967
 20
-286.0
 30
0.0
 11
-38.475967
 21
-212.0
 31
0.0
  0
LINE
  5
90C
100
AcDbEntity
  8
0
  6
CONTINUOUS
 62
     7
100
AcDbLine
 10
32.0
 20
-221.5
 30
0.0
 11
40.0
 21
-221.5
 31
0.0
  0
LINE
  5
90D
100
AcDbEntity
  8
0
  6
CONTINUOUS
 62
     7
100
AcDbLine
 10
-55.297554
 20
-220.8
 30
0.0
 11
-52.737556
 21
-220.8
 31
0.0
  0
POINT
  5
90E
100
AcDbEntity
  8
0
  6
CONTINUOUS
 62
     7
100
AcDbPoint
 10
52.0
 20
-505.0
 30
0.0
  0
POINT
  5
90F
100
AcDbEntity
  8
0
  6
CONTINUOUS
 62
     7
100
AcDbPoint
 10
64.30948
 20
-505.0
 30
0.0
  0
LINE
  5
910
100
AcDbEntity
  8
0
  6
CONTINUOUS
 62
     7
100
AcDbLine
 10
-55.297546
 20
-532.5
 30
0.0
 11
-52.737534
 21
-532.5
 31
0.0
  0
LINE
  5
911
100
AcDbEntity
  8
0
  6
CONTINUOUS
 62
     7
100
AcDbLine
 10
-50.596558
 20
-480.0
 30
0.0
 11
-40.227661
 21
-480.0
 31
0.0
  0
LINE
  5
912
100
AcDbEntity
  8
0
  6
CONTINUOUS
 62
     7
100
AcDbLine
 10
-50.596558
 20
-530.0
 30
0.0
 11
-40.227661
 21
-530.0
 31
0.0
  0
LINE
  5
913
100
AcDbEntity
  8
0
  6
CONTINUOUS
 62
     7
100
AcDbLine
 10
-52.737534
 20
-525.0
 30
0.0
 11
-34.681679
 21
-525.0
 31
0.0
  0
LINE
  5
914
100
AcDbEntity
  8
0
  6
CONTINUOUS
 62
     7
100
AcDbLine
 10
-52.737534
 20
-485.0
 30
0.0
 11
-34.681679
 21
-485.0
 31
0.0
  0
LINE
  5
915
100
AcDbEntity
  8
0
  6
CONTINUOUS
 62
     7
100
AcDbLine
 10
-55.297546
 20
-533.2
 30
0.0
 11
-52.737534
 21
-533.2
 31
0.0
  0
LINE
  5
916
100
AcDbEntity
  8
0
  6
CONTINUOUS
 62
     7
100
AcDbLine
 10
-55.297546
 20
-477.5
 30
0.0
 11
-52.737534
 21
-477.5
 31
0.0
  0
LINE
  5
917
100
AcDbEntity
  8
0
  6
CONTINUOUS
 62
     7
100
AcDbLine
 10
-55.297546
 20
-476.8
 30
0.0
 11
-52.737534
 21
-476.8
 31
0.0
  0
LINE
  5
918
100
AcDbEntity
  8
0
  6
CENTER
 62
     7
100
AcDbLine
 10
-48.715973
 20
-468.0
 30
0.0
 11
-48.715973
 21
-542.0
 31
0.0
  0
LINE
  5
919
100
AcDbEntity
  8
0
  6
CENTER
 62
     7
100
AcDbLine
 10
-38.475967
 20
-468.0
 30
0.0
 11
-38.475967
 21
-542.0
 31
0.0
  0
LINE
  5
91A
100
AcDbEntity
  8
0
  6
CONTINUOUS
 62
     7
100
AcDbLine
 10
-50.596558
 20
-480.0
 30
0.0
 11
-50.596558
 21
-485.0
 31
0.0
  0
LINE
  5
91B
100
AcDbEntity
  8
0
  6
CONTINUOUS
 62
     7
100
AcDbLine
 10
-51.617531
 20
-485.0
 30
0.0
 11
-51.617531
 21
-525.0
 31
0.0
  0
LINE
  5
91C
100
AcDbEntity
  8
0
  6
CONTINUOUS
 62
     7
100
AcDbLine
 10
-52.737534
 20
-476.8
 30
0.0
 11
-52.737534
 21
-485.0
 31
0.0
  0
LINE
  5
91D
100
AcDbEntity
  8
0
  6
CONTINUOUS
 62
     7
100
AcDbLine
 10
-55.297546
 20
-476.8
 30
0.0
 11
-55.297546
 21
-485.0
 31
0.0
  0
LINE
  5
91E
100
AcDbEntity
  8
0
  6
CONTINUOUS
 62
     7
100
AcDbLine
 10
-56.417549
 20
-485.0
 30
0.0
 11
-56.417549
 21
-525.0
 31
0.0
  0
LINE
  5
91F
100
AcDbEntity
  8
0
  6
CONTINUOUS
 62
     7
100
AcDbLine
 10
-57.438522
 20
-475.0
 30
0.0
 11
-57.438522
 21
-480.0
 31
0.0
  0
LINE
  5
920
100
AcDbEntity
  8
0
  6
CONTINUOUS
 62
     7
100
AcDbLine
 10
-59.715958
 20
-475.0
 30
0.0
 11
-59.715958
 21
-485.0
 31
0.0
  0
LINE
  5
921
100
AcDbEntity
  8
0
  6
CONTINUOUS
 62
     7
100
AcDbLine
 10
-50.596558
 20
-525.0
 30
0.0
 11
-50.596558
 21
-530.0
 31
0.0
  0
LINE
  5
922
100
AcDbEntity
  8
0
  6
CONTINUOUS
 62
     7
100
AcDbLine
 10
-22.504257
 20
-480.0
 30
0.0
 11
-7.262131
 21
-480.0
 31
0.0
  0
LINE
  5
923
100
AcDbEntity
  8
0
  6
CONTINUOUS
 62
     7
100
AcDbLine
 10
-22.504257
 20
-530.0
 30
0.0
 11
-7.262131
 21
-530.0
 31
0.0
  0
LINE
  5
924
100
AcDbEntity
  8
0
  6
CONTINUOUS
 62
     7
100
AcDbLine
 10
-52.737534
 20
-525.0
 30
0.0
 11
-52.737534
 21
-533.2
 31
0.0
  0
LINE
  5
925
100
AcDbEntity
  8
0
  6
CONTINUOUS
 62
     7
100
AcDbLine
 10
-55.297546
 20
-525.0
 30
0.0
 11
-55.297546
 21
-533.2
 31
0.0
  0
LINE
  5
926
100
AcDbEntity
  8
0
  6
CONTINUOUS
 62
     7
100
AcDbLine
 10
-57.438522
 20
-530.0
 30
0.0
 11
-57.438522
 21
-535.0
 31
0.0
  0
LINE
  5
927
100
AcDbEntity
  8
0
  6
CONTINUOUS
 62
     7
100
AcDbLine
 10
-59.715958
 20
-525.0
 30
0.0
 11
-59.715958
 21
-535.0
 31
0.0
  0
LINE
  5
928
100
AcDbEntity
  8
0
  6
CONTINUOUS
 62
     7
100
AcDbLine
 10
-34.681679
 20
-476.8
 30
0.0
 11
-28.05024
 21
-476.8
 31
0.0
  0
LINE
  5
929
100
AcDbEntity
  8
0
  6
CONTINUOUS
 62
     7
100
AcDbLine
 10
-34.681679
 20
-477.5
 30
0.0
 11
-28.05024
 21
-477.5
 31
0.0
  0
LINE
  5
92A
100
AcDbEntity
  8
0
  6
CONTINUOUS
 62
     7
100
AcDbLine
 10
-34.681679
 20
-532.5
 30
0.0
 11
-28.05024
 21
-532.5
 31
0.0
  0
LINE
  5
92B
100
AcDbEntity
  8
0
  6
CONTINUOUS
 62
     7
100
AcDbLine
 10
-34.681679
 20
-533.2
 30
0.0
 11
-28.05024
 21
-533.2
 31
0.0
  0
LINE
  5
92C
100
AcDbEntity
  8
0
  6
CONTINUOUS
 62
     7
100
AcDbLine
 10
-0.582005
 20
-533.2
 30
0.0
 11
7.40556
 21
-533.2
 31
0.0
  0
LINE
  5
92D
100
AcDbEntity
  8
0
  6
CONTINUOUS
 62
     7
100
AcDbLine
 10
-0.582005
 20
-532.5
 30
0.0
 11
7.40556
 21
-532.5
 31
0.0
  0
LINE
  5
92E
100
AcDbEntity
  8
0
  6
CONTINUOUS
 62
     7
100
AcDbLine
 10
-59.715958
 20
-530.0
 30
0.0
 11
-57.438522
 21
-530.0
 31
0.0
  0
LINE
  5
92F
100
AcDbEntity
  8
0
  6
CONTINUOUS
 62
     7
100
AcDbLine
 10
-0.582005
 20
-477.5
 30
0.0
 11
7.40556
 21
-477.5
 31
0.0
  0
LINE
  5
930
100
AcDbEntity
  8
0
  6
CONTINUOUS
 62
     7
100
AcDbLine
 10
-0.582005
 20
-476.8
 30
0.0
 11
7.40556
 21
-476.8
 31
0.0
  0
LINE
  5
931
100
AcDbEntity
  8
0
  6
CONTINUOUS
 62
     7
100
AcDbLine
 10
-25.148979
 20
-485.0
 30
0.0
 11
-25.148979
 21
-525.0
 31
0.0
  0
LINE
  5
932
100
AcDbEntity
  8
0
  6
CONTINUOUS
 62
     7
100
AcDbLine
 10
-28.05024
 20
-476.8
 30
0.0
 11
-28.05024
 21
-485.0
 31
0.0
  0
LINE
  5
933
100
AcDbEntity
  8
0
  6
CONTINUOUS
 62
     7
100
AcDbLine
 10
-34.681679
 20
-476.8
 30
0.0
 11
-34.681679
 21
-485.0
 31
0.0
  0
LINE
  5
934
100
AcDbEntity
  8
0
  6
CONTINUOUS
 62
     7
100
AcDbLine
 10
-59.715958
 20
-480.0
 30
0.0
 11
-57.438522
 21
-480.0
 31
0.0
  0
LINE
  5
935
100
AcDbEntity
  8
0
  6
CONTINUOUS
 62
     7
100
AcDbLine
 10
-59.715958
 20
-485.0
 30
0.0
 11
-55.297546
 21
-485.0
 31
0.0
  0
LINE
  5
936
100
AcDbEntity
  8
0
  6
CONTINUOUS
 62
     7
100
AcDbLine
 10
-59.715958
 20
-525.0
 30
0.0
 11
-55.297546
 21
-525.0
 31
0.0
  0
LINE
  5
937
100
AcDbEntity
  8
0
  6
CONTINUOUS
 62
     7
100
AcDbLine
 10
-22.504257
 20
-480.0
 30
0.0
 11
-22.504257
 21
-485.0
 31
0.0
  0
LINE
  5
938
100
AcDbEntity
  8
0
  6
CONTINUOUS
 62
     7
100
AcDbLine
 10
-37.582932
 20
-485.0
 30
0.0
 11
-37.582932
 21
-525.0
 31
0.0
  0
LINE
  5
939
100
AcDbEntity
  8
0
  6
CONTINUOUS
 62
     7
100
AcDbLine
 10
-40.227661
 20
-475.0
 30
0.0
 11
-40.227661
 21
-480.0
 31
0.0
  0
LINE
  5
93A
100
AcDbEntity
  8
0
  6
CONTINUOUS
 62
     7
100
AcDbLine
 10
-22.504257
 20
-525.0
 30
0.0
 11
-22.504257
 21
-530.0
 31
0.0
  0
LINE
  5
93B
100
AcDbEntity
  8
0
  6
CONTINUOUS
 62
     7
100
AcDbLine
 10
-28.05024
 20
-525.0
 30
0.0
 11
-28.05024
 21
-533.2
 31
0.0
  0
LINE
  5
93C
100
AcDbEntity
  8
0
  6
CONTINUOUS
 62
     7
100
AcDbLine
 10
-34.681679
 20
-525.0
 30
0.0
 11
-34.681679
 21
-533.2
 31
0.0
  0
LINE
  5
93D
100
AcDbEntity
  8
0
  6
CONTINUOUS
 62
     7
100
AcDbLine
 10
-40.227661
 20
-530.0
 30
0.0
 11
-40.227661
 21
-535.0
 31
0.0
  0
LINE
  5
93E
100
AcDbEntity
  8
0
  6
CONTINUOUS
 62
     7
100
AcDbLine
 10
-28.05024
 20
-485.0
 30
0.0
 11
-0.582005
 21
-485.0
 31
0.0
  0
LINE
  5
93F
100
AcDbEntity
  8
0
  6
CONTINUOUS
 62
     7
100
AcDbLine
 10
-7.262131
 20
-530.0
 30
0.0
 11
-7.262131
 21
-535.0
 31
0.0
  0
LINE
  5
940
100
AcDbEntity
  8
0
  6
CONTINUOUS
 62
     7
100
AcDbLine
 10
-0.582005
 20
-525.0
 30
0.0
 11
-0.582005
 21
-533.2
 31
0.0
  0
LINE
  5
941
100
AcDbEntity
  8
0
  6
CONTINUOUS
 62
     7
100
AcDbLine
 10
7.40556
 20
-525.0
 30
0.0
 11
7.40556
 21
-533.2
 31
0.0
  0
LINE
  5
942
100
AcDbEntity
  8
0
  6
CONTINUOUS
 62
     7
100
AcDbLine
 10
14.085686
 20
-525.0
 30
0.0
 11
14.085686
 21
-530.0
 31
0.0
  0
LINE
  5
943
100
AcDbEntity
  8
0
  6
CONTINUOUS
 62
     7
100
AcDbLine
 10
-28.05024
 20
-525.0
 30
0.0
 11
-0.582005
 21
-525.0
 31
0.0
  0
LINE
  5
944
100
AcDbEntity
  8
0
  6
CONTINUOUS
 62
     7
100
AcDbLine
 10
-7.262131
 20
-475.0
 30
0.0
 11
-7.262131
 21
-480.0
 31
0.0
  0
LINE
  5
945
100
AcDbEntity
  8
0
  6
CONTINUOUS
 62
     7
100
AcDbLine
 10
-4.076565
 20
-485.0
 30
0.0
 11
-4.076565
 21
-525.0
 31
0.0
  0
LINE
  5
946
100
AcDbEntity
  8
0
  6
CONTINUOUS
 62
     7
100
AcDbLine
 10
-0.582005
 20
-476.8
 30
0.0
 11
-0.582005
 21
-485.0
 31
0.0
  0
LINE
  5
947
100
AcDbEntity
  8
0
  6
CONTINUOUS
 62
     7
100
AcDbLine
 10
7.40556
 20
-476.8
 30
0.0
 11
7.40556
 21
-485.0
 31
0.0
  0
LINE
  5
948
100
AcDbEntity
  8
0
  6
CONTINUOUS
 62
     7
100
AcDbLine
 10
10.90012
 20
-485.0
 30
0.0
 11
10.90012
 21
-525.0
 31
0.0
  0
LINE
  5
949
100
AcDbEntity
  8
0
  6
CONTINUOUS
 62
     7
100
AcDbLine
 10
32.0
 20
-533.2
 30
0.0
 11
32.0
 21
-525.0
 31
0.0
  0
LINE
  5
94A
100
AcDbEntity
  8
0
  6
CONTINUOUS
 62
     7
100
AcDbLine
 10
28.5
 20
-525.0
 30
0.0
 11
28.5
 21
-485.0
 31
0.0
  0
LINE
  5
94B
100
AcDbEntity
  8
0
  6
CONTINUOUS
 62
     7
100
AcDbLine
 10
40.0
 20
-533.2
 30
0.0
 11
40.0
 21
-525.0
 31
0.0
  0
LINE
  5
94C
100
AcDbEntity
  8
0
  6
CONTINUOUS
 62
     7
100
AcDbLine
 10
40.0
 20
-533.2
 30
0.0
 11
32.0
 21
-533.2
 31
0.0
  0
LINE
  5
94D
100
AcDbEntity
  8
0
  6
CONTINUOUS
 62
     7
100
AcDbLine
 10
25.309475
 20
-480.0
 30
0.0
 11
14.085686
 21
-480.0
 31
0.0
  0
LINE
  5
94E
100
AcDbEntity
  8
0
  6
CONTINUOUS
 62
     7
100
AcDbLine
 10
57.30948
 20
-530.0
 30
0.0
 11
46.690525
 21
-530.0
 31
0.0
  0
LINE
  5
94F
100
AcDbEntity
  8
0
  6
CENTER
 62
     7
100
AcDbLine
 10
52.0
 20
-468.0
 30
0.0
 11
52.0
 21
-542.0
 31
0.0
  0
LINE
  5
950
100
AcDbEntity
  8
0
  6
CONTINUOUS
 62
     7
100
AcDbLine
 10
46.690525
 20
-530.0
 30
0.0
 11
46.690525
 21
-525.0
 31
0.0
  0
LINE
  5
951
100
AcDbEntity
  8
0
  6
CENTER
 62
     7
100
AcDbLine
 10
20.0
 20
-468.0
 30
0.0
 11
20.0
 21
-542.0
 31
0.0
  0
LINE
  5
952
100
AcDbEntity
  8
0
  6
CENTER
 62
     7
100
AcDbLine
 10
-11.950272
 20
-468.0
 30
0.0
 11
-11.950272
 21
-542.0
 31
0.0
  0
LINE
  5
953
100
AcDbEntity
  8
0
  6
CONTINUOUS
 62
     7
100
AcDbLine
 10
40.0
 20
-476.8
 30
0.0
 11
32.0
 21
-476.8
 31
0.0
  0
LINE
  5
954
100
AcDbEntity
  8
0
  6
CONTINUOUS
 62
     7
100
AcDbLine
 10
57.30948
 20
-480.0
 30
0.0
 11
46.690525
 21
-480.0
 31
0.0
  0
LINE
  5
955
100
AcDbEntity
  8
0
  6
CONTINUOUS
 62
     7
100
AcDbLine
 10
46.690525
 20
-485.0
 30
0.0
 11
40.0
 21
-485.0
 31
0.0
  0
LINE
  5
956
100
AcDbEntity
  8
0
  6
CONTINUOUS
 62
     7
100
AcDbLine
 10
32.0
 20
-485.0
 30
0.0
 11
7.40556
 21
-485.0
 31
0.0
  0
LINE
  5
957
100
AcDbEntity
  8
0
  6
CONTINUOUS
 62
     7
100
AcDbLine
 10
-59.715958
 20
-475.0
 30
0.0
 11
57.30948
 21
-475.0
 31
0.0
  0
LINE
  5
958
100
AcDbEntity
  8
0
  6
CONTINUOUS
 62
     7
100
AcDbLine
 10
40.0
 20
-477.5
 30
0.0
 11
32.0
 21
-477.5
 31
0.0
  0
LINE
  5
959
100
AcDbEntity
  8
0
  6
CENTER
 62
     7
100
AcDbLine
 10
42.0
 20
-481.0
 30
0.0
 11
30.0
 21
-481.0
 31
0.0
  0
LINE
  5
95A
100
AcDbEntity
  8
0
  6
CONTINUOUS
 62
     7
100
AcDbLine
 10
46.690525
 20
-485.0
 30
0.0
 11
46.690525
 21
-480.0
 31
0.0
  0
LINE
  5
95B
100
AcDbEntity
  8
0
  6
CENTER
 62
     7
100
AcDbLine
 10
64.30948
 20
-505.0
 30
0.0
 11
-66.718834
 21
-505.0
 31
0.0
  0
LINE
  5
95C
100
AcDbEntity
  8
0
  6
CONTINUOUS
 62
     7
100
AcDbLine
 10
25.309475
 20
-480.0
 30
0.0
 11
25.309475
 21
-475.0
 31
0.0
  0
LINE
  5
95D
100
AcDbEntity
  8
0
  6
CONTINUOUS
 62
     7
100
AcDbLine
 10
25.309475
 20
-535.0
 30
0.0
 11
25.309475
 21
-530.0
 31
0.0
  0
LINE
  5
95E
100
AcDbEntity
  8
0
  6
CONTINUOUS
 62
     7
100
AcDbLine
 10
25.309475
 20
-530.0
 30
0.0
 11
14.085686
 21
-530.0
 31
0.0
  0
LINE
  5
95F
100
AcDbEntity
  8
0
  6
CONTINUOUS
 62
     7
100
AcDbLine
 10
46.690525
 20
-525.0
 30
0.0
 11
40.0
 21
-525.0
 31
0.0
  0
LINE
  5
960
100
AcDbEntity
  8
0
  6
CONTINUOUS
 62
     7
100
AcDbLine
 10
32.0
 20
-476.79901
 30
0.0
 11
32.0
 21
-485.0
 31
0.0
  0
LINE
  5
961
100
AcDbEntity
  8
0
  6
CONTINUOUS
 62
     7
100
AcDbLine
 10
32.0
 20
-525.0
 30
0.0
 11
7.40556
 21
-525.0
 31
0.0
  0
LINE
  5
962
100
AcDbEntity
  8
0
  6
CONTINUOUS
 62
     7
100
AcDbLine
 10
-59.715958
 20
-535.0
 30
0.0
 11
57.30948
 21
-535.0
 31
0.0
  0
LINE
  5
963
100
AcDbEntity
  8
0
  6
CONTINUOUS
 62
     7
100
AcDbLine
 10
40.0
 20
-532.5
 30
0.0
 11
32.0
 21
-532.5
 31
0.0
  0
LINE
  5
964
100
AcDbEntity
  8
0
  6
CENTER
 62
     7
100
AcDbLine
 10
42.0
 20
-529.0
 30
0.0
 11
30.0
 21
-529.0
 31
0.0
  0
LINE
  5
965
100
AcDbEntity
  8
0
  6
CONTINUOUS
 62
     7
100
AcDbLine
 10
43.5
 20
-525.0
 30
0.0
 11
43.5
 21
-485.0
 31
0.0
  0
LINE
  5
966
100
AcDbEntity
  8
0
  6
CONTINUOUS
 62
     7
100
AcDbLine
 10
27.0
 20
-525.0
 30
0.0
 11
27.0
 21
-485.0
 31
0.0
  0
LINE
  5
967
100
AcDbEntity
  8
0
  6
CONTINUOUS
 62
     7
100
AcDbLine
 10
45.0
 20
-525.0
 30
0.0
 11
45.0
 21
-485.0
 31
0.0
  0
LINE
  5
968
100
AcDbEntity
  8
0
  6
CONTINUOUS
 62
     7
100
AcDbLine
 10
40.0
 20
-476.79901
 30
0.0
 11
40.0
 21
-485.0
 31
0.0
  0
LINE
  5
969
100
AcDbEntity
  8
0
  6
CONTINUOUS
 62
     7
100
AcDbLine
 10
14.085686
 20
-480.0
 30
0.0
 11
14.085686
 21
-485.0
 31
0.0
  0
POINT
  5
96A
100
AcDbEntity
  8
0
  6
CONTINUOUS
 62
     7
100
AcDbPoint
 10
352.0
 20
-377.0
 30
0.0
  0
POINT
  5
96B
100
AcDbEntity
  8
0
  6
CONTINUOUS
 62
     7
100
AcDbPoint
 10
358.0
 20
-377.0
 30
0.0
  0
LINE
  5
96C
100
AcDbEntity
  8
0
  6
CENTER
 62
     7
100
AcDbLine
 10
326.0
 20
-377.0
 30
0.0
 11
314.0
 21
-377.0
 31
0.0
  0
LINE
  5
96D
100
AcDbEntity
  8
0
  6
CONTINUOUS
 62
     7
100
AcDbLine
 10
320.0
 20
-366.0
 30
0.0
 11
352.0
 21
-366.0
 31
0.0
  0
LINE
  5
96E
100
AcDbEntity
  8
0
  6
CONTINUOUS
 62
     7
100
AcDbLine
 10
349.5
 20
-373.8775
 30
0.0
 11
349.5
 21
-380.1225
 31
0.0
  0
LINE
  5
96F
100
AcDbEntity
  8
0
  6
CONTINUOUS
 62
     7
100
AcDbLine
 10
320.0
 20
-388.0
 30
0.0
 11
352.0
 21
-388.0
 31
0.0
  0
LINE
  5
970
100
AcDbEntity
  8
0
  6
CONTINUOUS
 62
     7
100
AcDbLine
 10
343.25533
 20
-384.46865
 30
0.0
 11
345.56701
 21
-387.17528
 31
0.0
  0
LINE
  5
971
100
AcDbEntity
  8
0
  6
CENTER
 62
     7
100
AcDbLine
 10
320.0
 20
-371.0
 30
0.0
 11
320.0
 21
-383.0
 31
0.0
  0
LINE
  5
972
100
AcDbEntity
  8
0
  6
CENTER
 62
     7
100
AcDbLine
 10
352.0
 20
-371.0
 30
0.0
 11
352.0
 21
-383.0
 31
0.0
  0
LINE
  5
973
100
AcDbEntity
  8
0
  6
CENTER
 62
     7
100
AcDbLine
 10
358.0
 20
-377.0
 30
0.0
 11
346.0
 21
-377.0
 31
0.0
  0
ARC
  5
974
100
AcDbEntity
  8
0
  6
CONTINUOUS
 62
     7
100
AcDbCircle
 10
345.1868
 20
-387.5
 30
0.0
 40
0.5
100
AcDbArc
 50
270.0
 51
40.499999
  0
ARC
  5
975
100
AcDbEntity
  8
0
  6
CONTINUOUS
 62
     7
100
AcDbCircle
 10
346.19053
 20
-366.5
 30
0.0
 40
0.5
100
AcDbArc
 50
298.95503
 51
90.000003
  0
ARC
  5
976
100
AcDbEntity
  8
0
  6
CONTINUOUS
 62
     7
100
AcDbCircle
 10
320.0
 20
-377.0
 30
0.0
 40
11.0
100
AcDbArc
 50
90.000003
 51
270.0
  0
ARC
  5
977
100
AcDbEntity
  8
0
  6
CONTINUOUS
 62
     7
100
AcDbCircle
 10
352.0
 20
-377.0
 30
0.0
 40
11.5
100
AcDbArc
 50
118.95503
 51
220.49999
  0
CIRCLE
  5
978
100
AcDbEntity
  8
0
  6
CONTINUOUS
 62
     7
100
AcDbCircle
 10
352.0
 20
-377.0
 30
0.0
 40
4.0
  0
ARC
  5
979
100
AcDbEntity
  8
0
  6
CONTINUOUS
 62
     7
100
AcDbCircle
 10
352.0
 20
-377.0
 30
0.0
 40
11.0
100
AcDbArc
 50
270.0
 51
90.000003
  0
CIRCLE
  5
97A
100
AcDbEntity
  8
0
  6
CONTINUOUS
 62
     7
100
AcDbCircle
 10
320.0
 20
-377.0
 30
0.0
 40
4.0
  0
POINT
  5
97B
100
AcDbEntity
  8
0
  6
CONTINUOUS
 62
     7
100
AcDbPoint
 10
352.0
 20
-281.0
 30
0.0
  0
POINT
  5
97C
100
AcDbEntity
  8
0
  6
CONTINUOUS
 62
     7
100
AcDbPoint
 10
364.30948
 20
-281.0
 30
0.0
  0
LINE
  5
97D
100
AcDbEntity
  8
0
  6
CENTER
 62
     7
100
AcDbLine
 10
307.69052
 20
-281.0
 30
0.0
 11
364.30948
 21
-281.0
 31
0.0
  0
LINE
  5
97E
100
AcDbEntity
  8
0
  6
CONTINUOUS
 62
     7
100
AcDbLine
 10
346.69053
 20
-305.7
 30
0.0
 11
363.0
 21
-305.7
 31
0.0
  0
LINE
  5
97F
100
AcDbEntity
  8
0
  6
CONTINUOUS
 62
     7
100
AcDbLine
 10
348.0
 20
-311.0
 30
0.0
 11
349.5
 21
-311.0
 31
0.0
  0
LINE
  5
980
100
AcDbEntity
  8
0
  6
CONTINUOUS
 62
     7
100
AcDbLine
 10
348.0
 20
-305.7
 30
0.0
 11
348.0
 21
-311.0
 31
0.0
  0
LINE
  5
981
100
AcDbEntity
  8
0
  6
CONTINUOUS
 62
     7
100
AcDbLine
 10
356.0
 20
-308.63426
 30
0.0
 11
356.0
 21
-305.7
 31
0.0
  0
LINE
  5
982
100
AcDbEntity
  8
0
  6
CONTINUOUS
 62
     7
100
AcDbLine
 10
348.0
 20
-256.3
 30
0.0
 11
348.0
 21
-251.0
 31
0.0
  0
LINE
  5
983
100
AcDbEntity
  8
0
  6
CONTINUOUS
 62
     7
100
AcDbLine
 10
348.0
 20
-251.0
 30
0.0
 11
349.5
 21
-251.0
 31
0.0
  0
LINE
  5
984
100
AcDbEntity
  8
0
  6
CONTINUOUS
 62
     7
100
AcDbLine
 10
356.0
 20
-253.36574
 30
0.0
 11
356.0
 21
-256.3
 31
0.0
  0
LINE
  5
985
100
AcDbEntity
  8
0
  6
CONTINUOUS
 62
     7
100
AcDbLine
 10
349.50001
 20
-250.99999
 30
0.0
 11
356.0
 21
-253.36574
 31
0.0
  0
LINE
  5
986
100
AcDbEntity
  8
0
  6
CONTINUOUS
 62
     4
100
AcDbLine
 10
332.1
 20
-301.0
 30
0.0
 11
332.1
 21
-308.5
 31
0.0
  0
LINE
  5
987
100
AcDbEntity
  8
0
  6
CONTINUOUS
 62
     4
100
AcDbLine
 10
339.9
 20
-301.0
 30
0.0
 11
339.9
 21
-308.5
 31
0.0
  0
LINE
  5
988
100
AcDbEntity
  8
0
  6
CONTINUOUS
 62
     7
100
AcDbLine
 10
363.0
 20
-256.3
 30
0.0
 11
363.0
 21
-261.0
 31
0.0
  0
LINE
  5
989
100
AcDbEntity
  8
0
  6
CONTINUOUS
 62
     7
100
AcDbLine
 10
340.0
 20
-261.0
 30
0.0
 11
363.0
 21
-261.0
 31
0.0
  0
LINE
  5
98A
100
AcDbEntity
  8
0
  6
CONTINUOUS
 62
     7
100
AcDbLine
 10
349.50001
 20
-311.00001
 30
0.0
 11
356.0
 21
-308.63426
 31
0.0
  0
LINE
  5
98B
100
AcDbEntity
  8
0
  6
CONTINUOUS
 62
     7
100
AcDbLine
 10
309.0
 20
-251.0
 30
0.0
 11
309.0
 21
-256.0
 31
0.0
  0
LINE
  5
98C
100
AcDbEntity
  8
0
  6
CONTINUOUS
 62
     7
100
AcDbLine
 10
363.0
 20
-301.0
 30
0.0
 11
363.0
 21
-305.7
 31
0.0
  0
LINE
  5
98D
100
AcDbEntity
  8
0
  6
CONTINUOUS
 62
     7
100
AcDbLine
 10
309.0
 20
-306.0
 30
0.0
 11
309.0
 21
-311.0
 31
0.0
  0
LINE
  5
98E
100
AcDbEntity
  8
0
  6
CONTINUOUS
 62
     7
100
AcDbLine
 10
340.0
 20
-252.8
 30
0.0
 11
340.0
 21
-261.0
 31
0.0
  0
LINE
  5
98F
100
AcDbEntity
  8
0
  6
CONTINUOUS
 62
     4
100
AcDbLine
 10
343.5
 20
-261.0
 30
0.0
 11
343.5
 21
-301.0
 31
0.0
  0
LINE
  5
990
100
AcDbEntity
  8
0
  6
CONTINUOUS
 62
     7
100
AcDbLine
 10
332.0
 20
-252.8
 30
0.0
 11
332.0
 21
-261.0
 31
0.0
  0
LINE
  5
991
100
AcDbEntity
  8
0
  6
CONTINUOUS
 62
     7
100
AcDbLine
 10
332.0
 20
-252.8
 30
0.0
 11
340.0
 21
-252.8
 31
0.0
  0
LINE
  5
992
100
AcDbEntity
  8
0
  6
CONTINUOUS
 62
     7
100
AcDbLine
 10
309.0
 20
-256.0
 30
0.0
 11
325.30947
 21
-256.0
 31
0.0
  0
LINE
  5
993
100
AcDbEntity
  8
0
  6
CENTER
 62
     7
100
AcDbLine
 10
320.0
 20
-318.0
 30
0.0
 11
320.0
 21
-244.0
 31
0.0
  0
LINE
  5
994
100
AcDbEntity
  8
0
  6
CONTINUOUS
 62
     7
100
AcDbLine
 10
325.30947
 20
-256.0
 30
0.0
 11
325.30947
 21
-261.0
 31
0.0
  0
LINE
  5
995
100
AcDbEntity
  8
0
  6
CENTER
 62
     7
100
AcDbLine
 10
352.0
 20
-318.0
 30
0.0
 11
352.0
 21
-244.0
 31
0.0
  0
LINE
  5
996
100
AcDbEntity
  8
0
  6
CONTINUOUS
 62
     7
100
AcDbLine
 10
346.69053
 20
-256.3
 30
0.0
 11
363.0
 21
-256.3
 31
0.0
  0
LINE
  5
997
100
AcDbEntity
  8
0
  6
CONTINUOUS
 62
     7
100
AcDbLine
 10
332.0
 20
-309.2
 30
0.0
 11
340.0
 21
-309.2
 31
0.0
  0
LINE
  5
998
100
AcDbEntity
  8
0
  6
CONTINUOUS
 62
     7
100
AcDbLine
 10
309.0
 20
-306.0
 30
0.0
 11
325.30947
 21
-306.0
 31
0.0
  0
LINE
  5
999
100
AcDbEntity
  8
0
  6
CONTINUOUS
 62
     7
100
AcDbLine
 10
325.30947
 20
-301.0
 30
0.0
 11
332.0
 21
-301.0
 31
0.0
  0
LINE
  5
99A
100
AcDbEntity
  8
0
  6
CONTINUOUS
 62
     7
100
AcDbLine
 10
346.68055
 20
-311.0
 30
0.0
 11
309.0
 21
-311.0
 31
0.0
  0
LINE
  5
99B
100
AcDbEntity
  8
0
  6
CONTINUOUS
 62
     4
100
AcDbLine
 10
332.1
 20
-308.5
 30
0.0
 11
339.9
 21
-308.5
 31
0.0
  0
LINE
  5
99C
100
AcDbEntity
  8
0
  6
CENTER
 62
     7
100
AcDbLine
 10
330.0
 20
-305.0
 30
0.0
 11
342.0
 21
-305.0
 31
0.0
  0
LINE
  5
99D
100
AcDbEntity
  8
0
  6
CONTINUOUS
 62
     7
100
AcDbLine
 10
325.30947
 20
-301.0
 30
0.0
 11
325.30947
 21
-306.0
 31
0.0
  0
LINE
  5
99E
100
AcDbEntity
  8
0
  6
CONTINUOUS
 62
     7
100
AcDbLine
 10
346.69053
 20
-305.7
 30
0.0
 11
346.69053
 21
-311.0
 31
0.0
  0
LINE
  5
99F
100
AcDbEntity
  8
0
  6
CONTINUOUS
 62
     7
100
AcDbLine
 10
346.69053
 20
-251.0
 30
0.0
 11
346.69053
 21
-256.3
 31
0.0
  0
LINE
  5
9A0
100
AcDbEntity
  8
0
  6
CONTINUOUS
 62
     4
100
AcDbLine
 10
332.1
 20
-253.5
 30
0.0
 11
332.1
 21
-261.0
 31
0.0
  0
LINE
  5
9A1
100
AcDbEntity
  8
0
  6
CONTINUOUS
 62
     7
100
AcDbLine
 10
325.30947
 20
-261.0
 30
0.0
 11
332.0
 21
-261.0
 31
0.0
  0
LINE
  5
9A2
100
AcDbEntity
  8
0
  6
CONTINUOUS
 62
     7
100
AcDbLine
 10
340.0
 20
-309.20099
 30
0.0
 11
340.0
 21
-301.0
 31
0.0
  0
LINE
  5
9A3
100
AcDbEntity
  8
0
  6
CONTINUOUS
 62
     4
100
AcDbLine
 10
339.9
 20
-261.0
 30
0.0
 11
343.5
 21
-261.0
 31
0.0
  0
LINE
  5
9A4
100
AcDbEntity
  8
0
  6
CONTINUOUS
 62
     7
100
AcDbLine
 10
346.68055
 20
-251.0
 30
0.0
 11
309.0
 21
-251.0
 31
0.0
  0
LINE
  5
9A5
100
AcDbEntity
  8
0
  6
CONTINUOUS
 62
     4
100
AcDbLine
 10
332.1
 20
-253.5
 30
0.0
 11
339.9
 21
-253.5
 31
0.0
  0
LINE
  5
9A6
100
AcDbEntity
  8
0
  6
CENTER
 62
     7
100
AcDbLine
 10
330.0
 20
-257.0
 30
0.0
 11
342.0
 21
-257.0
 31
0.0
  0
LINE
  5
9A7
100
AcDbEntity
  8
0
  6
CONTINUOUS
 62
     4
100
AcDbLine
 10
328.5
 20
-261.0
 30
0.0
 11
328.5
 21
-301.0
 31
0.0
  0
LINE
  5
9A8
100
AcDbEntity
  8
0
  6
CONTINUOUS
 62
     7
100
AcDbLine
 10
345.0
 20
-261.0
 30
0.0
 11
345.0
 21
-301.0
 31
0.0
  0
LINE
  5
9A9
100
AcDbEntity
  8
0
  6
CONTINUOUS
 62
     7
100
AcDbLine
 10
327.0
 20
-261.0
 30
0.0
 11
327.0
 21
-301.0
 31
0.0
  0
LINE
  5
9AA
100
AcDbEntity
  8
0
  6
CONTINUOUS
 62
     7
100
AcDbLine
 10
332.0
 20
-309.20099
 30
0.0
 11
332.0
 21
-301.0
 31
0.0
  0
LINE
  5
9AB
100
AcDbEntity
  8
0
  6
CONTINUOUS
 62
     4
100
AcDbLine
 10
339.9
 20
-253.5
 30
0.0
 11
339.9
 21
-261.0
 31
0.0
  0
LINE
  5
9AC
100
AcDbEntity
  8
0
  6
CONTINUOUS
 62
     4
100
AcDbLine
 10
328.5
 20
-301.0
 30
0.0
 11
332.1
 21
-301.0
 31
0.0
  0
LINE
  5
9AD
100
AcDbEntity
  8
0
  6
CONTINUOUS
 62
     7
100
AcDbLine
 10
340.0
 20
-301.0
 30
0.0
 11
363.0
 21
-301.0
 31
0.0
  0
LINE
  5
9AE
100
AcDbEntity
  8
0
  6
CONTINUOUS
 62
     4
100
AcDbLine
 10
339.9
 20
-301.0
 30
0.0
 11
343.5
 21
-301.0
 31
0.0
  0
LINE
  5
9AF
100
AcDbEntity
  8
0
  6
CONTINUOUS
 62
     4
100
AcDbLine
 10
328.5
 20
-261.0
 30
0.0
 11
332.1
 21
-261.0
 31
0.0
  0
POINT
  5
9B0
100
AcDbEntity
  8
0
  6
CONTINUOUS
 62
     7
100
AcDbPoint
 10
352.0
 20
-473.0
 30
0.0
  0
POINT
  5
9B1
100
AcDbEntity
  8
0
  6
CONTINUOUS
 62
     7
100
AcDbPoint
 10
364.30948
 20
-473.0
 30
0.0
  0
LINE
  5
9B2
100
AcDbEntity
  8
0
  6
CONTINUOUS
 62
     7
100
AcDbLine
 10
348.0
 20
-497.7
 30
0.0
 11
348.0
 21
-503.0
 31
0.0
  0
LINE
  5
9B3
100
AcDbEntity
  8
0
  6
CONTINUOUS
 62
     7
100
AcDbLine
 10
363.0
 20
-448.3
 30
0.0
 11
363.0
 21
-453.0
 31
0.0
  0
LINE
  5
9B4
100
AcDbEntity
  8
0
  6
CONTINUOUS
 62
     7
100
AcDbLine
 10
349.50001
 20
-442.99999
 30
0.0
 11
356.0
 21
-445.36574
 31
0.0
  0
LINE
  5
9B5
100
AcDbEntity
  8
0
  6
CONTINUOUS
 62
     7
100
AcDbLine
 10
356.0
 20
-445.36574
 30
0.0
 11
356.0
 21
-448.3
 31
0.0
  0
LINE
  5
9B6
100
AcDbEntity
  8
0
  6
CONTINUOUS
 62
     7
100
AcDbLine
 10
348.0
 20
-443.0
 30
0.0
 11
349.5
 21
-443.0
 31
0.0
  0
LINE
  5
9B7
100
AcDbEntity
  8
0
  6
CONTINUOUS
 62
     7
100
AcDbLine
 10
348.0
 20
-448.3
 30
0.0
 11
348.0
 21
-443.0
 31
0.0
  0
LINE
  5
9B8
100
AcDbEntity
  8
0
  6
CONTINUOUS
 62
     7
100
AcDbLine
 10
348.0
 20
-503.0
 30
0.0
 11
349.5
 21
-503.0
 31
0.0
  0
LINE
  5
9B9
100
AcDbEntity
  8
0
  6
CONTINUOUS
 62
     7
100
AcDbLine
 10
349.50001
 20
-503.00001
 30
0.0
 11
356.0
 21
-500.63426
 31
0.0
  0
LINE
  5
9BA
100
AcDbEntity
  8
0
  6
CONTINUOUS
 62
     7
100
AcDbLine
 10
346.69053
 20
-448.3
 30
0.0
 11
363.0
 21
-448.3
 31
0.0
  0
LINE
  5
9BB
100
AcDbEntity
  8
0
  6
CONTINUOUS
 62
     7
100
AcDbLine
 10
356.0
 20
-500.63426
 30
0.0
 11
356.0
 21
-497.7
 31
0.0
  0
LINE
  5
9BC
100
AcDbEntity
  8
0
  6
CONTINUOUS
 62
     7
100
AcDbLine
 10
346.69053
 20
-497.7
 30
0.0
 11
363.0
 21
-497.7
 31
0.0
  0
LINE
  5
9BD
100
AcDbEntity
  8
0
  6
CONTINUOUS
 62
     7
100
AcDbLine
 10
309.0
 20
-443.0
 30
0.0
 11
309.0
 21
-448.0
 31
0.0
  0
LINE
  5
9BE
100
AcDbEntity
  8
0
  6
CONTINUOUS
 62
     7
100
AcDbLine
 10
363.0
 20
-493.0
 30
0.0
 11
363.0
 21
-497.7
 31
0.0
  0
LINE
  5
9BF
100
AcDbEntity
  8
0
  6
CONTINUOUS
 62
     7
100
AcDbLine
 10
309.0
 20
-498.0
 30
0.0
 11
309.0
 21
-503.0
 31
0.0
  0
LINE
  5
9C0
100
AcDbEntity
  8
0
  6
CONTINUOUS
 62
     7
100
AcDbLine
 10
309.0
 20
-448.0
 30
0.0
 11
325.30947
 21
-448.0
 31
0.0
  0
LINE
  5
9C1
100
AcDbEntity
  8
0
  6
CENTER
 62
     7
100
AcDbLine
 10
320.0
 20
-510.0
 30
0.0
 11
320.0
 21
-436.0
 31
0.0
  0
LINE
  5
9C2
100
AcDbEntity
  8
0
  6
CONTINUOUS
 62
     7
100
AcDbLine
 10
325.30947
 20
-448.0
 30
0.0
 11
325.30947
 21
-453.0
 31
0.0
  0
LINE
  5
9C3
100
AcDbEntity
  8
0
  6
CENTER
 62
     7
100
AcDbLine
 10
352.0
 20
-510.0
 30
0.0
 11
352.0
 21
-436.0
 31
0.0
  0
LINE
  5
9C4
100
AcDbEntity
  8
0
  6
CONTINUOUS
 62
     7
100
AcDbLine
 10
309.0
 20
-498.0
 30
0.0
 11
325.30947
 21
-498.0
 31
0.0
  0
LINE
  5
9C5
100
AcDbEntity
  8
0
  6
CONTINUOUS
 62
     7
100
AcDbLine
 10
325.30947
 20
-493.0
 30
0.0
 11
327.0
 21
-493.0
 31
0.0
  0
LINE
  5
9C6
100
AcDbEntity
  8
0
  6
CONTINUOUS
 62
     7
100
AcDbLine
 10
345.0
 20
-493.0
 30
0.0
 11
363.0
 21
-493.0
 31
0.0
  0
LINE
  5
9C7
100
AcDbEntity
  8
0
  6
CONTINUOUS
 62
     7
100
AcDbLine
 10
346.68055
 20
-503.0
 30
0.0
 11
309.0
 21
-503.0
 31
0.0
  0
LINE
  5
9C8
100
AcDbEntity
  8
0
  6
CONTINUOUS
 62
     7
100
AcDbLine
 10
325.30947
 20
-493.0
 30
0.0
 11
325.30947
 21
-498.0
 31
0.0
  0
LINE
  5
9C9
100
AcDbEntity
  8
0
  6
CENTER
 62
     7
100
AcDbLine
 10
307.69052
 20
-473.0
 30
0.0
 11
364.30948
 21
-473.0
 31
0.0
  0
LINE
  5
9CA
100
AcDbEntity
  8
0
  6
CONTINUOUS
 62
     7
100
AcDbLine
 10
346.69053
 20
-497.7
 30
0.0
 11
346.69053
 21
-503.0
 31
0.0
  0
LINE
  5
9CB
100
AcDbEntity
  8
0
  6
CONTINUOUS
 62
     7
100
AcDbLine
 10
346.69053
 20
-443.0
 30
0.0
 11
346.69053
 21
-448.3
 31
0.0
  0
LINE
  5
9CC
100
AcDbEntity
  8
0
  6
CONTINUOUS
 62
     7
100
AcDbLine
 10
325.30947
 20
-453.0
 30
0.0
 11
327.0
 21
-453.0
 31
0.0
  0
LINE
  5
9CD
100
AcDbEntity
  8
0
  6
CONTINUOUS
 62
     7
100
AcDbLine
 10
345.0
 20
-453.0
 30
0.0
 11
363.0
 21
-453.0
 31
0.0
  0
LINE
  5
9CE
100
AcDbEntity
  8
0
  6
CONTINUOUS
 62
     7
100
AcDbLine
 10
346.68055
 20
-443.0
 30
0.0
 11
309.0
 21
-443.0
 31
0.0
  0
LINE
  5
9CF
100
AcDbEntity
  8
0
  6
CONTINUOUS
 62
     7
100
AcDbLine
 10
345.0
 20
-453.0
 30
0.0
 11
345.0
 21
-493.0
 31
0.0
  0
LINE
  5
9D0
100
AcDbEntity
  8
0
  6
CONTINUOUS
 62
     7
100
AcDbLine
 10
327.0
 20
-453.0
 30
0.0
 11
327.0
 21
-493.0
 31
0.0
  0
POINT
  5
9D1
100
AcDbEntity
  8
0
  6
CONTINUOUS
 62
     7
100
AcDbPoint
 10
192.0
 20
-281.0
 30
0.0
  0
POINT
  5
9D2
100
AcDbEntity
  8
0
  6
CONTINUOUS
 62
     7
100
AcDbPoint
 10
210.0
 20
-281.0
 30
0.0
  0
LINE
  5
9D3
100
AcDbEntity
  8
0
  6
CONTINUOUS
 62
     7
100
AcDbLine
 10
181.0
 20
-251.0
 30
0.0
 11
203.0
 21
-251.0
 31
0.0
  0
LINE
  5
9D4
100
AcDbEntity
  8
0
  6
CONTINUOUS
 62
     7
100
AcDbLine
 10
181.0
 20
-306.0
 30
0.0
 11
203.0
 21
-306.0
 31
0.0
  0
LINE
  5
9D5
100
AcDbEntity
  8
0
  6
CONTINUOUS
 62
     4
100
AcDbLine
 10
202.5
 20
-301.0
 30
0.0
 11
202.5
 21
-261.0
 31
0.0
  0
LINE
  5
9D6
100
AcDbEntity
  8
0
  6
CONTINUOUS
 62
     7
100
AcDbLine
 10
203.0
 20
-311.0
 30
0.0
 11
203.0
 21
-301.0
 31
0.0
  0
LINE
  5
9D7
100
AcDbEntity
  8
0
  6
CENTER
 62
     7
100
AcDbLine
 10
203.14
 20
-257.0
 30
0.0
 11
194.86
 21
-257.0
 31
0.0
  0
LINE
  5
9D8
100
AcDbEntity
  8
0
  6
CONTINUOUS
 62
     7
100
AcDbLine
 10
181.0
 20
-256.0
 30
0.0
 11
203.0
 21
-256.0
 31
0.0
  0
LINE
  5
9D9
100
AcDbEntity
  8
0
  6
CONTINUOUS
 62
     7
100
AcDbLine
 10
188.0
 20
-311.0
 30
0.0
 11
196.0
 21
-311.0
 31
0.0
  0
LINE
  5
9DA
100
AcDbEntity
  8
0
  6
CENTER
 62
     7
100
AcDbLine
 10
199.0
 20
-261.14
 30
0.0
 11
199.0
 21
-252.86
 31
0.0
  0
LINE
  5
9DB
100
AcDbEntity
  8
0
  6
CONTINUOUS
 62
     7
100
AcDbLine
 10
181.0
 20
-261.0
 30
0.0
 11
203.0
 21
-261.0
 31
0.0
  0
LINE
  5
9DC
100
AcDbEntity
  8
0
  6
CONTINUOUS
 62
     7
100
AcDbLine
 10
203.0
 20
-251.0
 30
0.0
 11
203.0
 21
-261.0
 31
0.0
  0
LINE
  5
9DD
100
AcDbEntity
  8
0
  6
CONTINUOUS
 62
     7
100
AcDbLine
 10
181.0
 20
-251.0
 30
0.0
 11
181.0
 21
-311.0
 31
0.0
  0
LINE
  5
9DE
100
AcDbEntity
  8
0
  6
CONTINUOUS
 62
     4
100
AcDbLine
 10
201.0
 20
-301.0
 30
0.0
 11
201.0
 21
-261.0
 31
0.0
  0
LINE
  5
9DF
100
AcDbEntity
  8
0
  6
CONTINUOUS
 62
     7
100
AcDbLine
 10
181.0
 20
-311.0
 30
0.0
 11
203.0
 21
-311.0
 31
0.0
  0
LINE
  5
9E0
100
AcDbEntity
  8
0
  6
CONTINUOUS
 62
     7
100
AcDbLine
 10
181.0
 20
-301.0
 30
0.0
 11
203.0
 21
-301.0
 31
0.0
  0
LINE
  5
9E1
100
AcDbEntity
  8
0
  6
CENTER
 62
     7
100
AcDbLine
 10
192.0
 20
-244.0
 30
0.0
 11
192.0
 21
-318.0
 31
0.0
  0
LINE
  5
9E2
100
AcDbEntity
  8
0
  6
CONTINUOUS
 62
     4
100
AcDbLine
 10
199.0
 20
-301.0
 30
0.0
 11
199.0
 21
-261.0
 31
0.0
  0
LINE
  5
9E3
100
AcDbEntity
  8
0
  6
CONTINUOUS
 62
     7
100
AcDbLine
 10
185.0
 20
-263.5
 30
0.0
 11
185.0
 21
-298.5
 31
0.0
  0
LINE
  5
9E4
100
AcDbEntity
  8
0
  6
CENTER
 62
     7
100
AcDbLine
 10
174.0
 20
-281.0
 30
0.0
 11
210.0
 21
-281.0
 31
0.0
  0
LINE
  5
9E5
100
AcDbEntity
  8
0
  6
DASHED
 62
     4
100
AcDbLine
 10
198.15002
 20
-258.47301
 30
0.0
 11
197.885
 21
-261.5
 31
0.0
  0
LINE
  5
9E6
100
AcDbEntity
  8
0
  6
DASHED
 62
     4
100
AcDbLine
 10
195.50001
 20
-256.99999
 30
0.0
 11
195.66303
 21
-260.72301
 31
0.0
  0
LINE
  5
9E7
100
AcDbEntity
  8
0
  6
DASHED
 62
     4
100
AcDbLine
 10
248.11499
 20
-261.5
 30
0.0
 11
249.17899
 21
-261.5
 31
0.0
  0
LINE
  5
9E8
100
AcDbEntity
  8
0
  6
DASHED
 62
     4
100
AcDbLine
 10
245.30099
 20
-257.05999
 30
0.0
 11
243.36398
 21
-257.127
 31
0.0
  0
LINE
  5
9E9
100
AcDbEntity
  8
0
  6
DASHED
 62
     4
100
AcDbLine
 10
197.88501
 20
-261.5
 30
0.0
 11
196.82101
 21
-261.5
 31
0.0
  0
LINE
  5
9EA
100
AcDbEntity
  8
0
  6
DASHED
 62
     4
100
AcDbLine
 10
247.84998
 20
-258.47301
 30
0.0
 11
248.115
 21
-261.5
 31
0.0
  0
LINE
  5
9EB
100
AcDbEntity
  8
0
  6
DASHED
 62
     4
100
AcDbLine
 10
250.49999
 20
-256.99999
 30
0.0
 11
250.33697
 21
-260.72301
 31
0.0
  0
LINE
  5
9EC
100
AcDbEntity
  8
0
  6
DASHED
 62
     4
100
AcDbLine
 10
199.0
 20
-253.5
 30
0.0
 11
247.0
 21
-253.5
 31
0.0
  0
LINE
  5
9ED
100
AcDbEntity
  8
0
  6
DASHED
 62
     4
100
AcDbLine
 10
202.96902
 20
-257.0
 30
0.0
 11
243.03098
 21
-257.0
 31
0.0
  0
LINE
  5
9EE
100
AcDbEntity
  8
0
  6
DASHED
 62
     4
100
AcDbLine
 10
202.70801
 20
-255.0
 30
0.0
 11
243.29199
 21
-255.0
 31
0.0
  0
LINE
  5
9EF
100
AcDbEntity
  8
0
  6
DASHED
 62
     4
100
AcDbLine
 10
200.69901
 20
-257.06
 30
0.0
 11
202.63603
 21
-257.127
 31
0.0
  0
LINE
  5
9F0
100
AcDbEntity
  8
0
  6
CENTER
 62
     7
100
AcDbLine
 10
223.0
 20
-248.5
 30
0.0
 11
223.0
 21
-262.0
 31
0.0
  0
LINE
  5
9F1
100
AcDbEntity
  8
0
  6
CENTER
 62
     7
100
AcDbLine
 10
242.86
 20
-257.0
 30
0.0
 11
251.14
 21
-257.0
 31
0.0
  0
LINE
  5
9F2
100
AcDbEntity
  8
0
  6
CENTER
 62
     7
100
AcDbLine
 10
247.0
 20
-261.14
 30
0.0
 11
247.0
 21
-252.86
 31
0.0
  0
LINE
  5
9F3
100
AcDbEntity
  8
0
  6
CENTER
 62
     7
100
AcDbLine
 10
203.14
 20
-305.0
 30
0.0
 11
194.86
 21
-305.0
 31
0.0
  0
LINE
  5
9F4
100
AcDbEntity
  8
0
  6
CENTER
 62
     7
100
AcDbLine
 10
199.0
 20
-300.86
 30
0.0
 11
199.0
 21
-309.14
 31
0.0
  0
ARC
  5
9F5
100
AcDbEntity
  8
0
  6
CONTINUOUS
 62
     7
100
AcDbCircle
 10
187.5
 20
-298.5
 30
0.0
 40
2.5
100
AcDbArc
 50
179.99999
 51
270.0
  0
ARC
  5
9F6
100
AcDbEntity
  8
0
  6
CONTINUOUS
 62
     7
100
AcDbCircle
 10
187.5
 20
-263.5
 30
0.0
 40
2.5
100
AcDbArc
 50
90.000003
 51
180.00001
  0
ARC
  5
9F7
100
AcDbEntity
  8
0
  6
DASHED
 62
     4
100
AcDbCircle
 10
199.0
 20
-257.0
 30
0.0
 40
3.5
100
AcDbArc
 50
89.999996
 51
180.00001
  0
ARC
  5
9F8
100
AcDbEntity
  8
0
  6
DASHED
 62
     4
100
AcDbCircle
 10
247.0
 20
-257.0
 30
0.0
 40
5.5
100
AcDbArc
 50
140.479
 51
158.677
  0
ARC
  5
9F9
100
AcDbEntity
  8
0
  6
DASHED
 62
     4
100
AcDbCircle
 10
247.0
 20
-257.0
 30
0.0
 40
3.5
100
AcDbArc
 50
157.97499
 51
181.999
  0
ARC
  5
9FA
100
AcDbEntity
  8
0
  6
DASHED
 62
     4
100
AcDbCircle
 10
199.0
 20
-257.0
 30
0.0
 40
5.0
100
AcDbArc
 50
228.12799
 51
244.15999
  0
ARC
  5
9FB
100
AcDbEntity
  8
0
  6
DASHED
 62
     4
100
AcDbCircle
 10
243.03098
 20
-257.5
 30
0.0
 40
0.5
100
AcDbArc
 50
48.247801
 51
89.998998
  0
ARC
  5
9FC
100
AcDbEntity
  8
0
  6
DASHED
 62
     4
100
AcDbCircle
 10
247.0
 20
-257.0
 30
0.0
 40
5.0
100
AcDbArc
 50
295.84
 51
311.872
  0
ARC
  5
9FD
100
AcDbEntity
  8
0
  6
DASHED
 62
     4
100
AcDbCircle
 10
202.96902
 20
-257.5
 30
0.0
 40
0.5
100
AcDbArc
 50
90.001
 51
131.7522
  0
ARC
  5
9FE
100
AcDbEntity
  8
0
  6
DASHED
 62
     4
100
AcDbCircle
 10
243.29199
 20
-255.5
 30
0.0
 40
0.5
100
AcDbArc
 50
337.975
 51
90.005603
  0
ARC
  5
9FF
100
AcDbEntity
  8
0
  6
DASHED
 62
     4
100
AcDbCircle
 10
247.0
 20
-257.0
 30
0.0
 40
3.5
100
AcDbArc
 50
0.0
 51
90.000003
  0
ARC
  5
A00
100
AcDbEntity
  8
0
  6
DASHED
 62
     4
100
AcDbCircle
 10
247.0
 20
-257.0
 30
0.0
 40
1.7
100
AcDbArc
 50
299.999
 51
181.999
  0
ARC
  5
A01
100
AcDbEntity
  8
0
  6
DASHED
 62
     4
100
AcDbCircle
 10
199.0
 20
-257.0
 30
0.0
 40
3.5
100
AcDbArc
 50
358.001
 51
22.025005
  0
ARC
  5
A02
100
AcDbEntity
  8
0
  6
DASHED
 62
     4
100
AcDbCircle
 10
199.0
 20
-257.0
 30
0.0
 40
5.5
100
AcDbArc
 50
21.322999
 51
39.521001
  0
ARC
  5
A03
100
AcDbEntity
  8
0
  6
DASHED
 62
     4
100
AcDbCircle
 10
199.0
 20
-257.0
 30
0.0
 40
1.7
100
AcDbArc
 50
358.001
 51
240.00099
  0
ARC
  5
A04
100
AcDbEntity
  8
0
  6
DASHED
 62
     4
100
AcDbCircle
 10
202.70801
 20
-255.5
 30
0.0
 40
0.5
100
AcDbArc
 50
89.994395
 51
202.025
  0
POINT
  5
A05
100
AcDbEntity
  8
0
  6
CONTINUOUS
 62
     7
100
AcDbPoint
 10
480.0
 20
-281.0
 30
0.0
  0
POINT
  5
A06
100
AcDbEntity
  8
0
  6
CONTINUOUS
 62
     7
100
AcDbPoint
 10
498.0
 20
-281.0
 30
0.0
  0
LINE
  5
A07
100
AcDbEntity
  8
0
  6
CONTINUOUS
 62
     7
100
AcDbLine
 10
484.0
 20
-251.0
 30
0.0
 11
476.0
 21
-251.0
 31
0.0
  0
LINE
  5
A08
100
AcDbEntity
  8
0
  6
CONTINUOUS
 62
     7
100
AcDbLine
 10
476.0
 20
-256.3
 30
0.0
 11
476.0
 21
-251.0
 31
0.0
  0
LINE
  5
A09
100
AcDbEntity
  8
0
  6
CONTINUOUS
 62
     4
100
AcDbLine
 10
469.5
 20
-261.0
 30
0.0
 11
469.5
 21
-301.0
 31
0.0
  0
LINE
  5
A0A
100
AcDbEntity
  8
0
  6
CONTINUOUS
 62
     7
100
AcDbLine
 10
491.0
 20
-305.7
 30
0.0
 11
469.0
 21
-305.7
 31
0.0
  0
LINE
  5
A0B
100
AcDbEntity
  8
0
  6
CONTINUOUS
 62
     7
100
AcDbLine
 10
491.0
 20
-256.3
 30
0.0
 11
469.0
 21
-256.3
 31
0.0
  0
LINE
  5
A0C
100
AcDbEntity
  8
0
  6
CONTINUOUS
 62
     7
100
AcDbLine
 10
484.0
 20
-256.3
 30
0.0
 11
484.0
 21
-251.0
 31
0.0
  0
LINE
  5
A0D
100
AcDbEntity
  8
0
  6
CONTINUOUS
 62
     7
100
AcDbLine
 10
469.0
 20
-251.0
 30
0.0
 11
469.0
 21
-261.0
 31
0.0
  0
LINE
  5
A0E
100
AcDbEntity
  8
0
  6
CONTINUOUS
 62
     7
100
AcDbLine
 10
491.0
 20
-311.0
 30
0.0
 11
469.0
 21
-311.0
 31
0.0
  0
LINE
  5
A0F
100
AcDbEntity
  8
0
  6
CONTINUOUS
 62
     4
100
AcDbLine
 10
473.0
 20
-261.0
 30
0.0
 11
473.0
 21
-301.0
 31
0.0
  0
LINE
  5
A10
100
AcDbEntity
  8
0
  6
CENTER
 62
     7
100
AcDbLine
 10
480.0
 20
-318.0
 30
0.0
 11
480.0
 21
-244.0
 31
0.0
  0
LINE
  5
A11
100
AcDbEntity
  8
0
  6
CONTINUOUS
 62
     7
100
AcDbLine
 10
491.0
 20
-261.0
 30
0.0
 11
469.0
 21
-261.0
 31
0.0
  0
LINE
  5
A12
100
AcDbEntity
  8
0
  6
CENTER
 62
     7
100
AcDbLine
 10
468.86
 20
-305.0
 30
0.0
 11
477.14
 21
-305.0
 31
0.0
  0
LINE
  5
A13
100
AcDbEntity
  8
0
  6
CONTINUOUS
 62
     7
100
AcDbLine
 10
469.0
 20
-311.0
 30
0.0
 11
469.0
 21
-301.0
 31
0.0
  0
LINE
  5
A14
100
AcDbEntity
  8
0
  6
CONTINUOUS
 62
     7
100
AcDbLine
 10
491.0
 20
-301.0
 30
0.0
 11
469.0
 21
-301.0
 31
0.0
  0
LINE
  5
A15
100
AcDbEntity
  8
0
  6
CENTER
 62
     7
100
AcDbLine
 10
473.0
 20
-300.86
 30
0.0
 11
473.0
 21
-309.14
 31
0.0
  0
LINE
  5
A16
100
AcDbEntity
  8
0
  6
CONTINUOUS
 62
     7
100
AcDbLine
 10
484.0
 20
-305.7
 30
0.0
 11
484.0
 21
-311.0
 31
0.0
  0
LINE
  5
A17
100
AcDbEntity
  8
0
  6
CONTINUOUS
 62
     7
100
AcDbLine
 10
491.0
 20
-311.0
 30
0.0
 11
491.0
 21
-251.0
 31
0.0
  0
LINE
  5
A18
100
AcDbEntity
  8
0
  6
CONTINUOUS
 62
     7
100
AcDbLine
 10
487.0
 20
-298.5
 30
0.0
 11
487.0
 21
-263.5
 31
0.0
  0
LINE
  5
A19
100
AcDbEntity
  8
0
  6
CONTINUOUS
 62
     7
100
AcDbLine
 10
491.0
 20
-251.0
 30
0.0
 11
469.0
 21
-251.0
 31
0.0
  0
LINE
  5
A1A
100
AcDbEntity
  8
0
  6
CONTINUOUS
 62
     4
100
AcDbLine
 10
471.0
 20
-261.0
 30
0.0
 11
471.0
 21
-301.0
 31
0.0
  0
LINE
  5
A1B
100
AcDbEntity
  8
0
  6
CENTER
 62
     7
100
AcDbLine
 10
462.0
 20
-281.0
 30
0.0
 11
498.0
 21
-281.0
 31
0.0
  0
LINE
  5
A1C
100
AcDbEntity
  8
0
  6
CENTER
 62
     7
100
AcDbLine
 10
449.0
 20
-313.5
 30
0.0
 11
449.0
 21
-300.0
 31
0.0
  0
LINE
  5
A1D
100
AcDbEntity
  8
0
  6
DASHED
 62
     4
100
AcDbLine
 10
471.30099
 20
-304.94
 30
0.0
 11
469.36397
 21
-304.873
 31
0.0
  0
LINE
  5
A1E
100
AcDbEntity
  8
0
  6
DASHED
 62
     4
100
AcDbLine
 10
469.03098
 20
-305.0
 30
0.0
 11
428.96902
 21
-305.0
 31
0.0
  0
LINE
  5
A1F
100
AcDbEntity
  8
0
  6
DASHED
 62
     4
100
AcDbLine
 10
474.11499
 20
-300.5
 30
0.0
 11
475.17899
 21
-300.5
 31
0.0
  0
LINE
  5
A20
100
AcDbEntity
  8
0
  6
DASHED
 62
     4
100
AcDbLine
 10
469.29199
 20
-307.0
 30
0.0
 11
428.70801
 21
-307.0
 31
0.0
  0
LINE
  5
A21
100
AcDbEntity
  8
0
  6
DASHED
 62
     4
100
AcDbLine
 10
473.0
 20
-308.5
 30
0.0
 11
425.0
 21
-308.5
 31
0.0
  0
LINE
  5
A22
100
AcDbEntity
  8
0
  6
DASHED
 62
     4
100
AcDbLine
 10
421.50001
 20
-305.00001
 30
0.0
 11
421.66303
 21
-301.27699
 31
0.0
  0
LINE
  5
A23
100
AcDbEntity
  8
0
  6
DASHED
 62
     4
100
AcDbLine
 10
424.15002
 20
-303.52699
 30
0.0
 11
423.885
 21
-300.5
 31
0.0
  0
LINE
  5
A24
100
AcDbEntity
  8
0
  6
DASHED
 62
     4
100
AcDbLine
 10
426.69901
 20
-304.94001
 30
0.0
 11
428.63602
 21
-304.873
 31
0.0
  0
LINE
  5
A25
100
AcDbEntity
  8
0
  6
DASHED
 62
     4
100
AcDbLine
 10
423.88501
 20
-300.5
 30
0.0
 11
422.82101
 21
-300.5
 31
0.0
  0
LINE
  5
A26
100
AcDbEntity
  8
0
  6
DASHED
 62
     4
100
AcDbLine
 10
476.49999
 20
-305.00001
 30
0.0
 11
476.33697
 21
-301.27699
 31
0.0
  0
LINE
  5
A27
100
AcDbEntity
  8
0
  6
DASHED
 62
     4
100
AcDbLine
 10
473.84998
 20
-303.52699
 30
0.0
 11
474.115
 21
-300.5
 31
0.0
  0
LINE
  5
A28
100
AcDbEntity
  8
0
  6
CENTER
 62
     7
100
AcDbLine
 10
429.14
 20
-305.0
 30
0.0
 11
420.86
 21
-305.0
 31
0.0
  0
LINE
  5
A29
100
AcDbEntity
  8
0
  6
CENTER
 62
     7
100
AcDbLine
 10
425.0
 20
-300.86
 30
0.0
 11
425.0
 21
-309.14
 31
0.0
  0
LINE
  5
A2A
100
AcDbEntity
  8
0
  6
CONTINUOUS
 62
     7
100
AcDbLine
 10
476.0
 20
-305.7
 30
0.0
 11
476.0
 21
-311.0
 31
0.0
  0
LINE
  5
A2B
100
AcDbEntity
  8
0
  6
CENTER
 62
     7
100
AcDbLine
 10
468.86
 20
-257.0
 30
0.0
 11
477.14
 21
-257.0
 31
0.0
  0
LINE
  5
A2C
100
AcDbEntity
  8
0
  6
CENTER
 62
     7
100
AcDbLine
 10
473.0
 20
-261.14
 30
0.0
 11
473.0
 21
-252.86
 31
0.0
  0
ARC
  5
A2D
100
AcDbEntity
  8
0
  6
CONTINUOUS
 62
     7
100
AcDbCircle
 10
480.0
 20
-248.67174
 30
0.0
 40
4.628261
100
AcDbArc
 50
210.20219
 51
329.79781
  0
ARC
  5
A2E
100
AcDbEntity
  8
0
  6
CONTINUOUS
 62
     7
100
AcDbCircle
 10
480.0
 20
-313.32826
 30
0.0
 40
4.628261
100
AcDbArc
 50
30.202195
 51
149.79781
  0
ARC
  5
A2F
100
AcDbEntity
  8
0
  6
CONTINUOUS
 62
     7
100
AcDbCircle
 10
484.5
 20
-263.5
 30
0.0
 40
2.5
100
AcDbArc
 50
0.0
 51
90.000003
  0
ARC
  5
A30
100
AcDbEntity
  8
0
  6
CONTINUOUS
 62
     7
100
AcDbCircle
 10
484.5
 20
-298.5
 30
0.0
 40
2.5
100
AcDbArc
 50
270.0
 51
0.000003
  0
ARC
  5
A31
100
AcDbEntity
  8
0
  6
DASHED
 62
     4
100
AcDbCircle
 10
469.29199
 20
-306.5
 30
0.0
 40
0.5
100
AcDbArc
 50
269.9944
 51
22.025
  0
ARC
  5
A32
100
AcDbEntity
  8
0
  6
DASHED
 62
     4
100
AcDbCircle
 10
473.0
 20
-305.0
 30
0.0
 40
3.5
100
AcDbArc
 50
270.0
 51
0.0
  0
ARC
  5
A33
100
AcDbEntity
  8
0
  6
DASHED
 62
     4
100
AcDbCircle
 10
473.0
 20
-305.0
 30
0.0
 40
1.7
100
AcDbArc
 50
178.001
 51
60.001009
  0
ARC
  5
A34
100
AcDbEntity
  8
0
  6
DASHED
 62
     4
100
AcDbCircle
 10
473.0
 20
-305.0
 30
0.0
 40
5.5
100
AcDbArc
 50
201.323
 51
219.521
  0
ARC
  5
A35
100
AcDbEntity
  8
0
  6
DASHED
 62
     4
100
AcDbCircle
 10
473.0
 20
-305.0
 30
0.0
 40
3.5
100
AcDbArc
 50
178.001
 51
202.025
  0
ARC
  5
A36
100
AcDbEntity
  8
0
  6
DASHED
 62
     4
100
AcDbCircle
 10
469.03098
 20
-304.5
 30
0.0
 40
0.5
100
AcDbArc
 50
270.001
 51
311.7522
  0
ARC
  5
A37
100
AcDbEntity
  8
0
  6
DASHED
 62
     4
100
AcDbCircle
 10
473.0
 20
-305.0
 30
0.0
 40
5.0
100
AcDbArc
 50
48.127999
 51
64.159997
  0
ARC
  5
A38
100
AcDbEntity
  8
0
  6
DASHED
 62
     4
100
AcDbCircle
 10
425.0
 20
-305.0
 30
0.0
 40
1.7
100
AcDbArc
 50
119.99901
 51
1.998988
  0
ARC
  5
A39
100
AcDbEntity
  8
0
  6
DASHED
 62
     4
100
AcDbCircle
 10
425.0
 20
-305.0
 30
0.0
 40
3.5
100
AcDbArc
 50
179.99999
 51
270.0
  0
ARC
  5
A3A
100
AcDbEntity
  8
0
  6
DASHED
 62
     4
100
AcDbCircle
 10
428.70801
 20
-306.5
 30
0.0
 40
0.5
100
AcDbArc
 50
157.97499
 51
270.0056
  0
ARC
  5
A3B
100
AcDbEntity
  8
0
  6
DASHED
 62
     4
100
AcDbCircle
 10
428.96902
 20
-304.5
 30
0.0
 40
0.5
100
AcDbArc
 50
228.2478
 51
269.999
  0
ARC
  5
A3C
100
AcDbEntity
  8
0
  6
DASHED
 62
     4
100
AcDbCircle
 10
425.0
 20
-305.0
 30
0.0
 40
3.5
100
AcDbArc
 50
337.97499
 51
1.998996
  0
ARC
  5
A3D
100
AcDbEntity
  8
0
  6
DASHED
 62
     4
100
AcDbCircle
 10
425.0
 20
-305.0
 30
0.0
 40
5.5
100
AcDbArc
 50
320.479
 51
338.677
  0
ARC
  5
A3E
100
AcDbEntity
  8
0
  6
DASHED
 62
     4
100
AcDbCircle
 10
425.0
 20
-305.0
 30
0.0
 40
5.0
100
AcDbArc
 50
115.84001
 51
131.87201
  0
ENDSEC
  0
SECTION
  2
OBJECTS
  0
DICTIONARY
  5
C
100
AcDbDictionary
  3
ACAD_GROUP
350
D
  3
ACAD_MLINESTYLE
350
E
  0
DICTIONARY
  5
D
102
{ACAD_REACTORS
330
C
102
}
100
AcDbDictionary
  0
DICTIONARY
  5
E
102
{ACAD_REACTORS
330
C
102
}
100
AcDbDictionary
  3
STANDARD
350
1C
  0
MLINESTYLE
  5
1C
102
{ACAD_REACTORS
330
E
102
}
100
AcDbMlineStyle
  2
STANDARD
 70
     0
  3

 62
     0
 51
90.0
 52
90.0
 71
     2
 49
0.5
 62
   256
  6
BYLAYER
 49
-0.5
 62
   256
  6
BYLAYER
  0
ENDSEC
  0
EOF
