  0
SECTION
  2
HEADER
  9
$ACADVER
  1
AC1009
  9
$INSBASE
 10
0.0
 20
0.0
 30
0.0
  9
$EXTMIN
 10
-138.399994
 20
-94.800003
 30
0.0
  9
$EXTMAX
 10
138.350006
 20
94.5
 30
0.0
  9
$LIMMIN
 10
-138.399994
 20
-94.800003
  9
$LIMMAX
 10
138.350006
 20
94.5
  9
$ORTHOMODE
 70
     0
  9
$REGENMODE
 70
     1
  9
$FILLMODE
 70
     1
  9
$QTEXTMODE
 70
     0
  9
$MIRRTEXT
 70
     1
  9
$DRAGMODE
 70
     2
  9
$LTSCALE
 40
1.0
  9
$OSMODE
 70
     0
  9
$ATTMODE
 70
     1
  9
$TEXTSIZE
 40
3.2
  9
$TRACEWID
 40
0.05
  9
$TEXTSTYLE
  7
MX_NOTE_STANDARD
  9
$CLAYER
  8
0
  9
$CELTYPE
  6
CONTINUOUS
  9
$CECOLOR
 62
   256
  9
$DIMSCALE
 40
1.0
  9
$DIMASZ
 40
2.5
  9
$DIMEXO
 40
1.5
  9
$DIMDLI
 40
3.75
  9
$DIMRND
 40
0.0
  9
$DIMDLE
 40
0.0
  9
$DIMEXE
 40
1.5
  9
$DIMTP
 40
0.0
  9
$DIMTM
 40
0.0
  9
$DIMTXT
 40
3.2
  9
$DIMCEN
 40
2.5
  9
$DIMTSZ
 40
0.0
  9
$DIMTOL
 70
     0
  9
$DIMLIM
 70
     0
  9
$DIMTIH
 70
     0
  9
$DIMTOH
 70
     0
  9
$DIMSE1
 70
     0
  9
$DIMSE2
 70
     0
  9
$DIMTAD
 70
     1
  9
$DIMZIN
 70
     8
  9
$DIMBLK
  1

  9
$DIMASO
 70
     1
  9
$DIMSHO
 70
     1
  9
$DIMPOST
  1

  9
$DIMAPOST
  1

  9
$DIMALT
 70
     0
  9
$DIMALTD
 70
     4
  9
$DIMALTF
 40
0.0394
  9
$DIMLFAC
 40
1.0
  9
$DIMTOFL
 70
     1
  9
$DIMTVP
 40
0.0
  9
$DIMTIX
 70
     0
  9
$DIMSOXD
 70
     0
  9
$DIMSAH
 70
     0
  9
$DIMBLK1
  1

  9
$DIMBLK2
  1

  9
$DIMSTYLE
  2
MXDIMSTYLE
  9
$DIMCLRD
 70
     0
  9
$DIMCLRE
 70
     0
  9
$DIMCLRT
 70
     0
  9
$DIMTFAC
 40
1.0
  9
$DIMGAP
 40
1.0
  9
$LUNITS
 70
     2
  9
$LUPREC
 70
     4
  9
$AXISMODE
 70
     0
  9
$AXISUNIT
 10
0.0
 20
0.0
  9
$SKETCHINC
 40
0.1
  9
$FILLETRAD
 40
0.0
  9
$AUNITS
 70
     0
  9
$AUPREC
 70
     0
  9
$MENU
  1
acad
  9
$ELEVATION
 40
0.0
  9
$PELEVATION
 40
0.0
  9
$THICKNESS
 40
0.0
  9
$LIMCHECK
 70
     0
  9
$BLIPMODE
 70
     1
  9
$CHAMFERA
 40
0.0
  9
$CHAMFERB
 40
0.0
  9
$SKPOLY
 70
     0
  9
$TDCREATE
 40
2452026.814201389
  9
$TDUPDATE
 40
2452026.814201389
  9
$TDINDWG
 40
0.0000000000
  9
$TDUSRTIMER
 40
0.0000000000
  9
$USRTIMER
 70
     1
  9
$ANGBASE
 50
0.0
  9
$ANGDIR
 70
     0
  9
$PDMODE
 70
     0
  9
$PDSIZE
 40
0.0
  9
$PLINEWID
 40
0.0
  9
$COORDS
 70
     1
  9
$SPLFRAME
 70
     0
  9
$SPLINETYPE
 70
     6
  9
$SPLINESEGS
 70
     8
  9
$ATTDIA
 70
     0
  9
$ATTREQ
 70
     1
  9
$HANDLING
 70
     1
  9
$HANDSEED
  5
92
  9
$SURFTAB1
 70
     6
  9
$SURFTAB2
 70
     6
  9
$SURFTYPE
 70
     6
  9
$SURFU
 70
     6
  9
$SURFV
 70
     6
  9
$UCSNAME
  2

  9
$UCSORG
 10
0.0
 20
0.0
 30
0.0
  9
$UCSXDIR
 10
1.0
 20
0.0
 30
0.0
  9
$UCSYDIR
 10
0.0
 20
1.0
 30
0.0
  9
$PUCSNAME
  2

  9
$PUCSORG
 10
0.0
 20
0.0
 30
0.0
  9
$PUCSXDIR
 10
1.0
 20
0.0
 30
0.0
  9
$PUCSYDIR
 10
0.0
 20
1.0
 30
0.0
  9
$USERI1
 70
     0
  9
$USERI2
 70
     0
  9
$USERI3
 70
     0
  9
$USERI4
 70
     0
  9
$USERI5
 70
     0
  9
$USERR1
 40
0.0
  9
$USERR2
 40
0.0
  9
$USERR3
 40
0.0
  9
$USERR4
 40
0.0
  9
$USERR5
 40
0.0
  9
$WORLDVIEW
 70
     1
  9
$SHADEDGE
 70
     3
  9
$SHADEDIF
 70
    70
  9
$TILEMODE
 70
     1
  9
$MAXACTVP
 70
    16
  9
$PINSBASE
 10
0.0
 20
0.0
 30
0.0
  9
$PLIMCHECK
 70
     0
  9
$PEXTMIN
 10
1.000000E+20
 20
1.000000E+20
 30
1.000000E+20
  9
$PEXTMAX
 10
-1.000000E+20
 20
-1.000000E+20
 30
-1.000000E+20
  9
$PLIMMIN
 10
0.0
 20
0.0
  9
$PLIMMAX
 10
12.0
 20
9.0
  9
$UNITMODE
 70
     0
  9
$VISRETAIN
 70
     0
  9
$PLINEGEN
 70
     1
  9
$PSLTSCALE
 70
     0
  9
$TREEDEPTH
 70
  3020
  9
$DWGCODEPAGE
  3
dos932
  0
ENDSEC
  0
SECTION
  2
TABLES
  0
TABLE
  2
VPORT
 70
     1
  0
VPORT
  2
*ACTIVE
 70
     0
 10
0.0
 20
0.0
 11
1.0
 21
1.0
 12
-0.024994
 22
-0.150002
 13
0.0
 23
0.0
 14
1.0
 24
1.0
 15
0.0
 25
0.0
 16
0.0
 26
0.0
 36
1.0
 17
0.0
 27
0.0
 37
0.0
 40
191.193003
 41
1.732051
 42
50.0
 43
0.0
 44
0.0
 50
0.0
 51
0.0
 71
     0
 72
   100
 73
     1
 74
     1
 75
     0
 76
     0
 77
     0
 78
     0
  0
ENDTAB
  0
TABLE
  2
LTYPE
 70
     3
  0
LTYPE
  2
CONTINUOUS
 70
    64
  3
Solid line
 72
    65
 73
     0
 40
0.0
  0
LTYPE
  2
CENTER
 70
    64
  3
Center ____ _ ____ _ ____ _ ____ _ ____ _ ____
 72
    65
 73
     4
 40
50.8
 49
31.75
 49
-6.35
 49
6.35
 49
-6.35
  0
LTYPE
  2
DASHED
 70
    64
  3
Dashed __ __ __ __ __ __ __ __ __ __ __ __ __ _
 72
    65
 73
     2
 40
19.05
 49
12.7
 49
-6.35
  0
ENDTAB
  0
TABLE
  2
LAYER
 70
     2
  0
LAYER
  2
0
 70
     0
 62
     7
  6
CONTINUOUS
  0
LAYER
  2
DEFPOINTS
 70
     0
 62
     7
  6
CONTINUOUS
  0
ENDTAB
  0
TABLE
  2
STYLE
 70
     1
  0
STYLE
  2
MX_NOTE_STANDARD
 70
     0
 40
3.2
 41
1.0
 50
0.0
 71
     0
 42
3.2
  3
txt.shx
  4
extfont.shx
  0
ENDTAB
  0
TABLE
  2
VIEW
 70
     0
  0
ENDTAB
  0
TABLE
  2
UCS
 70
     0
  0
ENDTAB
  0
TABLE
  2
APPID
 70
     1
  0
APPID
  2
ACAD
 70
     0
  0
ENDTAB
  0
TABLE
  2
DIMSTYLE
 70
     1
  0
DIMSTYLE
  2
MXDIMSTYLE
 70
     0
  3

  4

  5

  6

  7

 40
1.0
 41
2.5
 42
1.5
 43
3.75
 44
1.5
 45
0.0
 46
0.0
 47
0.0
 48
0.0
 71
     0
 72
     0
 73
     0
 74
     0
 75
     0
 76
     0
 77
     1
 78
     8
140
3.2
141
2.5
142
0.0
143
0.0394
144
1.0
145
0.0
146
1.0
147
1.0
170
     0
171
     4
172
     1
173
     0
174
     0
175
     0
176
     0
177
     0
178
     0
  0
ENDTAB
  0
ENDSEC
  0
SECTION
  2
BLOCKS
  0
ENDSEC
  0
SECTION
  2
ENTITIES
  0
LINE
  8
0
  6
CONTINUOUS
 62
     7
  5
1E
 10
-35.49768
 20
-21.82728
 30
0.0
 11
-35.49768
 21
-36.82728
 31
0.0
  0
LINE
  8
0
  6
CENTER
 62
     2
  5
20
 10
-12.96768
 20
-29.32728
 30
0.0
 11
-66.37768
 21
-29.32728
 31
0.0
  0
LINE
  8
0
  6
CONTINUOUS
 62
     7
  5
21
 10
-14.80768
 20
-21.82728
 30
0.0
 11
-35.49768
 21
-21.82728
 31
0.0
  0
LINE
  8
0
  6
CONTINUOUS
 62
     7
  5
22
 10
-14.50768
 20
-22.12728
 30
0.0
 11
-14.50768
 21
-36.52728
 31
0.0
  0
LINE
  8
0
  6
CONTINUOUS
 62
     7
  5
23
 10
-14.80768
 20
-36.82728
 30
0.0
 11
-35.49768
 21
-36.82728
 31
0.0
  0
LINE
  8
0
  6
CONTINUOUS
 62
     7
  5
24
 10
-26.50768
 20
-29.32728
 30
0.0
 11
-26.50768
 21
-36.52728
 31
0.0
  0
LINE
  8
0
  6
CENTER
 62
     2
  5
25
 10
-18.50768
 20
-21.28728
 30
0.0
 11
-18.50768
 21
-37.55728
 31
0.0
  0
LINE
  8
0
  6
CONTINUOUS
 62
     7
  5
26
 10
-15.79768
 20
-24.22728
 30
0.0
 11
-15.79768
 21
-29.32728
 31
0.0
  0
LINE
  8
0
  6
CONTINUOUS
 62
     7
  5
27
 10
-21.20768
 20
-24.22728
 30
0.0
 11
-21.20768
 21
-29.32728
 31
0.0
  0
LINE
  8
0
  6
CONTINUOUS
 62
     7
  5
28
 10
-15.79768
 20
-25.82728
 30
0.0
 11
-21.20768
 21
-25.82728
 31
0.0
  0
LINE
  8
0
  6
CONTINUOUS
 62
     7
  5
29
 10
-64.49768
 20
-23.16728
 30
0.0
 11
-64.49768
 21
-35.47728
 31
0.0
  0
LINE
  8
0
  6
CONTINUOUS
 62
     7
  5
2A
 10
-35.50768
 20
33.16272
 30
0.0
 11
-35.50768
 21
18.16272
 31
0.0
  0
LINE
  8
0
  6
CONTINUOUS
 62
     7
  5
2B
 10
-14.50768
 20
32.86272
 30
0.0
 11
-14.50768
 21
18.46272
 31
0.0
  0
LINE
  8
0
  6
CONTINUOUS
 62
     7
  5
2C
 10
-14.80768
 20
18.16272
 30
0.0
 11
-35.50768
 21
18.16272
 31
0.0
  0
LINE
  8
0
  6
CONTINUOUS
 62
     7
  5
2D
 10
-14.80768
 20
33.16272
 30
0.0
 11
-35.50768
 21
33.16272
 31
0.0
  0
LINE
  8
0
  6
CENTER
 62
     2
  5
2E
 10
-12.84768
 20
25.66272
 30
0.0
 11
-66.02768
 21
25.66272
 31
0.0
  0
LINE
  8
0
  6
CONTINUOUS
 62
     7
  5
2F
 10
-21.20768
 20
30.66272
 30
0.0
 11
-21.20768
 21
33.16272
 31
0.0
  0
LINE
  8
0
  6
CONTINUOUS
 62
     7
  5
30
 10
-15.79768
 20
30.66272
 30
0.0
 11
-15.79768
 21
33.16272
 31
0.0
  0
LINE
  8
0
  6
CONTINUOUS
 62
     7
  5
31
 10
-21.20768
 20
20.66272
 30
0.0
 11
-21.20768
 21
18.16272
 31
0.0
  0
LINE
  8
0
  6
CONTINUOUS
 62
     7
  5
32
 10
-15.79768
 20
20.66272
 30
0.0
 11
-15.79768
 21
18.16272
 31
0.0
  0
LINE
  8
0
  6
CENTER
 62
     2
  5
33
 10
-18.50768
 20
23.66272
 30
0.0
 11
-18.50768
 21
16.66272
 31
0.0
  0
LINE
  8
0
  6
CENTER
 62
     2
  5
34
 10
-15.00768
 20
20.66272
 30
0.0
 11
-22.00768
 21
20.66272
 31
0.0
  0
LINE
  8
0
  6
CENTER
 62
     2
  5
35
 10
-15.00768
 20
30.66272
 30
0.0
 11
-22.00768
 21
30.66272
 31
0.0
  0
LINE
  8
0
  6
CENTER
 62
     2
  5
36
 10
-18.50768
 20
27.66272
 30
0.0
 11
-18.50768
 21
34.66272
 31
0.0
  0
LINE
  8
0
  6
DASHED
 62
     2
  5
38
 10
-59.49768
 20
-31.82728
 30
0.0
 11
-64.49768
 21
-31.82728
 31
0.0
  0
LINE
  8
0
  6
DASHED
 62
     2
  5
39
 10
-59.49768
 20
-26.82728
 30
0.0
 11
-64.49768
 21
-26.82728
 31
0.0
  0
LINE
  8
0
  6
DASHED
 62
     2
  5
3A
 10
-59.49768
 20
-31.32728
 30
0.0
 11
-64.49768
 21
-31.32728
 31
0.0
  0
LINE
  8
0
  6
DASHED
 62
     2
  5
3B
 10
-59.49768
 20
-27.32728
 30
0.0
 11
-64.49768
 21
-27.32728
 31
0.0
  0
LINE
  8
0
  6
CENTER
 62
     2
  5
3C
 10
35.49232
 20
-37.97728
 30
0.0
 11
35.49232
 21
-20.47728
 31
0.0
  0
LINE
  8
0
  6
CENTER
 62
     2
  5
3D
 10
27.01232
 20
-29.32728
 30
0.0
 11
44.03232
 21
-29.32728
 31
0.0
  0
LINE
  8
0
  6
CONTINUOUS
 62
     7
  5
3E
 10
28.29232
 20
-36.82728
 30
0.0
 11
42.69232
 21
-36.82728
 31
0.0
  0
LINE
  8
0
  6
CONTINUOUS
 62
     7
  5
3F
 10
42.99232
 20
-36.52728
 30
0.0
 11
42.99232
 21
-26.12728
 31
0.0
  0
LINE
  8
0
  6
CONTINUOUS
 62
     7
  5
40
 10
27.99232
 20
-36.52728
 30
0.0
 11
27.99232
 21
-26.12728
 31
0.0
  0
LINE
  8
0
  6
CONTINUOUS
 62
     7
  5
41
 10
28.29232
 20
-25.82728
 30
0.0
 11
28.86232
 21
-25.82728
 31
0.0
  0
LINE
  8
0
  6
CONTINUOUS
 62
     7
  5
42
 10
42.13232
 20
-25.82728
 30
0.0
 11
42.69232
 21
-25.82728
 31
0.0
  0
LINE
  8
0
  6
CONTINUOUS
 62
     7
  5
43
 10
-64.49768
 20
31.82272
 30
0.0
 11
-64.49768
 21
19.51272
 31
0.0
  0
LINE
  8
0
  6
DASHED
 62
     2
  5
44
 10
-59.49768
 20
27.66272
 30
0.0
 11
-64.49768
 21
27.66272
 31
0.0
  0
LINE
  8
0
  6
DASHED
 62
     2
  5
45
 10
-59.49768
 20
28.16272
 30
0.0
 11
-64.49768
 21
28.16272
 31
0.0
  0
LINE
  8
0
  6
DASHED
 62
     2
  5
46
 10
-59.49768
 20
23.66272
 30
0.0
 11
-64.49768
 21
23.66272
 31
0.0
  0
LINE
  8
0
  6
DASHED
 62
     2
  5
47
 10
-59.49768
 20
23.16272
 30
0.0
 11
-64.49768
 21
23.16272
 31
0.0
  0
LINE
  8
0
  6
CONTINUOUS
 62
     7
  5
48
 10
-63.49768
 20
32.82272
 30
0.0
 11
-35.50768
 21
33.06272
 31
0.0
  0
LINE
  8
0
  6
CONTINUOUS
 62
     7
  5
49
 10
-63.49768
 20
18.51272
 30
0.0
 11
-35.50768
 21
18.26272
 31
0.0
  0
LINE
  8
0
  6
CONTINUOUS
 62
     7
  5
4A
 10
-63.49768
 20
-36.47728
 30
0.0
 11
-35.49768
 21
-36.72728
 31
0.0
  0
LINE
  8
0
  6
CONTINUOUS
 62
     7
  5
4B
 10
-63.49768
 20
-22.16728
 30
0.0
 11
-35.50768
 21
-21.92728
 31
0.0
  0
CIRCLE
  8
0
  6
CONTINUOUS
 62
     7
  5
4C
 10
-18.498192
 20
30.670966
 30
0.0
 40
1.4
  0
ARC
  8
0
  6
CONTINUOUS
 62
     7
  5
4D
 10
-18.50768
 20
30.670966
 30
0.0
 40
2.700013
 50
180.174983
 51
359.825017
  0
ARC
  8
0
  6
CONTINUOUS
 62
     7
  5
4E
 10
-18.50768
 20
20.670966
 30
0.0
 40
2.700013
 50
359.825017
 51
180.174983
  0
CIRCLE
  8
0
  6
CONTINUOUS
 62
     7
  5
4F
 10
-18.498192
 20
20.670966
 30
0.0
 40
1.4
  0
ARC
  8
0
  6
CONTINUOUS
 62
     7
  5
50
 10
-21.498815
 20
32.871585
 30
0.0
 40
0.29127
 50
358.255953
 51
91.744047
  0
ARC
  8
0
  6
CONTINUOUS
 62
     7
  5
51
 10
-20.906923
 20
32.861963
 30
0.0
 40
0.300758
 50
90.144164
 51
179.855836
  0
ARC
  8
0
  6
CONTINUOUS
 62
     7
  5
52
 10
-16.098811
 20
32.871589
 30
0.0
 40
0.291266
 50
358.255027
 51
91.744973
  0
ARC
  8
0
  6
CONTINUOUS
 62
     7
  5
53
 10
-15.506926
 20
32.861966
 30
0.0
 40
0.300755
 50
90.143567
 51
179.856433
  0
ARC
  8
0
  6
CONTINUOUS
 62
     7
  5
54
 10
-21.507192
 20
18.462232
 30
0.0
 40
0.299512
 50
269.906576
 51
0.093424
  0
ARC
  8
0
  6
CONTINUOUS
 62
     7
  5
55
 10
-20.898808
 20
18.471592
 30
0.0
 40
0.309
 50
181.645323
 51
268.354677
  0
ARC
  8
0
  6
CONTINUOUS
 62
     7
  5
56
 10
-16.107187
 20
18.462227
 30
0.0
 40
0.299508
 50
269.905725
 51
0.094275
  0
ARC
  8
0
  6
CONTINUOUS
 62
     7
  5
57
 10
-15.498811
 20
18.471589
 30
0.0
 40
0.308996
 50
181.644773
 51
268.355227
  0
CIRCLE
  8
0
  6
CONTINUOUS
 62
     7
  5
58
 10
35.501808
 20
-29.32903
 30
0.0
 40
2.099999
  0
CIRCLE
  8
0
  6
CONTINUOUS
 62
     2
  5
59
 10
35.501808
 20
-29.32903
 30
0.0
 40
2.5
  0
ARC
  8
0
  6
CONTINUOUS
 62
     7
  5
5A
 10
35.49232
 20
-29.32728
 30
0.0
 40
7.5
 50
0.0
 51
180.0
  0
ARC
  8
0
  6
CONTINUOUS
 62
     7
  5
5B
 10
28.297965
 20
-26.132925
 30
0.0
 40
0.305697
 50
91.058125
 51
178.941875
  0
ARC
  8
0
  6
CONTINUOUS
 62
     7
  5
5C
 10
42.696135
 20
-26.123465
 30
0.0
 40
0.29621
 50
359.262032
 51
90.737968
  0
ARC
  8
0
  6
CONTINUOUS
 62
     7
  5
5D
 10
-14.807193
 20
18.462233
 30
0.0
 40
0.299514
 50
269.90686
 51
0.09314
  0
ARC
  8
0
  6
CONTINUOUS
 62
     7
  5
5E
 10
-14.798817
 20
32.871583
 30
0.0
 40
0.291272
 50
358.256261
 51
91.743739
  0
ARC
  8
0
  6
CONTINUOUS
 62
     7
  5
5F
 10
-14.803864
 20
-22.123464
 30
0.0
 40
0.296209
 50
359.261842
 51
90.738158
  0
ARC
  8
0
  6
CONTINUOUS
 62
     7
  5
60
 10
-14.802095
 20
-36.532865
 30
0.0
 40
0.294468
 50
268.913171
 51
1.086829
  0
ARC
  8
0
  6
CONTINUOUS
 62
     7
  5
61
 10
-26.20375
 20
-36.52335
 30
0.0
 40
0.303955
 50
180.740841
 51
269.259159
  0
ARC
  8
0
  6
CONTINUOUS
 62
     7
  5
62
 10
28.296235
 20
-36.523365
 30
0.0
 40
0.30394
 50
180.738002
 51
269.261998
  0
ARC
  8
0
  6
CONTINUOUS
 62
     7
  5
63
 10
42.697913
 20
-36.532873
 30
0.0
 40
0.29446
 50
268.911639
 51
1.088361
  0
ARC
  8
0
  6
CONTINUOUS
 62
     7
  5
64
 10
-63.496609
 20
19.513791
 30
0.0
 40
1.001072
 50
180.061308
 51
269.938692
  0
ARC
  8
0
  6
CONTINUOUS
 62
     7
  5
65
 10
-63.499854
 20
31.824894
 30
0.0
 40
0.997828
 50
89.875139
 51
180.124861
  0
ARC
  8
0
  6
CONTINUOUS
 62
     7
  5
66
 10
-63.494853
 20
-23.170107
 30
0.0
 40
1.002831
 50
90.161531
 51
179.838469
  0
ARC
  8
0
  6
CONTINUOUS
 62
     7
  5
67
 10
-63.501603
 20
-35.481203
 30
0.0
 40
0.996085
 50
179.77436
 51
270.22564
  0
POLYLINE
  8
0
  6
CONTINUOUS
 62
     7
  5
68
 66
     1
 10
0.0
 20
0.0
 30
0.0
  0
VERTEX
  8
0
  6
CONTINUOUS
 62
     7
  5
6F
 10
-21.20768
 20
-24.22728
 30
0.0
  0
VERTEX
  8
0
  6
CONTINUOUS
 62
     7
  5
70
 10
-21.082818
 20
-24.060702
 30
0.0
  0
VERTEX
  8
0
  6
CONTINUOUS
 62
     7
  5
71
 10
-20.949407
 20
-23.893535
 30
0.0
  0
VERTEX
  8
0
  6
CONTINUOUS
 62
     7
  5
72
 10
-20.808026
 20
-23.727343
 30
0.0
  0
VERTEX
  8
0
  6
CONTINUOUS
 62
     7
  5
73
 10
-20.659251
 20
-23.563691
 30
0.0
  0
VERTEX
  8
0
  6
CONTINUOUS
 62
     7
  5
74
 10
-20.50366
 20
-23.404141
 30
0.0
  0
VERTEX
  8
0
  6
CONTINUOUS
 62
     7
  5
75
 10
-20.341833
 20
-23.25026
 30
0.0
  0
VERTEX
  8
0
  6
CONTINUOUS
 62
     7
  5
76
 10
-20.174347
 20
-23.10361
 30
0.0
  0
VERTEX
  8
0
  6
CONTINUOUS
 62
     7
  5
77
 10
-20.00178
 20
-22.965756
 30
0.0
  0
VERTEX
  8
0
  6
CONTINUOUS
 62
     7
  5
78
 10
-19.824709
 20
-22.838262
 30
0.0
  0
VERTEX
  8
0
  6
CONTINUOUS
 62
     7
  5
79
 10
-19.643714
 20
-22.722693
 30
0.0
  0
VERTEX
  8
0
  6
CONTINUOUS
 62
     7
  5
7A
 10
-19.459371
 20
-22.620612
 30
0.0
  0
VERTEX
  8
0
  6
CONTINUOUS
 62
     7
  5
7B
 10
-19.272259
 20
-22.533584
 30
0.0
  0
VERTEX
  8
0
  6
CONTINUOUS
 62
     7
  5
7C
 10
-19.082956
 20
-22.463172
 30
0.0
  0
VERTEX
  8
0
  6
CONTINUOUS
 62
     7
  5
7D
 10
-18.89204
 20
-22.410941
 30
0.0
  0
VERTEX
  8
0
  6
CONTINUOUS
 62
     7
  5
7E
 10
-18.700088
 20
-22.378456
 30
0.0
  0
VERTEX
  8
0
  6
CONTINUOUS
 62
     7
  5
7F
 10
-18.50768
 20
-22.36728
 30
0.0
  0
VERTEX
  8
0
  6
CONTINUOUS
 62
     7
  5
80
 10
-18.314734
 20
-22.378456
 30
0.0
  0
VERTEX
  8
0
  6
CONTINUOUS
 62
     7
  5
81
 10
-18.12215
 20
-22.410941
 30
0.0
  0
VERTEX
  8
0
  6
CONTINUOUS
 62
     7
  5
82
 10
-17.930523
 20
-22.463172
 30
0.0
  0
VERTEX
  8
0
  6
CONTINUOUS
 62
     7
  5
83
 10
-17.74045
 20
-22.533584
 30
0.0
  0
VERTEX
  8
0
  6
CONTINUOUS
 62
     7
  5
84
 10
-17.552527
 20
-22.620612
 30
0.0
  0
VERTEX
  8
0
  6
CONTINUOUS
 62
     7
  5
85
 10
-17.367349
 20
-22.722693
 30
0.0
  0
VERTEX
  8
0
  6
CONTINUOUS
 62
     7
  5
86
 10
-17.185512
 20
-22.838262
 30
0.0
  0
VERTEX
  8
0
  6
CONTINUOUS
 62
     7
  5
87
 10
-17.007613
 20
-22.965756
 30
0.0
  0
VERTEX
  8
0
  6
CONTINUOUS
 62
     7
  5
88
 10
-16.834247
 20
-23.10361
 30
0.0
  0
VERTEX
  8
0
  6
CONTINUOUS
 62
     7
  5
89
 10
-16.666011
 20
-23.25026
 30
0.0
  0
VERTEX
  8
0
  6
CONTINUOUS
 62
     7
  5
8A
 10
-16.503499
 20
-23.404141
 30
0.0
  0
VERTEX
  8
0
  6
CONTINUOUS
 62
     7
  5
8B
 10
-16.347309
 20
-23.563691
 30
0.0
  0
VERTEX
  8
0
  6
CONTINUOUS
 62
     7
  5
8C
 10
-16.198036
 20
-23.727343
 30
0.0
  0
VERTEX
  8
0
  6
CONTINUOUS
 62
     7
  5
8D
 10
-16.056276
 20
-23.893535
 30
0.0
  0
VERTEX
  8
0
  6
CONTINUOUS
 62
     7
  5
8E
 10
-15.922626
 20
-24.060702
 30
0.0
  0
VERTEX
  8
0
  6
CONTINUOUS
 62
     7
  5
8F
 10
-15.79768
 20
-24.22728
 30
0.0
  0
SEQEND
  8
0
  6
CONTINUOUS
 62
     7
  5
90
  0
LINE
  8
0
  6
CONTINUOUS
 62
     7
  5
69
 10
-138.399994
 20
94.5
 30
0.0
 11
138.350006
 21
94.5
 31
0.0
  0
LINE
  8
0
  6
CONTINUOUS
 62
     7
  5
6A
 10
138.350006
 20
94.5
 30
0.0
 11
138.350006
 21
-94.800003
 31
0.0
  0
LINE
  8
0
  6
CONTINUOUS
 62
     7
  5
6B
 10
-138.399994
 20
-94.800003
 30
0.0
 11
138.350006
 21
-94.800003
 31
0.0
  0
LINE
  8
0
  6
CONTINUOUS
 62
     7
  5
6C
 10
-138.399994
 20
94.5
 30
0.0
 11
-138.399994
 21
-94.800003
 31
0.0
  0
TEXT
  8
0
  6
CONTINUOUS
 62
     7
  5
6D
 10
-129.418176
 20
72.9
 30
0.0
 40
3.2
  1
MODEL:PLF050
 41
1.090909
  7
MX_NOTE_STANDARD
 11
-129.418176
 21
74.5
 31
0.0
 73
     2
  0
ENDSEC
  0
EOF
