  0
SECTION
  2
HEADER
  0
ENDSEC
  0
SECTION
  2
TABLES
  0
TABLE
  2
LTYPE
 70
     4
  0
LTYPE
  2
CONTINUOUS
 70
    64
  3
Solid line
 72
    65
 73
     0
 40
0.000000
  0
LTYPE
  2
DASHED
 70
    64
  3
__ __ __ __ __ __ __ __ __ __ __ __ __ __ __
 72
    65
 73
     2
 40
3.500000
 49
2.000000
 49
-1.500000
  0
LTYPE
  2
CENTER
 70
    64
  3
____ _ ____ _ ____ _ ____ _ ____ _ ____ _ ____
 72
    65
 73
     4
 40
17.500000
 49
13.000000
 49
-1.500000
 49
1.500000
 49
-1.500000
  0
LTYPE
  2
PHANTOM
 70
    64
  3
_____ _ _ _____ _ _ _____ _ _ _____ _ _ ____  
 72
    65
 73
     6
 40
15.500000
 49
8.000000
 49
-1.500000
 49
1.500000
 49
-1.500000
 49
1.500000
 49
-1.500000
  0
LTYPE
  2
DASHED1
 70
    64
  3
__ __ __ __ __ __ __ __ __ __ __ __ __ __ __
 72
    65
 73
     2
 40
1.500000
 49
1.000000
 49
-0.500000
  0
LTYPE
  2
DASHED2
 70
    64
  3
__ __ __ __ __ __ __ __ __ __ __ __ __ __ __
 72
    65
 73
     2
 40
3.500000
 49
2.500000
 49
-1.000000
  0
LTYPE
  2
DASHED3
 70
    64
  3
__ __ __ __ __ __ __ __ __ __ __ __ __ __ __
 72
    65
 73
     2
 40
6.000000
 49
4.000000
 49
-2.000000
  0
LTYPE
  2
DASHED4
 70
    64
  3
__ __ __ __ __ __ __ __ __ __ __ __ __ __ __
 72
    65
 73
     2
 40
12.000000
 49
10.000000
 49
-2.000000
  0
LTYPE
  2
DASHED5
 70
    64
  3
__ __ __ __ __ __ __ __ __ __ __ __ __ __ __
 72
    65
 73
     2
 40
17.000000
 49
15.000000
 49
-2.000000
  0
LTYPE
  2
DASHED6
 70
    64
  3
__ __ __ __ __ __ __ __ __ __ __ __ __ __ __
 72
    65
 73
     2
 40
29.000000
 49
27.000000
 49
-2.000000
  0
LTYPE
  2
PHANTOM1
 70
    64
  3
_____ _ _ _____ _ _ _____ _ _ _____ _ _ ____  
 72
    65
 73
     6
 40
31.000000
 49
25.000000
 49
-1.500000
 49
1.000000
 49
-1.000000
 49
1.000000
 49
-1.500000
  0
LTYPE
  2
PHANTOM2
 70
    64
  3
_____ _ _ _____ _ _ _____ _ _ _____ _ _ ____  
 72
    65
 73
     6
 40
36.000000
 49
27.000000
 49
-1.500000
 49
2.500000
 49
-1.000000
 49
2.500000
 49
-1.500000
  0
LTYPE
  2
PHANTOM3
 70
    64
  3
_____ _ _ _____ _ _ _____ _ _ _____ _ _ ____  
 72
    65
 73
     6
 40
78.000000
 49
64.000000
 49
-2.000000
 49
4.000000
 49
-2.000000
 49
4.000000
 49
-2.000000
  0
LTYPE
  2
CENTER1
 70
    64
  3
____ _ ____ _ ____ _ ____ _ ____ _ ____ _ ____
 72
    65
 73
     4
 40
19.000000
 49
14.000000
 49
-1.000000
 49
3.000000
 49
-1.000000
  0
LTYPE
  2
CENTER2
 70
    64
  3
____ _ ____ _ ____ _ ____ _ ____ _ ____ _ ____
 72
    65
 73
     4
 40
28.500000
 49
25.000000
 49
-1.000000
 49
1.500000
 49
-1.000000
  0
LTYPE
  2
CENTER3
 70
    64
  3
____ _ ____ _ ____ _ ____ _ ____ _ ____ _ ____
 72
    65
 73
     4
 40
31.500000
 49
27.000000
 49
-1.000000
 49
2.500000
 49
-1.000000
  0
LTYPE
  2
CENTER4
 70
    64
  3
____ _ ____ _ ____ _ ____ _ ____ _ ____ _ ____
 72
    65
 73
     4
 40
50.000000
 49
45.000000
 49
-1.000000
 49
3.000000
 49
-1.000000
  0
LTYPE
  2
CENTER5
 70
    64
  3
____ _ ____ _ ____ _ ____ _ ____ _ ____ _ ____
 72
    65
 73
     4
 40
100.000000
 49
92.000000
 49
-2.000000
 49
4.000000
 49
-2.000000
  0
LTYPE
  2
SBK1
 70
    64
  3
______ _ _ _ ______ _ _ _ ______ _ _ _ _____  
 72
    65
 73
     8
 40
60.500000
 49
45.000000
 49
-2.000000
 49
2.500000
 49
-2.000000
 49
2.500000
 49
-2.000000
 49
2.500000
 49
-2.000000
  0
LTYPE
  2
SBK2
 70
    64
  3
______ _ _ _ ______ _ _ _ ______ _ _ _ _____  
 72
    65
 73
     8
 40
84.000000
 49
64.000000
 49
-2.000000
 49
4.000000
 49
-2.000000
 49
4.000000
 49
-2.000000
 49
4.000000
 49
-2.000000
  0
LTYPE
  2
STCH
 70
    64
  3
__ __ __ __ __ __ __ __ __ __ __ __ __ __ __
 72
    65
 73
     2
 40
3.000000
 49
1.000000
 49
-2.000000
  0
LTYPE
  2
MTCH
 70
    64
  3
_____ _ _ _____ _ _ _____ _ _ _____ _ _ ____  
 72
    65
 73
     6
 40
80.000000
 49
66.000000
 49
-2.000000
 49
4.000000
 49
-2.000000
 49
4.000000
 49
-2.000000
  0
ENDTAB
  0
TABLE
  2
LAYER
 70
     1
  0
LAYER
  2
0
 70
     0
 62
     7
  6
CONTINUOUS
  0
ENDTAB
  0
TABLE
  2
STYLE
 70
     1
  0
STYLE
  2
STANDARD
 70
     0
 40
0.000000
 41
1.000000
 50
0.000000
 71
     0
 42
0.200000
  3
txt
  4
BIGFONT
  0
ENDTAB
  0
TABLE
  2
VIEW
 70
     0
  0
ENDTAB
  0
ENDSEC
  0
SECTION
  2
BLOCKS
  0
ENDSEC
  0
SECTION
  2
ENTITIES
  0
LINE
  8
0
 10
-181.250000
 20
195.500000
 11
-181.250000
 21
180.500000
  0
LINE
  8
0
 10
182.099976
 20
195.500000
 11
182.099976
 21
180.500000
  0
LINE
  8
0
 10
-281.250000
 20
180.500000
 11
-181.250000
 21
180.500000
  0
LINE
  8
0
 10
182.099976
 20
-175.000000
 11
182.099976
 21
-195.000000
  0
LINE
  8
0
 10
182.099976
 20
180.500000
 11
282.099976
 21
180.500000
  0
LINE
  8
0
 10
169.429993
 20
-175.000000
 11
282.099976
 21
-175.000000
  0
LINE
  8
0
 10
-281.250000
 20
-64.833344
 11
282.099976
 21
-64.833344
  0
LINE
  8
0
 10
-281.250000
 20
-185.000000
 11
169.429993
 21
-185.000000
  0
LINE
  8
0
 10
-297.000000
 20
210.000000
 11
297.000000
 21
210.000000
  0
LINE
  8
0
 10
-297.000000
 20
-210.000000
 11
297.000000
 21
-210.000000
  0
LINE
  8
0
 10
297.000000
 20
210.000000
 11
297.000000
 21
-210.000000
  0
LINE
  8
0
 10
-297.000000
 20
210.000000
 11
-297.000000
 21
-210.000000
  0
LINE
  8
0
 10
-281.250000
 20
195.500000
 11
282.099976
 21
195.500000
  0
LINE
  8
0
 10
-281.250000
 20
195.500000
 11
-281.250000
 21
-195.000000
  0
LINE
  8
0
 10
282.099976
 20
195.500000
 11
282.099976
 21
-195.000000
  0
LINE
  8
0
 10
-281.250000
 20
-195.000000
 11
282.099976
 21
-195.000000
  0
LINE
  8
0
 10
-281.250000
 20
65.333328
 11
282.099976
 21
65.333328
  0
LINE
  8
0
 10
-281.250000
 20
75.333328
 11
282.099976
 21
75.333328
  0
LINE
  8
0
 10
-281.250000
 20
-54.833344
 11
282.099976
 21
-54.833344
  0
LINE
  8
0
 10
-187.358337
 20
180.500000
 11
-187.358337
 21
-64.833344
  0
LINE
  8
0
 10
-93.466675
 20
195.500000
 11
-93.466675
 21
-64.833344
  0
LINE
  8
0
 10
0.424988
 20
195.500000
 11
0.424988
 21
-64.833344
  0
LINE
  8
0
 10
94.316650
 20
195.500000
 11
94.316650
 21
-64.833344
  0
LINE
  8
0
 10
188.208313
 20
180.500000
 11
188.208313
 21
-64.833344
  0
LINE
  8
0
 10
-168.580002
 20
-195.000000
 11
-168.580002
 21
-64.833344
  0
LINE
  8
0
 10
-55.910004
 20
-195.000000
 11
-55.910004
 21
-64.833344
  0
LINE
  8
0
 10
56.759995
 20
-195.000000
 11
56.759995
 21
-64.833344
  0
LINE
  8
0
 10
169.429993
 20
-195.000000
 11
169.429993
 21
-64.833344
  0
LINE
  8
0
 10
169.429993
 20
-165.000000
 11
282.099976
 21
-165.000000
  0
TEXT
  8
0
 10
-278.228302
 20
183.779999
 40
5.800000
  1
QUICK FITTING,BB
 50
0.000000
 41
1.052632
 51
0.000000
  7
STANDARD
  0
TEXT
  8
0
 10
188.021667
 20
183.779999
 40
5.800000
  1
DATE: MAY ,1992
 50
0.000000
 41
1.052632
 51
0.000000
  7
STANDARD
  0
TEXT
  8
0
 10
178.000870
 20
-190.300003
 40
7.000000
  1
ＫＯＧＡＮＥＩ，ＣＯＲＰ．
 50
0.000000
 41
0.902367
 51
15.000000
  7
STANDARD
  0
TEXT
  8
0
 10
-276.000000
 20
-61.833344
 40
5.000000
  1
MODEL:
 50
0.000000
 41
1.052632
 51
0.000000
  7
STANDARD
  0
TEXT
  8
0
 10
-276.000000
 20
-192.000015
 40
5.000000
  1
MODEL:BB03-01
 50
0.000000
 41
1.052632
 51
0.000000
  7
STANDARD
  0
TEXT
  8
0
 10
-163.330002
 20
-192.000000
 40
5.000000
  1
MODEL:BB03-02
 50
0.000000
 41
1.052632
 51
0.000000
  7
STANDARD
  0
TEXT
  8
0
 10
-50.660004
 20
-192.000000
 40
5.000000
  1
MODEL:BB03-03
 50
0.000000
 41
1.052632
 51
0.000000
  7
STANDARD
  0
TEXT
  8
0
 10
62.009995
 20
-192.000000
 40
5.000000
  1
MODEL:BB03-04
 50
0.000000
 41
1.052632
 51
0.000000
  7
STANDARD
  0
TEXT
  8
0
 10
174.679993
 20
-172.000000
 40
5.000000
  1
MODEL:BB04-04
 50
0.000000
 41
1.052632
 51
0.000000
  7
STANDARD
  0
TEXT
  8
0
 10
99.566650
 20
68.333328
 40
5.000000
  1
MODEL:BB01-01
 50
0.000000
 41
1.052632
 51
0.000000
  7
STANDARD
  0
TEXT
  8
0
 10
5.674988
 20
68.333328
 40
5.000000
  1
MODEL:BB01-M5
 50
0.000000
 41
1.052632
 51
0.000000
  7
STANDARD
  0
TEXT
  8
0
 10
-88.216675
 20
68.333328
 40
5.000000
  1
MODEL:BBM5-01
 50
0.000000
 41
1.052632
 51
0.000000
  7
STANDARD
  0
TEXT
  8
0
 10
-182.108337
 20
68.333328
 40
5.000000
  1
MODEL:BBM5-M5L
 50
0.000000
 41
1.052632
 51
0.000000
  7
STANDARD
  0
TEXT
  8
0
 10
-276.000000
 20
68.333328
 40
5.000000
  1
MODEL:BBM5-M5
 50
0.000000
 41
1.052632
 51
0.000000
  7
STANDARD
  0
TEXT
  8
0
 10
193.458313
 20
68.333328
 40
5.000000
  1
MODEL:BB01-02
 50
0.000000
 41
1.052632
 51
0.000000
  7
STANDARD
  0
TEXT
  8
0
 10
99.566650
 20
-61.833344
 40
5.000000
  1
MODEL:BB02-03
 50
0.000000
 41
1.052632
 51
0.000000
  7
STANDARD
  0
TEXT
  8
0
 10
5.674988
 20
-61.833344
 40
5.000000
  1
MODEL:BB02-02
 50
0.000000
 41
1.052632
 51
0.000000
  7
STANDARD
  0
TEXT
  8
0
 10
-88.216675
 20
-61.833344
 40
5.000000
  1
MODEL:BB02-01
 50
0.000000
 41
1.052632
 51
0.000000
  7
STANDARD
  0
TEXT
  8
0
 10
-182.108337
 20
-61.833344
 40
5.000000
  1
MODEL:BB02-M5
 50
0.000000
 41
1.052632
 51
0.000000
  7
STANDARD
  0
TEXT
  8
0
 10
-276.000000
 20
-61.833344
 40
5.000000
  1
MODEL:BB01-03
 50
0.000000
 41
1.052632
 51
0.000000
  7
STANDARD
  0
TEXT
  8
0
 10
193.458313
 20
-61.833344
 40
5.000000
  1
MODEL:BB02-04
 50
0.000000
 41
1.052632
 51
0.000000
  7
STANDARD
  0
POINT
  8
0
 10
-236.037003
 20
100.274948
  0
POINT
  8
0
 10
-233.537003
 20
100.274948
  0
LINE
  8
0
  6
DASHED
 10
-238.537003
 20
111.874947
 11
-233.537003
 21
111.874947
  0
LINE
  8
0
  6
DASHED
 10
-238.137009
 20
116.874947
 11
-238.137009
 21
111.874947
  0
LINE
  8
0
  6
CENTER
 10
-236.037003
 20
129.980270
 11
-236.037003
 21
84.036041
  0
LINE
  8
0
 10
-238.537003
 20
97.374947
 11
-233.537003
 21
97.374947
  0
LINE
  8
0
 10
-239.937012
 20
116.874947
 11
-232.136993
 21
116.874947
  0
LINE
  8
0
 10
-239.936996
 20
112.874947
 11
-232.136993
 21
112.874947
  0
LINE
  8
0
 10
-239.936996
 20
112.874947
 11
-239.936996
 21
100.274948
  0
LINE
  8
0
 10
-232.136993
 20
112.874947
 11
-232.136993
 21
100.274948
  0
LINE
  8
0
 10
-231.437012
 20
116.687386
 11
-231.437012
 21
113.062508
  0
LINE
  8
0
 10
-240.637009
 20
116.687378
 11
-240.637009
 21
113.062515
  0
LINE
  8
0
 10
-233.737000
 20
116.874947
 11
-233.737000
 21
112.874947
  0
LINE
  8
0
 10
-238.337006
 20
116.874947
 11
-238.337006
 21
112.874947
  0
LINE
  8
0
 10
-240.637009
 20
116.687378
 11
-239.937012
 21
116.874939
  0
LINE
  8
0
 10
-232.136993
 20
112.874931
 11
-231.436996
 21
113.062500
  0
LINE
  8
0
 10
-232.136993
 20
116.874939
 11
-231.436996
 21
116.687378
  0
LINE
  8
0
 10
-240.637024
 20
113.062515
 11
-239.936996
 21
112.874947
  0
LINE
  8
0
 10
-239.936996
 20
100.874947
 11
-232.136993
 21
100.874947
  0
LINE
  8
0
 10
-239.936996
 20
100.274948
 11
-232.136993
 21
100.274948
  0
LINE
  8
0
 10
-233.537003
 20
100.274948
 11
-233.537003
 21
97.374947
  0
LINE
  8
0
 10
-238.537003
 20
100.274948
 11
-238.537003
 21
97.374947
  0
LINE
  8
0
 10
-238.137009
 20
100.274948
 11
-238.137009
 21
97.374947
  0
LINE
  8
0
 10
-233.937012
 20
100.274948
 11
-233.937012
 21
97.374947
  0
LINE
  8
0
  6
DASHED
 10
-238.537003
 20
116.874947
 11
-238.537003
 21
111.874947
  0
LINE
  8
0
  6
DASHED
 10
-233.537003
 20
116.874947
 11
-233.537003
 21
111.874947
  0
LINE
  8
0
  6
DASHED
 10
-233.937012
 20
116.874947
 11
-233.937012
 21
111.874947
  0
POINT
  8
0
  6
DASHED
 10
-236.037003
 20
155.124954
  0
POINT
  8
0
  6
DASHED
 10
-231.418198
 20
155.124954
  0
LINE
  8
0
  6
CENTER
 10
-236.037003
 20
164.630661
 11
-236.037003
 21
146.807465
  0
LINE
  8
0
  6
CENTER
 10
-246.433868
 20
155.124954
 11
-226.530243
 21
155.124954
  0
LINE
  8
0
 10
-238.346405
 20
151.124954
 11
-233.727600
 21
151.124954
  0
LINE
  8
0
 10
-238.346405
 20
159.124954
 11
-233.727600
 21
159.124954
  0
LINE
  8
0
 10
-240.655823
 20
155.124954
 11
-238.346420
 21
159.124954
  0
LINE
  8
0
 10
-233.727615
 20
151.124954
 11
-231.418213
 21
155.124954
  0
LINE
  8
0
 10
-240.655823
 20
155.124954
 11
-238.346405
 21
151.124954
  0
LINE
  8
0
 10
-233.727615
 20
159.124954
 11
-231.418213
 21
155.124954
  0
CIRCLE
  8
0
 10
-236.037003
 20
155.124954
 40
2.500000
  0
CIRCLE
  8
0
 10
-236.037003
 20
155.124954
 40
3.900000
  0
CIRCLE
  8
0
 10
-236.037003
 20
155.124954
 40
0.900000
  0
CIRCLE
  8
0
 10
-236.037003
 20
155.124954
 40
2.100000
  0
POINT
  8
0
 10
-142.198059
 20
96.803558
  0
POINT
  8
0
 10
-139.698059
 20
96.803558
  0
LINE
  8
0
  6
DASHED
 10
-140.098053
 20
116.903557
 11
-140.098053
 21
111.903557
  0
LINE
  8
0
  6
DASHED
 10
-144.298065
 20
116.903557
 11
-144.298065
 21
111.903557
  0
LINE
  8
0
  6
CENTER
 10
-142.198059
 20
125.320663
 11
-142.198059
 21
86.505714
  0
LINE
  8
0
 10
-146.098068
 20
116.903557
 11
-138.298080
 21
116.903557
  0
LINE
  8
0
 10
-144.698059
 20
93.903557
 11
-139.698059
 21
93.903557
  0
LINE
  8
0
 10
-146.098053
 20
112.903557
 11
-138.298065
 21
112.903557
  0
LINE
  8
0
 10
-138.298065
 20
112.903557
 11
-138.298065
 21
96.803558
  0
LINE
  8
0
 10
-146.098053
 20
112.903557
 11
-146.098053
 21
96.803558
  0
LINE
  8
0
 10
-137.598053
 20
116.715988
 11
-137.598053
 21
113.091125
  0
LINE
  8
0
 10
-146.798065
 20
116.715996
 11
-146.798065
 21
113.091125
  0
LINE
  8
0
 10
-144.498062
 20
116.903557
 11
-144.498062
 21
112.903557
  0
LINE
  8
0
 10
-139.898056
 20
116.903557
 11
-139.898056
 21
112.903557
  0
LINE
  8
0
 10
-146.798050
 20
116.715996
 11
-146.098068
 21
116.903557
  0
LINE
  8
0
 10
-138.298065
 20
112.903557
 11
-137.598053
 21
113.091125
  0
LINE
  8
0
 10
-138.298080
 20
116.903557
 11
-137.598053
 21
116.715988
  0
LINE
  8
0
 10
-146.798065
 20
113.091125
 11
-146.098053
 21
112.903549
  0
LINE
  8
0
 10
-146.098053
 20
97.403557
 11
-138.298065
 21
97.403557
  0
LINE
  8
0
 10
-146.098053
 20
96.803558
 11
-138.298065
 21
96.803558
  0
LINE
  8
0
 10
-139.698059
 20
96.803558
 11
-139.698059
 21
93.903557
  0
LINE
  8
0
 10
-144.698059
 20
96.803558
 11
-144.698059
 21
93.903557
  0
LINE
  8
0
 10
-144.298065
 20
96.803558
 11
-144.298065
 21
93.903557
  0
LINE
  8
0
 10
-140.098053
 20
96.803558
 11
-140.098053
 21
93.903557
  0
LINE
  8
0
  6
DASHED
 10
-139.698059
 20
116.903557
 11
-139.698059
 21
111.903557
  0
LINE
  8
0
  6
DASHED
 10
-144.698059
 20
116.903557
 11
-144.698059
 21
111.903557
  0
LINE
  8
0
  6
DASHED
 10
-144.698059
 20
111.903557
 11
-139.698059
 21
111.903557
  0
POINT
  8
0
  6
DASHED
 10
-142.198059
 20
153.403564
  0
POINT
  8
0
  6
DASHED
 10
-137.579254
 20
153.403564
  0
LINE
  8
0
  6
CENTER
 10
-142.198059
 20
168.903564
 11
-142.198059
 21
140.403564
  0
LINE
  8
0
  6
CENTER
 10
-161.364731
 20
153.403564
 11
-122.364723
 21
153.403564
  0
LINE
  8
0
 10
-144.507462
 20
149.403564
 11
-139.888657
 21
149.403564
  0
LINE
  8
0
 10
-144.507462
 20
157.403564
 11
-139.888657
 21
157.403564
  0
LINE
  8
0
 10
-146.816864
 20
153.403564
 11
-144.507462
 21
157.403564
  0
LINE
  8
0
 10
-139.888657
 20
149.403564
 11
-137.579254
 21
153.403564
  0
LINE
  8
0
 10
-146.816849
 20
153.403564
 11
-144.507446
 21
149.403564
  0
LINE
  8
0
 10
-139.888641
 20
157.403564
 11
-137.579239
 21
153.403564
  0
CIRCLE
  8
0
 10
-142.198059
 20
153.403564
 40
2.500000
  0
CIRCLE
  8
0
 10
-142.198059
 20
153.403564
 40
3.900000
  0
CIRCLE
  8
0
 10
-142.198059
 20
153.403564
 40
2.100000
  0
POINT
  8
0
 10
-49.333336
 20
109.333328
  0
POINT
  8
0
 10
-46.833336
 20
109.333328
  0
LINE
  8
0
  6
DASHED
 10
-44.933041
 20
120.952065
 11
-45.183041
 21
112.952065
  0
LINE
  8
0
  6
DASHED
 10
-53.733631
 20
120.952057
 11
-53.483631
 21
112.952057
  0
LINE
  8
0
  6
CENTER
 10
-49.333336
 20
133.666656
 11
-49.333336
 21
95.666664
  0
LINE
  8
0
 10
-51.833336
 20
106.433327
 11
-46.833336
 21
106.433327
  0
LINE
  8
0
 10
-56.333336
 20
120.933327
 11
-42.333344
 21
120.933327
  0
LINE
  8
0
 10
-56.333336
 20
110.933327
 11
-42.333344
 21
110.933327
  0
LINE
  8
0
 10
-45.333336
 20
120.933327
 11
-45.333336
 21
110.933327
  0
LINE
  8
0
 10
-53.333336
 20
120.933327
 11
-53.333336
 21
110.933327
  0
LINE
  8
0
 10
-57.233334
 20
120.692169
 11
-56.333332
 21
120.933327
  0
LINE
  8
0
 10
-42.333340
 20
110.933311
 11
-41.433334
 21
111.174461
  0
LINE
  8
0
 10
-42.333351
 20
120.933311
 11
-41.433334
 21
120.692154
  0
LINE
  8
0
 10
-57.233337
 20
111.174469
 11
-56.333332
 21
110.933311
  0
LINE
  8
0
 10
-53.233330
 20
109.933327
 11
-45.433334
 21
109.933327
  0
LINE
  8
0
 10
-53.233330
 20
109.333328
 11
-45.433334
 21
109.333328
  0
LINE
  8
0
 10
-45.433334
 20
110.933327
 11
-45.433334
 21
109.333328
  0
LINE
  8
0
 10
-53.233330
 20
110.933327
 11
-53.233330
 21
109.333328
  0
LINE
  8
0
 10
-51.833336
 20
109.333328
 11
-51.833336
 21
106.433327
  0
LINE
  8
0
 10
-46.833336
 20
109.333328
 11
-46.833336
 21
106.433327
  0
LINE
  8
0
 10
-51.433334
 20
109.333328
 11
-51.433334
 21
106.433327
  0
LINE
  8
0
 10
-47.233337
 20
109.333328
 11
-47.233337
 21
106.433327
  0
LINE
  8
0
  6
DASHED
 10
-54.083336
 20
112.933327
 11
-44.583336
 21
112.933327
  0
LINE
  8
0
  6
DASHED
 10
-54.333332
 20
120.933327
 11
-54.083332
 21
112.933327
  0
LINE
  8
0
  6
DASHED
 10
-44.333340
 20
120.933327
 11
-44.583340
 21
112.933327
  0
LINE
  8
0
 10
-41.433334
 20
120.692169
 11
-41.433334
 21
111.174484
  0
LINE
  8
0
 10
-57.233337
 20
120.692169
 11
-57.233337
 21
111.174477
  0
POINT
  8
0
 10
-49.333336
 20
159.333328
  0
POINT
  8
0
 10
-41.433334
 20
159.333328
  0
LINE
  8
0
  6
CENTER
 10
-49.333336
 20
176.333328
 11
-49.333336
 21
143.033325
  0
LINE
  8
0
  6
CENTER
 10
-68.061211
 20
159.333328
 11
-30.903397
 21
159.333328
  0
LINE
  8
0
 10
-53.008980
 20
152.333328
 11
-45.657692
 21
152.333328
  0
LINE
  8
0
 10
-53.008980
 20
166.333328
 11
-45.657692
 21
166.333328
  0
LINE
  8
0
 10
-57.233337
 20
159.650146
 11
-53.557713
 21
166.016525
  0
LINE
  8
0
 10
-45.108982
 20
152.650131
 11
-41.433334
 21
159.016541
  0
LINE
  8
0
 10
-57.233337
 20
159.016525
 11
-53.557701
 21
152.650131
  0
LINE
  8
0
 10
-45.108982
 20
166.016525
 11
-41.433334
 21
159.650131
  0
LINE
  8
0
 10
-53.557713
 20
166.016525
 11
-53.008980
 21
166.333328
  0
LINE
  8
0
 10
-45.657692
 20
152.333328
 11
-45.108982
 21
152.650116
  0
LINE
  8
0
 10
-57.233337
 20
159.650146
 11
-57.233337
 21
159.016525
  0
LINE
  8
0
 10
-41.433334
 20
159.650131
 11
-41.433334
 21
159.016541
  0
LINE
  8
0
 10
-53.557701
 20
152.650131
 11
-53.008980
 21
152.333328
  0
LINE
  8
0
 10
-45.657692
 20
166.333328
 11
-45.108982
 21
166.016525
  0
CIRCLE
  8
0
 10
-49.333336
 20
159.333328
 40
4.400000
  0
CIRCLE
  8
0
 10
-49.333336
 20
159.333328
 40
7.000000
  0
CIRCLE
  8
0
 10
-49.333336
 20
159.333328
 40
0.900000
  0
CIRCLE
  8
0
 10
-49.333336
 20
159.333328
 40
5.000000
  0
POINT
  8
0
 10
48.232967
 20
112.155914
  0
POINT
  8
0
 10
53.081844
 20
112.155914
  0
LINE
  8
0
  6
CENTER
 10
40.994816
 20
112.155914
 11
55.594814
 21
112.155914
  0
LINE
  8
0
  6
DASHED
 10
50.332966
 20
120.155914
 11
50.332966
 21
114.155914
  0
LINE
  8
0
  6
CENTER
 10
48.232967
 20
140.293579
 11
48.232967
 21
89.755936
  0
LINE
  8
0
 10
43.232967
 20
120.155914
 11
53.232967
 21
120.155914
  0
LINE
  8
0
 10
43.532970
 20
108.155914
 11
52.932964
 21
108.155914
  0
LINE
  8
0
 10
43.232967
 20
116.155914
 11
53.232967
 21
116.155914
  0
LINE
  8
0
 10
43.232975
 20
116.155914
 11
43.532978
 21
108.155914
  0
LINE
  8
0
 10
53.232994
 20
116.155922
 11
52.932991
 21
108.155914
  0
LINE
  8
0
 10
43.832558
 20
116.178406
 11
44.132565
 21
108.178398
  0
LINE
  8
0
 10
52.633408
 20
116.178406
 11
52.333405
 21
108.178398
  0
LINE
  8
0
 10
54.002972
 20
119.711349
 11
54.002972
 21
116.600479
  0
LINE
  8
0
 10
42.462963
 20
119.711349
 11
42.462963
 21
116.600471
  0
LINE
  8
0
 10
42.462959
 20
119.711349
 11
43.232971
 21
120.155914
  0
LINE
  8
0
 10
53.232964
 20
116.155914
 11
54.002972
 21
116.600479
  0
LINE
  8
0
 10
53.232979
 20
120.155930
 11
54.002987
 21
119.711365
  0
LINE
  8
0
 10
42.462982
 20
116.600494
 11
43.232983
 21
116.155930
  0
LINE
  8
0
 10
51.117962
 20
120.155914
 11
51.117962
 21
116.155914
  0
LINE
  8
0
 10
45.347965
 20
120.155914
 11
45.347965
 21
116.155914
  0
LINE
  8
0
  6
DASHED
 10
50.732967
 20
120.155914
 11
50.732967
 21
114.155914
  0
LINE
  8
0
  6
DASHED
 10
45.732967
 20
120.155914
 11
45.732967
 21
114.155914
  0
LINE
  8
0
  6
DASHED
 10
45.732967
 20
114.155914
 11
50.732967
 21
114.155914
  0
LINE
  8
0
  6
DASHED
 10
46.132969
 20
120.155914
 11
46.132969
 21
114.155914
  0
POINT
  8
0
  6
DASHED
 10
48.232967
 20
162.155914
  0
POINT
  8
0
  6
DASHED
 10
53.732967
 20
162.155914
  0
LINE
  8
0
  6
CENTER
 10
48.232967
 20
178.157455
 11
48.232967
 21
148.655914
  0
LINE
  8
0
  6
CENTER
 10
29.199249
 20
162.155914
 11
68.776443
 21
162.155914
  0
LINE
  8
0
 10
45.893223
 20
167.155914
 11
50.572712
 21
167.155914
  0
LINE
  8
0
 10
45.893223
 20
157.155914
 11
50.572712
 21
157.155914
  0
LINE
  8
0
 10
42.732967
 20
162.629639
 11
45.072716
 21
166.682190
  0
LINE
  8
0
 10
51.393227
 20
157.629639
 11
53.732967
 21
161.682190
  0
LINE
  8
0
 10
42.732967
 20
161.682205
 11
45.072723
 21
157.629623
  0
LINE
  8
0
 10
51.393215
 20
166.682190
 11
53.732967
 21
162.629623
  0
LINE
  8
0
 10
50.572716
 20
157.155914
 11
51.393211
 21
157.629623
  0
LINE
  8
0
 10
45.072720
 20
166.682190
 11
45.893219
 21
167.155914
  0
LINE
  8
0
 10
42.732967
 20
162.629639
 11
42.732967
 21
161.682205
  0
LINE
  8
0
 10
53.732967
 20
162.629623
 11
53.732967
 21
161.682190
  0
LINE
  8
0
 10
45.072716
 20
157.629639
 11
45.893211
 21
157.155914
  0
LINE
  8
0
 10
50.572720
 20
167.155914
 11
51.393227
 21
166.682190
  0
CIRCLE
  8
0
 10
48.232967
 20
162.155914
 40
2.500000
  0
CIRCLE
  8
0
 10
48.232967
 20
162.155914
 40
5.000000
  0
CIRCLE
  8
0
 10
48.232967
 20
162.155914
 40
2.100000
  0
POINT
  8
0
 10
138.913971
 20
100.381729
  0
POINT
  8
0
 10
143.762848
 20
100.381729
  0
LINE
  8
0
  6
CENTER
 10
131.838943
 20
100.381729
 11
146.324280
 21
100.381729
  0
LINE
  8
0
  6
DASHED
 10
134.163971
 20
116.881729
 11
143.663971
 21
116.881729
  0
LINE
  8
0
  6
CENTER
 10
138.913971
 20
138.176498
 11
138.913971
 21
86.291214
  0
LINE
  8
0
 10
134.213974
 20
96.381729
 11
143.613968
 21
96.381729
  0
LINE
  8
0
 10
132.013977
 20
124.881729
 11
145.813965
 21
124.881729
  0
LINE
  8
0
 10
132.013977
 20
113.881729
 11
145.813965
 21
113.881729
  0
LINE
  8
0
  6
DASHED
 10
133.913986
 20
124.881729
 11
134.163986
 21
116.881729
  0
LINE
  8
0
 10
131.013977
 20
124.613770
 11
132.013992
 21
124.881729
  0
LINE
  8
0
 10
145.813995
 20
113.881737
 11
146.813965
 21
114.149673
  0
LINE
  8
0
 10
131.013977
 20
114.149666
 11
132.013962
 21
113.881714
  0
LINE
  8
0
 10
145.813965
 20
124.881691
 11
146.813965
 21
124.613739
  0
LINE
  8
0
 10
143.913971
 20
113.881729
 11
143.913971
 21
104.381729
  0
LINE
  8
0
 10
133.913971
 20
113.881729
 11
133.913971
 21
104.381729
  0
LINE
  8
0
 10
133.913971
 20
104.381729
 11
143.913971
 21
104.381729
  0
LINE
  8
0
 10
133.913971
 20
104.381729
 11
134.213974
 21
96.381729
  0
LINE
  8
0
 10
143.913971
 20
104.381729
 11
143.613968
 21
96.381729
  0
LINE
  8
0
 10
134.513565
 20
104.404221
 11
134.813568
 21
96.404221
  0
LINE
  8
0
 10
143.314407
 20
104.404213
 11
143.014404
 21
96.404213
  0
LINE
  8
0
 10
134.913971
 20
124.881729
 11
134.913971
 21
113.881729
  0
LINE
  8
0
 10
142.913971
 20
124.881729
 11
142.913971
 21
113.881729
  0
LINE
  8
0
  6
DASHED
 10
134.513687
 20
124.900475
 11
134.763687
 21
116.900475
  0
LINE
  8
0
  6
DASHED
 10
143.314270
 20
124.900467
 11
143.064270
 21
116.900467
  0
LINE
  8
0
  6
DASHED
 10
143.913986
 20
124.881729
 11
143.663986
 21
116.881729
  0
LINE
  8
0
 10
131.013977
 20
124.613770
 11
131.013977
 21
114.149666
  0
LINE
  8
0
 10
146.813965
 20
124.613739
 11
146.813965
 21
114.149673
  0
POINT
  8
0
 10
138.913971
 20
165.381729
  0
POINT
  8
0
 10
146.996857
 20
165.381729
  0
LINE
  8
0
  6
CENTER
 10
121.585869
 20
165.381729
 11
156.638153
 21
165.381729
  0
LINE
  8
0
  6
CENTER
 10
138.913971
 20
180.376602
 11
138.913971
 21
151.881729
  0
LINE
  8
0
 10
134.872513
 20
158.381729
 11
142.955414
 21
158.381729
  0
LINE
  8
0
 10
134.872528
 20
172.381729
 11
142.955414
 21
172.381729
  0
LINE
  8
0
 10
130.831070
 20
165.381744
 11
134.872528
 21
172.381729
  0
LINE
  8
0
 10
142.955414
 20
158.381729
 11
146.996887
 21
165.381729
  0
LINE
  8
0
 10
130.831039
 20
165.381729
 11
134.872498
 21
158.381744
  0
LINE
  8
0
 10
142.955429
 20
172.381744
 11
146.996887
 21
165.381744
  0
CIRCLE
  8
0
 10
138.913971
 20
165.381729
 40
4.400000
  0
CIRCLE
  8
0
 10
138.913971
 20
165.381729
 40
6.900000
  0
CIRCLE
  8
0
 10
138.913971
 20
165.381729
 40
3.000000
  0
CIRCLE
  8
0
 10
138.913971
 20
165.381729
 40
5.000000
  0
POINT
  8
0
 10
241.970764
 20
102.514343
  0
POINT
  8
0
 10
237.121887
 20
102.514343
  0
LINE
  8
0
 10
232.721466
 20
106.536827
 11
233.021469
 21
98.536827
  0
LINE
  8
0
  6
CENTER
 10
228.938705
 20
102.514343
 11
244.642242
 21
102.514343
  0
LINE
  8
0
  6
CENTER
 10
237.121887
 20
133.814346
 11
237.121887
 21
79.314346
  0
LINE
  8
0
 10
228.621887
 20
119.514343
 11
245.621887
 21
119.514343
  0
LINE
  8
0
 10
228.621887
 20
106.514343
 11
245.621887
 21
106.514343
  0
LINE
  8
0
 10
232.221893
 20
119.514343
 11
232.221893
 21
106.514343
  0
LINE
  8
0
 10
242.021881
 20
119.514343
 11
242.021881
 21
106.514343
  0
LINE
  8
0
 10
227.721893
 20
119.273178
 11
228.621902
 21
119.514336
  0
LINE
  8
0
 10
245.621887
 20
106.514343
 11
246.521881
 21
106.755493
  0
LINE
  8
0
 10
245.621872
 20
119.514328
 11
246.521881
 21
119.273178
  0
LINE
  8
0
 10
227.721893
 20
106.755486
 11
228.621887
 21
106.514336
  0
LINE
  8
0
  6
DASHED
 10
230.421890
 20
119.514343
 11
230.765640
 21
108.514343
  0
LINE
  8
0
  6
DASHED
 10
243.821884
 20
119.514343
 11
243.478134
 21
108.514343
  0
LINE
  8
0
  6
DASHED
 10
230.765640
 20
108.514343
 11
243.478134
 21
108.514343
  0
LINE
  8
0
  6
DASHED
 10
231.221497
 20
119.539330
 11
231.565247
 21
108.539330
  0
LINE
  8
0
  6
DASHED
 10
243.022278
 20
119.539330
 11
242.678528
 21
108.539330
  0
LINE
  8
0
 10
241.522308
 20
106.536827
 11
241.222305
 21
98.536827
  0
LINE
  8
0
 10
232.421890
 20
98.514343
 11
241.821884
 21
98.514343
  0
LINE
  8
0
 10
232.121887
 20
106.514343
 11
232.421890
 21
98.514343
  0
LINE
  8
0
 10
242.121887
 20
106.514343
 11
241.821884
 21
98.514343
  0
LINE
  8
0
 10
246.521881
 20
119.273178
 11
246.521881
 21
106.755493
  0
LINE
  8
0
 10
227.721893
 20
119.273186
 11
227.721893
 21
106.755486
  0
POINT
  8
0
 10
237.121887
 20
157.514343
  0
POINT
  8
0
 10
246.521881
 20
157.514343
  0
LINE
  8
0
  6
CENTER
 10
237.121887
 20
172.829971
 11
237.121887
 21
143.237061
  0
LINE
  8
0
  6
CENTER
 10
205.621887
 20
157.514343
 11
266.121887
 21
157.514343
  0
LINE
  8
0
 10
233.044312
 20
166.014343
 11
241.199448
 21
166.014343
  0
LINE
  8
0
 10
233.044327
 20
149.014343
 11
241.199463
 21
149.014343
  0
LINE
  8
0
 10
227.721893
 20
158.233078
 11
231.799438
 21
165.295609
  0
LINE
  8
0
 10
242.444305
 20
149.733063
 11
246.521881
 21
156.795639
  0
LINE
  8
0
 10
227.721893
 20
156.795624
 11
231.799469
 21
149.733063
  0
LINE
  8
0
 10
242.444336
 20
165.295609
 11
246.521881
 21
158.233078
  0
LINE
  8
0
 10
231.799438
 20
165.295624
 11
233.044312
 21
166.014343
  0
LINE
  8
0
 10
241.199463
 20
149.014343
 11
242.444305
 21
149.733063
  0
LINE
  8
0
 10
227.721893
 20
158.233078
 11
227.721893
 21
156.795624
  0
LINE
  8
0
 10
246.521881
 20
158.233078
 11
246.521881
 21
156.795639
  0
LINE
  8
0
 10
231.799469
 20
149.733063
 11
233.044327
 21
149.014343
  0
LINE
  8
0
 10
241.199448
 20
166.014343
 11
242.444336
 21
165.295609
  0
CIRCLE
  8
0
 10
237.121887
 20
157.514343
 40
5.900000
  0
CIRCLE
  8
0
 10
237.121887
 20
157.514343
 40
8.500000
  0
CIRCLE
  8
0
 10
237.121887
 20
157.514343
 40
3.000000
  0
CIRCLE
  8
0
 10
237.121887
 20
157.514343
 40
6.700000
  0
POINT
  8
0
 10
-238.614807
 20
-20.216326
  0
POINT
  8
0
 10
-233.765930
 20
-20.216326
  0
LINE
  8
0
  6
DASHED
 10
-229.864807
 20
-2.216326
 11
-230.239807
 21
-14.216328
  0
LINE
  8
0
  6
DASHED
 10
-247.364807
 20
-2.216322
 11
-246.989807
 21
-14.216324
  0
LINE
  8
0
  6
CENTER
 10
-238.614807
 20
10.783680
 11
-238.614807
 21
-36.626858
  0
LINE
  8
0
 10
-243.314804
 20
-24.216328
 11
-233.914810
 21
-24.216328
  0
LINE
  8
0
 10
-243.614792
 20
-16.216328
 11
-243.314804
 21
-24.216328
  0
LINE
  8
0
 10
-233.614807
 20
-16.216328
 11
-233.914810
 21
-24.216328
  0
LINE
  8
0
  6
CENTER
 10
-246.798004
 20
-20.216326
 11
-231.094452
 21
-20.216326
  0
LINE
  8
0
 10
-243.015228
 20
-16.193844
 11
-242.715225
 21
-24.193844
  0
LINE
  8
0
 10
-234.214386
 20
-16.193844
 11
-234.514389
 21
-24.193844
  0
LINE
  8
0
 10
-249.114807
 20
-2.216328
 11
-228.114792
 21
-2.216328
  0
LINE
  8
0
 10
-249.114792
 20
-16.216328
 11
-228.114807
 21
-16.216328
  0
LINE
  8
0
 10
-244.614807
 20
-2.216328
 11
-244.614807
 21
-16.216328
  0
LINE
  8
0
 10
-232.614807
 20
-2.216328
 11
-232.614807
 21
-16.216328
  0
LINE
  8
0
 10
-250.314804
 20
-2.537872
 11
-249.114792
 21
-2.216331
  0
LINE
  8
0
 10
-228.114792
 20
-16.216331
 11
-226.914810
 21
-15.894795
  0
LINE
  8
0
 10
-228.114792
 20
-2.216349
 11
-226.914810
 21
-2.537884
  0
LINE
  8
0
 10
-250.314804
 20
-15.894789
 11
-249.114792
 21
-16.216330
  0
LINE
  8
0
  6
DASHED
 10
-230.664413
 20
-2.191339
 11
-231.039413
 21
-14.191340
  0
LINE
  8
0
  6
DASHED
 10
-246.565201
 20
-2.191336
 11
-246.190201
 21
-14.191336
  0
LINE
  8
0
  6
DASHED
 10
-246.989807
 20
-14.216328
 11
-230.239807
 21
-14.216328
  0
LINE
  8
0
 10
-250.314804
 20
-2.537870
 11
-250.314804
 21
-15.894789
  0
LINE
  8
0
 10
-226.914810
 20
-2.537880
 11
-226.914810
 21
-15.894794
  0
POINT
  8
0
 10
-238.614807
 20
29.783674
  0
POINT
  8
0
 10
-226.914810
 20
29.783674
  0
LINE
  8
0
  6
CENTER
 10
-238.614807
 20
48.783676
 11
-238.614807
 21
12.683676
  0
LINE
  8
0
  6
CENTER
 10
-270.114807
 20
29.783674
 11
-206.114807
 21
29.783674
  0
LINE
  8
0
 10
-243.828278
 20
40.283676
 11
-233.401337
 21
40.283676
  0
LINE
  8
0
 10
-243.828278
 20
19.283674
 11
-233.401337
 21
19.283674
  0
LINE
  8
0
 10
-250.314804
 20
30.518681
 11
-245.101334
 21
39.548668
  0
LINE
  8
0
 10
-232.128281
 20
20.018677
 11
-226.914810
 21
29.048672
  0
LINE
  8
0
 10
-250.314804
 20
29.048706
 11
-245.101303
 21
20.018661
  0
LINE
  8
0
 10
-232.128281
 20
39.548676
 11
-226.914810
 21
30.518667
  0
LINE
  8
0
 10
-245.101334
 20
39.548672
 11
-243.828278
 21
40.283676
  0
LINE
  8
0
 10
-233.401337
 20
19.283672
 11
-232.128281
 21
20.018677
  0
LINE
  8
0
 10
-250.314804
 20
30.518681
 11
-250.314804
 21
29.048706
  0
LINE
  8
0
 10
-226.914810
 20
30.518667
 11
-226.914810
 21
29.048672
  0
LINE
  8
0
 10
-245.101303
 20
20.018661
 11
-243.828278
 21
19.283672
  0
LINE
  8
0
 10
-233.401337
 20
40.283676
 11
-232.128281
 21
39.548676
  0
CIRCLE
  8
0
 10
-238.614807
 20
29.783674
 40
10.500000
  0
CIRCLE
  8
0
 10
-238.614807
 20
29.783674
 40
7.950000
  0
CIRCLE
  8
0
 10
-238.614807
 20
29.783674
 40
3.000000
  0
CIRCLE
  8
0
 10
-238.614807
 20
29.783674
 40
8.750000
  0
POINT
  8
0
 10
-139.800095
 20
-21.383402
  0
POINT
  8
0
 10
-133.236176
 20
-21.383402
  0
LINE
  8
0
 10
-145.700378
 20
-16.361597
 11
-145.400375
 21
-27.361595
  0
LINE
  8
0
 10
-133.899796
 20
-16.361597
 11
-134.199799
 21
-27.361595
  0
LINE
  8
0
  6
CENTER
 10
-139.800095
 20
0.910419
 11
-139.800095
 21
-35.271225
  0
LINE
  8
0
 10
-146.800095
 20
-11.383404
 11
-132.800095
 21
-11.383404
  0
LINE
  8
0
 10
-146.500092
 20
-16.383404
 11
-133.100098
 21
-16.383404
  0
LINE
  8
0
 10
-147.700089
 20
-11.903014
 11
-146.800095
 21
-11.383402
  0
LINE
  8
0
 10
-133.100098
 20
-16.383408
 11
-131.900101
 21
-15.690589
  0
LINE
  8
0
 10
-132.800095
 20
-11.383415
 11
-131.900101
 21
-11.903032
  0
LINE
  8
0
 10
-147.700089
 20
-15.690592
 11
-146.500107
 21
-16.383408
  0
LINE
  8
0
 10
-143.800095
 20
-11.383404
 11
-143.800095
 21
-16.383404
  0
LINE
  8
0
 10
-135.800095
 20
-11.383404
 11
-135.800095
 21
-16.383404
  0
LINE
  8
0
  6
DASHED
 10
-142.300095
 20
-11.383404
 11
-142.300095
 21
-17.383404
  0
LINE
  8
0
  6
DASHED
 10
-137.300095
 20
-11.383404
 11
-137.300095
 21
-17.383404
  0
LINE
  8
0
  6
DASHED
 10
-142.300095
 20
-17.383404
 11
-137.300095
 21
-17.383404
  0
LINE
  8
0
  6
DASHED
 10
-141.900101
 20
-11.383404
 11
-141.900101
 21
-17.383404
  0
LINE
  8
0
  6
DASHED
 10
-137.700089
 20
-11.383404
 11
-137.700089
 21
-17.383404
  0
LINE
  8
0
  6
CENTER
 10
-149.772766
 20
-21.383402
 11
-130.440018
 21
-21.383402
  0
LINE
  8
0
 10
-146.200089
 20
-27.383404
 11
-133.400101
 21
-27.383404
  0
LINE
  8
0
 10
-146.500107
 20
-16.383398
 11
-146.200104
 21
-27.383396
  0
LINE
  8
0
 10
-133.100082
 20
-16.383398
 11
-133.400085
 21
-27.383396
  0
LINE
  8
0
 10
-131.900101
 20
-11.903032
 11
-131.900101
 21
-15.690589
  0
LINE
  8
0
 10
-147.700089
 20
-11.903015
 11
-147.700089
 21
-15.690592
  0
POINT
  8
0
 10
-139.800095
 20
28.616598
  0
POINT
  8
0
 10
-131.717194
 20
28.616598
  0
LINE
  8
0
  6
CENTER
 10
-139.800095
 20
49.616600
 11
-139.800095
 21
14.116598
  0
LINE
  8
0
  6
CENTER
 10
-160.269043
 20
28.616598
 11
-115.345512
 21
28.616598
  0
LINE
  8
0
 10
-143.841553
 20
35.616600
 11
-135.758636
 21
35.616600
  0
LINE
  8
0
 10
-147.883011
 20
28.616602
 11
-143.841553
 21
35.616600
  0
LINE
  8
0
 10
-135.758636
 20
21.616590
 11
-131.717194
 21
28.616589
  0
LINE
  8
0
 10
-147.883011
 20
28.616592
 11
-143.841553
 21
21.616594
  0
LINE
  8
0
 10
-135.758652
 20
35.616592
 11
-131.717209
 21
28.616594
  0
LINE
  8
0
 10
-143.841553
 20
21.616596
 11
-135.758636
 21
21.616596
  0
CIRCLE
  8
0
 10
-139.800095
 20
28.616598
 40
2.500000
  0
CIRCLE
  8
0
 10
-139.800095
 20
28.616598
 40
7.000000
  0
CIRCLE
  8
0
 10
-139.800095
 20
28.616598
 40
2.100000
  0
POINT
  8
0
 10
-45.562222
 20
-21.498249
  0
POINT
  8
0
 10
-38.998302
 20
-21.498249
  0
LINE
  8
0
 10
-53.562218
 20
-15.873175
 11
-52.462215
 21
-16.508261
  0
LINE
  8
0
 10
-38.662224
 20
-16.508261
 11
-37.562225
 21
-15.873175
  0
LINE
  8
0
  6
CENTER
 10
-45.562222
 20
4.340502
 11
-45.562222
 21
-40.510597
  0
LINE
  8
0
  6
DASHED
 10
-50.312222
 20
-16.508251
 11
-40.812222
 21
-16.508251
  0
LINE
  8
0
  6
DASHED
 10
-50.562210
 20
-8.508253
 11
-50.312214
 21
-16.508245
  0
LINE
  8
0
  6
DASHED
 10
-40.562210
 20
-8.508245
 11
-40.812210
 21
-16.508247
  0
LINE
  8
0
  6
DASHED
 10
-49.961922
 20
-8.508251
 11
-49.712509
 21
-16.489506
  0
LINE
  8
0
  6
DASHED
 10
-41.162529
 20
-8.508251
 11
-41.411945
 21
-16.489513
  0
LINE
  8
0
 10
-51.962223
 20
-27.508251
 11
-39.162228
 21
-27.508251
  0
LINE
  8
0
 10
-52.262222
 20
-16.508263
 11
-51.962223
 21
-27.508259
  0
LINE
  8
0
 10
-38.862217
 20
-16.508251
 11
-39.162216
 21
-27.508245
  0
LINE
  8
0
 10
-51.461922
 20
-16.508251
 11
-51.162518
 21
-27.486435
  0
LINE
  8
0
 10
-39.662525
 20
-16.508251
 11
-39.961929
 21
-27.486435
  0
LINE
  8
0
 10
-38.662228
 20
-8.508255
 11
-37.562214
 21
-9.143349
  0
LINE
  8
0
 10
-52.462223
 20
-8.508251
 11
-38.662228
 21
-8.508251
  0
LINE
  8
0
 10
-52.462223
 20
-16.508251
 11
-38.662228
 21
-16.508251
  0
LINE
  8
0
 10
-37.562222
 20
-9.143341
 11
-37.562222
 21
-15.873165
  0
LINE
  8
0
 10
-53.562222
 20
-9.143333
 11
-53.562222
 21
-15.873165
  0
LINE
  8
0
 10
-41.562222
 20
-8.508251
 11
-41.562222
 21
-16.508251
  0
LINE
  8
0
 10
-49.562222
 20
-8.508251
 11
-49.562222
 21
-16.508251
  0
LINE
  8
0
 10
-53.562210
 20
-9.143343
 11
-52.462215
 21
-8.508261
  0
LINE
  8
0
  6
PHANTOM
 10
-55.534893
 20
-21.498249
 11
-36.202145
 21
-21.498249
  0
POINT
  8
0
  6
PHANTOM
 10
-45.562222
 20
28.501751
  0
POINT
  8
0
  6
PHANTOM
 10
-37.479321
 20
28.501751
  0
LINE
  8
0
  6
CENTER
 10
-45.562222
 20
40.167515
 11
-45.562222
 21
16.001751
  0
LINE
  8
0
  6
CENTER
 10
-67.985168
 20
28.501751
 11
-23.394789
 21
28.501751
  0
LINE
  8
0
 10
-49.603672
 20
35.501751
 11
-41.520763
 21
35.501751
  0
LINE
  8
0
 10
-49.603672
 20
21.501751
 11
-41.520763
 21
21.501751
  0
LINE
  8
0
 10
-53.645115
 20
28.501747
 11
-49.603661
 21
35.501747
  0
LINE
  8
0
 10
-41.520771
 20
21.501749
 11
-37.479321
 21
28.501743
  0
LINE
  8
0
 10
-53.645123
 20
28.501751
 11
-49.603668
 21
21.501747
  0
LINE
  8
0
 10
-41.520752
 20
35.501751
 11
-37.479305
 21
28.501760
  0
CIRCLE
  8
0
 10
-45.562222
 20
28.501751
 40
6.900000
  0
CIRCLE
  8
0
 10
-45.562222
 20
28.501751
 40
4.400286
  0
CIRCLE
  8
0
 10
-45.562222
 20
28.501751
 40
4.999990
  0
POINT
  8
0
 10
53.342407
 20
-29.240417
  0
POINT
  8
0
 10
46.758842
 20
-29.240417
  0
LINE
  8
0
 10
51.758842
 20
-2.240419
 11
51.758842
 21
-17.240419
  0
LINE
  8
0
 10
41.758842
 20
-2.240419
 11
41.758842
 21
-17.240419
  0
LINE
  8
0
 10
40.340874
 20
-35.240417
 11
53.176758
 21
-35.240417
  0
LINE
  8
0
 10
38.358849
 20
-2.240419
 11
55.237831
 21
-2.240419
  0
LINE
  8
0
 10
39.758842
 20
-24.240419
 11
53.758842
 21
-24.240419
  0
LINE
  8
0
 10
38.358849
 20
-17.240419
 11
55.198631
 21
-17.240419
  0
LINE
  8
0
 10
37.358849
 20
-2.487200
 11
37.358849
 21
-16.983133
  0
LINE
  8
0
 10
38.279846
 20
-2.240414
 11
37.358837
 21
-2.487198
  0
LINE
  8
0
 10
37.358845
 20
-16.983139
 11
38.319054
 21
-17.240427
  0
LINE
  8
0
 10
38.279861
 20
-2.240419
 11
37.358841
 21
-2.487206
  0
LINE
  8
0
  6
CENTER
 10
34.838005
 20
-29.240417
 11
59.559242
 21
-29.240417
  0
LINE
  8
0
 10
40.038097
 20
-24.253788
 11
40.340870
 21
-35.240421
  0
LINE
  8
0
 10
40.837811
 20
-24.231754
 11
41.141190
 21
-35.240421
  0
LINE
  8
0
 10
39.758842
 20
-17.240419
 11
39.758842
 21
-24.240419
  0
LINE
  8
0
  6
DASHED
 10
40.867867
 20
-13.240419
 11
46.758842
 21
-13.240419
  0
LINE
  8
0
  6
DASHED
 10
41.074005
 20
-2.232056
 11
41.667908
 21
-13.219267
  0
LINE
  8
0
  6
DASHED
 10
40.275169
 20
-2.275236
 11
40.869072
 21
-13.262446
  0
LINE
  8
0
  6
DASHED
 10
52.649818
 20
-13.240419
 11
46.758842
 21
-13.240419
  0
LINE
  8
0
  6
DASHED
 10
52.443703
 20
-2.232065
 11
51.849800
 21
-13.219275
  0
LINE
  8
0
  6
DASHED
 10
53.242535
 20
-2.275242
 11
52.648632
 21
-13.262452
  0
LINE
  8
0
 10
55.158836
 20
-2.240419
 11
38.279854
 21
-2.240419
  0
LINE
  8
0
 10
55.237823
 20
-2.240423
 11
56.158833
 21
-2.487204
  0
LINE
  8
0
 10
56.158836
 20
-2.487200
 11
56.158836
 21
-16.983133
  0
LINE
  8
0
 10
56.158825
 20
-16.983128
 11
55.198616
 21
-17.240417
  0
LINE
  8
0
 10
53.758842
 20
-17.240419
 11
53.758842
 21
-24.240419
  0
LINE
  8
0
 10
53.479534
 20
-24.253780
 11
53.176762
 21
-35.240421
  0
LINE
  8
0
 10
52.679825
 20
-24.231737
 11
52.376446
 21
-35.240421
  0
LINE
  8
0
  6
CENTER
 10
46.758842
 20
14.564861
 11
46.758842
 21
-41.573753
  0
POINT
  8
0
  6
CENTER
 10
46.758842
 20
40.759583
  0
POINT
  8
0
  6
CENTER
 10
56.573799
 20
40.759583
  0
LINE
  8
0
  6
CENTER
 10
46.758842
 20
58.690742
 11
46.758842
 21
24.603874
  0
LINE
  8
0
  6
CENTER
 10
21.671089
 20
40.759583
 11
71.671089
 21
40.759583
  0
LINE
  8
0
 10
51.666321
 20
32.259583
 11
56.573799
 21
40.759583
  0
LINE
  8
0
 10
36.943886
 20
40.759583
 11
41.851364
 21
49.259583
  0
LINE
  8
0
 10
36.943886
 20
40.759583
 11
41.851364
 21
32.259583
  0
LINE
  8
0
 10
51.666321
 20
49.259583
 11
56.573799
 21
40.759583
  0
LINE
  8
0
 10
41.851364
 20
32.259583
 11
51.666321
 21
32.259583
  0
LINE
  8
0
 10
41.851364
 20
49.259583
 11
51.666321
 21
49.259583
  0
CIRCLE
  8
0
 10
46.758842
 20
40.759583
 40
8.400000
  0
CIRCLE
  8
0
 10
46.758842
 20
40.759583
 40
4.000000
  0
CIRCLE
  8
0
 10
46.758842
 20
40.759583
 40
5.722500
  0
CIRCLE
  8
0
 10
46.758842
 20
40.759583
 40
6.522500
  0
POINT
  8
0
 10
147.484497
 20
-27.507378
  0
POINT
  8
0
 10
140.920593
 20
-27.507378
  0
LINE
  8
0
 10
146.820892
 20
-22.485571
 11
146.520905
 21
-33.485569
  0
LINE
  8
0
 10
135.020309
 20
-22.485571
 11
135.320312
 21
-33.485565
  0
LINE
  8
0
  6
CENTER
 10
140.920593
 20
5.792622
 11
140.920593
 21
-52.507378
  0
LINE
  8
0
  6
DASHED
 10
132.170578
 20
-8.507374
 11
132.545578
 21
-20.507374
  0
LINE
  8
0
  6
DASHED
 10
149.670593
 20
-8.507381
 11
149.295593
 21
-20.507381
  0
LINE
  8
0
  6
DASHED
 10
132.545593
 20
-20.507380
 11
149.295593
 21
-20.507380
  0
LINE
  8
0
  6
DASHED
 10
132.970993
 20
-8.507380
 11
133.345215
 21
-20.482393
  0
LINE
  8
0
  6
DASHED
 10
148.870209
 20
-8.507380
 11
148.495987
 21
-20.482393
  0
LINE
  8
0
 10
130.420593
 20
-8.507380
 11
151.420578
 21
-8.507380
  0
LINE
  8
0
 10
130.420578
 20
-22.507380
 11
151.420593
 21
-22.507380
  0
LINE
  8
0
 10
146.920593
 20
-8.507380
 11
146.920593
 21
-22.507380
  0
LINE
  8
0
 10
134.920593
 20
-8.507380
 11
134.920593
 21
-22.507380
  0
LINE
  8
0
 10
129.220596
 20
-8.828920
 11
130.420609
 21
-8.507378
  0
LINE
  8
0
 10
151.420593
 20
-22.507374
 11
152.620590
 21
-22.185837
  0
LINE
  8
0
 10
151.420578
 20
-8.507383
 11
152.620590
 21
-8.828924
  0
LINE
  8
0
 10
129.220596
 20
-22.185831
 11
130.420578
 21
-22.507366
  0
LINE
  8
0
  6
CENTER
 10
130.776871
 20
-27.507378
 11
152.191025
 21
-27.507378
  0
LINE
  8
0
 10
134.520599
 20
-33.507378
 11
147.320587
 21
-33.507378
  0
LINE
  8
0
 10
134.220612
 20
-22.507381
 11
134.520615
 21
-33.507378
  0
LINE
  8
0
 10
147.620605
 20
-22.507381
 11
147.320602
 21
-33.507378
  0
LINE
  8
0
 10
152.620590
 20
-8.828922
 11
152.620590
 21
-22.185835
  0
LINE
  8
0
 10
129.220596
 20
-8.828917
 11
129.220596
 21
-22.185831
  0
POINT
  8
0
 10
140.920593
 20
39.492622
  0
POINT
  8
0
 10
152.620590
 20
39.492622
  0
LINE
  8
0
  6
CENTER
 10
140.920593
 20
55.792622
 11
140.920593
 21
25.492622
  0
LINE
  8
0
  6
CENTER
 10
105.070595
 20
39.492622
 11
174.270599
 21
39.492622
  0
LINE
  8
0
 10
129.220596
 20
38.757618
 11
134.434067
 21
29.727627
  0
LINE
  8
0
 10
147.407120
 20
49.257618
 11
152.620590
 21
40.227627
  0
LINE
  8
0
 10
129.220596
 20
40.227627
 11
134.434067
 21
49.257618
  0
LINE
  8
0
 10
147.407120
 20
29.727627
 11
152.620590
 21
38.757618
  0
LINE
  8
0
 10
135.707123
 20
28.992622
 11
146.134064
 21
28.992622
  0
LINE
  8
0
 10
135.707123
 20
49.992622
 11
146.134064
 21
49.992622
  0
LINE
  8
0
 10
134.434052
 20
49.257622
 11
135.707123
 21
49.992626
  0
LINE
  8
0
 10
146.134064
 20
28.992619
 11
147.407135
 21
29.727625
  0
LINE
  8
0
 10
129.220596
 20
40.227627
 11
129.220596
 21
38.757618
  0
LINE
  8
0
 10
152.620590
 20
40.227627
 11
152.620590
 21
38.757618
  0
LINE
  8
0
 10
134.434067
 20
29.727627
 11
135.707123
 21
28.992622
  0
LINE
  8
0
 10
146.134064
 20
49.992622
 11
147.407120
 21
49.257618
  0
CIRCLE
  8
0
 10
140.920593
 20
39.492622
 40
10.500000
  0
CIRCLE
  8
0
 10
140.920593
 20
39.492622
 40
8.750009
  0
CIRCLE
  8
0
 10
140.920593
 20
39.492622
 40
7.950386
  0
CIRCLE
  8
0
 10
140.920593
 20
39.492622
 40
3.900000
  0
POINT
  8
0
 10
241.646240
 20
-24.618980
  0
POINT
  8
0
 10
235.082336
 20
-24.618980
  0
LINE
  8
0
  6
DASHED
 10
245.782333
 20
-0.618980
 11
245.313583
 21
-15.618977
  0
LINE
  8
0
  6
DASHED
 10
224.851089
 20
-15.618982
 11
245.313583
 21
-15.618982
  0
LINE
  8
0
  6
CENTER
 10
235.082336
 20
14.781017
 11
235.082336
 21
-45.118980
  0
LINE
  8
0
 10
228.682343
 20
-30.618982
 11
241.482330
 21
-30.618982
  0
LINE
  8
0
 10
228.382355
 20
-19.618996
 11
228.682358
 21
-30.618986
  0
LINE
  8
0
 10
241.782333
 20
-19.618984
 11
241.482346
 21
-30.618982
  0
LINE
  8
0
 10
229.182053
 20
-19.597178
 11
229.482056
 21
-30.597168
  0
LINE
  8
0
 10
240.982635
 20
-19.597174
 11
240.682632
 21
-30.597172
  0
LINE
  8
0
  6
CENTER
 10
224.938614
 20
-24.618980
 11
246.352768
 21
-24.618980
  0
LINE
  8
0
 10
223.082336
 20
-0.618982
 11
247.082336
 21
-0.618982
  0
LINE
  8
0
 10
223.082336
 20
-0.618982
 11
223.082336
 21
-10.618982
  0
LINE
  8
0
 10
247.082336
 20
-0.618982
 11
247.082336
 21
-10.618982
  0
LINE
  8
0
 10
223.082336
 20
-10.618982
 11
247.082336
 21
-10.618982
  0
LINE
  8
0
 10
223.082352
 20
-19.618982
 11
247.082321
 21
-19.618982
  0
LINE
  8
0
 10
241.982330
 20
-10.618982
 11
241.982330
 21
-19.618982
  0
LINE
  8
0
 10
228.182343
 20
-10.618982
 11
228.182343
 21
-19.618982
  0
LINE
  8
0
 10
221.832336
 20
-10.953915
 11
223.082336
 21
-10.618978
  0
LINE
  8
0
 10
247.082321
 20
-19.618969
 11
248.332336
 21
-19.284027
  0
LINE
  8
0
 10
247.082336
 20
-10.618985
 11
248.332336
 21
-10.953919
  0
LINE
  8
0
 10
221.832336
 20
-19.284044
 11
223.082352
 21
-19.618984
  0
LINE
  8
0
  6
DASHED
 10
244.632904
 20
-0.583059
 11
244.164154
 21
-15.583057
  0
LINE
  8
0
  6
DASHED
 10
224.382339
 20
-0.618980
 11
224.851089
 21
-15.618977
  0
LINE
  8
0
  6
DASHED
 10
225.531769
 20
-0.583059
 11
226.000519
 21
-15.583057
  0
LINE
  8
0
 10
248.332336
 20
-10.953916
 11
248.332336
 21
-19.284027
  0
LINE
  8
0
 10
221.832336
 20
-10.953912
 11
221.832336
 21
-19.284042
  0
POINT
  8
0
 10
235.082336
 20
37.381020
  0
POINT
  8
0
 10
248.332336
 20
37.381020
  0
LINE
  8
0
  6
CENTER
 10
235.082336
 20
60.146763
 11
235.082336
 21
19.781021
  0
LINE
  8
0
  6
CENTER
 10
209.238708
 20
37.381020
 11
265.084717
 21
37.381020
  0
LINE
  8
0
 10
229.366943
 20
25.381020
 11
240.797729
 21
25.381020
  0
LINE
  8
0
 10
229.366943
 20
49.381020
 11
240.797729
 21
49.381020
  0
LINE
  8
0
 10
221.832336
 20
38.431347
 11
227.547729
 21
48.330696
  0
LINE
  8
0
 10
242.616943
 20
26.431347
 11
248.332336
 21
36.330688
  0
LINE
  8
0
 10
221.832336
 20
36.330688
 11
227.547729
 21
26.431347
  0
LINE
  8
0
 10
242.616943
 20
48.330696
 11
248.332336
 21
38.431347
  0
LINE
  8
0
 10
240.797729
 20
25.381018
 11
242.616943
 21
26.431343
  0
LINE
  8
0
 10
227.547729
 20
48.330696
 11
229.366943
 21
49.381023
  0
LINE
  8
0
 10
221.832336
 20
38.431347
 11
221.832336
 21
36.330692
  0
LINE
  8
0
 10
248.332336
 20
38.431347
 11
248.332336
 21
36.330692
  0
LINE
  8
0
 10
227.547729
 20
26.431347
 11
229.366943
 21
25.381020
  0
LINE
  8
0
 10
240.797729
 20
49.381020
 11
242.616943
 21
48.330692
  0
CIRCLE
  8
0
 10
235.082336
 20
37.381020
 40
9.550000
  0
CIRCLE
  8
0
 10
235.082336
 20
37.381020
 40
12.000000
  0
CIRCLE
  8
0
 10
235.082336
 20
37.381020
 40
4.000000
  0
CIRCLE
  8
0
 10
235.082336
 20
37.381020
 40
10.700000
  0
POINT
  8
0
 10
-220.510681
 20
-153.640610
  0
POINT
  8
0
 10
-228.794250
 20
-153.640610
  0
LINE
  8
0
  6
CENTER
 10
-240.308762
 20
-153.640610
 11
-216.239670
 21
-153.640610
  0
LINE
  8
0
 10
-236.996765
 20
-160.140610
 11
-220.591736
 21
-160.140610
  0
LINE
  8
0
 10
-237.149948
 20
-148.140610
 11
-220.329544
 21
-148.140610
  0
LINE
  8
0
 10
-237.173508
 20
-142.640610
 11
-220.414978
 21
-142.640610
  0
LINE
  8
0
 10
-238.194244
 20
-142.914108
 11
-238.194244
 21
-147.889999
  0
LINE
  8
0
 10
-237.173508
 20
-142.640594
 11
-238.194244
 21
-142.914108
  0
LINE
  8
0
 10
-238.194244
 20
-147.889999
 11
-237.258942
 21
-148.140610
  0
LINE
  8
0
  6
CENTER
 10
-228.794250
 20
-136.097397
 11
-228.794250
 21
-168.135666
  0
LINE
  8
0
 10
-237.149689
 20
-148.160950
 11
-236.996765
 21
-160.140610
  0
LINE
  8
0
 10
-236.149780
 20
-148.148178
 11
-235.996674
 21
-160.140610
  0
LINE
  8
0
  6
DASHED
 10
-233.427002
 20
-150.640610
 11
-228.794250
 21
-150.640610
  0
LINE
  8
0
  6
DASHED
 10
-233.084793
 20
-142.678925
 11
-232.826691
 21
-150.640610
  0
LINE
  8
0
  6
DASHED
 10
-233.684479
 20
-142.698364
 11
-233.426376
 21
-150.660049
  0
LINE
  8
0
 10
-233.794250
 20
-142.640610
 11
-233.794250
 21
-148.140610
  0
LINE
  8
0
  6
DASHED
 10
-224.161499
 20
-150.640610
 11
-228.794250
 21
-150.640610
  0
LINE
  8
0
  6
DASHED
 10
-224.503708
 20
-142.678925
 11
-224.761810
 21
-150.640610
  0
LINE
  8
0
  6
DASHED
 10
-223.904022
 20
-142.698364
 11
-224.162125
 21
-150.660049
  0
LINE
  8
0
 10
-223.794250
 20
-142.640610
 11
-223.794250
 21
-148.140610
  0
LINE
  8
0
 10
-220.414993
 20
-142.640610
 11
-219.394257
 21
-142.914108
  0
LINE
  8
0
 10
-219.394257
 20
-142.914108
 11
-219.394257
 21
-147.889999
  0
LINE
  8
0
 10
-219.394257
 20
-147.889999
 11
-220.329559
 21
-148.140625
  0
LINE
  8
0
 10
-220.438812
 20
-148.160950
 11
-220.591736
 21
-160.140610
  0
LINE
  8
0
 10
-221.438721
 20
-148.148178
 11
-221.591827
 21
-160.140610
  0
POINT
  8
0
 10
-104.389389
 20
-155.174530
  0
POINT
  8
0
 10
-112.680679
 20
-155.174530
  0
LINE
  8
0
  6
CENTER
 10
-112.681175
 20
-129.591980
 11
-112.680412
 21
-169.153107
  0
LINE
  8
0
 10
-107.680984
 20
-139.174438
 11
-107.680786
 21
-149.674438
  0
LINE
  8
0
 10
-120.725693
 20
-161.674683
 11
-104.635429
 21
-161.674377
  0
LINE
  8
0
 10
-121.200165
 20
-149.674698
 11
-104.161438
 21
-149.674362
  0
LINE
  8
0
 10
-121.080994
 20
-139.174683
 11
-104.317642
 21
-139.174362
  0
LINE
  8
0
 10
-122.080986
 20
-139.452484
 11
-122.080795
 21
-149.438736
  0
LINE
  8
0
 10
-121.044350
 20
-139.174698
 11
-122.081001
 21
-139.452484
  0
LINE
  8
0
 10
-122.080795
 20
-149.438751
 11
-121.200165
 21
-149.674698
  0
LINE
  8
0
 10
-117.680984
 20
-139.174622
 11
-117.680786
 21
-149.674622
  0
LINE
  8
0
  6
CENTER
 10
-127.054077
 20
-155.174805
 11
-97.256134
 21
-155.174225
  0
LINE
  8
0
 10
-121.190826
 20
-149.680313
 11
-120.725693
 21
-161.674683
  0
LINE
  8
0
 10
-120.190285
 20
-149.674667
 11
-119.724930
 21
-161.674667
  0
LINE
  8
0
  6
DASHED
 10
-118.830826
 20
-150.174652
 11
-112.680779
 21
-150.174530
  0
LINE
  8
0
  6
DASHED
 10
-118.390678
 20
-139.222534
 11
-118.030396
 21
-150.174637
  0
LINE
  8
0
  6
DASHED
 10
-119.190239
 20
-139.248840
 11
-118.829956
 21
-150.200943
  0
LINE
  8
0
  6
DASHED
 10
-106.530724
 20
-150.174408
 11
-112.680779
 21
-150.174530
  0
LINE
  8
0
  6
DASHED
 10
-106.971298
 20
-139.222321
 11
-107.331161
 21
-150.174423
  0
LINE
  8
0
  6
DASHED
 10
-106.171753
 20
-139.248596
 11
-106.531601
 21
-150.200699
  0
LINE
  8
0
 10
-103.280991
 20
-139.452118
 11
-103.280792
 21
-149.438370
  0
LINE
  8
0
 10
-104.317650
 20
-139.174377
 11
-103.280991
 21
-139.452118
  0
LINE
  8
0
 10
-103.280777
 20
-149.438385
 11
-104.161438
 21
-149.674362
  0
LINE
  8
0
 10
-104.170731
 20
-149.679977
 11
-104.635429
 21
-161.674377
  0
LINE
  8
0
 10
-105.171234
 20
-149.674377
 11
-105.636116
 21
-161.674393
  0
POINT
  8
0
 10
7.117923
 20
-161.708466
  0
POINT
  8
0
 10
-1.188550
 20
-161.708466
  0
LINE
  8
0
  6
CENTER
 10
-1.188550
 20
-118.652710
 11
-1.188550
 21
-171.708466
  0
LINE
  8
0
 10
10.511455
 20
-131.643143
 11
10.511455
 21
-146.891388
  0
LINE
  8
0
 10
-9.306861
 20
-168.208466
 11
6.929790
 21
-168.208466
  0
LINE
  8
0
 10
-9.688558
 20
-156.208466
 11
7.311458
 21
-156.208466
  0
LINE
  8
0
 10
-11.588552
 20
-147.208466
 11
9.328097
 21
-147.208466
  0
LINE
  8
0
 10
-11.588552
 20
-131.208466
 11
8.889209
 21
-131.208466
  0
LINE
  8
0
 10
-12.888555
 20
-131.643143
 11
-12.888555
 21
-146.891388
  0
LINE
  8
0
 10
-9.688558
 20
-147.208466
 11
-9.688558
 21
-156.208466
  0
LINE
  8
0
 10
-11.588552
 20
-131.294800
 11
-12.888550
 21
-131.643143
  0
LINE
  8
0
 10
-12.888548
 20
-146.891373
 11
-11.705202
 21
-147.208450
  0
LINE
  8
0
  6
CENTER
 10
-16.458439
 20
-161.708466
 11
15.557780
 21
-161.708466
  0
LINE
  8
0
 10
-9.661974
 20
-156.223343
 11
-9.306860
 21
-168.208466
  0
LINE
  8
0
 10
-8.662430
 20
-156.193726
 11
-8.306438
 21
-168.208466
  0
LINE
  8
0
 10
-7.188550
 20
-131.208466
 11
-7.188550
 21
-147.208466
  0
LINE
  8
0
 10
-11.588552
 20
-147.208466
 11
9.328097
 21
-147.208466
  0
LINE
  8
0
 10
-11.588552
 20
-147.208466
 11
9.328082
 21
-147.208466
  0
LINE
  8
0
  6
DASHED
 10
-8.680149
 20
-131.233536
 11
-8.273683
 21
-143.208466
  0
LINE
  8
0
  6
DASHED
 10
-9.274282
 20
-143.208466
 11
-1.188550
 21
-143.208466
  0
LINE
  8
0
  6
DASHED
 10
-9.679600
 20
-131.267471
 11
-9.274285
 21
-143.208466
  0
LINE
  8
0
 10
7.311458
 20
-147.208466
 11
7.311458
 21
-156.208466
  0
LINE
  8
0
 10
6.285346
 20
-156.193726
 11
5.929355
 21
-168.208466
  0
LINE
  8
0
 10
7.284904
 20
-156.223343
 11
6.929790
 21
-168.208466
  0
LINE
  8
0
 10
4.811450
 20
-131.208466
 11
4.811450
 21
-147.208466
  0
LINE
  8
0
  6
DASHED
 10
6.303054
 20
-131.233536
 11
5.896590
 21
-143.208450
  0
LINE
  8
0
  6
DASHED
 10
7.302516
 20
-131.267456
 11
6.897197
 21
-143.208466
  0
LINE
  8
0
  6
DASHED
 10
6.897182
 20
-143.208466
 11
-1.188550
 21
-143.208466
  0
LINE
  8
0
 10
8.889213
 20
-131.208466
 11
10.511458
 21
-131.643143
  0
LINE
  8
0
 10
10.511446
 20
-146.891373
 11
9.328108
 21
-147.208450
  0
POINT
  8
0
 10
110.303581
 20
-159.975418
  0
POINT
  8
0
 10
118.620285
 20
-159.975418
  0
LINE
  8
0
 10
118.004059
 20
-154.448761
 11
117.604065
 21
-166.448761
  0
LINE
  8
0
  6
CENTER
 10
97.535255
 20
-159.975418
 11
122.516380
 21
-159.975418
  0
LINE
  8
0
  6
CENTER
 10
110.303581
 20
-116.975418
 11
110.303581
 21
-179.975418
  0
LINE
  8
0
  6
DASHED
 10
100.072334
 20
-150.475418
 11
120.534828
 21
-150.475418
  0
LINE
  8
0
  6
DASHED
 10
99.603584
 20
-135.475418
 11
100.072334
 21
-150.475418
  0
LINE
  8
0
  6
DASHED
 10
121.003571
 20
-135.475418
 11
120.534821
 21
-150.475418
  0
LINE
  8
0
  6
DASHED
 10
100.753021
 20
-135.439499
 11
101.221771
 21
-150.439499
  0
LINE
  8
0
  6
DASHED
 10
119.854156
 20
-135.439499
 11
119.385406
 21
-150.439499
  0
LINE
  8
0
 10
102.203583
 20
-166.475418
 11
118.403587
 21
-166.475418
  0
LINE
  8
0
 10
98.303581
 20
-135.475418
 11
122.303581
 21
-135.475418
  0
LINE
  8
0
 10
98.303581
 20
-145.475418
 11
122.303581
 21
-145.475418
  0
LINE
  8
0
 10
98.303581
 20
-154.475418
 11
122.303581
 21
-154.475418
  0
LINE
  8
0
 10
98.303581
 20
-135.475418
 11
98.303581
 21
-145.475418
  0
LINE
  8
0
 10
117.203575
 20
-145.475418
 11
117.203575
 21
-154.475418
  0
LINE
  8
0
 10
103.403580
 20
-145.475418
 11
103.403580
 21
-154.475418
  0
LINE
  8
0
 10
122.303581
 20
-135.475418
 11
122.303581
 21
-145.475418
  0
LINE
  8
0
 10
97.053581
 20
-145.810349
 11
98.303535
 21
-145.475418
  0
LINE
  8
0
 10
122.303574
 20
-154.475403
 11
123.553581
 21
-154.140472
  0
LINE
  8
0
 10
122.303574
 20
-145.475418
 11
123.553581
 21
-145.810364
  0
LINE
  8
0
 10
97.053581
 20
-154.140472
 11
98.303589
 21
-154.475403
  0
LINE
  8
0
 10
101.803581
 20
-154.475418
 11
102.203583
 21
-166.475418
  0
LINE
  8
0
 10
118.803619
 20
-154.475418
 11
118.403625
 21
-166.475433
  0
LINE
  8
0
 10
102.603142
 20
-154.448761
 11
103.003143
 21
-166.448761
  0
LINE
  8
0
 10
123.553581
 20
-145.810349
 11
123.553581
 21
-154.140457
  0
LINE
  8
0
 10
97.053581
 20
-145.810333
 11
97.053581
 21
-154.140472
  0
POINT
  8
0
 10
110.303581
 20
-89.975418
  0
POINT
  8
0
 10
124.159981
 20
-89.975418
  0
LINE
  8
0
  6
CENTER
 10
110.303581
 20
-73.675415
 11
110.303581
 21
-103.975418
  0
LINE
  8
0
  6
CENTER
 10
74.453583
 20
-89.975418
 11
143.653595
 21
-89.975418
  0
LINE
  8
0
 10
103.375381
 20
-101.975418
 11
117.231789
 21
-101.975418
  0
LINE
  8
0
 10
103.375381
 20
-77.975418
 11
117.231789
 21
-77.975418
  0
LINE
  8
0
 10
96.447174
 20
-89.975426
 11
103.375374
 21
-77.975426
  0
LINE
  8
0
 10
117.231804
 20
-101.975426
 11
124.160004
 21
-89.975426
  0
LINE
  8
0
 10
96.447182
 20
-89.975418
 11
103.375389
 21
-101.975418
  0
LINE
  8
0
 10
117.231796
 20
-77.975403
 11
124.159996
 21
-89.975403
  0
CIRCLE
  8
0
 10
110.303581
 20
-89.975418
 40
9.550000
  0
CIRCLE
  8
0
 10
110.303581
 20
-89.975418
 40
12.000000
  0
CIRCLE
  8
0
 10
110.303581
 20
-89.975418
 40
5.000000
  0
CIRCLE
  8
0
 10
110.303581
 20
-89.975418
 40
10.700000
  0
POINT
  8
0
 10
224.106430
 20
-149.397736
  0
POINT
  8
0
 10
234.533661
 20
-149.397736
  0
LINE
  8
0
 10
230.106430
 20
-114.397736
 11
230.106430
 21
-133.397736
  0
LINE
  8
0
 10
213.986893
 20
-157.397736
 11
234.225967
 21
-157.397736
  0
LINE
  8
0
 10
213.406433
 20
-142.397736
 11
234.806427
 21
-142.397736
  0
LINE
  8
0
 10
212.206436
 20
-114.397736
 11
236.006424
 21
-114.397736
  0
LINE
  8
0
 10
210.856430
 20
-114.759468
 11
210.856430
 21
-133.036011
  0
LINE
  8
0
 10
212.206436
 20
-133.397736
 11
236.006439
 21
-133.397736
  0
LINE
  8
0
  6
DASHED
 10
214.147186
 20
-129.397736
 11
224.106430
 21
-129.397736
  0
LINE
  8
0
  6
DASHED
 10
214.772873
 20
-114.439529
 11
215.247742
 21
-129.397736
  0
LINE
  8
0
  6
DASHED
 10
213.673431
 20
-114.474426
 11
214.147186
 21
-129.397736
  0
LINE
  8
0
 10
213.406433
 20
-133.397736
 11
213.406433
 21
-142.397736
  0
LINE
  8
0
 10
218.106430
 20
-114.397736
 11
218.106430
 21
-133.397736
  0
LINE
  8
0
  6
CENTER
 10
224.106430
 20
-110.533211
 11
224.106430
 21
-161.946686
  0
LINE
  8
0
 10
213.410461
 20
-142.410294
 11
213.986893
 21
-157.397736
  0
LINE
  8
0
 10
214.509644
 20
-142.368011
 11
215.087708
 21
-157.397736
  0
LINE
  8
0
 10
234.806427
 20
-133.397736
 11
234.806427
 21
-142.397736
  0
LINE
  8
0
 10
234.802399
 20
-142.410294
 11
234.225967
 21
-157.397736
  0
LINE
  8
0
 10
233.703217
 20
-142.368011
 11
233.125153
 21
-157.397736
  0
LINE
  8
0
 10
237.356430
 20
-114.917374
 11
237.356430
 21
-133.036011
  0
LINE
  8
0
  6
DASHED
 10
234.539444
 20
-114.474426
 11
234.065689
 21
-129.397736
  0
LINE
  8
0
  6
DASHED
 10
233.439987
 20
-114.439529
 11
232.965118
 21
-129.397736
  0
LINE
  8
0
  6
DASHED
 10
234.065674
 20
-129.397736
 11
224.106430
 21
-129.397736
  0
LINE
  8
0
  6
CENTER
 10
205.053589
 20
-149.397736
 11
239.992615
 21
-149.397736
  0
LINE
  8
0
 10
212.206436
 20
-114.397736
 11
210.856430
 21
-114.759468
  0
LINE
  8
0
 10
236.006424
 20
-114.397736
 11
237.356430
 21
-114.759468
  0
LINE
  8
0
 10
210.856430
 20
-133.036011
 11
212.206436
 21
-133.397736
  0
LINE
  8
0
 10
237.356430
 20
-133.036011
 11
236.006439
 21
-133.397736
  0
POINT
  8
0
 10
224.106430
 20
-89.397743
  0
POINT
  8
0
 10
237.356430
 20
-89.397743
  0
LINE
  8
0
  6
CENTER
 10
224.106430
 20
-72.893311
 11
224.106430
 21
-106.150452
  0
LINE
  8
0
  6
CENTER
 10
194.104233
 20
-89.397743
 11
254.104233
 21
-89.397743
  0
LINE
  8
0
 10
218.391037
 20
-77.397743
 11
229.821823
 21
-77.397743
  0
LINE
  8
0
 10
218.391037
 20
-101.397743
 11
229.821823
 21
-101.397743
  0
LINE
  8
0
 10
231.641037
 20
-100.347420
 11
237.356430
 21
-90.448074
  0
LINE
  8
0
 10
210.856430
 20
-88.347412
 11
216.571823
 21
-78.448067
  0
LINE
  8
0
 10
237.356430
 20
-88.347420
 11
231.641037
 21
-78.448074
  0
LINE
  8
0
 10
216.571823
 20
-100.347412
 11
210.856430
 21
-90.448067
  0
LINE
  8
0
 10
229.821823
 20
-101.397743
 11
231.641037
 21
-100.347420
  0
LINE
  8
0
 10
216.571823
 20
-78.448067
 11
218.391037
 21
-77.397743
  0
LINE
  8
0
 10
237.356430
 20
-88.347420
 11
237.356430
 21
-90.448067
  0
LINE
  8
0
 10
210.856430
 20
-88.347420
 11
210.856430
 21
-90.448067
  0
LINE
  8
0
 10
229.821823
 20
-77.397743
 11
231.641037
 21
-78.448074
  0
LINE
  8
0
 10
216.571823
 20
-100.347412
 11
218.391037
 21
-101.397743
  0
CIRCLE
  8
0
 10
224.106430
 20
-89.397743
 40
10.700000
  0
CIRCLE
  8
0
 10
224.106430
 20
-89.397743
 40
9.315500
  0
CIRCLE
  8
0
 10
224.106430
 20
-89.397743
 40
5.500000
  0
CIRCLE
  8
0
 10
224.106430
 20
-89.397743
 40
11.900000
  0
POINT
  8
0
 10
-112.680679
 20
-95.174538
  0
POINT
  8
0
 10
-103.280678
 20
-95.174538
  0
LINE
  8
0
  6
CENTER
 10
-137.347336
 20
-95.174538
 11
-87.347336
 21
-95.174538
  0
LINE
  8
0
  6
CENTER
 10
-112.680679
 20
-77.595871
 11
-112.680679
 21
-113.440010
  0
LINE
  8
0
 10
-107.358246
 20
-102.955818
 11
-103.280678
 21
-95.893265
  0
LINE
  8
0
 10
-122.080681
 20
-94.455811
 11
-118.003113
 21
-87.393257
  0
LINE
  8
0
 10
-118.003113
 20
-102.955811
 11
-122.080681
 21
-95.893257
  0
LINE
  8
0
 10
-103.280678
 20
-94.455818
 11
-107.358246
 21
-87.393265
  0
LINE
  8
0
 10
-116.758247
 20
-86.674538
 11
-108.603111
 21
-86.674538
  0
LINE
  8
0
 10
-116.758247
 20
-103.674538
 11
-108.603111
 21
-103.674538
  0
LINE
  8
0
 10
-118.003113
 20
-87.393257
 11
-116.758247
 21
-86.674538
  0
LINE
  8
0
 10
-108.603111
 20
-103.674538
 11
-107.358246
 21
-102.955818
  0
LINE
  8
0
 10
-122.080681
 20
-94.455811
 11
-122.080681
 21
-95.893257
  0
LINE
  8
0
 10
-103.280678
 20
-94.455818
 11
-103.280678
 21
-95.893265
  0
LINE
  8
0
 10
-118.003113
 20
-102.955811
 11
-116.758247
 21
-103.674538
  0
LINE
  8
0
 10
-108.603111
 20
-86.674538
 11
-107.358246
 21
-87.393265
  0
CIRCLE
  8
0
 10
-112.680679
 20
-95.174538
 40
4.000000
  0
CIRCLE
  8
0
 10
-112.680679
 20
-95.174538
 40
5.722500
  0
CIRCLE
  8
0
 10
-112.680679
 20
-95.174538
 40
6.522500
  0
CIRCLE
  8
0
 10
-112.680679
 20
-95.174538
 40
8.400000
  0
POINT
  8
0
 10
-1.188550
 20
-91.708458
  0
POINT
  8
0
 10
10.511450
 20
-91.708458
  0
LINE
  8
0
  6
CENTER
 10
-1.188550
 20
-70.204025
 11
-1.188550
 21
-111.199509
  0
LINE
  8
0
  6
CENTER
 10
-31.190754
 20
-91.708458
 11
28.809254
 21
-91.708458
  0
LINE
  8
0
 10
5.297983
 20
-101.473450
 11
10.511450
 21
-92.443466
  0
LINE
  8
0
 10
-12.888550
 20
-90.973450
 11
-7.675082
 21
-81.943466
  0
LINE
  8
0
 10
-7.675085
 20
-101.473450
 11
-12.888550
 21
-92.443459
  0
LINE
  8
0
 10
10.511450
 20
-90.973457
 11
5.297985
 21
-81.943466
  0
LINE
  8
0
 10
-6.402016
 20
-102.208458
 11
4.024917
 21
-102.208458
  0
LINE
  8
0
 10
-6.402017
 20
-81.208458
 11
4.024916
 21
-81.208458
  0
LINE
  8
0
 10
-7.675083
 20
-81.943459
 11
-6.402018
 21
-81.208458
  0
LINE
  8
0
 10
4.024919
 20
-102.208458
 11
5.297984
 21
-101.473457
  0
LINE
  8
0
 10
10.511450
 20
-90.973457
 11
10.511450
 21
-92.443466
  0
LINE
  8
0
 10
-12.888550
 20
-90.973450
 11
-12.888550
 21
-92.443459
  0
LINE
  8
0
 10
4.024916
 20
-81.208458
 11
5.297985
 21
-81.943466
  0
LINE
  8
0
 10
-7.675085
 20
-101.473450
 11
-6.402016
 21
-102.208458
  0
CIRCLE
  8
0
 10
-1.188550
 20
-91.708458
 40
8.475000
  0
CIRCLE
  8
0
 10
-1.188550
 20
-91.708458
 40
5.000000
  0
CIRCLE
  8
0
 10
-1.188550
 20
-91.708458
 40
7.475000
  0
CIRCLE
  8
0
 10
-1.188550
 20
-91.708458
 40
10.500000
  0
POINT
  8
0
 10
-228.794250
 20
-98.640610
  0
POINT
  8
0
 10
-219.394257
 20
-98.640610
  0
LINE
  8
0
  6
CENTER
 10
-228.794250
 20
-82.160309
 11
-228.794250
 21
-115.653603
  0
LINE
  8
0
  6
CENTER
 10
-253.424774
 20
-98.640610
 11
-203.424774
 21
-98.640610
  0
LINE
  8
0
 10
-223.471817
 20
-106.421890
 11
-219.394257
 21
-99.359337
  0
LINE
  8
0
 10
-238.194244
 20
-97.921883
 11
-234.116684
 21
-90.859329
  0
LINE
  8
0
 10
-234.116684
 20
-106.421883
 11
-238.194244
 21
-99.359329
  0
LINE
  8
0
 10
-219.394257
 20
-97.921890
 11
-223.471817
 21
-90.859337
  0
LINE
  8
0
 10
-232.871826
 20
-90.140610
 11
-224.716690
 21
-90.140610
  0
LINE
  8
0
 10
-232.871811
 20
-107.140610
 11
-224.716675
 21
-107.140610
  0
LINE
  8
0
 10
-223.471817
 20
-106.421890
 11
-224.716675
 21
-107.140610
  0
LINE
  8
0
 10
-232.871826
 20
-90.140610
 11
-234.116684
 21
-90.859329
  0
LINE
  8
0
 10
-238.194244
 20
-97.921890
 11
-238.194244
 21
-99.359329
  0
LINE
  8
0
 10
-219.394257
 20
-97.921890
 11
-219.394257
 21
-99.359329
  0
LINE
  8
0
 10
-223.471817
 20
-90.859337
 11
-224.716690
 21
-90.140610
  0
LINE
  8
0
 10
-232.871811
 20
-107.140610
 11
-234.116684
 21
-106.421883
  0
CIRCLE
  8
0
 10
-228.794250
 20
-98.640610
 40
3.000000
  0
CIRCLE
  8
0
 10
-228.800125
 20
-98.625748
 40
4.883000
  0
CIRCLE
  8
0
 10
-228.800125
 20
-98.625748
 40
4.283000
  0
CIRCLE
  8
0
 10
-228.764923
 20
-98.635406
 40
8.400000
  0
ENDSEC
  0
EOF
