  0
SECTION
  2
HEADER
  9
$ACADVER
  1
AC1012
  9
$DWGCODEPAGE
  3
dos932
  9
$INSBASE
 10
0.0
 20
0.0
 30
0.0
  9
$EXTMIN
 10
-281.25
 20
-195.0
 30
0.0
  9
$EXTMAX
 10
282.10000000000002
 20
195.5
 30
0.0
  9
$LIMMIN
 10
-281.25
 20
-195.0
  9
$LIMMAX
 10
282.10000000000002
 20
195.5
  9
$ORTHOMODE
 70
               0
  9
$REGENMODE
 70
               1
  9
$FILLMODE
 70
               1
  9
$QTEXTMODE
 70
               0
  9
$MIRRTEXT
 70
               1
  9
$DRAGMODE
 70
               2
  9
$LTSCALE
 40
1.0
  9
$OSMODE
 70
               0
  9
$ATTMODE
 70
               1
  9
$TEXTSIZE
 40
3.2000000476837158
  9
$TRACEWID
 40
0.05
  9
$TEXTSTYLE
  7
MX_NOTE_STANDARD
  9
$CLAYER
  8
0
  9
$CELTYPE
  6
CONTINUOUS
  9
$CECOLOR
 62
             256
  9
$CELTSCALE
 40
1.0
  9
$DELOBJ
 70
               1
  9
$DISPSILH
 70
               0
  9
$DIMSCALE
 40
1.0
  9
$DIMASZ
 40
2.5
  9
$DIMEXO
 40
1.5
  9
$DIMDLI
 40
3.75
  9
$DIMRND
 40
0.0
  9
$DIMDLE
 40
0.0
  9
$DIMEXE
 40
1.5
  9
$DIMTP
 40
0.0
  9
$DIMTM
 40
0.0
  9
$DIMTXT
 40
3.2000000476837158
  9
$DIMCEN
 40
2.5
  9
$DIMTSZ
 40
0.0
  9
$DIMTOL
 70
               0
  9
$DIMLIM
 70
               0
  9
$DIMTIH
 70
               0
  9
$DIMTOH
 70
               0
  9
$DIMSE1
 70
               0
  9
$DIMSE2
 70
               0
  9
$DIMTAD
 70
               1
  9
$DIMZIN
 70
               8
  9
$DIMBLK
  1

  9
$DIMASO
 70
               1
  9
$DIMSHO
 70
               1
  9
$DIMPOST
  1

  9
$DIMAPOST
  1

  9
$DIMALT
 70
               0
  9
$DIMALTD
 70
               4
  9
$DIMALTF
 40
0.0394
  9
$DIMLFAC
 40
1.0
  9
$DIMTOFL
 70
               1
  9
$DIMTVP
 40
0.0
  9
$DIMTIX
 70
               0
  9
$DIMSOXD
 70
               0
  9
$DIMSAH
 70
               0
  9
$DIMBLK1
  1

  9
$DIMBLK2
  1

  9
$DIMSTYLE
  2
MXDIMSTYLE
  9
$DIMCLRD
 70
               0
  9
$DIMCLRE
 70
               0
  9
$DIMCLRT
 70
               0
  9
$DIMTFAC
 40
1.0
  9
$DIMGAP
 40
1.0
  9
$DIMJUST
 70
               0
  9
$DIMSD1
 70
               0
  9
$DIMSD2
 70
               0
  9
$DIMTOLJ
 70
               1
  9
$DIMTZIN
 70
               0
  9
$DIMALTZ
 70
               0
  9
$DIMALTTZ
 70
               0
  9
$DIMFIT
 70
               3
  9
$DIMUPT
 70
               1
  9
$DIMUNIT
 70
               2
  9
$DIMDEC
 70
               4
  9
$DIMTDEC
 70
               4
  9
$DIMALTU
 70
               8
  9
$DIMALTTD
 70
               4
  9
$DIMTXSTY
  7
MX_NOTE_STANDARD
  9
$DIMAUNIT
 70
               0
  9
$LUNITS
 70
               2
  9
$LUPREC
 70
               4
  9
$SKETCHINC
 40
0.1
  9
$FILLETRAD
 40
0.0
  9
$AUNITS
 70
               0
  9
$AUPREC
 70
               0
  9
$MENU
  1
acad
  9
$ELEVATION
 40
0.0
  9
$PELEVATION
 40
0.0
  9
$THICKNESS
 40
0.0
  9
$LIMCHECK
 70
               0
  9
$BLIPMODE
 70
               1
  9
$CHAMFERA
 40
0.0
  9
$CHAMFERB
 40
0.0
  9
$CHAMFERC
 40
0.0
  9
$CHAMFERD
 40
0.0
  9
$SKPOLY
 70
               0
  9
$TDCREATE
 40
2452220.697604167
  9
$TDUPDATE
 40
2452220.697604167
  9
$TDINDWG
 40
0.0000000000
  9
$TDUSRTIMER
 40
0.0000000000
  9
$USRTIMER
 70
               1
  9
$ANGBASE
 50
0.0
  9
$ANGDIR
 70
               0
  9
$PDMODE
 70
               0
  9
$PDSIZE
 40
0.0
  9
$PLINEWID
 40
0.0
  9
$COORDS
 70
               1
  9
$SPLFRAME
 70
               0
  9
$SPLINETYPE
 70
               6
  9
$SPLINESEGS
 70
               8
  9
$ATTDIA
 70
               0
  9
$ATTREQ
 70
               1
  9
$HANDLING
 70
               1
  9
$HANDSEED
  5
373
  9
$SURFTAB1
 70
               6
  9
$SURFTAB2
 70
               6
  9
$SURFTYPE
 70
               6
  9
$SURFU
 70
               6
  9
$SURFV
 70
               6
  9
$UCSNAME
  2

  9
$UCSORG
 10
0.0
 20
0.0
 30
0.0
  9
$UCSXDIR
 10
1.0
 20
0.0
 30
0.0
  9
$UCSYDIR
 10
0.0
 20
1.0
 30
0.0
  9
$PUCSNAME
  2

  9
$PUCSORG
 10
0.0
 20
0.0
 30
0.0
  9
$PUCSXDIR
 10
1.0
 20
0.0
 30
0.0
  9
$PUCSYDIR
 10
0.0
 20
1.0
 30
0.0
  9
$USERI1
 70
               0
  9
$USERI2
 70
               0
  9
$USERI3
 70
               0
  9
$USERI4
 70
               0
  9
$USERI5
 70
               0
  9
$USERR1
 40
0.0
  9
$USERR2
 40
0.0
  9
$USERR3
 40
0.0
  9
$USERR4
 40
0.0
  9
$USERR5
 40
0.0
  9
$WORLDVIEW
 70
               1
  9
$SHADEDGE
 70
               3
  9
$SHADEDIF
 70
              70
  9
$TILEMODE
 70
               1
  9
$MAXACTVP
 70
              16
  9
$PINSBASE
 10
0.0
 20
0.0
 30
0.0
  9
$PLIMCHECK
 70
               0
  9
$PEXTMIN
 10
1.0000000000000000E+20
 20
1.0000000000000000E+20
 30
1.0000000000000000E+20
  9
$PEXTMAX
 10
-1.0000000000000000E+20
 20
-1.0000000000000000E+20
 30
-1.0000000000000000E+20
  9
$PLIMMIN
 10
0.0
 20
0.0
  9
$PLIMMAX
 10
12.0
 20
9.0
  9
$UNITMODE
 70
               0
  9
$VISRETAIN
 70
               0
  9
$PLINEGEN
 70
               1
  9
$PSLTSCALE
 70
               0
  9
$TREEDEPTH
 70
            3020
  9
$PICKSTYLE
 70
               1
  9
$CMLSTYLE
  2
Standard
  9
$CMLJUST
 70
               0
  9
$CMLSCALE
 40
1.0
  9
$SAVEIMAGES
 70
               0
  0
ENDSEC
  0
SECTION
  2
CLASSES
  0
CLASS
  1
LWPOLYLINE
  2
AcDbPolyline
  3
"AutoCAD"
 90
        0
280
               0
281
               1
  0
CLASS
  1
IMAGE
  2
AcDbRasterImage
  3
ISM
 90
      127
280
               0
281
               1
  0
CLASS
  1
OLE2FRAME
  2
AcDbOle2Frame
  3
""
 90
        0
280
               0
281
               1
  0
CLASS
  1
HATCH
  2
AcDbHatch
  3
"ACAD_SEDONA"
 90
        0
280
               0
281
               1
  0
CLASS
  1
DICTIONARYVAR
  2
AcDbDictionaryVar
  3
"AutoCAD"
 90
        0
280
               0
281
               0
  0
CLASS
  1
RASTERVARIABLES
  2
AcDbRasterVariables
  3
ISM
 90
        0
280
               0
281
               0
  0
CLASS
  1
IMAGEDEF
  2
AcDbRasterImageDef
  3
ISM
 90
        0
280
               0
281
               0
  0
CLASS
  1
IMAGEDEF_REACTOR
  2
AcDbRasterImageDefReactor
  3
ISM
 90
        1
280
               0
281
               0
  0
CLASS
  1
IDBUFFER
  2
AcDbIdBuffer
  3
"Acad"
 90
        0
280
               0
281
               0
  0
CLASS
  1
SPATIAL_FILTER
  2
AcDbSpatialFilter
  3
"Acad"
 90
        0
280
               0
281
               0
  0
CLASS
  1
XRECORD
  2
AcDbXrecord
  3
"<Built In>"
 90
        0
280
               0
281
               0
  0
CLASS
  1
SORTENTSTABLE
  2
AcDbSortentsTable
  3
"AutoCAD"
 90
        0
280
               0
281
               0
  0
CLASS
  1
LAYER_INDEX
  2
AcDbLayerIndex
  3
"Acad"
 90
        0
280
               0
281
               0
  0
CLASS
  1
SPATIAL_INDEX
  2
AcDbSpatialIndex
  3
"Acad"
 90
        0
280
               0
281
               0
  0
CLASS
  1
OBJECT_PTR
  2
CAseDLPNTableRecord
  3
"ASE-LPNTableRecord"
 90
        1
280
               0
281
               0
  0
CLASS
  1
LAYOUT
  2
AcDbLayout
  3
"AutoCAD 2000"
 90
        1
280
               0
281
               0
  0
CLASS
  1
PLOTSETTINGS
  2
AcDbPlotSettings
  3
"AutoCAD 2000"
 90
        1
280
               0
281
               0
  0
CLASS
  1
ACDBDICTIONARYWDFLT
  2
AcDbDictionaryWithDefault
  3
"AutoCAD 2000"
 90
        1
280
               0
281
               0
  0
CLASS
  1
ACDBPLACEHOLDER
  2
AcDbPlaceHolder
  3
"AutoCAD 2000"
 90
        1
280
               0
281
               0
  0
CLASS
  1
VBA_PROJECT
  2
AcDbVbaProject
  3
"acadvba"
 90
        1
280
               0
281
               0
  0
CLASS
  1
WIPEOUT
  2
AcDbWipeout
  3
WipeOut|AutoCAD Express Tool|expresstools@autodesk.com
 90
      127
280
               0
281
               1
  0
CLASS
  1
WIPEOUTVARIABLES
  2
AcDbWipeoutVariables
  3
WipeOut|AutoCAD Express Tool|expresstools@autodesk.com
 90
        0
280
               0
281
               0
  0
CLASS
  1
RTEXT
  2
RText
  3
RText|AutoCAD Express Tool|expresstools@autodesk.com
 90
        0
280
               0
281
               1
  0
CLASS
  1
ARCALIGNEDTEXT
  2
AcDbArcAlignedText
  3
ATEXT|AutoCAD Express Tool|expresstools@autodesk.com
 90
        0
280
               0
281
               1
  0
ENDSEC
  0
SECTION
  2
TABLES
  0
TABLE
  2
VPORT
  5
7
100
AcDbSymbolTable
 70
               1
  0
VPORT
  5
15
100
AcDbSymbolTableRecord
100
AcDbViewportTableRecord
  2
*ACTIVE
 70
               0
 10
0.0
 20
0.0
 11
1.0
 21
1.0
 12
0.4250000000000114
 22
0.25
 13
0.0
 23
0.0
 14
1.0
 24
1.0
 15
0.0
 25
0.0
 16
0.0
 26
0.0
 36
1.0
 17
0.0
 27
0.0
 37
0.0
 40
394.40500000000003
 41
1.7320508075688772
 42
50.0
 43
0.0
 44
0.0
 50
0.0
 51
0.0
 71
               0
 72
             100
 73
               1
 74
               1
 75
               0
 76
               0
 77
               0
 78
               0
  0
ENDTAB
  0
TABLE
  2
LTYPE
  5
4
100
AcDbSymbolTable
 70
               6
  0
LTYPE
  5
11
100
AcDbSymbolTableRecord
100
AcDbLinetypeTableRecord
  2
BYBLOCK
 70
              64
  3

 72
              65
 73
               0
 40
0.0
  0
LTYPE
  5
12
100
AcDbSymbolTableRecord
100
AcDbLinetypeTableRecord
  2
BYLAYER
 70
              64
  3

 72
              65
 73
               0
 40
0.0
  0
LTYPE
  5
13
100
AcDbSymbolTableRecord
100
AcDbLinetypeTableRecord
  2
CONTINUOUS
 70
              64
  3
Solid line
 72
              65
 73
               0
 40
0.0
  0
LTYPE
  5
41
100
AcDbSymbolTableRecord
100
AcDbLinetypeTableRecord
  2
DASHED
 70
              64
  3
Dashed __ __ __ __ __ __ __ __ __ __ __ __ __ _
 72
              65
 73
               2
 40
19.049999999999997
 49
12.699999999999999
 74
               0
 49
-6.3499999999999996
 74
               0
  0
LTYPE
  5
58
100
AcDbSymbolTableRecord
100
AcDbLinetypeTableRecord
  2
CENTER
 70
              64
  3
Center ____ _ ____ _ ____ _ ____ _ ____ _ ____
 72
              65
 73
               4
 40
50.800000000000004
 49
31.75
 74
               0
 49
-6.3499999999999996
 74
               0
 49
6.3499999999999996
 74
               0
 49
-6.3499999999999996
 74
               0
  0
LTYPE
  5
194
100
AcDbSymbolTableRecord
100
AcDbLinetypeTableRecord
  2
PHANTOM
 70
              64
  3
Phantom ______  __  __  ______  __  __  ______
 72
              65
 73
               6
 40
63.500000000000007
 49
31.75
 74
               0
 49
-6.3499999999999996
 74
               0
 49
6.3499999999999996
 74
               0
 49
-6.3499999999999996
 74
               0
 49
6.3499999999999996
 74
               0
 49
-6.3499999999999996
 74
               0
  0
ENDTAB
  0
TABLE
  2
LAYER
  5
2
100
AcDbSymbolTable
 70
               2
  0
LAYER
  5
14
100
AcDbSymbolTableRecord
100
AcDbLayerTableRecord
  2
0
 70
               0
 62
               7
  6
CONTINUOUS
  0
LAYER
  5
1D
100
AcDbSymbolTableRecord
100
AcDbLayerTableRecord
  2
DEFPOINTS
 70
               0
 62
               7
  6
CONTINUOUS
  0
ENDTAB
  0
TABLE
  2
STYLE
  5
3
100
AcDbSymbolTable
 70
               1
  0
STYLE
  5
17
100
AcDbSymbolTableRecord
100
AcDbTextStyleTableRecord
  2
MX_NOTE_STANDARD
 70
               0
 40
3.2000000476837158
 41
1.0
 50
0.0
 71
               0
 42
3.2000000476837158
  3
txt.shx
  4
extfont.shx
  0
ENDTAB
  0
TABLE
  2
VIEW
  5
5
100
AcDbSymbolTable
 70
               0
  0
ENDTAB
  0
TABLE
  2
UCS
  5
6
100
AcDbSymbolTable
 70
               0
  0
ENDTAB
  0
TABLE
  2
APPID
  5
8
100
AcDbSymbolTable
 70
               1
  0
APPID
  5
16
100
AcDbSymbolTableRecord
100
AcDbRegAppTableRecord
  2
ACAD
 70
               0
  0
ENDTAB
  0
TABLE
  2
DIMSTYLE
  5
9
100
AcDbSymbolTable
 70
               1
  0
DIMSTYLE
105
18
100
AcDbSymbolTableRecord
100
AcDbDimStyleTableRecord
  2
MXDIMSTYLE
 70
               0
  3

  4

  5

  6

  7

 40
1.0
 41
2.5
 42
1.5
 43
3.75
 44
1.5
 45
0.0
 46
0.0
 47
0.0
 48
0.0
 71
               0
 72
               0
 73
               0
 74
               0
 75
               0
 76
               0
 77
               1
 78
               8
140
3.2000000476837158
141
2.5
142
0.0
143
0.0394
144
1.0
145
0.0
146
1.0
147
1.0
170
               0
171
               4
172
               1
173
               0
174
               0
175
               0
176
               0
177
               0
178
               0
270
               2
271
               4
272
               4
273
               8
274
               4
275
               0
280
               0
281
               0
282
               0
283
               1
284
               0
285
               0
286
               0
287
               3
288
               1
340
17
  0
ENDTAB
  0
TABLE
  2
BLOCK_RECORD
  5
1
100
AcDbSymbolTable
 70
              34
  0
BLOCK_RECORD
  5
A
100
AcDbSymbolTableRecord
100
AcDbBlockTableRecord
  2
*MODEL_SPACE
  0
BLOCK_RECORD
  5
B
100
AcDbSymbolTableRecord
100
AcDbBlockTableRecord
  2
*PAPER_SPACE
  0
BLOCK_RECORD
  5
1E
100
AcDbSymbolTableRecord
100
AcDbBlockTableRecord
  2
MS_1
  0
BLOCK_RECORD
  5
1F
100
AcDbSymbolTableRecord
100
AcDbBlockTableRecord
  2
MS_2
  0
BLOCK_RECORD
  5
20
100
AcDbSymbolTableRecord
100
AcDbBlockTableRecord
  2
MS_3
  0
BLOCK_RECORD
  5
21
100
AcDbSymbolTableRecord
100
AcDbBlockTableRecord
  2
MS_4
  0
BLOCK_RECORD
  5
22
100
AcDbSymbolTableRecord
100
AcDbBlockTableRecord
  2
MS_5
  0
BLOCK_RECORD
  5
23
100
AcDbSymbolTableRecord
100
AcDbBlockTableRecord
  2
MS_6
  0
BLOCK_RECORD
  5
24
100
AcDbSymbolTableRecord
100
AcDbBlockTableRecord
  2
MS_7
  0
BLOCK_RECORD
  5
25
100
AcDbSymbolTableRecord
100
AcDbBlockTableRecord
  2
MS_8
  0
BLOCK_RECORD
  5
26
100
AcDbSymbolTableRecord
100
AcDbBlockTableRecord
  2
MS_9
  0
BLOCK_RECORD
  5
27
100
AcDbSymbolTableRecord
100
AcDbBlockTableRecord
  2
MS_10
  0
BLOCK_RECORD
  5
28
100
AcDbSymbolTableRecord
100
AcDbBlockTableRecord
  2
MS_11
  0
BLOCK_RECORD
  5
29
100
AcDbSymbolTableRecord
100
AcDbBlockTableRecord
  2
MS_12
  0
BLOCK_RECORD
  5
2A
100
AcDbSymbolTableRecord
100
AcDbBlockTableRecord
  2
MS_13
  0
BLOCK_RECORD
  5
2B
100
AcDbSymbolTableRecord
100
AcDbBlockTableRecord
  2
MS_14
  0
BLOCK_RECORD
  5
2C
100
AcDbSymbolTableRecord
100
AcDbBlockTableRecord
  2
MS_15
  0
BLOCK_RECORD
  5
2D
100
AcDbSymbolTableRecord
100
AcDbBlockTableRecord
  2
MS_16
  0
BLOCK_RECORD
  5
2E
100
AcDbSymbolTableRecord
100
AcDbBlockTableRecord
  2
MS_17
  0
BLOCK_RECORD
  5
2F
100
AcDbSymbolTableRecord
100
AcDbBlockTableRecord
  2
MS_18
  0
BLOCK_RECORD
  5
30
100
AcDbSymbolTableRecord
100
AcDbBlockTableRecord
  2
MS_19
  0
BLOCK_RECORD
  5
31
100
AcDbSymbolTableRecord
100
AcDbBlockTableRecord
  2
MS_20
  0
BLOCK_RECORD
  5
32
100
AcDbSymbolTableRecord
100
AcDbBlockTableRecord
  2
MS_21
  0
BLOCK_RECORD
  5
33
100
AcDbSymbolTableRecord
100
AcDbBlockTableRecord
  2
MS_22
  0
BLOCK_RECORD
  5
34
100
AcDbSymbolTableRecord
100
AcDbBlockTableRecord
  2
MS_23
  0
BLOCK_RECORD
  5
35
100
AcDbSymbolTableRecord
100
AcDbBlockTableRecord
  2
MS_24
  0
BLOCK_RECORD
  5
36
100
AcDbSymbolTableRecord
100
AcDbBlockTableRecord
  2
MS_25
  0
BLOCK_RECORD
  5
37
100
AcDbSymbolTableRecord
100
AcDbBlockTableRecord
  2
MS_26
  0
BLOCK_RECORD
  5
38
100
AcDbSymbolTableRecord
100
AcDbBlockTableRecord
  2
MS_27
  0
BLOCK_RECORD
  5
39
100
AcDbSymbolTableRecord
100
AcDbBlockTableRecord
  2
MS_28
  0
BLOCK_RECORD
  5
3A
100
AcDbSymbolTableRecord
100
AcDbBlockTableRecord
  2
MS_29
  0
BLOCK_RECORD
  5
3B
100
AcDbSymbolTableRecord
100
AcDbBlockTableRecord
  2
MS_30
  0
BLOCK_RECORD
  5
3C
100
AcDbSymbolTableRecord
100
AcDbBlockTableRecord
  2
MS_31
  0
BLOCK_RECORD
  5
3D
100
AcDbSymbolTableRecord
100
AcDbBlockTableRecord
  2
MS_32
  0
BLOCK_RECORD
  5
3E
100
AcDbSymbolTableRecord
100
AcDbBlockTableRecord
  2
MS_33
  0
BLOCK_RECORD
  5
3F
100
AcDbSymbolTableRecord
100
AcDbBlockTableRecord
  2
MS_34
  0
ENDTAB
  0
ENDSEC
  0
SECTION
  2
BLOCKS
  0
BLOCK
  5
D
100
AcDbEntity
  8
0
100
AcDbBlockBegin
  2
*MODEL_SPACE
 70
               0
 10
0.0
 20
0.0
 30
0.0
  3
*MODEL_SPACE
  1

  0
ENDBLK
  5
E
100
AcDbEntity
  8
0
100
AcDbBlockEnd
  0
BLOCK
  5
F
100
AcDbEntity
 67
               1
  8
0
100
AcDbBlockBegin
  2
*PAPER_SPACE
 70
               0
 10
0.0
 20
0.0
 30
0.0
  3
*PAPER_SPACE
  1

  0
ENDBLK
  5
10
100
AcDbEntity
 67
               1
  8
0
100
AcDbBlockEnd
  0
BLOCK
  5
40
100
AcDbEntity
  8
0
100
AcDbBlockBegin
  2
MS_1
 70
               0
 10
0.0
 20
0.0
 30
0.0
  3
MS_1
  1

  0
LINE
  5
42
100
AcDbEntity
  8
0
  6
DASHED
 62
               2
100
AcDbLine
 10
2.1000000000000001
 20
16.600000000000001
 30
0.0
 11
2.1000000000000001
 21
11.6
 31
0.0
  0
LINE
  5
43
100
AcDbEntity
  8
0
  6
DASHED
 62
               2
100
AcDbLine
 10
2.5
 20
16.600000000000001
 30
0.0
 11
2.5
 21
11.6
 31
0.0
  0
LINE
  5
44
100
AcDbEntity
  8
0
  6
DASHED
 62
               2
100
AcDbLine
 10
-2.5
 20
16.600000000000001
 30
0.0
 11
-2.5
 21
11.6
 31
0.0
  0
LINE
  5
45
100
AcDbEntity
  8
0
  6
CONTINUOUS
 62
               2
100
AcDbLine
 10
2.1000000000000001
 20
0.0
 30
0.0
 11
2.1000000000000001
 21
-2.8999999999999999
 31
0.0
  0
LINE
  5
46
100
AcDbEntity
  8
0
  6
CONTINUOUS
 62
               2
100
AcDbLine
 10
-2.1000000000000001
 20
0.0
 30
0.0
 11
-2.1000000000000001
 21
-2.8999999999999999
 31
0.0
  0
LINE
  5
47
100
AcDbEntity
  8
0
  6
CONTINUOUS
 62
               7
100
AcDbLine
 10
-2.5
 20
0.0
 30
0.0
 11
-2.5
 21
-2.8999999999999999
 31
0.0
  0
LINE
  5
48
100
AcDbEntity
  8
0
  6
CONTINUOUS
 62
               7
100
AcDbLine
 10
2.5
 20
0.0
 30
0.0
 11
2.5
 21
-2.8999999999999999
 31
0.0
  0
LINE
  5
49
100
AcDbEntity
  8
0
  6
CONTINUOUS
 62
               7
100
AcDbLine
 10
-3.8999999999999999
 20
0.0
 30
0.0
 11
3.8999999999999999
 21
0.0
 31
0.0
  0
LINE
  5
4A
100
AcDbEntity
  8
0
  6
CONTINUOUS
 62
               7
100
AcDbLine
 10
-3.8999999999999999
 20
0.6
 30
0.0
 11
3.8999999999999999
 21
0.6
 31
0.0
  0
LINE
  5
4B
100
AcDbEntity
  8
0
  6
CONTINUOUS
 62
               7
100
AcDbLine
 10
-4.5999999999999996
 20
12.779999999999999
 30
0.0
 11
-3.8999999999999999
 21
12.6
 31
0.0
  0
LINE
  5
4C
100
AcDbEntity
  8
0
  6
CONTINUOUS
 62
               7
100
AcDbLine
 10
3.8999999999999999
 20
16.600000000000001
 30
0.0
 11
4.5999999999999996
 21
16.41
 31
0.0
  0
LINE
  5
4D
100
AcDbEntity
  8
0
  6
CONTINUOUS
 62
               7
100
AcDbLine
 10
3.8999999999999999
 20
12.6
 30
0.0
 11
4.5999999999999996
 21
12.779999999999999
 31
0.0
  0
LINE
  5
4E
100
AcDbEntity
  8
0
  6
CONTINUOUS
 62
               7
100
AcDbLine
 10
-4.5999999999999996
 20
16.41
 30
0.0
 11
-3.8999999999999999
 21
16.600000000000001
 31
0.0
  0
LINE
  5
4F
100
AcDbEntity
  8
0
  6
CONTINUOUS
 62
               7
100
AcDbLine
 10
-2.2999999999999998
 20
16.600000000000001
 30
0.0
 11
-2.2999999999999998
 21
12.6
 31
0.0
  0
LINE
  5
50
100
AcDbEntity
  8
0
  6
CONTINUOUS
 62
               7
100
AcDbLine
 10
2.2999999999999998
 20
16.600000000000001
 30
0.0
 11
2.2999999999999998
 21
12.6
 31
0.0
  0
LINE
  5
51
100
AcDbEntity
  8
0
  6
CONTINUOUS
 62
               7
100
AcDbLine
 10
-4.5999999999999996
 20
16.41
 30
0.0
 11
-4.5999999999999996
 21
12.779999999999999
 31
0.0
  0
LINE
  5
52
100
AcDbEntity
  8
0
  6
CONTINUOUS
 62
               7
100
AcDbLine
 10
4.5999999999999996
 20
16.41
 30
0.0
 11
4.5999999999999996
 21
12.779999999999999
 31
0.0
  0
LINE
  5
53
100
AcDbEntity
  8
0
  6
CONTINUOUS
 62
               7
100
AcDbLine
 10
3.8999999999999999
 20
12.6
 30
0.0
 11
3.8999999999999999
 21
0.0
 31
0.0
  0
LINE
  5
54
100
AcDbEntity
  8
0
  6
CONTINUOUS
 62
               7
100
AcDbLine
 10
-3.8999999999999999
 20
12.6
 30
0.0
 11
-3.8999999999999999
 21
0.0
 31
0.0
  0
LINE
  5
55
100
AcDbEntity
  8
0
  6
CONTINUOUS
 62
               7
100
AcDbLine
 10
-3.8999999999999999
 20
12.6
 30
0.0
 11
3.8999999999999999
 21
12.6
 31
0.0
  0
LINE
  5
56
100
AcDbEntity
  8
0
  6
CONTINUOUS
 62
               7
100
AcDbLine
 10
-3.8999999999999999
 20
16.600000000000001
 30
0.0
 11
3.8999999999999999
 21
16.600000000000001
 31
0.0
  0
LINE
  5
57
100
AcDbEntity
  8
0
  6
CONTINUOUS
 62
               7
100
AcDbLine
 10
-2.5
 20
-2.8999999999999999
 30
0.0
 11
2.5
 21
-2.8999999999999999
 31
0.0
  0
LINE
  5
59
100
AcDbEntity
  8
0
  6
CENTER
 62
               2
100
AcDbLine
 10
0.0
 20
29.699999999999999
 30
0.0
 11
0.0
 21
-16.23
 31
0.0
  0
LINE
  5
5A
100
AcDbEntity
  8
0
  6
DASHED
 62
               2
100
AcDbLine
 10
-2.1000000000000001
 20
16.600000000000001
 30
0.0
 11
-2.1000000000000001
 21
11.6
 31
0.0
  0
LINE
  5
5B
100
AcDbEntity
  8
0
  6
DASHED
 62
               2
100
AcDbLine
 10
-2.5
 20
11.6
 30
0.0
 11
2.5
 21
11.6
 31
0.0
  0
ENDBLK
  5
5C
100
AcDbEntity
  8
0
100
AcDbBlockEnd
  0
BLOCK
  5
5D
100
AcDbEntity
  8
0
100
AcDbBlockBegin
  2
MS_2
 70
               0
 10
0.0
 20
0.0
 30
0.0
  3
MS_2
  1

  0
CIRCLE
  5
5E
100
AcDbEntity
  8
0
  6
CONTINUOUS
 62
               7
100
AcDbCircle
 10
0.0
 20
0.0
 30
0.0
 40
2.0999994277954102
  0
CIRCLE
  5
5F
100
AcDbEntity
  8
0
  6
CONTINUOUS
 62
               7
100
AcDbCircle
 10
0.0
 20
0.0
 30
0.0
 40
0.9000000357627869
  0
CIRCLE
  5
60
100
AcDbEntity
  8
0
  6
CONTINUOUS
 62
               7
100
AcDbCircle
 10
0.0
 20
0.0
 30
0.0
 40
3.8999996185302734
  0
CIRCLE
  5
61
100
AcDbEntity
  8
0
  6
CONTINUOUS
 62
               2
100
AcDbCircle
 10
0.0
 20
0.0
 30
0.0
 40
2.5
  0
LINE
  5
62
100
AcDbEntity
  8
0
  6
CONTINUOUS
 62
               7
100
AcDbLine
 10
2.2999999999999998
 20
4.0
 30
0.0
 11
4.6100000000000003
 21
0.0
 31
0.0
  0
LINE
  5
63
100
AcDbEntity
  8
0
  6
CONTINUOUS
 62
               7
100
AcDbLine
 10
-4.6100000000000003
 20
0.0
 30
0.0
 11
-2.2999999999999998
 21
-4.0
 31
0.0
  0
LINE
  5
64
100
AcDbEntity
  8
0
  6
CONTINUOUS
 62
               7
100
AcDbLine
 10
2.2999999999999998
 20
-4.0
 30
0.0
 11
4.6100000000000003
 21
0.0
 31
0.0
  0
LINE
  5
65
100
AcDbEntity
  8
0
  6
CONTINUOUS
 62
               7
100
AcDbLine
 10
-4.6100000000000003
 20
0.0
 30
0.0
 11
-2.2999999999999998
 21
4.0
 31
0.0
  0
LINE
  5
66
100
AcDbEntity
  8
0
  6
CONTINUOUS
 62
               7
100
AcDbLine
 10
-2.2999999999999998
 20
4.0
 30
0.0
 11
2.2999999999999998
 21
4.0
 31
0.0
  0
LINE
  5
67
100
AcDbEntity
  8
0
  6
CONTINUOUS
 62
               7
100
AcDbLine
 10
-2.2999999999999998
 20
-4.0
 30
0.0
 11
2.2999999999999998
 21
-4.0
 31
0.0
  0
LINE
  5
68
100
AcDbEntity
  8
0
  6
CENTER
 62
               2
100
AcDbLine
 10
-10.390000000000001
 20
0.0
 30
0.0
 11
9.5
 21
0.0
 31
0.0
  0
LINE
  5
69
100
AcDbEntity
  8
0
  6
CENTER
 62
               2
100
AcDbLine
 10
0.0
 20
9.5
 30
0.0
 11
0.0
 21
-8.3100000000000005
 31
0.0
  0
ENDBLK
  5
6A
100
AcDbEntity
  8
0
100
AcDbBlockEnd
  0
BLOCK
  5
6B
100
AcDbEntity
  8
0
100
AcDbBlockBegin
  2
MS_3
 70
               0
 10
0.0
 20
0.0
 30
0.0
  3
MS_3
  1

  0
LINE
  5
6C
100
AcDbEntity
  8
0
  6
DASHED
 62
               2
100
AcDbLine
 10
-2.5
 20
15.1
 30
0.0
 11
2.5
 21
15.1
 31
0.0
  0
LINE
  5
6D
100
AcDbEntity
  8
0
  6
DASHED
 62
               2
100
AcDbLine
 10
-2.5
 20
20.100000000000001
 30
0.0
 11
-2.5
 21
15.1
 31
0.0
  0
LINE
  5
6E
100
AcDbEntity
  8
0
  6
DASHED
 62
               2
100
AcDbLine
 10
2.5
 20
20.100000000000001
 30
0.0
 11
2.5
 21
15.1
 31
0.0
  0
LINE
  5
6F
100
AcDbEntity
  8
0
  6
CONTINUOUS
 62
               2
100
AcDbLine
 10
2.1000000000000001
 20
0.0
 30
0.0
 11
2.1000000000000001
 21
-2.8999999999999999
 31
0.0
  0
LINE
  5
70
100
AcDbEntity
  8
0
  6
CONTINUOUS
 62
               2
100
AcDbLine
 10
-2.1000000000000001
 20
0.0
 30
0.0
 11
-2.1000000000000001
 21
-2.8999999999999999
 31
0.0
  0
LINE
  5
71
100
AcDbEntity
  8
0
  6
CONTINUOUS
 62
               7
100
AcDbLine
 10
-2.5
 20
0.0
 30
0.0
 11
-2.5
 21
-2.8999999999999999
 31
0.0
  0
LINE
  5
72
100
AcDbEntity
  8
0
  6
CONTINUOUS
 62
               7
100
AcDbLine
 10
2.5
 20
0.0
 30
0.0
 11
2.5
 21
-2.8999999999999999
 31
0.0
  0
LINE
  5
73
100
AcDbEntity
  8
0
  6
CONTINUOUS
 62
               7
100
AcDbLine
 10
-3.8999999999999999
 20
0.0
 30
0.0
 11
3.8999999999999999
 21
0.0
 31
0.0
  0
LINE
  5
74
100
AcDbEntity
  8
0
  6
CONTINUOUS
 62
               7
100
AcDbLine
 10
-3.8999999999999999
 20
0.6
 30
0.0
 11
3.8999999999999999
 21
0.6
 31
0.0
  0
LINE
  5
75
100
AcDbEntity
  8
0
  6
CONTINUOUS
 62
               7
100
AcDbLine
 10
-4.5999999999999996
 20
16.280000000000001
 30
0.0
 11
-3.8999999999999999
 21
16.100000000000001
 31
0.0
  0
LINE
  5
76
100
AcDbEntity
  8
0
  6
CONTINUOUS
 62
               7
100
AcDbLine
 10
3.8999999999999999
 20
20.100000000000001
 30
0.0
 11
4.5999999999999996
 21
19.91
 31
0.0
  0
LINE
  5
77
100
AcDbEntity
  8
0
  6
CONTINUOUS
 62
               7
100
AcDbLine
 10
3.8999999999999999
 20
16.100000000000001
 30
0.0
 11
4.5999999999999996
 21
16.280000000000001
 31
0.0
  0
LINE
  5
78
100
AcDbEntity
  8
0
  6
CONTINUOUS
 62
               7
100
AcDbLine
 10
-4.5999999999999996
 20
19.91
 30
0.0
 11
-3.8999999999999999
 21
20.100000000000001
 31
0.0
  0
LINE
  5
79
100
AcDbEntity
  8
0
  6
CONTINUOUS
 62
               7
100
AcDbLine
 10
2.2999999999999998
 20
20.100000000000001
 30
0.0
 11
2.2999999999999998
 21
16.100000000000001
 31
0.0
  0
LINE
  5
7A
100
AcDbEntity
  8
0
  6
CONTINUOUS
 62
               7
100
AcDbLine
 10
-2.2999999999999998
 20
20.100000000000001
 30
0.0
 11
-2.2999999999999998
 21
16.100000000000001
 31
0.0
  0
LINE
  5
7B
100
AcDbEntity
  8
0
  6
CONTINUOUS
 62
               7
100
AcDbLine
 10
-4.5999999999999996
 20
19.91
 30
0.0
 11
-4.5999999999999996
 21
16.280000000000001
 31
0.0
  0
LINE
  5
7C
100
AcDbEntity
  8
0
  6
CONTINUOUS
 62
               7
100
AcDbLine
 10
4.5999999999999996
 20
19.91
 30
0.0
 11
4.5999999999999996
 21
16.280000000000001
 31
0.0
  0
LINE
  5
7D
100
AcDbEntity
  8
0
  6
CONTINUOUS
 62
               7
100
AcDbLine
 10
-3.8999999999999999
 20
16.100000000000001
 30
0.0
 11
-3.8999999999999999
 21
0.0
 31
0.0
  0
LINE
  5
7E
100
AcDbEntity
  8
0
  6
CONTINUOUS
 62
               7
100
AcDbLine
 10
3.8999999999999999
 20
16.100000000000001
 30
0.0
 11
3.8999999999999999
 21
0.0
 31
0.0
  0
LINE
  5
7F
100
AcDbEntity
  8
0
  6
CONTINUOUS
 62
               7
100
AcDbLine
 10
-3.8999999999999999
 20
16.100000000000001
 30
0.0
 11
3.8999999999999999
 21
16.100000000000001
 31
0.0
  0
LINE
  5
80
100
AcDbEntity
  8
0
  6
CONTINUOUS
 62
               7
100
AcDbLine
 10
-2.5
 20
-2.8999999999999999
 30
0.0
 11
2.5
 21
-2.8999999999999999
 31
0.0
  0
LINE
  5
81
100
AcDbEntity
  8
0
  6
CONTINUOUS
 62
               7
100
AcDbLine
 10
-3.8999999999999999
 20
20.100000000000001
 30
0.0
 11
3.8999999999999999
 21
20.100000000000001
 31
0.0
  0
LINE
  5
82
100
AcDbEntity
  8
0
  6
CENTER
 62
               2
100
AcDbLine
 10
0.0
 20
28.510000000000002
 30
0.0
 11
0.0
 21
-10.289999999999999
 31
0.0
  0
LINE
  5
83
100
AcDbEntity
  8
0
  6
DASHED
 62
               2
100
AcDbLine
 10
-2.1000000000000001
 20
20.100000000000001
 30
0.0
 11
-2.1000000000000001
 21
15.1
 31
0.0
  0
LINE
  5
84
100
AcDbEntity
  8
0
  6
DASHED
 62
               2
100
AcDbLine
 10
2.1000000000000001
 20
20.100000000000001
 30
0.0
 11
2.1000000000000001
 21
15.1
 31
0.0
  0
ENDBLK
  5
85
100
AcDbEntity
  8
0
100
AcDbBlockEnd
  0
BLOCK
  5
86
100
AcDbEntity
  8
0
100
AcDbBlockBegin
  2
MS_4
 70
               0
 10
0.0
 20
0.0
 30
0.0
  3
MS_4
  1

  0
CIRCLE
  5
87
100
AcDbEntity
  8
0
  6
CONTINUOUS
 62
               7
100
AcDbCircle
 10
0.0
 20
0.0
 30
0.0
 40
2.0999994277954102
  0
CIRCLE
  5
88
100
AcDbEntity
  8
0
  6
CONTINUOUS
 62
               7
100
AcDbCircle
 10
0.0
 20
0.0
 30
0.0
 40
3.8999996185302734
  0
CIRCLE
  5
89
100
AcDbEntity
  8
0
  6
CONTINUOUS
 62
               2
100
AcDbCircle
 10
0.0
 20
0.0
 30
0.0
 40
2.5
  0
LINE
  5
8A
100
AcDbEntity
  8
0
  6
CONTINUOUS
 62
               7
100
AcDbLine
 10
2.2999999999999998
 20
4.0
 30
0.0
 11
4.6100000000000003
 21
0.0
 31
0.0
  0
LINE
  5
8B
100
AcDbEntity
  8
0
  6
CONTINUOUS
 62
               7
100
AcDbLine
 10
-4.6100000000000003
 20
0.0
 30
0.0
 11
-2.2999999999999998
 21
-4.0
 31
0.0
  0
LINE
  5
8C
100
AcDbEntity
  8
0
  6
CONTINUOUS
 62
               7
100
AcDbLine
 10
2.2999999999999998
 20
-4.0
 30
0.0
 11
4.6100000000000003
 21
0.0
 31
0.0
  0
LINE
  5
8D
100
AcDbEntity
  8
0
  6
CONTINUOUS
 62
               7
100
AcDbLine
 10
-4.6100000000000003
 20
0.0
 30
0.0
 11
-2.2999999999999998
 21
4.0
 31
0.0
  0
LINE
  5
8E
100
AcDbEntity
  8
0
  6
CONTINUOUS
 62
               7
100
AcDbLine
 10
-2.2999999999999998
 20
4.0
 30
0.0
 11
2.2999999999999998
 21
4.0
 31
0.0
  0
LINE
  5
8F
100
AcDbEntity
  8
0
  6
CONTINUOUS
 62
               7
100
AcDbLine
 10
-2.2999999999999998
 20
-4.0
 30
0.0
 11
2.2999999999999998
 21
-4.0
 31
0.0
  0
LINE
  5
90
100
AcDbEntity
  8
0
  6
CENTER
 62
               2
100
AcDbLine
 10
-19.16
 20
0.0
 30
0.0
 11
19.829999999999998
 21
0.0
 31
0.0
  0
LINE
  5
91
100
AcDbEntity
  8
0
  6
CENTER
 62
               2
100
AcDbLine
 10
0.0
 20
15.5
 30
0.0
 11
0.0
 21
-13.0
 31
0.0
  0
ENDBLK
  5
92
100
AcDbEntity
  8
0
100
AcDbBlockEnd
  0
BLOCK
  5
93
100
AcDbEntity
  8
0
100
AcDbBlockBegin
  2
MS_5
 70
               0
 10
0.0
 20
0.0
 30
0.0
  3
MS_5
  1

  0
LINE
  5
94
100
AcDbEntity
  8
0
  6
CONTINUOUS
 62
               7
100
AcDbLine
 10
-7.9000000000000004
 20
11.35
 30
0.0
 11
-7.9000000000000004
 21
1.8400000000000001
 31
0.0
  0
LINE
  5
95
100
AcDbEntity
  8
0
  6
CONTINUOUS
 62
               7
100
AcDbLine
 10
7.9000000000000004
 20
11.35
 30
0.0
 11
7.9000000000000004
 21
1.8400000000000001
 31
0.0
  0
LINE
  5
96
100
AcDbEntity
  8
0
  6
DASHED
 62
               2
100
AcDbLine
 10
5.0
 20
11.6
 30
0.0
 11
4.75
 21
3.6000000000000001
 31
0.0
  0
LINE
  5
97
100
AcDbEntity
  8
0
  6
DASHED
 62
               2
100
AcDbLine
 10
-5.0
 20
11.6
 30
0.0
 11
-4.75
 21
3.6000000000000001
 31
0.0
  0
LINE
  5
98
100
AcDbEntity
  8
0
  6
DASHED
 62
               2
100
AcDbLine
 10
-4.75
 20
3.6000000000000001
 30
0.0
 11
4.75
 21
3.6000000000000001
 31
0.0
  0
LINE
  5
99
100
AcDbEntity
  8
0
  6
CONTINUOUS
 62
               2
100
AcDbLine
 10
2.1000000000000001
 20
0.0
 30
0.0
 11
2.1000000000000001
 21
-2.8999999999999999
 31
0.0
  0
LINE
  5
9A
100
AcDbEntity
  8
0
  6
CONTINUOUS
 62
               2
100
AcDbLine
 10
-2.1000000000000001
 20
0.0
 30
0.0
 11
-2.1000000000000001
 21
-2.8999999999999999
 31
0.0
  0
LINE
  5
9B
100
AcDbEntity
  8
0
  6
CONTINUOUS
 62
               7
100
AcDbLine
 10
2.5
 20
0.0
 30
0.0
 11
2.5
 21
-2.8999999999999999
 31
0.0
  0
LINE
  5
9C
100
AcDbEntity
  8
0
  6
CONTINUOUS
 62
               7
100
AcDbLine
 10
-2.5
 20
0.0
 30
0.0
 11
-2.5
 21
-2.8999999999999999
 31
0.0
  0
LINE
  5
9D
100
AcDbEntity
  8
0
  6
CONTINUOUS
 62
               7
100
AcDbLine
 10
-3.8999999999999999
 20
1.6000000000000001
 30
0.0
 11
-3.8999999999999999
 21
0.0
 31
0.0
  0
LINE
  5
9E
100
AcDbEntity
  8
0
  6
CONTINUOUS
 62
               7
100
AcDbLine
 10
3.8999999999999999
 20
1.6000000000000001
 30
0.0
 11
3.8999999999999999
 21
0.0
 31
0.0
  0
LINE
  5
9F
100
AcDbEntity
  8
0
  6
CONTINUOUS
 62
               7
100
AcDbLine
 10
-3.8999999999999999
 20
0.0
 30
0.0
 11
3.8999999999999999
 21
0.0
 31
0.0
  0
LINE
  5
A0
100
AcDbEntity
  8
0
  6
CONTINUOUS
 62
               7
100
AcDbLine
 10
-3.8999999999999999
 20
0.6
 30
0.0
 11
3.8999999999999999
 21
0.6
 31
0.0
  0
LINE
  5
A1
100
AcDbEntity
  8
0
  6
CONTINUOUS
 62
               7
100
AcDbLine
 10
-7.9000000000000004
 20
1.8400000000000001
 30
0.0
 11
-7.0
 21
1.6000000000000001
 31
0.0
  0
LINE
  5
A2
100
AcDbEntity
  8
0
  6
CONTINUOUS
 62
               7
100
AcDbLine
 10
7.0
 20
11.6
 30
0.0
 11
7.9000000000000004
 21
11.35
 31
0.0
  0
LINE
  5
A3
100
AcDbEntity
  8
0
  6
CONTINUOUS
 62
               7
100
AcDbLine
 10
7.0
 20
1.6000000000000001
 30
0.0
 11
7.9000000000000004
 21
1.8400000000000001
 31
0.0
  0
LINE
  5
A4
100
AcDbEntity
  8
0
  6
CONTINUOUS
 62
               7
100
AcDbLine
 10
-7.9000000000000004
 20
11.35
 30
0.0
 11
-7.0
 21
11.6
 31
0.0
  0
LINE
  5
A5
100
AcDbEntity
  8
0
  6
CONTINUOUS
 62
               7
100
AcDbLine
 10
-4.0
 20
11.6
 30
0.0
 11
-4.0
 21
1.6000000000000001
 31
0.0
  0
LINE
  5
A6
100
AcDbEntity
  8
0
  6
CONTINUOUS
 62
               7
100
AcDbLine
 10
4.0
 20
11.6
 30
0.0
 11
4.0
 21
1.6000000000000001
 31
0.0
  0
LINE
  5
A7
100
AcDbEntity
  8
0
  6
CONTINUOUS
 62
               7
100
AcDbLine
 10
-7.0
 20
1.6000000000000001
 30
0.0
 11
7.0
 21
1.6000000000000001
 31
0.0
  0
LINE
  5
A8
100
AcDbEntity
  8
0
  6
CONTINUOUS
 62
               7
100
AcDbLine
 10
-7.0
 20
11.6
 30
0.0
 11
7.0
 21
11.6
 31
0.0
  0
LINE
  5
A9
100
AcDbEntity
  8
0
  6
CONTINUOUS
 62
               7
100
AcDbLine
 10
-2.5
 20
-2.8999999999999999
 30
0.0
 11
2.5
 21
-2.8999999999999999
 31
0.0
  0
LINE
  5
AA
100
AcDbEntity
  8
0
  6
CENTER
 62
               2
100
AcDbLine
 10
0.0
 20
24.329999999999998
 30
0.0
 11
0.0
 21
-13.66
 31
0.0
  0
LINE
  5
AB
100
AcDbEntity
  8
0
  6
DASHED
 62
               2
100
AcDbLine
 10
-4.4000000000000004
 20
11.609999999999999
 30
0.0
 11
-4.1500000000000004
 21
3.6099999999999999
 31
0.0
  0
LINE
  5
AC
100
AcDbEntity
  8
0
  6
DASHED
 62
               2
100
AcDbLine
 10
4.4000000000000004
 20
11.609999999999999
 30
0.0
 11
4.1500000000000004
 21
3.6099999999999999
 31
0.0
  0
ENDBLK
  5
AD
100
AcDbEntity
  8
0
100
AcDbBlockEnd
  0
BLOCK
  5
AE
100
AcDbEntity
  8
0
100
AcDbBlockBegin
  2
MS_6
 70
               0
 10
0.0
 20
0.0
 30
0.0
  3
MS_6
  1

  0
CIRCLE
  5
AF
100
AcDbEntity
  8
0
  6
CONTINUOUS
 62
               2
100
AcDbCircle
 10
0.0
 20
0.0
 30
0.0
 40
5.0
  0
CIRCLE
  5
B0
100
AcDbEntity
  8
0
  6
CONTINUOUS
 62
               7
100
AcDbCircle
 10
0.0
 20
0.0
 30
0.0
 40
0.9000000357627869
  0
CIRCLE
  5
B1
100
AcDbEntity
  8
0
  6
CONTINUOUS
 62
               7
100
AcDbCircle
 10
0.0
 20
0.0
 30
0.0
 40
7.0
  0
CIRCLE
  5
B2
100
AcDbEntity
  8
0
  6
CONTINUOUS
 62
               7
100
AcDbCircle
 10
0.0
 20
0.0
 30
0.0
 40
4.3999996185302734
  0
LINE
  5
B3
100
AcDbEntity
  8
0
  6
CONTINUOUS
 62
               7
100
AcDbLine
 10
3.6699999999999999
 20
7.0
 30
0.0
 11
4.2199999999999998
 21
6.6799999999999997
 31
0.0
  0
LINE
  5
B4
100
AcDbEntity
  8
0
  6
CONTINUOUS
 62
               7
100
AcDbLine
 10
-4.2199999999999998
 20
-6.6799999999999997
 30
0.0
 11
-3.6699999999999999
 21
-7.0
 31
0.0
  0
LINE
  5
B5
100
AcDbEntity
  8
0
  6
CONTINUOUS
 62
               7
100
AcDbLine
 10
7.9000000000000004
 20
0.31
 30
0.0
 11
7.9000000000000004
 21
-0.31
 31
0.0
  0
LINE
  5
B6
100
AcDbEntity
  8
0
  6
CONTINUOUS
 62
               7
100
AcDbLine
 10
-7.9000000000000004
 20
0.31
 30
0.0
 11
-7.9000000000000004
 21
-0.31
 31
0.0
  0
LINE
  5
B7
100
AcDbEntity
  8
0
  6
CONTINUOUS
 62
               7
100
AcDbLine
 10
3.6699999999999999
 20
-7.0
 30
0.0
 11
4.2199999999999998
 21
-6.6799999999999997
 31
0.0
  0
LINE
  5
B8
100
AcDbEntity
  8
0
  6
CONTINUOUS
 62
               7
100
AcDbLine
 10
-4.2199999999999998
 20
6.6799999999999997
 30
0.0
 11
-3.6699999999999999
 21
7.0
 31
0.0
  0
LINE
  5
B9
100
AcDbEntity
  8
0
  6
CONTINUOUS
 62
               7
100
AcDbLine
 10
4.2199999999999998
 20
6.6799999999999997
 30
0.0
 11
7.9000000000000004
 21
0.31
 31
0.0
  0
LINE
  5
BA
100
AcDbEntity
  8
0
  6
CONTINUOUS
 62
               7
100
AcDbLine
 10
-7.9000000000000004
 20
-0.31
 30
0.0
 11
-4.2199999999999998
 21
-6.6799999999999997
 31
0.0
  0
LINE
  5
BB
100
AcDbEntity
  8
0
  6
CONTINUOUS
 62
               7
100
AcDbLine
 10
4.2199999999999998
 20
-6.6799999999999997
 30
0.0
 11
7.9000000000000004
 21
-0.31
 31
0.0
  0
LINE
  5
BC
100
AcDbEntity
  8
0
  6
CONTINUOUS
 62
               7
100
AcDbLine
 10
-7.9000000000000004
 20
0.31
 30
0.0
 11
-4.2199999999999998
 21
6.6799999999999997
 31
0.0
  0
LINE
  5
BD
100
AcDbEntity
  8
0
  6
CONTINUOUS
 62
               7
100
AcDbLine
 10
-3.6699999999999999
 20
7.0
 30
0.0
 11
3.6699999999999999
 21
7.0
 31
0.0
  0
LINE
  5
BE
100
AcDbEntity
  8
0
  6
CONTINUOUS
 62
               7
100
AcDbLine
 10
-3.6699999999999999
 20
-7.0
 30
0.0
 11
3.6699999999999999
 21
-7.0
 31
0.0
  0
LINE
  5
BF
100
AcDbEntity
  8
0
  6
CENTER
 62
               2
100
AcDbLine
 10
-18.719999999999999
 20
0.0
 30
0.0
 11
18.43
 21
0.0
 31
0.0
  0
LINE
  5
C0
100
AcDbEntity
  8
0
  6
CENTER
 62
               2
100
AcDbLine
 10
0.0
 20
17.0
 30
0.0
 11
0.0
 21
-16.300000000000001
 31
0.0
  0
ENDBLK
  5
C1
100
AcDbEntity
  8
0
100
AcDbBlockEnd
  0
BLOCK
  5
C2
100
AcDbEntity
  8
0
100
AcDbBlockBegin
  2
MS_7
 70
               0
 10
0.0
 20
0.0
 30
0.0
  3
MS_7
  1

  0
LINE
  5
C3
100
AcDbEntity
  8
0
  6
DASHED
 62
               2
100
AcDbLine
 10
-2.1000000000000001
 20
8.0
 30
0.0
 11
-2.1000000000000001
 21
2.0
 31
0.0
  0
LINE
  5
C4
100
AcDbEntity
  8
0
  6
DASHED
 62
               2
100
AcDbLine
 10
-2.5
 20
2.0
 30
0.0
 11
2.5
 21
2.0
 31
0.0
  0
LINE
  5
C5
100
AcDbEntity
  8
0
  6
DASHED
 62
               2
100
AcDbLine
 10
-2.5
 20
8.0
 30
0.0
 11
-2.5
 21
2.0
 31
0.0
  0
LINE
  5
C6
100
AcDbEntity
  8
0
  6
DASHED
 62
               2
100
AcDbLine
 10
2.5
 20
8.0
 30
0.0
 11
2.5
 21
2.0
 31
0.0
  0
LINE
  5
C7
100
AcDbEntity
  8
0
  6
CONTINUOUS
 62
               7
100
AcDbLine
 10
-2.8799999999999999
 20
8.0
 30
0.0
 11
-2.8799999999999999
 21
4.0
 31
0.0
  0
LINE
  5
C8
100
AcDbEntity
  8
0
  6
CONTINUOUS
 62
               7
100
AcDbLine
 10
2.8799999999999999
 20
8.0
 30
0.0
 11
2.8799999999999999
 21
4.0
 31
0.0
  0
LINE
  5
C9
100
AcDbEntity
  8
0
  6
CONTINUOUS
 62
               7
100
AcDbLine
 10
-5.7699999999999996
 20
4.4400000000000004
 30
0.0
 11
-5.0
 21
4.0
 31
0.0
  0
LINE
  5
CA
100
AcDbEntity
  8
0
  6
CONTINUOUS
 62
               7
100
AcDbLine
 10
5.0
 20
8.0
 30
0.0
 11
5.7699999999999996
 21
7.5499999999999998
 31
0.0
  0
LINE
  5
CB
100
AcDbEntity
  8
0
  6
CONTINUOUS
 62
               7
100
AcDbLine
 10
5.0
 20
4.0
 30
0.0
 11
5.7699999999999996
 21
4.4400000000000004
 31
0.0
  0
LINE
  5
CC
100
AcDbEntity
  8
0
  6
CONTINUOUS
 62
               7
100
AcDbLine
 10
-5.7699999999999996
 20
7.5499999999999998
 30
0.0
 11
-5.0
 21
8.0
 31
0.0
  0
LINE
  5
CD
100
AcDbEntity
  8
0
  6
CONTINUOUS
 62
               7
100
AcDbLine
 10
-5.7699999999999996
 20
7.5499999999999998
 30
0.0
 11
-5.7699999999999996
 21
4.4400000000000004
 31
0.0
  0
LINE
  5
CE
100
AcDbEntity
  8
0
  6
CONTINUOUS
 62
               7
100
AcDbLine
 10
5.7699999999999996
 20
7.5499999999999998
 30
0.0
 11
5.7699999999999996
 21
4.4400000000000004
 31
0.0
  0
LINE
  5
CF
100
AcDbEntity
  8
0
  6
CONTINUOUS
 62
               2
100
AcDbLine
 10
4.4000000000000004
 20
4.0199999999999996
 30
0.0
 11
4.0999999999999996
 21
-3.9700000000000002
 31
0.0
  0
LINE
  5
D0
100
AcDbEntity
  8
0
  6
CONTINUOUS
 62
               2
100
AcDbLine
 10
-4.4000000000000004
 20
4.0199999999999996
 30
0.0
 11
-4.0999999999999996
 21
-3.9700000000000002
 31
0.0
  0
LINE
  5
D1
100
AcDbEntity
  8
0
  6
CONTINUOUS
 62
               7
100
AcDbLine
 10
5.0
 20
4.0
 30
0.0
 11
4.7000000000000002
 21
-4.0
 31
0.0
  0
LINE
  5
D2
100
AcDbEntity
  8
0
  6
CONTINUOUS
 62
               7
100
AcDbLine
 10
-5.0
 20
4.0
 30
0.0
 11
-4.7000000000000002
 21
-4.0
 31
0.0
  0
LINE
  5
D3
100
AcDbEntity
  8
0
  6
CONTINUOUS
 62
               7
100
AcDbLine
 10
-5.0
 20
4.0
 30
0.0
 11
5.0
 21
4.0
 31
0.0
  0
LINE
  5
D4
100
AcDbEntity
  8
0
  6
CONTINUOUS
 62
               7
100
AcDbLine
 10
-4.7000000000000002
 20
-4.0
 30
0.0
 11
4.7000000000000002
 21
-4.0
 31
0.0
  0
LINE
  5
D5
100
AcDbEntity
  8
0
  6
CONTINUOUS
 62
               7
100
AcDbLine
 10
-5.0
 20
8.0
 30
0.0
 11
5.0
 21
8.0
 31
0.0
  0
LINE
  5
D6
100
AcDbEntity
  8
0
  6
CENTER
 62
               2
100
AcDbLine
 10
0.0
 20
28.129999999999999
 30
0.0
 11
0.0
 21
-22.399999999999999
 31
0.0
  0
LINE
  5
D7
100
AcDbEntity
  8
0
  6
DASHED
 62
               2
100
AcDbLine
 10
2.1000000000000001
 20
8.0
 30
0.0
 11
2.1000000000000001
 21
2.0
 31
0.0
  0
LINE
  5
D8
100
AcDbEntity
  8
0
  6
CENTER
 62
               2
100
AcDbLine
 10
-7.2300000000000004
 20
0.0
 30
0.0
 11
7.3600000000000003
 21
0.0
 31
0.0
  0
ENDBLK
  5
D9
100
AcDbEntity
  8
0
100
AcDbBlockEnd
  0
BLOCK
  5
DA
100
AcDbEntity
  8
0
100
AcDbBlockBegin
  2
MS_8
 70
               0
 10
0.0
 20
0.0
 30
0.0
  3
MS_8
  1

  0
CIRCLE
  5
DB
100
AcDbEntity
  8
0
  6
CONTINUOUS
 62
               7
100
AcDbCircle
 10
0.0
 20
0.0
 30
0.0
 40
2.0999994277954102
  0
CIRCLE
  5
DC
100
AcDbEntity
  8
0
  6
CONTINUOUS
 62
               7
100
AcDbCircle
 10
0.0
 20
0.0
 30
0.0
 40
5.0
  0
CIRCLE
  5
DD
100
AcDbEntity
  8
0
  6
CONTINUOUS
 62
               2
100
AcDbCircle
 10
0.0
 20
0.0
 30
0.0
 40
2.5
  0
LINE
  5
DE
100
AcDbEntity
  8
0
  6
CONTINUOUS
 62
               7
100
AcDbLine
 10
2.3399999999999999
 20
5.0
 30
0.0
 11
3.1600000000000001
 21
4.5199999999999996
 31
0.0
  0
LINE
  5
DF
100
AcDbEntity
  8
0
  6
CONTINUOUS
 62
               7
100
AcDbLine
 10
-3.1600000000000001
 20
-4.5199999999999996
 30
0.0
 11
-2.3399999999999999
 21
-5.0
 31
0.0
  0
LINE
  5
E0
100
AcDbEntity
  8
0
  6
CONTINUOUS
 62
               7
100
AcDbLine
 10
5.5
 20
0.47
 30
0.0
 11
5.5
 21
-0.47
 31
0.0
  0
LINE
  5
E1
100
AcDbEntity
  8
0
  6
CONTINUOUS
 62
               7
100
AcDbLine
 10
-5.5
 20
0.47
 30
0.0
 11
-5.5
 21
-0.47
 31
0.0
  0
LINE
  5
E2
100
AcDbEntity
  8
0
  6
CONTINUOUS
 62
               7
100
AcDbLine
 10
-3.1600000000000001
 20
4.5199999999999996
 30
0.0
 11
-2.3399999999999999
 21
5.0
 31
0.0
  0
LINE
  5
E3
100
AcDbEntity
  8
0
  6
CONTINUOUS
 62
               7
100
AcDbLine
 10
2.3399999999999999
 20
-5.0
 30
0.0
 11
3.1600000000000001
 21
-4.5199999999999996
 31
0.0
  0
LINE
  5
E4
100
AcDbEntity
  8
0
  6
CONTINUOUS
 62
               7
100
AcDbLine
 10
3.1600000000000001
 20
4.5199999999999996
 30
0.0
 11
5.5
 21
0.47
 31
0.0
  0
LINE
  5
E5
100
AcDbEntity
  8
0
  6
CONTINUOUS
 62
               7
100
AcDbLine
 10
-5.5
 20
-0.47
 30
0.0
 11
-3.1600000000000001
 21
-4.5199999999999996
 31
0.0
  0
LINE
  5
E6
100
AcDbEntity
  8
0
  6
CONTINUOUS
 62
               7
100
AcDbLine
 10
3.1600000000000001
 20
-4.5199999999999996
 30
0.0
 11
5.5
 21
-0.47
 31
0.0
  0
LINE
  5
E7
100
AcDbEntity
  8
0
  6
CONTINUOUS
 62
               7
100
AcDbLine
 10
-5.5
 20
0.47
 30
0.0
 11
-3.1600000000000001
 21
4.5199999999999996
 31
0.0
  0
LINE
  5
E8
100
AcDbEntity
  8
0
  6
CONTINUOUS
 62
               7
100
AcDbLine
 10
-2.3399999999999999
 20
-5.0
 30
0.0
 11
2.3399999999999999
 21
-5.0
 31
0.0
  0
LINE
  5
E9
100
AcDbEntity
  8
0
  6
CONTINUOUS
 62
               7
100
AcDbLine
 10
-2.3399999999999999
 20
5.0
 30
0.0
 11
2.3399999999999999
 21
5.0
 31
0.0
  0
LINE
  5
EA
100
AcDbEntity
  8
0
  6
CENTER
 62
               2
100
AcDbLine
 10
-19.030000000000001
 20
0.0
 30
0.0
 11
20.539999999999999
 21
0.0
 31
0.0
  0
LINE
  5
EB
100
AcDbEntity
  8
0
  6
CENTER
 62
               2
100
AcDbLine
 10
0.0
 20
16.0
 30
0.0
 11
0.0
 21
-13.5
 31
0.0
  0
ENDBLK
  5
EC
100
AcDbEntity
  8
0
100
AcDbBlockEnd
  0
BLOCK
  5
ED
100
AcDbEntity
  8
0
100
AcDbBlockBegin
  2
MS_9
 70
               0
 10
0.0
 20
0.0
 30
0.0
  3
MS_9
  1

  0
LINE
  5
EE
100
AcDbEntity
  8
0
  6
CONTINUOUS
 62
               7
100
AcDbLine
 10
7.9000000000000004
 20
24.23
 30
0.0
 11
7.9000000000000004
 21
13.76
 31
0.0
  0
LINE
  5
EF
100
AcDbEntity
  8
0
  6
CONTINUOUS
 62
               7
100
AcDbLine
 10
-7.9000000000000004
 20
24.23
 30
0.0
 11
-7.9000000000000004
 21
13.76
 31
0.0
  0
LINE
  5
F0
100
AcDbEntity
  8
0
  6
DASHED
 62
               2
100
AcDbLine
 10
5.0
 20
24.5
 30
0.0
 11
4.75
 21
16.5
 31
0.0
  0
LINE
  5
F1
100
AcDbEntity
  8
0
  6
DASHED
 62
               2
100
AcDbLine
 10
4.4000000000000004
 20
24.510000000000002
 30
0.0
 11
4.1500000000000004
 21
16.510000000000002
 31
0.0
  0
LINE
  5
F2
100
AcDbEntity
  8
0
  6
DASHED
 62
               2
100
AcDbLine
 10
-4.4000000000000004
 20
24.510000000000002
 30
0.0
 11
-4.1500000000000004
 21
16.510000000000002
 31
0.0
  0
LINE
  5
F3
100
AcDbEntity
  8
0
  6
CONTINUOUS
 62
               7
100
AcDbLine
 10
4.0
 20
24.5
 30
0.0
 11
4.0
 21
13.5
 31
0.0
  0
LINE
  5
F4
100
AcDbEntity
  8
0
  6
CONTINUOUS
 62
               7
100
AcDbLine
 10
-4.0
 20
24.5
 30
0.0
 11
-4.0
 21
13.5
 31
0.0
  0
LINE
  5
F5
100
AcDbEntity
  8
0
  6
CONTINUOUS
 62
               2
100
AcDbLine
 10
4.4000000000000004
 20
4.0199999999999996
 30
0.0
 11
4.0999999999999996
 21
-3.9700000000000002
 31
0.0
  0
LINE
  5
F6
100
AcDbEntity
  8
0
  6
CONTINUOUS
 62
               2
100
AcDbLine
 10
-4.4000000000000004
 20
4.0199999999999996
 30
0.0
 11
-4.0999999999999996
 21
-3.9700000000000002
 31
0.0
  0
LINE
  5
F7
100
AcDbEntity
  8
0
  6
CONTINUOUS
 62
               7
100
AcDbLine
 10
5.0
 20
4.0
 30
0.0
 11
4.7000000000000002
 21
-4.0
 31
0.0
  0
LINE
  5
F8
100
AcDbEntity
  8
0
  6
CONTINUOUS
 62
               7
100
AcDbLine
 10
-5.0
 20
4.0
 30
0.0
 11
-4.7000000000000002
 21
-4.0
 31
0.0
  0
LINE
  5
F9
100
AcDbEntity
  8
0
  6
CONTINUOUS
 62
               7
100
AcDbLine
 10
-5.0
 20
4.0
 30
0.0
 11
5.0
 21
4.0
 31
0.0
  0
LINE
  5
FA
100
AcDbEntity
  8
0
  6
CONTINUOUS
 62
               7
100
AcDbLine
 10
-5.0
 20
13.5
 30
0.0
 11
-5.0
 21
4.0
 31
0.0
  0
LINE
  5
FB
100
AcDbEntity
  8
0
  6
CONTINUOUS
 62
               7
100
AcDbLine
 10
5.0
 20
13.5
 30
0.0
 11
5.0
 21
4.0
 31
0.0
  0
LINE
  5
FC
100
AcDbEntity
  8
0
  6
CONTINUOUS
 62
               7
100
AcDbLine
 10
6.9000000000000004
 20
24.5
 30
0.0
 11
7.9000000000000004
 21
24.23
 31
0.0
  0
LINE
  5
FD
100
AcDbEntity
  8
0
  6
CONTINUOUS
 62
               7
100
AcDbLine
 10
-7.9000000000000004
 20
13.76
 30
0.0
 11
-6.9000000000000004
 21
13.5
 31
0.0
  0
LINE
  5
FE
100
AcDbEntity
  8
0
  6
CONTINUOUS
 62
               7
100
AcDbLine
 10
6.9000000000000004
 20
13.5
 30
0.0
 11
7.9000000000000004
 21
13.76
 31
0.0
  0
LINE
  5
FF
100
AcDbEntity
  8
0
  6
CONTINUOUS
 62
               7
100
AcDbLine
 10
-7.9000000000000004
 20
24.23
 30
0.0
 11
-6.9000000000000004
 21
24.5
 31
0.0
  0
LINE
  5
100
100
AcDbEntity
  8
0
  6
DASHED
 62
               2
100
AcDbLine
 10
-5.0
 20
24.5
 30
0.0
 11
-4.75
 21
16.5
 31
0.0
  0
LINE
  5
101
100
AcDbEntity
  8
0
  6
CONTINUOUS
 62
               7
100
AcDbLine
 10
-6.9000000000000004
 20
13.5
 30
0.0
 11
6.9000000000000004
 21
13.5
 31
0.0
  0
LINE
  5
102
100
AcDbEntity
  8
0
  6
CONTINUOUS
 62
               7
100
AcDbLine
 10
-6.9000000000000004
 20
24.5
 30
0.0
 11
6.9000000000000004
 21
24.5
 31
0.0
  0
LINE
  5
103
100
AcDbEntity
  8
0
  6
CONTINUOUS
 62
               7
100
AcDbLine
 10
-4.7000000000000002
 20
-4.0
 30
0.0
 11
4.7000000000000002
 21
-4.0
 31
0.0
  0
LINE
  5
104
100
AcDbEntity
  8
0
  6
CENTER
 62
               2
100
AcDbLine
 10
0.0
 20
37.789999999999999
 30
0.0
 11
0.0
 21
-14.09
 31
0.0
  0
LINE
  5
105
100
AcDbEntity
  8
0
  6
DASHED
 62
               2
100
AcDbLine
 10
-4.75
 20
16.5
 30
0.0
 11
4.75
 21
16.5
 31
0.0
  0
LINE
  5
106
100
AcDbEntity
  8
0
  6
CENTER
 62
               2
100
AcDbLine
 10
-7.0700000000000003
 20
0.0
 30
0.0
 11
7.4100000000000001
 21
0.0
 31
0.0
  0
ENDBLK
  5
107
100
AcDbEntity
  8
0
100
AcDbBlockEnd
  0
BLOCK
  5
108
100
AcDbEntity
  8
0
100
AcDbBlockBegin
  2
MS_10
 70
               0
 10
0.0
 20
0.0
 30
0.0
  3
MS_10
  1

  0
CIRCLE
  5
109
100
AcDbEntity
  8
0
  6
CONTINUOUS
 62
               2
100
AcDbCircle
 10
0.0
 20
0.0
 30
0.0
 40
5.0
  0
CIRCLE
  5
10A
100
AcDbEntity
  8
0
  6
CONTINUOUS
 62
               7
100
AcDbCircle
 10
0.0
 20
0.0
 30
0.0
 40
3.0
  0
CIRCLE
  5
10B
100
AcDbEntity
  8
0
  6
CONTINUOUS
 62
               7
100
AcDbCircle
 10
0.0
 20
0.0
 30
0.0
 40
6.8999996185302734
  0
CIRCLE
  5
10C
100
AcDbEntity
  8
0
  6
CONTINUOUS
 62
               7
100
AcDbCircle
 10
0.0
 20
0.0
 30
0.0
 40
4.3999996185302734
  0
LINE
  5
10D
100
AcDbEntity
  8
0
  6
CONTINUOUS
 62
               7
100
AcDbLine
 10
4.04
 20
7.0
 30
0.0
 11
8.0800000000000001
 21
0.0
 31
0.0
  0
LINE
  5
10E
100
AcDbEntity
  8
0
  6
CONTINUOUS
 62
               7
100
AcDbLine
 10
-8.0800000000000001
 20
0.0
 30
0.0
 11
-4.04
 21
-7.0
 31
0.0
  0
LINE
  5
10F
100
AcDbEntity
  8
0
  6
CONTINUOUS
 62
               7
100
AcDbLine
 10
4.04
 20
-7.0
 30
0.0
 11
8.0800000000000001
 21
0.0
 31
0.0
  0
LINE
  5
110
100
AcDbEntity
  8
0
  6
CONTINUOUS
 62
               7
100
AcDbLine
 10
-8.0800000000000001
 20
0.0
 30
0.0
 11
-4.04
 21
7.0
 31
0.0
  0
LINE
  5
111
100
AcDbEntity
  8
0
  6
CONTINUOUS
 62
               7
100
AcDbLine
 10
-4.04
 20
7.0
 30
0.0
 11
4.04
 21
7.0
 31
0.0
  0
LINE
  5
112
100
AcDbEntity
  8
0
  6
CONTINUOUS
 62
               7
100
AcDbLine
 10
-4.04
 20
-7.0
 30
0.0
 11
4.04
 21
-7.0
 31
0.0
  0
LINE
  5
113
100
AcDbEntity
  8
0
  6
CENTER
 62
               2
100
AcDbLine
 10
0.0
 20
14.99
 30
0.0
 11
0.0
 21
-13.5
 31
0.0
  0
LINE
  5
114
100
AcDbEntity
  8
0
  6
CENTER
 62
               2
100
AcDbLine
 10
-17.32
 20
0.0
 30
0.0
 11
17.719999999999999
 21
0.0
 31
0.0
  0
ENDBLK
  5
115
100
AcDbEntity
  8
0
100
AcDbBlockEnd
  0
BLOCK
  5
116
100
AcDbEntity
  8
0
100
AcDbBlockBegin
  2
MS_11
 70
               0
 10
0.0
 20
0.0
 30
0.0
  3
MS_11
  1

  0
LINE
  5
117
100
AcDbEntity
  8
0
  6
CONTINUOUS
 62
               7
100
AcDbLine
 10
-9.4000000000000004
 20
16.75
 30
0.0
 11
-9.4000000000000004
 21
4.2400000000000002
 31
0.0
  0
LINE
  5
118
100
AcDbEntity
  8
0
  6
CONTINUOUS
 62
               7
100
AcDbLine
 10
9.4000000000000004
 20
16.75
 30
0.0
 11
9.4000000000000004
 21
4.2400000000000002
 31
0.0
  0
LINE
  5
119
100
AcDbEntity
  8
0
  6
CONTINUOUS
 62
               7
100
AcDbLine
 10
5.0
 20
4.0
 30
0.0
 11
4.7000000000000002
 21
-4.0
 31
0.0
  0
LINE
  5
11A
100
AcDbEntity
  8
0
  6
CONTINUOUS
 62
               7
100
AcDbLine
 10
-5.0
 20
4.0
 30
0.0
 11
-4.7000000000000002
 21
-4.0
 31
0.0
  0
LINE
  5
11B
100
AcDbEntity
  8
0
  6
CONTINUOUS
 62
               7
100
AcDbLine
 10
-4.7000000000000002
 20
-4.0
 30
0.0
 11
4.7000000000000002
 21
-4.0
 31
0.0
  0
LINE
  5
11C
100
AcDbEntity
  8
0
  6
CONTINUOUS
 62
               2
100
AcDbLine
 10
4.4000000000000004
 20
4.0199999999999996
 30
0.0
 11
4.0999999999999996
 21
-3.9700000000000002
 31
0.0
  0
LINE
  5
11D
100
AcDbEntity
  8
0
  6
DASHED
 62
               2
100
AcDbLine
 10
5.9000000000000004
 20
17.02
 30
0.0
 11
5.5499999999999998
 21
6.0199999999999996
 31
0.0
  0
LINE
  5
11E
100
AcDbEntity
  8
0
  6
DASHED
 62
               2
100
AcDbLine
 10
-5.9000000000000004
 20
17.02
 30
0.0
 11
-5.5499999999999998
 21
6.0199999999999996
 31
0.0
  0
LINE
  5
11F
100
AcDbEntity
  8
0
  6
DASHED
 62
               2
100
AcDbLine
 10
-6.3499999999999996
 20
6.0
 30
0.0
 11
6.3499999999999996
 21
6.0
 31
0.0
  0
LINE
  5
120
100
AcDbEntity
  8
0
  6
DASHED
 62
               2
100
AcDbLine
 10
6.7000000000000002
 20
17.0
 30
0.0
 11
6.3499999999999996
 21
6.0
 31
0.0
  0
LINE
  5
121
100
AcDbEntity
  8
0
  6
DASHED
 62
               2
100
AcDbLine
 10
-6.7000000000000002
 20
17.0
 30
0.0
 11
-6.3499999999999996
 21
6.0
 31
0.0
  0
LINE
  5
122
100
AcDbEntity
  8
0
  6
CONTINUOUS
 62
               7
100
AcDbLine
 10
-9.4000000000000004
 20
4.2400000000000002
 30
0.0
 11
-8.5
 21
4.0
 31
0.0
  0
LINE
  5
123
100
AcDbEntity
  8
0
  6
CONTINUOUS
 62
               7
100
AcDbLine
 10
8.5
 20
17.0
 30
0.0
 11
9.4000000000000004
 21
16.75
 31
0.0
  0
LINE
  5
124
100
AcDbEntity
  8
0
  6
CONTINUOUS
 62
               7
100
AcDbLine
 10
8.5
 20
4.0
 30
0.0
 11
9.4000000000000004
 21
4.2400000000000002
 31
0.0
  0
LINE
  5
125
100
AcDbEntity
  8
0
  6
CONTINUOUS
 62
               7
100
AcDbLine
 10
-9.4000000000000004
 20
16.75
 30
0.0
 11
-8.5
 21
17.0
 31
0.0
  0
LINE
  5
126
100
AcDbEntity
  8
0
  6
CONTINUOUS
 62
               7
100
AcDbLine
 10
4.9000000000000004
 20
17.0
 30
0.0
 11
4.9000000000000004
 21
4.0
 31
0.0
  0
LINE
  5
127
100
AcDbEntity
  8
0
  6
CONTINUOUS
 62
               7
100
AcDbLine
 10
-4.9000000000000004
 20
17.0
 30
0.0
 11
-4.9000000000000004
 21
4.0
 31
0.0
  0
LINE
  5
128
100
AcDbEntity
  8
0
  6
CONTINUOUS
 62
               7
100
AcDbLine
 10
-8.5
 20
4.0
 30
0.0
 11
8.5
 21
4.0
 31
0.0
  0
LINE
  5
129
100
AcDbEntity
  8
0
  6
CONTINUOUS
 62
               7
100
AcDbLine
 10
-8.5
 20
17.0
 30
0.0
 11
8.5
 21
17.0
 31
0.0
  0
LINE
  5
12A
100
AcDbEntity
  8
0
  6
CENTER
 62
               2
100
AcDbLine
 10
0.0
 20
31.300000000000001
 30
0.0
 11
0.0
 21
-23.199999999999999
 31
0.0
  0
LINE
  5
12B
100
AcDbEntity
  8
0
  6
CENTER
 62
               2
100
AcDbLine
 10
-8.1799999999999997
 20
0.0
 30
0.0
 11
7.5199999999999996
 21
0.0
 31
0.0
  0
LINE
  5
12C
100
AcDbEntity
  8
0
  6
CONTINUOUS
 62
               2
100
AcDbLine
 10
-4.4000000000000004
 20
4.0199999999999996
 30
0.0
 11
-4.0999999999999996
 21
-3.9700000000000002
 31
0.0
  0
ENDBLK
  5
12D
100
AcDbEntity
  8
0
100
AcDbBlockEnd
  0
BLOCK
  5
12E
100
AcDbEntity
  8
0
100
AcDbBlockBegin
  2
MS_12
 70
               0
 10
0.0
 20
0.0
 30
0.0
  3
MS_12
  1

  0
CIRCLE
  5
12F
100
AcDbEntity
  8
0
  6
CONTINUOUS
 62
               2
100
AcDbCircle
 10
0.0
 20
0.0
 30
0.0
 40
6.6999998092651367
  0
CIRCLE
  5
130
100
AcDbEntity
  8
0
  6
CONTINUOUS
 62
               7
100
AcDbCircle
 10
0.0
 20
0.0
 30
0.0
 40
3.0
  0
CIRCLE
  5
131
100
AcDbEntity
  8
0
  6
CONTINUOUS
 62
               7
100
AcDbCircle
 10
0.0
 20
0.0
 30
0.0
 40
8.5
  0
CIRCLE
  5
132
100
AcDbEntity
  8
0
  6
CONTINUOUS
 62
               7
100
AcDbCircle
 10
0.0
 20
0.0
 30
0.0
 40
5.8999996185302734
  0
LINE
  5
133
100
AcDbEntity
  8
0
  6
CONTINUOUS
 62
               7
100
AcDbLine
 10
4.0700000000000003
 20
8.5
 30
0.0
 11
5.3200000000000003
 21
7.7800000000000002
 31
0.0
  0
LINE
  5
134
100
AcDbEntity
  8
0
  6
CONTINUOUS
 62
               7
100
AcDbLine
 10
-5.3200000000000003
 20
-7.7800000000000002
 30
0.0
 11
-4.0700000000000003
 21
-8.5
 31
0.0
  0
LINE
  5
135
100
AcDbEntity
  8
0
  6
CONTINUOUS
 62
               7
100
AcDbLine
 10
9.4000000000000004
 20
0.71
 30
0.0
 11
9.4000000000000004
 21
-0.71
 31
0.0
  0
LINE
  5
136
100
AcDbEntity
  8
0
  6
CONTINUOUS
 62
               7
100
AcDbLine
 10
-9.4000000000000004
 20
0.71
 30
0.0
 11
-9.4000000000000004
 21
-0.71
 31
0.0
  0
LINE
  5
137
100
AcDbEntity
  8
0
  6
CONTINUOUS
 62
               7
100
AcDbLine
 10
4.0700000000000003
 20
-8.5
 30
0.0
 11
5.3200000000000003
 21
-7.7800000000000002
 31
0.0
  0
LINE
  5
138
100
AcDbEntity
  8
0
  6
CONTINUOUS
 62
               7
100
AcDbLine
 10
-5.3200000000000003
 20
7.7800000000000002
 30
0.0
 11
-4.0700000000000003
 21
8.5
 31
0.0
  0
LINE
  5
139
100
AcDbEntity
  8
0
  6
CONTINUOUS
 62
               7
100
AcDbLine
 10
5.3200000000000003
 20
7.7800000000000002
 30
0.0
 11
9.4000000000000004
 21
0.71
 31
0.0
  0
LINE
  5
13A
100
AcDbEntity
  8
0
  6
CONTINUOUS
 62
               7
100
AcDbLine
 10
-9.4000000000000004
 20
-0.71
 30
0.0
 11
-5.3200000000000003
 21
-7.7800000000000002
 31
0.0
  0
LINE
  5
13B
100
AcDbEntity
  8
0
  6
CONTINUOUS
 62
               7
100
AcDbLine
 10
5.3200000000000003
 20
-7.7800000000000002
 30
0.0
 11
9.4000000000000004
 21
-0.71
 31
0.0
  0
LINE
  5
13C
100
AcDbEntity
  8
0
  6
CONTINUOUS
 62
               7
100
AcDbLine
 10
-9.4000000000000004
 20
0.71
 30
0.0
 11
-5.3200000000000003
 21
7.7800000000000002
 31
0.0
  0
LINE
  5
13D
100
AcDbEntity
  8
0
  6
CONTINUOUS
 62
               7
100
AcDbLine
 10
-4.0700000000000003
 20
-8.5
 30
0.0
 11
4.0700000000000003
 21
-8.5
 31
0.0
  0
LINE
  5
13E
100
AcDbEntity
  8
0
  6
CONTINUOUS
 62
               7
100
AcDbLine
 10
-4.0700000000000003
 20
8.5
 30
0.0
 11
4.0700000000000003
 21
8.5
 31
0.0
  0
LINE
  5
13F
100
AcDbEntity
  8
0
  6
CENTER
 62
               2
100
AcDbLine
 10
-31.5
 20
0.0
 30
0.0
 11
29.0
 21
0.0
 31
0.0
  0
LINE
  5
140
100
AcDbEntity
  8
0
  6
CENTER
 62
               2
100
AcDbLine
 10
0.0
 20
15.31
 30
0.0
 11
0.0
 21
-14.27
 31
0.0
  0
ENDBLK
  5
141
100
AcDbEntity
  8
0
100
AcDbBlockEnd
  0
BLOCK
  5
142
100
AcDbEntity
  8
0
100
AcDbBlockBegin
  2
MS_13
 70
               0
 10
0.0
 20
0.0
 30
0.0
  3
MS_13
  1

  0
LINE
  5
143
100
AcDbEntity
  8
0
  6
CONTINUOUS
 62
               7
100
AcDbLine
 10
11.699999999999999
 20
17.670000000000002
 30
0.0
 11
11.699999999999999
 21
4.3200000000000003
 31
0.0
  0
LINE
  5
144
100
AcDbEntity
  8
0
  6
CONTINUOUS
 62
               7
100
AcDbLine
 10
-11.699999999999999
 20
17.670000000000002
 30
0.0
 11
-11.699999999999999
 21
4.3200000000000003
 31
0.0
  0
LINE
  5
145
100
AcDbEntity
  8
0
  6
DASHED
 62
               2
100
AcDbLine
 10
-8.3699999999999992
 20
6.0
 30
0.0
 11
8.3699999999999992
 21
6.0
 31
0.0
  0
LINE
  5
146
100
AcDbEntity
  8
0
  6
DASHED
 62
               2
100
AcDbLine
 10
-7.9500000000000002
 20
18.02
 30
0.0
 11
-7.5700000000000003
 21
6.0199999999999996
 31
0.0
  0
LINE
  5
147
100
AcDbEntity
  8
0
  6
DASHED
 62
               2
100
AcDbLine
 10
7.9500000000000002
 20
18.02
 30
0.0
 11
7.5700000000000003
 21
6.0199999999999996
 31
0.0
  0
LINE
  5
148
100
AcDbEntity
  8
0
  6
CONTINUOUS
 62
               7
100
AcDbLine
 10
-11.699999999999999
 20
4.3200000000000003
 30
0.0
 11
-10.5
 21
4.0
 31
0.0
  0
LINE
  5
149
100
AcDbEntity
  8
0
  6
CONTINUOUS
 62
               7
100
AcDbLine
 10
10.5
 20
18.0
 30
0.0
 11
11.699999999999999
 21
17.670000000000002
 31
0.0
  0
LINE
  5
14A
100
AcDbEntity
  8
0
  6
CONTINUOUS
 62
               7
100
AcDbLine
 10
10.5
 20
4.0
 30
0.0
 11
11.699999999999999
 21
4.3200000000000003
 31
0.0
  0
LINE
  5
14B
100
AcDbEntity
  8
0
  6
CONTINUOUS
 62
               7
100
AcDbLine
 10
-11.699999999999999
 20
17.670000000000002
 30
0.0
 11
-10.5
 21
18.0
 31
0.0
  0
LINE
  5
14C
100
AcDbEntity
  8
0
  6
CONTINUOUS
 62
               7
100
AcDbLine
 10
6.0
 20
18.0
 30
0.0
 11
6.0
 21
4.0
 31
0.0
  0
LINE
  5
14D
100
AcDbEntity
  8
0
  6
CONTINUOUS
 62
               7
100
AcDbLine
 10
-6.0
 20
18.0
 30
0.0
 11
-6.0
 21
4.0
 31
0.0
  0
LINE
  5
14E
100
AcDbEntity
  8
0
  6
CONTINUOUS
 62
               7
100
AcDbLine
 10
-10.5
 20
4.0
 30
0.0
 11
10.5
 21
4.0
 31
0.0
  0
LINE
  5
14F
100
AcDbEntity
  8
0
  6
CONTINUOUS
 62
               7
100
AcDbLine
 10
-10.5
 20
18.0
 30
0.0
 11
10.5
 21
18.0
 31
0.0
  0
LINE
  5
150
100
AcDbEntity
  8
0
  6
CONTINUOUS
 62
               2
100
AcDbLine
 10
4.4000000000000004
 20
4.0199999999999996
 30
0.0
 11
4.0999999999999996
 21
-3.9700000000000002
 31
0.0
  0
LINE
  5
151
100
AcDbEntity
  8
0
  6
CONTINUOUS
 62
               2
100
AcDbLine
 10
-4.4000000000000004
 20
4.0199999999999996
 30
0.0
 11
-4.0999999999999996
 21
-3.9700000000000002
 31
0.0
  0
LINE
  5
152
100
AcDbEntity
  8
0
  6
CENTER
 62
               2
100
AcDbLine
 10
-8.1799999999999997
 20
0.0
 30
0.0
 11
7.5199999999999996
 21
0.0
 31
0.0
  0
LINE
  5
153
100
AcDbEntity
  8
0
  6
CONTINUOUS
 62
               7
100
AcDbLine
 10
5.0
 20
4.0
 30
0.0
 11
4.7000000000000002
 21
-4.0
 31
0.0
  0
LINE
  5
154
100
AcDbEntity
  8
0
  6
CONTINUOUS
 62
               7
100
AcDbLine
 10
-5.0
 20
4.0
 30
0.0
 11
-4.7000000000000002
 21
-4.0
 31
0.0
  0
LINE
  5
155
100
AcDbEntity
  8
0
  6
CONTINUOUS
 62
               7
100
AcDbLine
 10
-4.7000000000000002
 20
-4.0
 30
0.0
 11
4.7000000000000002
 21
-4.0
 31
0.0
  0
LINE
  5
156
100
AcDbEntity
  8
0
  6
CENTER
 62
               2
100
AcDbLine
 10
0.0
 20
31.0
 30
0.0
 11
0.0
 21
-16.41
 31
0.0
  0
LINE
  5
157
100
AcDbEntity
  8
0
  6
DASHED
 62
               2
100
AcDbLine
 10
-8.75
 20
18.0
 30
0.0
 11
-8.3699999999999992
 21
6.0
 31
0.0
  0
LINE
  5
158
100
AcDbEntity
  8
0
  6
DASHED
 62
               2
100
AcDbLine
 10
8.75
 20
18.0
 30
0.0
 11
8.3699999999999992
 21
6.0
 31
0.0
  0
ENDBLK
  5
159
100
AcDbEntity
  8
0
100
AcDbBlockEnd
  0
BLOCK
  5
15A
100
AcDbEntity
  8
0
100
AcDbBlockBegin
  2
MS_14
 70
               0
 10
0.0
 20
0.0
 30
0.0
  3
MS_14
  1

  0
CIRCLE
  5
15B
100
AcDbEntity
  8
0
  6
CONTINUOUS
 62
               2
100
AcDbCircle
 10
0.0
 20
0.0
 30
0.0
 40
8.75
  0
CIRCLE
  5
15C
100
AcDbEntity
  8
0
  6
CONTINUOUS
 62
               7
100
AcDbCircle
 10
0.0
 20
0.0
 30
0.0
 40
3.0
  0
CIRCLE
  5
15D
100
AcDbEntity
  8
0
  6
CONTINUOUS
 62
               7
100
AcDbCircle
 10
0.0
 20
0.0
 30
0.0
 40
7.9499998092651367
  0
CIRCLE
  5
15E
100
AcDbEntity
  8
0
  6
CONTINUOUS
 62
               7
100
AcDbCircle
 10
0.0
 20
0.0
 30
0.0
 40
10.5
  0
LINE
  5
15F
100
AcDbEntity
  8
0
  6
CONTINUOUS
 62
               7
100
AcDbLine
 10
5.21
 20
10.5
 30
0.0
 11
6.4800000000000004
 21
9.7599999999999998
 31
0.0
  0
LINE
  5
160
100
AcDbEntity
  8
0
  6
CONTINUOUS
 62
               7
100
AcDbLine
 10
-6.4800000000000004
 20
-9.7599999999999998
 30
0.0
 11
-5.21
 21
-10.5
 31
0.0
  0
LINE
  5
161
100
AcDbEntity
  8
0
  6
CONTINUOUS
 62
               7
100
AcDbLine
 10
11.699999999999999
 20
0.73
 30
0.0
 11
11.699999999999999
 21
-0.73
 31
0.0
  0
LINE
  5
162
100
AcDbEntity
  8
0
  6
CONTINUOUS
 62
               7
100
AcDbLine
 10
-11.699999999999999
 20
0.73
 30
0.0
 11
-11.699999999999999
 21
-0.73
 31
0.0
  0
LINE
  5
163
100
AcDbEntity
  8
0
  6
CONTINUOUS
 62
               7
100
AcDbLine
 10
5.21
 20
-10.5
 30
0.0
 11
6.4800000000000004
 21
-9.7599999999999998
 31
0.0
  0
LINE
  5
164
100
AcDbEntity
  8
0
  6
CONTINUOUS
 62
               7
100
AcDbLine
 10
-6.4800000000000004
 20
9.7599999999999998
 30
0.0
 11
-5.21
 21
10.5
 31
0.0
  0
LINE
  5
165
100
AcDbEntity
  8
0
  6
CONTINUOUS
 62
               7
100
AcDbLine
 10
6.4800000000000004
 20
9.7599999999999998
 30
0.0
 11
11.699999999999999
 21
0.73
 31
0.0
  0
LINE
  5
166
100
AcDbEntity
  8
0
  6
CONTINUOUS
 62
               7
100
AcDbLine
 10
-11.699999999999999
 20
-0.73
 30
0.0
 11
-6.4800000000000004
 21
-9.7599999999999998
 31
0.0
  0
LINE
  5
167
100
AcDbEntity
  8
0
  6
CONTINUOUS
 62
               7
100
AcDbLine
 10
6.4800000000000004
 20
-9.7599999999999998
 30
0.0
 11
11.699999999999999
 21
-0.73
 31
0.0
  0
LINE
  5
168
100
AcDbEntity
  8
0
  6
CONTINUOUS
 62
               7
100
AcDbLine
 10
-11.699999999999999
 20
0.73
 30
0.0
 11
-6.4800000000000004
 21
9.7599999999999998
 31
0.0
  0
LINE
  5
169
100
AcDbEntity
  8
0
  6
CONTINUOUS
 62
               7
100
AcDbLine
 10
-5.21
 20
-10.5
 30
0.0
 11
5.21
 21
-10.5
 31
0.0
  0
LINE
  5
16A
100
AcDbEntity
  8
0
  6
CONTINUOUS
 62
               7
100
AcDbLine
 10
-5.21
 20
10.5
 30
0.0
 11
5.21
 21
10.5
 31
0.0
  0
LINE
  5
16B
100
AcDbEntity
  8
0
  6
CENTER
 62
               2
100
AcDbLine
 10
-31.5
 20
0.0
 30
0.0
 11
32.5
 21
0.0
 31
0.0
  0
LINE
  5
16C
100
AcDbEntity
  8
0
  6
CENTER
 62
               2
100
AcDbLine
 10
0.0
 20
19.0
 30
0.0
 11
0.0
 21
-17.100000000000001
 31
0.0
  0
ENDBLK
  5
16D
100
AcDbEntity
  8
0
100
AcDbBlockEnd
  0
BLOCK
  5
16E
100
AcDbEntity
  8
0
100
AcDbBlockBegin
  2
MS_15
 70
               0
 10
0.0
 20
0.0
 30
0.0
  3
MS_15
  1

  0
LINE
  5
16F
100
AcDbEntity
  8
0
  6
CONTINUOUS
 62
               7
100
AcDbLine
 10
-7.9000000000000004
 20
9.4800000000000004
 30
0.0
 11
-7.9000000000000004
 21
5.6900000000000004
 31
0.0
  0
LINE
  5
170
100
AcDbEntity
  8
0
  6
CONTINUOUS
 62
               7
100
AcDbLine
 10
7.9000000000000004
 20
9.4800000000000004
 30
0.0
 11
7.9000000000000004
 21
5.6900000000000004
 31
0.0
  0
LINE
  5
171
100
AcDbEntity
  8
0
  6
CONTINUOUS
 62
               7
100
AcDbLine
 10
6.7000000000000002
 20
5.0
 30
0.0
 11
6.4000000000000004
 21
-6.0
 31
0.0
  0
LINE
  5
172
100
AcDbEntity
  8
0
  6
CONTINUOUS
 62
               7
100
AcDbLine
 10
-6.7000000000000002
 20
5.0
 30
0.0
 11
-6.4000000000000004
 21
-6.0
 31
0.0
  0
LINE
  5
173
100
AcDbEntity
  8
0
  6
CONTINUOUS
 62
               7
100
AcDbLine
 10
-6.4000000000000004
 20
-6.0
 30
0.0
 11
6.4000000000000004
 21
-6.0
 31
0.0
  0
LINE
  5
174
100
AcDbEntity
  8
0
  6
CENTER
 62
               2
100
AcDbLine
 10
-9.9700000000000006
 20
0.0
 30
0.0
 11
9.3599999999999994
 21
0.0
 31
0.0
  0
LINE
  5
175
100
AcDbEntity
  8
0
  6
DASHED
 62
               2
100
AcDbLine
 10
2.1000000000000001
 20
10.0
 30
0.0
 11
2.1000000000000001
 21
4.0
 31
0.0
  0
LINE
  5
176
100
AcDbEntity
  8
0
  6
DASHED
 62
               2
100
AcDbLine
 10
-2.1000000000000001
 20
10.0
 30
0.0
 11
-2.1000000000000001
 21
4.0
 31
0.0
  0
LINE
  5
177
100
AcDbEntity
  8
0
  6
DASHED
 62
               2
100
AcDbLine
 10
-2.5
 20
4.0
 30
0.0
 11
2.5
 21
4.0
 31
0.0
  0
LINE
  5
178
100
AcDbEntity
  8
0
  6
DASHED
 62
               2
100
AcDbLine
 10
2.5
 20
10.0
 30
0.0
 11
2.5
 21
4.0
 31
0.0
  0
LINE
  5
179
100
AcDbEntity
  8
0
  6
DASHED
 62
               2
100
AcDbLine
 10
-2.5
 20
10.0
 30
0.0
 11
-2.5
 21
4.0
 31
0.0
  0
LINE
  5
17A
100
AcDbEntity
  8
0
  6
CONTINUOUS
 62
               7
100
AcDbLine
 10
4.0
 20
10.0
 30
0.0
 11
4.0
 21
5.0
 31
0.0
  0
LINE
  5
17B
100
AcDbEntity
  8
0
  6
CONTINUOUS
 62
               7
100
AcDbLine
 10
-4.0
 20
10.0
 30
0.0
 11
-4.0
 21
5.0
 31
0.0
  0
LINE
  5
17C
100
AcDbEntity
  8
0
  6
CONTINUOUS
 62
               7
100
AcDbLine
 10
-7.9000000000000004
 20
5.6900000000000004
 30
0.0
 11
-6.7000000000000002
 21
5.0
 31
0.0
  0
LINE
  5
17D
100
AcDbEntity
  8
0
  6
CONTINUOUS
 62
               7
100
AcDbLine
 10
7.0
 20
10.0
 30
0.0
 11
7.9000000000000004
 21
9.4800000000000004
 31
0.0
  0
LINE
  5
17E
100
AcDbEntity
  8
0
  6
CONTINUOUS
 62
               7
100
AcDbLine
 10
6.7000000000000002
 20
5.0
 30
0.0
 11
7.9000000000000004
 21
5.6900000000000004
 31
0.0
  0
LINE
  5
17F
100
AcDbEntity
  8
0
  6
CONTINUOUS
 62
               7
100
AcDbLine
 10
-7.9000000000000004
 20
9.4800000000000004
 30
0.0
 11
-7.0
 21
10.0
 31
0.0
  0
LINE
  5
180
100
AcDbEntity
  8
0
  6
CONTINUOUS
 62
               7
100
AcDbLine
 10
-6.7000000000000002
 20
5.0
 30
0.0
 11
6.7000000000000002
 21
5.0
 31
0.0
  0
LINE
  5
181
100
AcDbEntity
  8
0
  6
CONTINUOUS
 62
               7
100
AcDbLine
 10
-7.0
 20
10.0
 30
0.0
 11
7.0
 21
10.0
 31
0.0
  0
LINE
  5
182
100
AcDbEntity
  8
0
  6
CENTER
 62
               2
100
AcDbLine
 10
0.0
 20
22.289999999999999
 30
0.0
 11
0.0
 21
-13.880000000000001
 31
0.0
  0
LINE
  5
183
100
AcDbEntity
  8
0
  6
CONTINUOUS
 62
               2
100
AcDbLine
 10
5.9000000000000004
 20
5.0199999999999996
 30
0.0
 11
5.5999999999999996
 21
-5.9699999999999998
 31
0.0
  0
LINE
  5
184
100
AcDbEntity
  8
0
  6
CONTINUOUS
 62
               2
100
AcDbLine
 10
-5.9000000000000004
 20
5.0199999999999996
 30
0.0
 11
-5.5999999999999996
 21
-5.9699999999999998
 31
0.0
  0
ENDBLK
  5
185
100
AcDbEntity
  8
0
100
AcDbBlockEnd
  0
BLOCK
  5
186
100
AcDbEntity
  8
0
100
AcDbBlockBegin
  2
MS_16
 70
               0
 10
0.0
 20
0.0
 30
0.0
  3
MS_16
  1

  0
CIRCLE
  5
187
100
AcDbEntity
  8
0
  6
CONTINUOUS
 62
               7
100
AcDbCircle
 10
0.0
 20
0.0
 30
0.0
 40
2.0999994277954102
  0
CIRCLE
  5
188
100
AcDbEntity
  8
0
  6
CONTINUOUS
 62
               7
100
AcDbCircle
 10
0.0
 20
0.0
 30
0.0
 40
7.0
  0
CIRCLE
  5
189
100
AcDbEntity
  8
0
  6
CONTINUOUS
 62
               2
100
AcDbCircle
 10
0.0
 20
0.0
 30
0.0
 40
2.5
  0
LINE
  5
18A
100
AcDbEntity
  8
0
  6
CONTINUOUS
 62
               7
100
AcDbLine
 10
-4.04
 20
-7.0
 30
0.0
 11
4.04
 21
-7.0
 31
0.0
  0
LINE
  5
18B
100
AcDbEntity
  8
0
  6
CONTINUOUS
 62
               7
100
AcDbLine
 10
4.04
 20
7.0
 30
0.0
 11
8.0800000000000001
 21
0.0
 31
0.0
  0
LINE
  5
18C
100
AcDbEntity
  8
0
  6
CONTINUOUS
 62
               7
100
AcDbLine
 10
-8.0800000000000001
 20
0.0
 30
0.0
 11
-4.04
 21
-7.0
 31
0.0
  0
LINE
  5
18D
100
AcDbEntity
  8
0
  6
CONTINUOUS
 62
               7
100
AcDbLine
 10
4.04
 20
-7.0
 30
0.0
 11
8.0800000000000001
 21
0.0
 31
0.0
  0
LINE
  5
18E
100
AcDbEntity
  8
0
  6
CONTINUOUS
 62
               7
100
AcDbLine
 10
-8.0800000000000001
 20
0.0
 30
0.0
 11
-4.04
 21
7.0
 31
0.0
  0
LINE
  5
18F
100
AcDbEntity
  8
0
  6
CONTINUOUS
 62
               7
100
AcDbLine
 10
-4.04
 20
7.0
 30
0.0
 11
4.04
 21
7.0
 31
0.0
  0
LINE
  5
190
100
AcDbEntity
  8
0
  6
CENTER
 62
               2
100
AcDbLine
 10
-20.460000000000001
 20
0.0
 30
0.0
 11
24.449999999999999
 21
0.0
 31
0.0
  0
LINE
  5
191
100
AcDbEntity
  8
0
  6
CENTER
 62
               2
100
AcDbLine
 10
0.0
 20
21.0
 30
0.0
 11
0.0
 21
-14.5
 31
0.0
  0
ENDBLK
  5
192
100
AcDbEntity
  8
0
100
AcDbBlockEnd
  0
BLOCK
  5
193
100
AcDbEntity
  8
0
100
AcDbBlockBegin
  2
MS_17
 70
               0
 10
0.0
 20
0.0
 30
0.0
  3
MS_17
  1

  0
LINE
  5
195
100
AcDbEntity
  8
0
  6
PHANTOM
 62
               2
100
AcDbLine
 10
-9.9700000000000006
 20
0.0
 30
0.0
 11
9.3599999999999994
 21
0.0
 31
0.0
  0
LINE
  5
196
100
AcDbEntity
  8
0
  6
CONTINUOUS
 62
               7
100
AcDbLine
 10
-8.0
 20
12.35
 30
0.0
 11
-6.9000000000000004
 21
12.99
 31
0.0
  0
LINE
  5
197
100
AcDbEntity
  8
0
  6
CONTINUOUS
 62
               7
100
AcDbLine
 10
-4.0
 20
12.99
 30
0.0
 11
-4.0
 21
4.9900000000000002
 31
0.0
  0
LINE
  5
198
100
AcDbEntity
  8
0
  6
CONTINUOUS
 62
               7
100
AcDbLine
 10
4.0
 20
12.99
 30
0.0
 11
4.0
 21
4.9900000000000002
 31
0.0
  0
LINE
  5
199
100
AcDbEntity
  8
0
  6
CONTINUOUS
 62
               7
100
AcDbLine
 10
-8.0
 20
12.35
 30
0.0
 11
-8.0
 21
5.6200000000000001
 31
0.0
  0
LINE
  5
19A
100
AcDbEntity
  8
0
  6
CONTINUOUS
 62
               7
100
AcDbLine
 10
8.0
 20
12.35
 30
0.0
 11
8.0
 21
5.6200000000000001
 31
0.0
  0
LINE
  5
19B
100
AcDbEntity
  8
0
  6
CONTINUOUS
 62
               7
100
AcDbLine
 10
-6.9000000000000004
 20
4.9900000000000002
 30
0.0
 11
6.9000000000000004
 21
4.9900000000000002
 31
0.0
  0
LINE
  5
19C
100
AcDbEntity
  8
0
  6
CONTINUOUS
 62
               7
100
AcDbLine
 10
-6.9000000000000004
 20
12.99
 30
0.0
 11
6.9000000000000004
 21
12.99
 31
0.0
  0
LINE
  5
19D
100
AcDbEntity
  8
0
  6
CONTINUOUS
 62
               7
100
AcDbLine
 10
6.9000000000000004
 20
12.99
 30
0.0
 11
8.0
 21
12.35
 31
0.0
  0
LINE
  5
19E
100
AcDbEntity
  8
0
  6
CONTINUOUS
 62
               2
100
AcDbLine
 10
5.9000000000000004
 20
4.9900000000000002
 30
0.0
 11
5.5999999999999996
 21
-5.9800000000000004
 31
0.0
  0
LINE
  5
19F
100
AcDbEntity
  8
0
  6
CONTINUOUS
 62
               2
100
AcDbLine
 10
-5.9000000000000004
 20
4.9900000000000002
 30
0.0
 11
-5.5999999999999996
 21
-5.9800000000000004
 31
0.0
  0
LINE
  5
1A0
100
AcDbEntity
  8
0
  6
CONTINUOUS
 62
               7
100
AcDbLine
 10
6.7000000000000002
 20
4.9900000000000002
 30
0.0
 11
6.4000000000000004
 21
-6.0099999999999998
 31
0.0
  0
LINE
  5
1A1
100
AcDbEntity
  8
0
  6
CONTINUOUS
 62
               7
100
AcDbLine
 10
-6.7000000000000002
 20
4.9900000000000002
 30
0.0
 11
-6.4000000000000004
 21
-6.0099999999999998
 31
0.0
  0
LINE
  5
1A2
100
AcDbEntity
  8
0
  6
CONTINUOUS
 62
               7
100
AcDbLine
 10
-6.4000000000000004
 20
-6.0099999999999998
 30
0.0
 11
6.4000000000000004
 21
-6.0099999999999998
 31
0.0
  0
LINE
  5
1A3
100
AcDbEntity
  8
0
  6
DASHED
 62
               2
100
AcDbLine
 10
4.4000000000000004
 20
12.99
 30
0.0
 11
4.1500000000000004
 21
5.0
 31
0.0
  0
LINE
  5
1A4
100
AcDbEntity
  8
0
  6
DASHED
 62
               2
100
AcDbLine
 10
-4.4000000000000004
 20
12.99
 30
0.0
 11
-4.1500000000000004
 21
5.0
 31
0.0
  0
LINE
  5
1A5
100
AcDbEntity
  8
0
  6
DASHED
 62
               2
100
AcDbLine
 10
5.0
 20
12.99
 30
0.0
 11
4.75
 21
4.9900000000000002
 31
0.0
  0
LINE
  5
1A6
100
AcDbEntity
  8
0
  6
DASHED
 62
               2
100
AcDbLine
 10
-5.0
 20
12.99
 30
0.0
 11
-4.75
 21
4.9900000000000002
 31
0.0
  0
LINE
  5
1A7
100
AcDbEntity
  8
0
  6
DASHED
 62
               7
100
AcDbLine
 10
-4.75
 20
4.9900000000000002
 30
0.0
 11
4.75
 21
4.9900000000000002
 31
0.0
  0
LINE
  5
1A8
100
AcDbEntity
  8
0
  6
CENTER
 62
               2
100
AcDbLine
 10
0.0
 20
25.829999999999998
 30
0.0
 11
0.0
 21
-19.010000000000002
 31
0.0
  0
LINE
  5
1A9
100
AcDbEntity
  8
0
  6
CONTINUOUS
 62
               7
100
AcDbLine
 10
6.9000000000000004
 20
4.9900000000000002
 30
0.0
 11
8.0
 21
5.6200000000000001
 31
0.0
  0
LINE
  5
1AA
100
AcDbEntity
  8
0
  6
CONTINUOUS
 62
               7
100
AcDbLine
 10
-8.0
 20
5.6200000000000001
 30
0.0
 11
-6.9000000000000004
 21
4.9900000000000002
 31
0.0
  0
ENDBLK
  5
1AB
100
AcDbEntity
  8
0
100
AcDbBlockEnd
  0
BLOCK
  5
1AC
100
AcDbEntity
  8
0
100
AcDbBlockBegin
  2
MS_18
 70
               0
 10
0.0
 20
0.0
 30
0.0
  3
MS_18
  1

  0
CIRCLE
  5
1AD
100
AcDbEntity
  8
0
  6
CONTINUOUS
 62
               2
100
AcDbCircle
 10
0.0
 20
0.0
 30
0.0
 40
4.9999904632568359
  0
CIRCLE
  5
1AE
100
AcDbEntity
  8
0
  6
CONTINUOUS
 62
               7
100
AcDbCircle
 10
0.0
 20
0.0
 30
0.0
 40
4.4002857208251953
  0
CIRCLE
  5
1AF
100
AcDbEntity
  8
0
  6
CONTINUOUS
 62
               7
100
AcDbCircle
 10
0.0
 20
0.0
 30
0.0
 40
6.8999996185302734
  0
LINE
  5
1B0
100
AcDbEntity
  8
0
  6
CONTINUOUS
 62
               7
100
AcDbLine
 10
4.04
 20
7.0
 30
0.0
 11
8.0800000000000001
 21
0.0
 31
0.0
  0
LINE
  5
1B1
100
AcDbEntity
  8
0
  6
CONTINUOUS
 62
               7
100
AcDbLine
 10
-8.0800000000000001
 20
0.0
 30
0.0
 11
-4.04
 21
-7.0
 31
0.0
  0
LINE
  5
1B2
100
AcDbEntity
  8
0
  6
CONTINUOUS
 62
               7
100
AcDbLine
 10
4.04
 20
-7.0
 30
0.0
 11
8.0800000000000001
 21
0.0
 31
0.0
  0
LINE
  5
1B3
100
AcDbEntity
  8
0
  6
CONTINUOUS
 62
               7
100
AcDbLine
 10
-8.0800000000000001
 20
0.0
 30
0.0
 11
-4.04
 21
7.0
 31
0.0
  0
LINE
  5
1B4
100
AcDbEntity
  8
0
  6
CONTINUOUS
 62
               7
100
AcDbLine
 10
-4.04
 20
-7.0
 30
0.0
 11
4.04
 21
-7.0
 31
0.0
  0
LINE
  5
1B5
100
AcDbEntity
  8
0
  6
CONTINUOUS
 62
               7
100
AcDbLine
 10
-4.04
 20
7.0
 30
0.0
 11
4.04
 21
7.0
 31
0.0
  0
LINE
  5
1B6
100
AcDbEntity
  8
0
  6
CENTER
 62
               2
100
AcDbLine
 10
-22.420000000000002
 20
0.0
 30
0.0
 11
22.16
 21
0.0
 31
0.0
  0
LINE
  5
1B7
100
AcDbEntity
  8
0
  6
CENTER
 62
               2
100
AcDbLine
 10
0.0
 20
11.66
 30
0.0
 11
0.0
 21
-12.5
 31
0.0
  0
ENDBLK
  5
1B8
100
AcDbEntity
  8
0
100
AcDbBlockEnd
  0
BLOCK
  5
1B9
100
AcDbEntity
  8
0
100
AcDbBlockBegin
  2
MS_19
 70
               0
 10
0.0
 20
0.0
 30
0.0
  3
MS_19
  1

  0
LINE
  5
1BA
100
AcDbEntity
  8
0
  6
CENTER
 62
               2
100
AcDbLine
 10
0.0
 20
43.799999999999997
 30
0.0
 11
0.0
 21
-12.33
 31
0.0
  0
LINE
  5
1BB
100
AcDbEntity
  8
0
  6
CONTINUOUS
 62
               2
100
AcDbLine
 10
5.9199999999999999
 20
5.0
 30
0.0
 11
5.6100000000000003
 21
-6.0
 31
0.0
  0
LINE
  5
1BC
100
AcDbEntity
  8
0
  6
CONTINUOUS
 62
               7
100
AcDbLine
 10
6.7199999999999998
 20
4.9800000000000004
 30
0.0
 11
6.4100000000000001
 21
-6.0
 31
0.0
  0
LINE
  5
1BD
100
AcDbEntity
  8
0
  6
CONTINUOUS
 62
               7
100
AcDbLine
 10
7.0
 20
12.0
 30
0.0
 11
7.0
 21
5.0
 31
0.0
  0
LINE
  5
1BE
100
AcDbEntity
  8
0
  6
CONTINUOUS
 62
               7
100
AcDbLine
 10
9.4000000000000004
 20
12.25
 30
0.0
 11
8.4399999999999995
 21
12.0
 31
0.0
  0
LINE
  5
1BF
100
AcDbEntity
  8
0
  6
CONTINUOUS
 62
               7
100
AcDbLine
 10
9.4000000000000004
 20
26.75
 30
0.0
 11
9.4000000000000004
 21
12.25
 31
0.0
  0
LINE
  5
1C0
100
AcDbEntity
  8
0
  6
CONTINUOUS
 62
               7
100
AcDbLine
 10
8.4700000000000006
 20
27.0
 30
0.0
 11
9.4000000000000004
 21
26.75
 31
0.0
  0
LINE
  5
1C1
100
AcDbEntity
  8
0
  6
CONTINUOUS
 62
               7
100
AcDbLine
 10
8.4000000000000004
 20
27.0
 30
0.0
 11
-8.4700000000000006
 21
27.0
 31
0.0
  0
LINE
  5
1C2
100
AcDbEntity
  8
0
  6
DASHED
 62
               2
100
AcDbLine
 10
6.4800000000000004
 20
26.960000000000001
 30
0.0
 11
5.8899999999999997
 21
15.970000000000001
 31
0.0
  0
LINE
  5
1C3
100
AcDbEntity
  8
0
  6
DASHED
 62
               2
100
AcDbLine
 10
5.6799999999999997
 20
27.0
 30
0.0
 11
5.0899999999999999
 21
16.02
 31
0.0
  0
LINE
  5
1C4
100
AcDbEntity
  8
0
  6
DASHED
 62
               2
100
AcDbLine
 10
5.8899999999999997
 20
16.0
 30
0.0
 11
0.0
 21
16.0
 31
0.0
  0
LINE
  5
1C5
100
AcDbEntity
  8
0
  6
DASHED
 62
               2
100
AcDbLine
 10
-6.4800000000000004
 20
26.960000000000001
 30
0.0
 11
-5.8899999999999997
 21
15.970000000000001
 31
0.0
  0
LINE
  5
1C6
100
AcDbEntity
  8
0
  6
DASHED
 62
               2
100
AcDbLine
 10
-5.6799999999999997
 20
27.0
 30
0.0
 11
-5.0899999999999999
 21
16.02
 31
0.0
  0
LINE
  5
1C7
100
AcDbEntity
  8
0
  6
DASHED
 62
               2
100
AcDbLine
 10
-5.8899999999999997
 20
16.0
 30
0.0
 11
0.0
 21
16.0
 31
0.0
  0
LINE
  5
1C8
100
AcDbEntity
  8
0
  6
CONTINUOUS
 62
               7
100
AcDbLine
 10
-7.0
 20
12.0
 30
0.0
 11
-7.0
 21
5.0
 31
0.0
  0
LINE
  5
1C9
100
AcDbEntity
  8
0
  6
CONTINUOUS
 62
               2
100
AcDbLine
 10
-5.9199999999999999
 20
5.0
 30
0.0
 11
-5.6100000000000003
 21
-6.0
 31
0.0
  0
LINE
  5
1CA
100
AcDbEntity
  8
0
  6
CONTINUOUS
 62
               7
100
AcDbLine
 10
-6.7199999999999998
 20
4.9800000000000004
 30
0.0
 11
-6.4100000000000001
 21
-6.0
 31
0.0
  0
LINE
  5
1CB
100
AcDbEntity
  8
0
  6
CENTER
 62
               2
100
AcDbLine
 10
-11.92
 20
0.0
 30
0.0
 11
12.800000000000001
 21
0.0
 31
0.0
  0
LINE
  5
1CC
100
AcDbEntity
  8
0
  6
CONTINUOUS
 62
               7
100
AcDbLine
 10
-8.4700000000000006
 20
27.0
 30
0.0
 11
-9.4000000000000004
 21
26.75
 31
0.0
  0
LINE
  5
1CD
100
AcDbEntity
  8
0
  6
CONTINUOUS
 62
               7
100
AcDbLine
 10
-9.4000000000000004
 20
12.25
 30
0.0
 11
-8.4399999999999995
 21
12.0
 31
0.0
  0
LINE
  5
1CE
100
AcDbEntity
  8
0
  6
CONTINUOUS
 62
               7
100
AcDbLine
 10
-8.4700000000000006
 20
27.0
 30
0.0
 11
-9.4000000000000004
 21
26.75
 31
0.0
  0
LINE
  5
1CF
100
AcDbEntity
  8
0
  6
CONTINUOUS
 62
               7
100
AcDbLine
 10
-9.4000000000000004
 20
26.75
 30
0.0
 11
-9.4000000000000004
 21
12.25
 31
0.0
  0
LINE
  5
1D0
100
AcDbEntity
  8
0
  6
CONTINUOUS
 62
               7
100
AcDbLine
 10
-8.4000000000000004
 20
12.0
 30
0.0
 11
8.4399999999999995
 21
12.0
 31
0.0
  0
LINE
  5
1D1
100
AcDbEntity
  8
0
  6
CONTINUOUS
 62
               7
100
AcDbLine
 10
-7.0
 20
5.0
 30
0.0
 11
7.0
 21
5.0
 31
0.0
  0
LINE
  5
1D2
100
AcDbEntity
  8
0
  6
CONTINUOUS
 62
               7
100
AcDbLine
 10
-8.4000000000000004
 20
27.0
 30
0.0
 11
8.4700000000000006
 21
27.0
 31
0.0
  0
LINE
  5
1D3
100
AcDbEntity
  8
0
  6
CONTINUOUS
 62
               7
100
AcDbLine
 10
-6.4100000000000001
 20
-6.0
 30
0.0
 11
6.4100000000000001
 21
-6.0
 31
0.0
  0
LINE
  5
1D4
100
AcDbEntity
  8
0
  6
CONTINUOUS
 62
               7
100
AcDbLine
 10
-5.0
 20
27.0
 30
0.0
 11
-5.0
 21
12.0
 31
0.0
  0
LINE
  5
1D5
100
AcDbEntity
  8
0
  6
CONTINUOUS
 62
               7
100
AcDbLine
 10
5.0
 20
27.0
 30
0.0
 11
5.0
 21
12.0
 31
0.0
  0
ENDBLK
  5
1D6
100
AcDbEntity
  8
0
100
AcDbBlockEnd
  0
BLOCK
  5
1D7
100
AcDbEntity
  8
0
100
AcDbBlockBegin
  2
MS_20
 70
               0
 10
0.0
 20
0.0
 30
0.0
  3
MS_20
  1

  0
CIRCLE
  5
1D8
100
AcDbEntity
  8
0
  6
CONTINUOUS
 62
               2
100
AcDbCircle
 10
0.0
 20
0.0
 30
0.0
 40
6.5225000381469727
  0
CIRCLE
  5
1D9
100
AcDbEntity
  8
0
  6
CONTINUOUS
 62
               7
100
AcDbCircle
 10
0.0
 20
0.0
 30
0.0
 40
5.7224998474121094
  0
CIRCLE
  5
1DA
100
AcDbEntity
  8
0
  6
CONTINUOUS
 62
               7
100
AcDbCircle
 10
0.0
 20
0.0
 30
0.0
 40
4.0
  0
CIRCLE
  5
1DB
100
AcDbEntity
  8
0
  6
CONTINUOUS
 62
               7
100
AcDbCircle
 10
0.0
 20
0.0
 30
0.0
 40
8.3999996185302734
  0
LINE
  5
1DC
100
AcDbEntity
  8
0
  6
CONTINUOUS
 62
               7
100
AcDbLine
 10
-4.9000000000000004
 20
8.5
 30
0.0
 11
4.9000000000000004
 21
8.5
 31
0.0
  0
LINE
  5
1DD
100
AcDbEntity
  8
0
  6
CONTINUOUS
 62
               7
100
AcDbLine
 10
-4.9000000000000004
 20
-8.5
 30
0.0
 11
4.9000000000000004
 21
-8.5
 31
0.0
  0
LINE
  5
1DE
100
AcDbEntity
  8
0
  6
CONTINUOUS
 62
               7
100
AcDbLine
 10
4.9000000000000004
 20
8.5
 30
0.0
 11
9.8100000000000005
 21
0.0
 31
0.0
  0
LINE
  5
1DF
100
AcDbEntity
  8
0
  6
CONTINUOUS
 62
               7
100
AcDbLine
 10
-9.8100000000000005
 20
0.0
 30
0.0
 11
-4.9000000000000004
 21
-8.5
 31
0.0
  0
LINE
  5
1E0
100
AcDbEntity
  8
0
  6
CONTINUOUS
 62
               7
100
AcDbLine
 10
-9.8100000000000005
 20
0.0
 30
0.0
 11
-4.9000000000000004
 21
8.5
 31
0.0
  0
LINE
  5
1E1
100
AcDbEntity
  8
0
  6
CONTINUOUS
 62
               7
100
AcDbLine
 10
4.9000000000000004
 20
-8.5
 30
0.0
 11
9.8100000000000005
 21
0.0
 31
0.0
  0
LINE
  5
1E2
100
AcDbEntity
  8
0
  6
CENTER
 62
               2
100
AcDbLine
 10
-25.079999999999998
 20
0.0
 30
0.0
 11
24.91
 21
0.0
 31
0.0
  0
LINE
  5
1E3
100
AcDbEntity
  8
0
  6
CENTER
 62
               2
100
AcDbLine
 10
0.0
 20
17.93
 30
0.0
 11
0.0
 21
-16.149999999999999
 31
0.0
  0
ENDBLK
  5
1E4
100
AcDbEntity
  8
0
100
AcDbBlockEnd
  0
BLOCK
  5
1E5
100
AcDbEntity
  8
0
100
AcDbBlockBegin
  2
MS_21
 70
               0
 10
0.0
 20
0.0
 30
0.0
  3
MS_21
  1

  0
LINE
  5
1E6
100
AcDbEntity
  8
0
  6
CONTINUOUS
 62
               7
100
AcDbLine
 10
-11.699999999999999
 20
18.670000000000002
 30
0.0
 11
-11.699999999999999
 21
5.3200000000000003
 31
0.0
  0
LINE
  5
1E7
100
AcDbEntity
  8
0
  6
CONTINUOUS
 62
               7
100
AcDbLine
 10
11.699999999999999
 20
18.670000000000002
 30
0.0
 11
11.699999999999999
 21
5.3200000000000003
 31
0.0
  0
LINE
  5
1E8
100
AcDbEntity
  8
0
  6
CONTINUOUS
 62
               7
100
AcDbLine
 10
6.7000000000000002
 20
5.0
 30
0.0
 11
6.4000000000000004
 21
-6.0
 31
0.0
  0
LINE
  5
1E9
100
AcDbEntity
  8
0
  6
CONTINUOUS
 62
               7
100
AcDbLine
 10
-6.7000000000000002
 20
5.0
 30
0.0
 11
-6.4000000000000004
 21
-6.0
 31
0.0
  0
LINE
  5
1EA
100
AcDbEntity
  8
0
  6
CONTINUOUS
 62
               7
100
AcDbLine
 10
-6.4000000000000004
 20
-6.0
 30
0.0
 11
6.4000000000000004
 21
-6.0
 31
0.0
  0
LINE
  5
1EB
100
AcDbEntity
  8
0
  6
CENTER
 62
               2
100
AcDbLine
 10
-10.140000000000001
 20
0.0
 30
0.0
 11
11.27
 21
0.0
 31
0.0
  0
LINE
  5
1EC
100
AcDbEntity
  8
0
  6
CONTINUOUS
 62
               7
100
AcDbLine
 10
-11.699999999999999
 20
5.3200000000000003
 30
0.0
 11
-10.5
 21
5.0
 31
0.0
  0
LINE
  5
1ED
100
AcDbEntity
  8
0
  6
CONTINUOUS
 62
               7
100
AcDbLine
 10
10.5
 20
19.0
 30
0.0
 11
11.699999999999999
 21
18.670000000000002
 31
0.0
  0
LINE
  5
1EE
100
AcDbEntity
  8
0
  6
CONTINUOUS
 62
               7
100
AcDbLine
 10
10.5
 20
5.0
 30
0.0
 11
11.699999999999999
 21
5.3200000000000003
 31
0.0
  0
LINE
  5
1EF
100
AcDbEntity
  8
0
  6
CONTINUOUS
 62
               7
100
AcDbLine
 10
-11.699999999999999
 20
18.670000000000002
 30
0.0
 11
-10.5
 21
19.0
 31
0.0
  0
LINE
  5
1F0
100
AcDbEntity
  8
0
  6
CONTINUOUS
 62
               7
100
AcDbLine
 10
-6.0
 20
19.0
 30
0.0
 11
-6.0
 21
5.0
 31
0.0
  0
LINE
  5
1F1
100
AcDbEntity
  8
0
  6
CONTINUOUS
 62
               7
100
AcDbLine
 10
6.0
 20
19.0
 30
0.0
 11
6.0
 21
5.0
 31
0.0
  0
LINE
  5
1F2
100
AcDbEntity
  8
0
  6
CONTINUOUS
 62
               7
100
AcDbLine
 10
-10.5
 20
5.0
 30
0.0
 11
10.5
 21
5.0
 31
0.0
  0
LINE
  5
1F3
100
AcDbEntity
  8
0
  6
CONTINUOUS
 62
               7
100
AcDbLine
 10
-10.5
 20
19.0
 30
0.0
 11
10.5
 21
19.0
 31
0.0
  0
LINE
  5
1F4
100
AcDbEntity
  8
0
  6
DASHED
 62
               2
100
AcDbLine
 10
7.9500000000000002
 20
19.0
 30
0.0
 11
7.5700000000000003
 21
7.0199999999999996
 31
0.0
  0
LINE
  5
1F5
100
AcDbEntity
  8
0
  6
DASHED
 62
               2
100
AcDbLine
 10
-7.9500000000000002
 20
19.0
 30
0.0
 11
-7.5700000000000003
 21
7.0199999999999996
 31
0.0
  0
LINE
  5
1F6
100
AcDbEntity
  8
0
  6
DASHED
 62
               2
100
AcDbLine
 10
-8.3699999999999992
 20
7.0
 30
0.0
 11
8.3699999999999992
 21
7.0
 31
0.0
  0
LINE
  5
1F7
100
AcDbEntity
  8
0
  6
DASHED
 62
               2
100
AcDbLine
 10
8.75
 20
19.0
 30
0.0
 11
8.3699999999999992
 21
7.0
 31
0.0
  0
LINE
  5
1F8
100
AcDbEntity
  8
0
  6
DASHED
 62
               2
100
AcDbLine
 10
-8.75
 20
19.0
 30
0.0
 11
-8.3699999999999992
 21
7.0
 31
0.0
  0
LINE
  5
1F9
100
AcDbEntity
  8
0
  6
CENTER
 62
               2
100
AcDbLine
 10
0.0
 20
33.299999999999997
 30
0.0
 11
0.0
 21
-25.0
 31
0.0
  0
LINE
  5
1FA
100
AcDbEntity
  8
0
  6
CONTINUOUS
 62
               2
100
AcDbLine
 10
-5.9000000000000004
 20
5.0199999999999996
 30
0.0
 11
-5.5999999999999996
 21
-5.9699999999999998
 31
0.0
  0
LINE
  5
1FB
100
AcDbEntity
  8
0
  6
CONTINUOUS
 62
               2
100
AcDbLine
 10
5.9000000000000004
 20
5.0199999999999996
 30
0.0
 11
5.5999999999999996
 21
-5.9699999999999998
 31
0.0
  0
ENDBLK
  5
1FC
100
AcDbEntity
  8
0
100
AcDbBlockEnd
  0
BLOCK
  5
1FD
100
AcDbEntity
  8
0
100
AcDbBlockBegin
  2
MS_22
 70
               0
 10
0.0
 20
0.0
 30
0.0
  3
MS_22
  1

  0
CIRCLE
  5
1FE
100
AcDbEntity
  8
0
  6
CONTINUOUS
 62
               7
100
AcDbCircle
 10
0.0
 20
0.0
 30
0.0
 40
3.8999996185302734
  0
CIRCLE
  5
1FF
100
AcDbEntity
  8
0
  6
CONTINUOUS
 62
               7
100
AcDbCircle
 10
0.0
 20
0.0
 30
0.0
 40
7.9503860473632812
  0
CIRCLE
  5
200
100
AcDbEntity
  8
0
  6
CONTINUOUS
 62
               2
100
AcDbCircle
 10
0.0
 20
0.0
 30
0.0
 40
8.7500085830688477
  0
CIRCLE
  5
201
100
AcDbEntity
  8
0
  6
CONTINUOUS
 62
               7
100
AcDbCircle
 10
0.0
 20
0.0
 30
0.0
 40
10.5
  0
LINE
  5
202
100
AcDbEntity
  8
0
  6
CONTINUOUS
 62
               7
100
AcDbLine
 10
5.21
 20
10.5
 30
0.0
 11
6.4800000000000004
 21
9.7599999999999998
 31
0.0
  0
LINE
  5
203
100
AcDbEntity
  8
0
  6
CONTINUOUS
 62
               7
100
AcDbLine
 10
-6.4800000000000004
 20
-9.7599999999999998
 30
0.0
 11
-5.21
 21
-10.5
 31
0.0
  0
LINE
  5
204
100
AcDbEntity
  8
0
  6
CONTINUOUS
 62
               7
100
AcDbLine
 10
11.699999999999999
 20
0.73
 30
0.0
 11
11.699999999999999
 21
-0.73
 31
0.0
  0
LINE
  5
205
100
AcDbEntity
  8
0
  6
CONTINUOUS
 62
               7
100
AcDbLine
 10
-11.699999999999999
 20
0.73
 30
0.0
 11
-11.699999999999999
 21
-0.73
 31
0.0
  0
LINE
  5
206
100
AcDbEntity
  8
0
  6
CONTINUOUS
 62
               7
100
AcDbLine
 10
5.21
 20
-10.5
 30
0.0
 11
6.4800000000000004
 21
-9.7599999999999998
 31
0.0
  0
LINE
  5
207
100
AcDbEntity
  8
0
  6
CONTINUOUS
 62
               7
100
AcDbLine
 10
-6.4800000000000004
 20
9.7599999999999998
 30
0.0
 11
-5.21
 21
10.5
 31
0.0
  0
LINE
  5
208
100
AcDbEntity
  8
0
  6
CONTINUOUS
 62
               7
100
AcDbLine
 10
-5.21
 20
10.5
 30
0.0
 11
5.21
 21
10.5
 31
0.0
  0
LINE
  5
209
100
AcDbEntity
  8
0
  6
CONTINUOUS
 62
               7
100
AcDbLine
 10
-5.21
 20
-10.5
 30
0.0
 11
5.21
 21
-10.5
 31
0.0
  0
LINE
  5
20A
100
AcDbEntity
  8
0
  6
CONTINUOUS
 62
               7
100
AcDbLine
 10
6.4800000000000004
 20
-9.7599999999999998
 30
0.0
 11
11.699999999999999
 21
-0.73
 31
0.0
  0
LINE
  5
20B
100
AcDbEntity
  8
0
  6
CONTINUOUS
 62
               7
100
AcDbLine
 10
-11.699999999999999
 20
0.73
 30
0.0
 11
-6.4800000000000004
 21
9.7599999999999998
 31
0.0
  0
LINE
  5
20C
100
AcDbEntity
  8
0
  6
CONTINUOUS
 62
               7
100
AcDbLine
 10
6.4800000000000004
 20
9.7599999999999998
 30
0.0
 11
11.699999999999999
 21
0.73
 31
0.0
  0
LINE
  5
20D
100
AcDbEntity
  8
0
  6
CONTINUOUS
 62
               7
100
AcDbLine
 10
-11.699999999999999
 20
-0.73
 30
0.0
 11
-6.4800000000000004
 21
-9.7599999999999998
 31
0.0
  0
LINE
  5
20E
100
AcDbEntity
  8
0
  6
CENTER
 62
               2
100
AcDbLine
 10
-35.850000000000001
 20
0.0
 30
0.0
 11
33.350000000000001
 21
0.0
 31
0.0
  0
LINE
  5
20F
100
AcDbEntity
  8
0
  6
CENTER
 62
               2
100
AcDbLine
 10
0.0
 20
16.300000000000001
 30
0.0
 11
0.0
 21
-14.0
 31
0.0
  0
ENDBLK
  5
210
100
AcDbEntity
  8
0
100
AcDbBlockEnd
  0
BLOCK
  5
211
100
AcDbEntity
  8
0
100
AcDbBlockBegin
  2
MS_23
 70
               0
 10
0.0
 20
0.0
 30
0.0
  3
MS_23
  1

  0
LINE
  5
212
100
AcDbEntity
  8
0
  6
CONTINUOUS
 62
               7
100
AcDbLine
 10
-13.25
 20
13.66
 30
0.0
 11
-13.25
 21
5.3300000000000001
 31
0.0
  0
LINE
  5
213
100
AcDbEntity
  8
0
  6
CONTINUOUS
 62
               7
100
AcDbLine
 10
13.25
 20
13.66
 30
0.0
 11
13.25
 21
5.3300000000000001
 31
0.0
  0
LINE
  5
214
100
AcDbEntity
  8
0
  6
DASHED
 62
               2
100
AcDbLine
 10
-9.5500000000000007
 20
24.030000000000001
 30
0.0
 11
-9.0800000000000001
 21
9.0299999999999994
 31
0.0
  0
LINE
  5
215
100
AcDbEntity
  8
0
  6
DASHED
 62
               2
100
AcDbLine
 10
-10.699999999999999
 20
24.0
 30
0.0
 11
-10.23
 21
9.0
 31
0.0
  0
LINE
  5
216
100
AcDbEntity
  8
0
  6
DASHED
 62
               2
100
AcDbLine
 10
9.5500000000000007
 20
24.030000000000001
 30
0.0
 11
9.0800000000000001
 21
9.0299999999999994
 31
0.0
  0
LINE
  5
217
100
AcDbEntity
  8
0
  6
CONTINUOUS
 62
               7
100
AcDbLine
 10
-13.25
 20
5.3300000000000001
 30
0.0
 11
-12.0
 21
5.0
 31
0.0
  0
LINE
  5
218
100
AcDbEntity
  8
0
  6
CONTINUOUS
 62
               7
100
AcDbLine
 10
12.0
 20
14.0
 30
0.0
 11
13.25
 21
13.66
 31
0.0
  0
LINE
  5
219
100
AcDbEntity
  8
0
  6
CONTINUOUS
 62
               7
100
AcDbLine
 10
12.0
 20
5.0
 30
0.0
 11
13.25
 21
5.3300000000000001
 31
0.0
  0
LINE
  5
21A
100
AcDbEntity
  8
0
  6
CONTINUOUS
 62
               7
100
AcDbLine
 10
-13.25
 20
13.66
 30
0.0
 11
-12.0
 21
14.0
 31
0.0
  0
LINE
  5
21B
100
AcDbEntity
  8
0
  6
CONTINUOUS
 62
               7
100
AcDbLine
 10
-6.9000000000000004
 20
14.0
 30
0.0
 11
-6.9000000000000004
 21
5.0
 31
0.0
  0
LINE
  5
21C
100
AcDbEntity
  8
0
  6
CONTINUOUS
 62
               7
100
AcDbLine
 10
6.9000000000000004
 20
14.0
 30
0.0
 11
6.9000000000000004
 21
5.0
 31
0.0
  0
LINE
  5
21D
100
AcDbEntity
  8
0
  6
CONTINUOUS
 62
               7
100
AcDbLine
 10
-12.0
 20
5.0
 30
0.0
 11
12.0
 21
5.0
 31
0.0
  0
LINE
  5
21E
100
AcDbEntity
  8
0
  6
CONTINUOUS
 62
               7
100
AcDbLine
 10
-12.0
 20
14.0
 30
0.0
 11
12.0
 21
14.0
 31
0.0
  0
LINE
  5
21F
100
AcDbEntity
  8
0
  6
CONTINUOUS
 62
               7
100
AcDbLine
 10
12.0
 20
24.0
 30
0.0
 11
12.0
 21
14.0
 31
0.0
  0
LINE
  5
220
100
AcDbEntity
  8
0
  6
CONTINUOUS
 62
               7
100
AcDbLine
 10
-12.0
 20
24.0
 30
0.0
 11
-12.0
 21
14.0
 31
0.0
  0
LINE
  5
221
100
AcDbEntity
  8
0
  6
CONTINUOUS
 62
               7
100
AcDbLine
 10
-12.0
 20
24.0
 30
0.0
 11
12.0
 21
24.0
 31
0.0
  0
LINE
  5
222
100
AcDbEntity
  8
0
  6
CENTER
 62
               2
100
AcDbLine
 10
-10.140000000000001
 20
0.0
 30
0.0
 11
11.27
 21
0.0
 31
0.0
  0
LINE
  5
223
100
AcDbEntity
  8
0
  6
CONTINUOUS
 62
               2
100
AcDbLine
 10
5.9000000000000004
 20
5.0199999999999996
 30
0.0
 11
5.5999999999999996
 21
-5.9699999999999998
 31
0.0
  0
LINE
  5
224
100
AcDbEntity
  8
0
  6
CONTINUOUS
 62
               2
100
AcDbLine
 10
-5.9000000000000004
 20
5.0199999999999996
 30
0.0
 11
-5.5999999999999996
 21
-5.9699999999999998
 31
0.0
  0
LINE
  5
225
100
AcDbEntity
  8
0
  6
CONTINUOUS
 62
               7
100
AcDbLine
 10
6.7000000000000002
 20
5.0
 30
0.0
 11
6.4000000000000004
 21
-6.0
 31
0.0
  0
LINE
  5
226
100
AcDbEntity
  8
0
  6
CONTINUOUS
 62
               7
100
AcDbLine
 10
-6.7000000000000002
 20
5.0
 30
0.0
 11
-6.4000000000000004
 21
-6.0
 31
0.0
  0
LINE
  5
227
100
AcDbEntity
  8
0
  6
CONTINUOUS
 62
               7
100
AcDbLine
 10
-6.4000000000000004
 20
-6.0
 30
0.0
 11
6.4000000000000004
 21
-6.0
 31
0.0
  0
LINE
  5
228
100
AcDbEntity
  8
0
  6
CENTER
 62
               2
100
AcDbLine
 10
0.0
 20
39.399999999999999
 30
0.0
 11
0.0
 21
-20.5
 31
0.0
  0
LINE
  5
229
100
AcDbEntity
  8
0
  6
DASHED
 62
               2
100
AcDbLine
 10
-10.23
 20
9.0
 30
0.0
 11
10.23
 21
9.0
 31
0.0
  0
LINE
  5
22A
100
AcDbEntity
  8
0
  6
DASHED
 62
               2
100
AcDbLine
 10
10.699999999999999
 20
24.0
 30
0.0
 11
10.23
 21
9.0
 31
0.0
  0
ENDBLK
  5
22B
100
AcDbEntity
  8
0
100
AcDbBlockEnd
  0
BLOCK
  5
22C
100
AcDbEntity
  8
0
100
AcDbBlockBegin
  2
MS_24
 70
               0
 10
0.0
 20
0.0
 30
0.0
  3
MS_24
  1

  0
CIRCLE
  5
22D
100
AcDbEntity
  8
0
  6
CONTINUOUS
 62
               2
100
AcDbCircle
 10
0.0
 20
0.0
 30
0.0
 40
10.699999809265137
  0
CIRCLE
  5
22E
100
AcDbEntity
  8
0
  6
CONTINUOUS
 62
               7
100
AcDbCircle
 10
0.0
 20
0.0
 30
0.0
 40
4.0
  0
CIRCLE
  5
22F
100
AcDbEntity
  8
0
  6
CONTINUOUS
 62
               7
100
AcDbCircle
 10
0.0
 20
0.0
 30
0.0
 40
12.0
  0
CIRCLE
  5
230
100
AcDbEntity
  8
0
  6
CONTINUOUS
 62
               7
100
AcDbCircle
 10
0.0
 20
0.0
 30
0.0
 40
9.5500001907348633
  0
LINE
  5
231
100
AcDbEntity
  8
0
  6
CONTINUOUS
 62
               7
100
AcDbLine
 10
5.71
 20
12.0
 30
0.0
 11
7.5300000000000002
 21
10.949999999999999
 31
0.0
  0
LINE
  5
232
100
AcDbEntity
  8
0
  6
CONTINUOUS
 62
               7
100
AcDbLine
 10
-7.5300000000000002
 20
-10.949999999999999
 30
0.0
 11
-5.71
 21
-12.0
 31
0.0
  0
LINE
  5
233
100
AcDbEntity
  8
0
  6
CONTINUOUS
 62
               7
100
AcDbLine
 10
13.25
 20
1.05
 30
0.0
 11
13.25
 21
-1.05
 31
0.0
  0
LINE
  5
234
100
AcDbEntity
  8
0
  6
CONTINUOUS
 62
               7
100
AcDbLine
 10
-13.25
 20
1.05
 30
0.0
 11
-13.25
 21
-1.05
 31
0.0
  0
LINE
  5
235
100
AcDbEntity
  8
0
  6
CONTINUOUS
 62
               7
100
AcDbLine
 10
-7.5300000000000002
 20
10.949999999999999
 30
0.0
 11
-5.71
 21
12.0
 31
0.0
  0
LINE
  5
236
100
AcDbEntity
  8
0
  6
CONTINUOUS
 62
               7
100
AcDbLine
 10
5.71
 20
-12.0
 30
0.0
 11
7.5300000000000002
 21
-10.949999999999999
 31
0.0
  0
LINE
  5
237
100
AcDbEntity
  8
0
  6
CONTINUOUS
 62
               7
100
AcDbLine
 10
7.5300000000000002
 20
10.949999999999999
 30
0.0
 11
13.25
 21
1.05
 31
0.0
  0
LINE
  5
238
100
AcDbEntity
  8
0
  6
CONTINUOUS
 62
               7
100
AcDbLine
 10
-13.25
 20
-1.05
 30
0.0
 11
-7.5300000000000002
 21
-10.949999999999999
 31
0.0
  0
LINE
  5
239
100
AcDbEntity
  8
0
  6
CONTINUOUS
 62
               7
100
AcDbLine
 10
7.5300000000000002
 20
-10.949999999999999
 30
0.0
 11
13.25
 21
-1.05
 31
0.0
  0
LINE
  5
23A
100
AcDbEntity
  8
0
  6
CONTINUOUS
 62
               7
100
AcDbLine
 10
-13.25
 20
1.05
 30
0.0
 11
-7.5300000000000002
 21
10.949999999999999
 31
0.0
  0
LINE
  5
23B
100
AcDbEntity
  8
0
  6
CONTINUOUS
 62
               7
100
AcDbLine
 10
-5.71
 20
12.0
 30
0.0
 11
5.71
 21
12.0
 31
0.0
  0
LINE
  5
23C
100
AcDbEntity
  8
0
  6
CONTINUOUS
 62
               7
100
AcDbLine
 10
-5.71
 20
-12.0
 30
0.0
 11
5.71
 21
-12.0
 31
0.0
  0
LINE
  5
23D
100
AcDbEntity
  8
0
  6
CENTER
 62
               2
100
AcDbLine
 10
-25.84
 20
0.0
 30
0.0
 11
30.0
 21
0.0
 31
0.0
  0
LINE
  5
23E
100
AcDbEntity
  8
0
  6
CENTER
 62
               2
100
AcDbLine
 10
0.0
 20
22.760000000000002
 30
0.0
 11
0.0
 21
-17.600000000000001
 31
0.0
  0
ENDBLK
  5
23F
100
AcDbEntity
  8
0
100
AcDbBlockEnd
  0
BLOCK
  5
240
100
AcDbEntity
  8
0
100
AcDbBlockBegin
  2
MS_25
 70
               0
 10
0.0
 20
0.0
 30
0.0
  3
MS_25
  1

  0
LINE
  5
241
100
AcDbEntity
  8
0
  6
CONTINUOUS
 62
               2
100
AcDbLine
 10
7.3499999999999996
 20
5.4900000000000002
 30
0.0
 11
7.2000000000000002
 21
-6.5
 31
0.0
  0
LINE
  5
242
100
AcDbEntity
  8
0
  6
CONTINUOUS
 62
               7
100
AcDbLine
 10
8.3499999999999996
 20
5.4800000000000004
 30
0.0
 11
8.1999999999999993
 21
-6.5
 31
0.0
  0
LINE
  5
243
100
AcDbEntity
  8
0
  6
CONTINUOUS
 62
               7
100
AcDbLine
 10
9.4000000000000004
 20
5.75
 30
0.0
 11
8.4600000000000009
 21
5.5
 31
0.0
  0
LINE
  5
244
100
AcDbEntity
  8
0
  6
CONTINUOUS
 62
               7
100
AcDbLine
 10
9.4000000000000004
 20
10.720000000000001
 30
0.0
 11
9.4000000000000004
 21
5.75
 31
0.0
  0
LINE
  5
245
100
AcDbEntity
  8
0
  6
CONTINUOUS
 62
               7
100
AcDbLine
 10
8.3699999999999992
 20
11.0
 30
0.0
 11
9.4000000000000004
 21
10.720000000000001
 31
0.0
  0
LINE
  5
246
100
AcDbEntity
  8
0
  6
CONTINUOUS
 62
               7
100
AcDbLine
 10
5.0
 20
11.0
 30
0.0
 11
5.0
 21
5.5
 31
0.0
  0
LINE
  5
247
100
AcDbEntity
  8
0
  6
DASHED
 62
               2
100
AcDbLine
 10
4.8899999999999997
 20
10.94
 30
0.0
 11
4.6299999999999999
 21
2.98
 31
0.0
  0
LINE
  5
248
100
AcDbEntity
  8
0
  6
DASHED
 62
               2
100
AcDbLine
 10
4.29
 20
10.960000000000001
 30
0.0
 11
4.0300000000000002
 21
3.0
 31
0.0
  0
LINE
  5
249
100
AcDbEntity
  8
0
  6
DASHED
 62
               2
100
AcDbLine
 10
4.6299999999999999
 20
3.0
 30
0.0
 11
0.0
 21
3.0
 31
0.0
  0
LINE
  5
24A
100
AcDbEntity
  8
0
  6
CONTINUOUS
 62
               7
100
AcDbLine
 10
-5.0
 20
11.0
 30
0.0
 11
-5.0
 21
5.5
 31
0.0
  0
LINE
  5
24B
100
AcDbEntity
  8
0
  6
DASHED
 62
               2
100
AcDbLine
 10
-4.8899999999999997
 20
10.94
 30
0.0
 11
-4.6299999999999999
 21
2.98
 31
0.0
  0
LINE
  5
24C
100
AcDbEntity
  8
0
  6
DASHED
 62
               2
100
AcDbLine
 10
-4.29
 20
10.960000000000001
 30
0.0
 11
-4.0300000000000002
 21
3.0
 31
0.0
  0
LINE
  5
24D
100
AcDbEntity
  8
0
  6
DASHED
 62
               2
100
AcDbLine
 10
-4.6299999999999999
 20
3.0
 30
0.0
 11
0.0
 21
3.0
 31
0.0
  0
LINE
  5
24E
100
AcDbEntity
  8
0
  6
CONTINUOUS
 62
               2
100
AcDbLine
 10
-7.3499999999999996
 20
5.4900000000000002
 30
0.0
 11
-7.2000000000000002
 21
-6.5
 31
0.0
  0
LINE
  5
24F
100
AcDbEntity
  8
0
  6
CONTINUOUS
 62
               7
100
AcDbLine
 10
-8.3499999999999996
 20
5.4800000000000004
 30
0.0
 11
-8.1999999999999993
 21
-6.5
 31
0.0
  0
LINE
  5
250
100
AcDbEntity
  8
0
  6
CENTER
 62
               2
100
AcDbLine
 10
0.0
 20
17.539999999999999
 30
0.0
 11
0.0
 21
-14.49
 31
0.0
  0
LINE
  5
251
100
AcDbEntity
  8
0
  6
CONTINUOUS
 62
               7
100
AcDbLine
 10
-9.4000000000000004
 20
5.75
 30
0.0
 11
-8.4600000000000009
 21
5.5
 31
0.0
  0
LINE
  5
252
100
AcDbEntity
  8
0
  6
CONTINUOUS
 62
               7
100
AcDbLine
 10
-8.3699999999999992
 20
11.0
 30
0.0
 11
-9.4000000000000004
 21
10.720000000000001
 31
0.0
  0
LINE
  5
253
100
AcDbEntity
  8
0
  6
CONTINUOUS
 62
               7
100
AcDbLine
 10
-9.4000000000000004
 20
10.720000000000001
 30
0.0
 11
-9.4000000000000004
 21
5.75
 31
0.0
  0
LINE
  5
254
100
AcDbEntity
  8
0
  6
CONTINUOUS
 62
               7
100
AcDbLine
 10
-8.3699999999999992
 20
11.0
 30
0.0
 11
8.3699999999999992
 21
11.0
 31
0.0
  0
LINE
  5
255
100
AcDbEntity
  8
0
  6
CONTINUOUS
 62
               7
100
AcDbLine
 10
-8.3499999999999996
 20
5.5
 30
0.0
 11
8.4600000000000009
 21
5.5
 31
0.0
  0
LINE
  5
256
100
AcDbEntity
  8
0
  6
CONTINUOUS
 62
               7
100
AcDbLine
 10
-8.1999999999999993
 20
-6.5
 30
0.0
 11
8.1999999999999993
 21
-6.5
 31
0.0
  0
LINE
  5
257
100
AcDbEntity
  8
0
  6
CENTER
 62
               2
100
AcDbLine
 10
-11.51
 20
0.0
 30
0.0
 11
12.550000000000001
 21
0.0
 31
0.0
  0
ENDBLK
  5
258
100
AcDbEntity
  8
0
100
AcDbBlockEnd
  0
BLOCK
  5
259
100
AcDbEntity
  8
0
100
AcDbBlockBegin
  2
MS_26
 70
               0
 10
0.0
 20
0.0
 30
0.0
  3
MS_26
  1

  0
CIRCLE
  5
25A
100
AcDbEntity
  8
0
  6
CONTINUOUS
 62
               7
100
AcDbCircle
 10
0.0293309986591339
 20
0.0052032470703125
 30
0.0
 40
8.3999996185302734
  0
CIRCLE
  5
25B
100
AcDbEntity
  8
0
  6
CONTINUOUS
 62
               7
100
AcDbCircle
 10
-0.0058730989694595
 20
0.014862060546875
 30
0.0
 40
4.2829999923706055
  0
CIRCLE
  5
25C
100
AcDbEntity
  8
0
  6
CONTINUOUS
 62
               2
100
AcDbCircle
 10
-0.0058730989694595
 20
0.014862060546875
 30
0.0
 40
4.8829994201660156
  0
CIRCLE
  5
25D
100
AcDbEntity
  8
0
  6
CONTINUOUS
 62
               7
100
AcDbCircle
 10
0.0
 20
0.0
 30
0.0
 40
3.0
  0
LINE
  5
25E
100
AcDbEntity
  8
0
  6
CONTINUOUS
 62
               7
100
AcDbLine
 10
-4.0700000000000003
 20
-8.5
 30
0.0
 11
-5.3200000000000003
 21
-7.7800000000000002
 31
0.0
  0
LINE
  5
25F
100
AcDbEntity
  8
0
  6
CONTINUOUS
 62
               7
100
AcDbLine
 10
5.3200000000000003
 20
7.7800000000000002
 30
0.0
 11
4.0700000000000003
 21
8.5
 31
0.0
  0
LINE
  5
260
100
AcDbEntity
  8
0
  6
CONTINUOUS
 62
               7
100
AcDbLine
 10
9.4000000000000004
 20
0.71
 30
0.0
 11
9.4000000000000004
 21
-0.71
 31
0.0
  0
LINE
  5
261
100
AcDbEntity
  8
0
  6
CONTINUOUS
 62
               7
100
AcDbLine
 10
-9.4000000000000004
 20
0.71
 30
0.0
 11
-9.4000000000000004
 21
-0.71
 31
0.0
  0
LINE
  5
262
100
AcDbEntity
  8
0
  6
CONTINUOUS
 62
               7
100
AcDbLine
 10
-4.0700000000000003
 20
8.5
 30
0.0
 11
-5.3200000000000003
 21
7.7800000000000002
 31
0.0
  0
LINE
  5
263
100
AcDbEntity
  8
0
  6
CONTINUOUS
 62
               7
100
AcDbLine
 10
5.3200000000000003
 20
-7.7800000000000002
 30
0.0
 11
4.0700000000000003
 21
-8.5
 31
0.0
  0
LINE
  5
264
100
AcDbEntity
  8
0
  6
CONTINUOUS
 62
               7
100
AcDbLine
 10
-4.0700000000000003
 20
-8.5
 30
0.0
 11
4.0700000000000003
 21
-8.5
 31
0.0
  0
LINE
  5
265
100
AcDbEntity
  8
0
  6
CONTINUOUS
 62
               7
100
AcDbLine
 10
-4.0700000000000003
 20
8.5
 30
0.0
 11
4.0700000000000003
 21
8.5
 31
0.0
  0
LINE
  5
266
100
AcDbEntity
  8
0
  6
CONTINUOUS
 62
               7
100
AcDbLine
 10
9.4000000000000004
 20
0.71
 30
0.0
 11
5.3200000000000003
 21
7.7800000000000002
 31
0.0
  0
LINE
  5
267
100
AcDbEntity
  8
0
  6
CONTINUOUS
 62
               7
100
AcDbLine
 10
-5.3200000000000003
 20
-7.7800000000000002
 30
0.0
 11
-9.4000000000000004
 21
-0.71
 31
0.0
  0
LINE
  5
268
100
AcDbEntity
  8
0
  6
CONTINUOUS
 62
               7
100
AcDbLine
 10
-9.4000000000000004
 20
0.71
 30
0.0
 11
-5.3200000000000003
 21
7.7800000000000002
 31
0.0
  0
LINE
  5
269
100
AcDbEntity
  8
0
  6
CONTINUOUS
 62
               7
100
AcDbLine
 10
5.3200000000000003
 20
-7.7800000000000002
 30
0.0
 11
9.4000000000000004
 21
-0.71
 31
0.0
  0
LINE
  5
26A
100
AcDbEntity
  8
0
  6
CENTER
 62
               2
100
AcDbLine
 10
-24.629999999999999
 20
0.0
 30
0.0
 11
25.359999999999999
 21
0.0
 31
0.0
  0
LINE
  5
26B
100
AcDbEntity
  8
0
  6
CENTER
 62
               2
100
AcDbLine
 10
0.0
 20
16.48
 30
0.0
 11
0.0
 21
-17.010000000000002
 31
0.0
  0
ENDBLK
  5
26C
100
AcDbEntity
  8
0
100
AcDbBlockEnd
  0
BLOCK
  5
26D
100
AcDbEntity
  8
0
100
AcDbBlockBegin
  2
MS_27
 70
               0
 10
0.0
 20
0.0
 30
0.0
  3
MS_27
  1

  0
LINE
  5
26E
100
AcDbEntity
  8
0
  6
CONTINUOUS
 62
               2
100
AcDbLine
 10
7.5099999999999998
 20
5.5
 30
0.0
 11
7.04
 21
-6.5
 31
0.0
  0
LINE
  5
26F
100
AcDbEntity
  8
0
  6
CONTINUOUS
 62
               7
100
AcDbLine
 10
8.5099999999999998
 20
5.4900000000000002
 30
0.0
 11
8.0399999999999991
 21
-6.5
 31
0.0
  0
LINE
  5
270
100
AcDbEntity
  8
0
  6
CONTINUOUS
 62
               7
100
AcDbLine
 10
9.4000000000000004
 20
5.7300000000000004
 30
0.0
 11
8.5099999999999998
 21
5.5
 31
0.0
  0
LINE
  5
271
100
AcDbEntity
  8
0
  6
CONTINUOUS
 62
               7
100
AcDbLine
 10
8.3599999999999994
 20
16.0
 30
0.0
 11
9.4000000000000004
 21
15.720000000000001
 31
0.0
  0
LINE
  5
272
100
AcDbEntity
  8
0
  6
CONTINUOUS
 62
               7
100
AcDbLine
 10
9.4000000000000004
 20
15.720000000000001
 30
0.0
 11
9.4000000000000004
 21
5.7300000000000004
 31
0.0
  0
LINE
  5
273
100
AcDbEntity
  8
0
  6
DASHED
 62
               2
100
AcDbLine
 10
6.5
 20
15.92
 30
0.0
 11
6.1399999999999997
 21
4.9699999999999998
 31
0.0
  0
LINE
  5
274
100
AcDbEntity
  8
0
  6
DASHED
 62
               2
100
AcDbLine
 10
5.71
 20
15.949999999999999
 30
0.0
 11
5.3499999999999996
 21
5.0
 31
0.0
  0
LINE
  5
275
100
AcDbEntity
  8
0
  6
DASHED
 62
               2
100
AcDbLine
 10
6.1500000000000004
 20
5.0
 30
0.0
 11
0.0
 21
5.0
 31
0.0
  0
LINE
  5
276
100
AcDbEntity
  8
0
  6
DASHED
 62
               2
100
AcDbLine
 10
-6.5
 20
15.92
 30
0.0
 11
-6.1399999999999997
 21
4.9699999999999998
 31
0.0
  0
LINE
  5
277
100
AcDbEntity
  8
0
  6
DASHED
 62
               2
100
AcDbLine
 10
-5.71
 20
15.949999999999999
 30
0.0
 11
-5.3499999999999996
 21
5.0
 31
0.0
  0
LINE
  5
278
100
AcDbEntity
  8
0
  6
DASHED
 62
               2
100
AcDbLine
 10
-6.1500000000000004
 20
5.0
 30
0.0
 11
0.0
 21
5.0
 31
0.0
  0
LINE
  5
279
100
AcDbEntity
  8
0
  6
CONTINUOUS
 62
               2
100
AcDbLine
 10
-7.5
 20
5.5
 30
0.0
 11
-7.04
 21
-6.5
 31
0.0
  0
LINE
  5
27A
100
AcDbEntity
  8
0
  6
CONTINUOUS
 62
               7
100
AcDbLine
 10
-8.5099999999999998
 20
5.4900000000000002
 30
0.0
 11
-8.0399999999999991
 21
-6.5
 31
0.0
  0
LINE
  5
27B
100
AcDbEntity
  8
0
  6
CENTER
 62
               2
100
AcDbLine
 10
-14.369999999999999
 20
0.0
 30
0.0
 11
15.42
 21
0.0
 31
0.0
  0
LINE
  5
27C
100
AcDbEntity
  8
0
  6
CONTINUOUS
 62
               7
100
AcDbLine
 10
-5.0
 20
16.0
 30
0.0
 11
-5.0
 21
5.5
 31
0.0
  0
LINE
  5
27D
100
AcDbEntity
  8
0
  6
CONTINUOUS
 62
               7
100
AcDbLine
 10
-9.4000000000000004
 20
5.7300000000000004
 30
0.0
 11
-8.5099999999999998
 21
5.5
 31
0.0
  0
LINE
  5
27E
100
AcDbEntity
  8
0
  6
CONTINUOUS
 62
               7
100
AcDbLine
 10
-8.3599999999999994
 20
16.0
 30
0.0
 11
-9.4000000000000004
 21
15.720000000000001
 31
0.0
  0
LINE
  5
27F
100
AcDbEntity
  8
0
  6
CONTINUOUS
 62
               7
100
AcDbLine
 10
-9.4000000000000004
 20
15.720000000000001
 30
0.0
 11
-9.4000000000000004
 21
5.7300000000000004
 31
0.0
  0
LINE
  5
280
100
AcDbEntity
  8
0
  6
CONTINUOUS
 62
               7
100
AcDbLine
 10
-8.4000000000000004
 20
16.0
 30
0.0
 11
8.3599999999999994
 21
16.0
 31
0.0
  0
LINE
  5
281
100
AcDbEntity
  8
0
  6
CONTINUOUS
 62
               7
100
AcDbLine
 10
-8.5099999999999998
 20
5.5
 30
0.0
 11
8.5099999999999998
 21
5.5
 31
0.0
  0
LINE
  5
282
100
AcDbEntity
  8
0
  6
CONTINUOUS
 62
               7
100
AcDbLine
 10
-8.0399999999999991
 20
-6.5
 30
0.0
 11
8.0399999999999991
 21
-6.5
 31
0.0
  0
LINE
  5
283
100
AcDbEntity
  8
0
  6
CONTINUOUS
 62
               7
100
AcDbLine
 10
5.0
 20
16.0
 30
0.0
 11
5.0
 21
5.5
 31
0.0
  0
LINE
  5
284
100
AcDbEntity
  8
0
  6
CENTER
 62
               2
100
AcDbLine
 10
0.0
 20
25.579999999999998
 30
0.0
 11
0.0
 21
-13.970000000000001
 31
0.0
  0
ENDBLK
  5
285
100
AcDbEntity
  8
0
100
AcDbBlockEnd
  0
BLOCK
  5
286
100
AcDbEntity
  8
0
100
AcDbBlockBegin
  2
MS_28
 70
               0
 10
0.0
 20
0.0
 30
0.0
  3
MS_28
  1

  0
CIRCLE
  5
287
100
AcDbEntity
  8
0
  6
CONTINUOUS
 62
               7
100
AcDbCircle
 10
0.0
 20
0.0
 30
0.0
 40
8.3999996185302734
  0
CIRCLE
  5
288
100
AcDbEntity
  8
0
  6
CONTINUOUS
 62
               2
100
AcDbCircle
 10
0.0
 20
0.0
 30
0.0
 40
6.5225000381469727
  0
CIRCLE
  5
289
100
AcDbEntity
  8
0
  6
CONTINUOUS
 62
               7
100
AcDbCircle
 10
0.0
 20
0.0
 30
0.0
 40
5.7224998474121094
  0
CIRCLE
  5
28A
100
AcDbEntity
  8
0
  6
CONTINUOUS
 62
               7
100
AcDbCircle
 10
0.0
 20
0.0
 30
0.0
 40
4.0
  0
LINE
  5
28B
100
AcDbEntity
  8
0
  6
CONTINUOUS
 62
               7
100
AcDbLine
 10
4.0700000000000003
 20
8.5
 30
0.0
 11
5.3200000000000003
 21
7.7800000000000002
 31
0.0
  0
LINE
  5
28C
100
AcDbEntity
  8
0
  6
CONTINUOUS
 62
               7
100
AcDbLine
 10
-5.3200000000000003
 20
-7.7800000000000002
 30
0.0
 11
-4.0700000000000003
 21
-8.5
 31
0.0
  0
LINE
  5
28D
100
AcDbEntity
  8
0
  6
CONTINUOUS
 62
               7
100
AcDbLine
 10
9.4000000000000004
 20
0.71
 30
0.0
 11
9.4000000000000004
 21
-0.71
 31
0.0
  0
LINE
  5
28E
100
AcDbEntity
  8
0
  6
CONTINUOUS
 62
               7
100
AcDbLine
 10
-9.4000000000000004
 20
0.71
 30
0.0
 11
-9.4000000000000004
 21
-0.71
 31
0.0
  0
LINE
  5
28F
100
AcDbEntity
  8
0
  6
CONTINUOUS
 62
               7
100
AcDbLine
 10
4.0700000000000003
 20
-8.5
 30
0.0
 11
5.3200000000000003
 21
-7.7800000000000002
 31
0.0
  0
LINE
  5
290
100
AcDbEntity
  8
0
  6
CONTINUOUS
 62
               7
100
AcDbLine
 10
-5.3200000000000003
 20
7.7800000000000002
 30
0.0
 11
-4.0700000000000003
 21
8.5
 31
0.0
  0
LINE
  5
291
100
AcDbEntity
  8
0
  6
CONTINUOUS
 62
               7
100
AcDbLine
 10
-4.0700000000000003
 20
-8.5
 30
0.0
 11
4.0700000000000003
 21
-8.5
 31
0.0
  0
LINE
  5
292
100
AcDbEntity
  8
0
  6
CONTINUOUS
 62
               7
100
AcDbLine
 10
-4.0700000000000003
 20
8.5
 30
0.0
 11
4.0700000000000003
 21
8.5
 31
0.0
  0
LINE
  5
293
100
AcDbEntity
  8
0
  6
CONTINUOUS
 62
               7
100
AcDbLine
 10
9.4000000000000004
 20
0.71
 30
0.0
 11
5.3200000000000003
 21
7.7800000000000002
 31
0.0
  0
LINE
  5
294
100
AcDbEntity
  8
0
  6
CONTINUOUS
 62
               7
100
AcDbLine
 10
-5.3200000000000003
 20
-7.7800000000000002
 30
0.0
 11
-9.4000000000000004
 21
-0.71
 31
0.0
  0
LINE
  5
295
100
AcDbEntity
  8
0
  6
CONTINUOUS
 62
               7
100
AcDbLine
 10
-9.4000000000000004
 20
0.71
 30
0.0
 11
-5.3200000000000003
 21
7.7800000000000002
 31
0.0
  0
LINE
  5
296
100
AcDbEntity
  8
0
  6
CONTINUOUS
 62
               7
100
AcDbLine
 10
5.3200000000000003
 20
-7.7800000000000002
 30
0.0
 11
9.4000000000000004
 21
-0.71
 31
0.0
  0
LINE
  5
297
100
AcDbEntity
  8
0
  6
CENTER
 62
               2
100
AcDbLine
 10
0.0
 20
17.57
 30
0.0
 11
0.0
 21
-18.260000000000002
 31
0.0
  0
LINE
  5
298
100
AcDbEntity
  8
0
  6
CENTER
 62
               2
100
AcDbLine
 10
-24.66
 20
0.0
 30
0.0
 11
25.329999999999998
 21
0.0
 31
0.0
  0
ENDBLK
  5
299
100
AcDbEntity
  8
0
100
AcDbBlockEnd
  0
BLOCK
  5
29A
100
AcDbEntity
  8
0
100
AcDbBlockBegin
  2
MS_29
 70
               0
 10
0.0
 20
0.0
 30
0.0
  3
MS_29
  1

  0
LINE
  5
29B
100
AcDbEntity
  8
0
  6
CONTINUOUS
 62
               7
100
AcDbLine
 10
11.699999999999999
 20
14.81
 30
0.0
 11
10.51
 21
14.5
 31
0.0
  0
LINE
  5
29C
100
AcDbEntity
  8
0
  6
CONTINUOUS
 62
               7
100
AcDbLine
 10
10.07
 20
30.5
 30
0.0
 11
11.699999999999999
 21
30.059999999999999
 31
0.0
  0
LINE
  5
29D
100
AcDbEntity
  8
0
  6
DASHED
 62
               2
100
AcDbLine
 10
8.0800000000000001
 20
18.5
 30
0.0
 11
0.0
 21
18.5
 31
0.0
  0
LINE
  5
29E
100
AcDbEntity
  8
0
  6
DASHED
 62
               2
100
AcDbLine
 10
8.4900000000000002
 20
30.440000000000001
 30
0.0
 11
8.0800000000000001
 21
18.5
 31
0.0
  0
LINE
  5
29F
100
AcDbEntity
  8
0
  6
DASHED
 62
               2
100
AcDbLine
 10
7.4900000000000002
 20
30.469999999999999
 30
0.0
 11
7.0800000000000001
 21
18.5
 31
0.0
  0
LINE
  5
2A0
100
AcDbEntity
  8
0
  6
CONTINUOUS
 62
               7
100
AcDbLine
 10
6.0
 20
30.5
 30
0.0
 11
6.0
 21
14.5
 31
0.0
  0
LINE
  5
2A1
100
AcDbEntity
  8
0
  6
CONTINUOUS
 62
               7
100
AcDbLine
 10
8.4700000000000006
 20
5.4800000000000004
 30
0.0
 11
8.1099999999999994
 21
-6.5
 31
0.0
  0
LINE
  5
2A2
100
AcDbEntity
  8
0
  6
CONTINUOUS
 62
               2
100
AcDbLine
 10
7.4699999999999998
 20
5.5099999999999998
 30
0.0
 11
7.1100000000000003
 21
-6.5
 31
0.0
  0
LINE
  5
2A3
100
AcDbEntity
  8
0
  6
CONTINUOUS
 62
               7
100
AcDbLine
 10
8.5
 20
14.5
 30
0.0
 11
8.5
 21
5.5
 31
0.0
  0
LINE
  5
2A4
100
AcDbEntity
  8
0
  6
DASHED
 62
               2
100
AcDbLine
 10
-8.4900000000000002
 20
30.440000000000001
 30
0.0
 11
-8.0800000000000001
 21
18.5
 31
0.0
  0
LINE
  5
2A5
100
AcDbEntity
  8
0
  6
DASHED
 62
               2
100
AcDbLine
 10
-8.0800000000000001
 20
18.5
 30
0.0
 11
0.0
 21
18.5
 31
0.0
  0
LINE
  5
2A6
100
AcDbEntity
  8
0
  6
DASHED
 62
               2
100
AcDbLine
 10
-7.4900000000000002
 20
30.469999999999999
 30
0.0
 11
-7.0800000000000001
 21
18.5
 31
0.0
  0
LINE
  5
2A7
100
AcDbEntity
  8
0
  6
CONTINUOUS
 62
               7
100
AcDbLine
 10
-10.4
 20
14.5
 30
0.0
 11
10.51
 21
14.5
 31
0.0
  0
LINE
  5
2A8
100
AcDbEntity
  8
0
  6
CONTINUOUS
 62
               7
100
AcDbLine
 10
-10.4
 20
14.5
 30
0.0
 11
10.51
 21
14.5
 31
0.0
  0
LINE
  5
2A9
100
AcDbEntity
  8
0
  6
CONTINUOUS
 62
               7
100
AcDbLine
 10
-6.0
 20
30.5
 30
0.0
 11
-6.0
 21
14.5
 31
0.0
  0
LINE
  5
2AA
100
AcDbEntity
  8
0
  6
CONTINUOUS
 62
               2
100
AcDbLine
 10
-7.4699999999999998
 20
5.5099999999999998
 30
0.0
 11
-7.1100000000000003
 21
-6.5
 31
0.0
  0
LINE
  5
2AB
100
AcDbEntity
  8
0
  6
CONTINUOUS
 62
               7
100
AcDbLine
 10
-8.4700000000000006
 20
5.4800000000000004
 30
0.0
 11
-8.1099999999999994
 21
-6.5
 31
0.0
  0
LINE
  5
2AC
100
AcDbEntity
  8
0
  6
CENTER
 62
               2
100
AcDbLine
 10
-15.27
 20
0.0
 30
0.0
 11
16.739999999999998
 21
0.0
 31
0.0
  0
LINE
  5
2AD
100
AcDbEntity
  8
0
  6
CONTINUOUS
 62
               7
100
AcDbLine
 10
-11.699999999999999
 20
14.81
 30
0.0
 11
-10.51
 21
14.5
 31
0.0
  0
LINE
  5
2AE
100
AcDbEntity
  8
0
  6
CONTINUOUS
 62
               7
100
AcDbLine
 10
-10.4
 20
30.41
 30
0.0
 11
-11.699999999999999
 21
30.059999999999999
 31
0.0
  0
LINE
  5
2AF
100
AcDbEntity
  8
0
  6
CONTINUOUS
 62
               7
100
AcDbLine
 10
-8.5
 20
14.5
 30
0.0
 11
-8.5
 21
5.5
 31
0.0
  0
LINE
  5
2B0
100
AcDbEntity
  8
0
  6
CONTINUOUS
 62
               7
100
AcDbLine
 10
-11.699999999999999
 20
30.059999999999999
 30
0.0
 11
-11.699999999999999
 21
14.81
 31
0.0
  0
LINE
  5
2B1
100
AcDbEntity
  8
0
  6
CONTINUOUS
 62
               7
100
AcDbLine
 10
-10.4
 20
30.5
 30
0.0
 11
10.07
 21
30.5
 31
0.0
  0
LINE
  5
2B2
100
AcDbEntity
  8
0
  6
CONTINUOUS
 62
               7
100
AcDbLine
 10
-10.4
 20
14.5
 30
0.0
 11
10.51
 21
14.5
 31
0.0
  0
LINE
  5
2B3
100
AcDbEntity
  8
0
  6
CONTINUOUS
 62
               7
100
AcDbLine
 10
-8.5
 20
5.5
 30
0.0
 11
8.5
 21
5.5
 31
0.0
  0
LINE
  5
2B4
100
AcDbEntity
  8
0
  6
CONTINUOUS
 62
               7
100
AcDbLine
 10
-8.1099999999999994
 20
-6.5
 30
0.0
 11
8.1099999999999994
 21
-6.5
 31
0.0
  0
LINE
  5
2B5
100
AcDbEntity
  8
0
  6
CONTINUOUS
 62
               7
100
AcDbLine
 10
11.699999999999999
 20
30.059999999999999
 30
0.0
 11
11.699999999999999
 21
14.81
 31
0.0
  0
LINE
  5
2B6
100
AcDbEntity
  8
0
  6
CENTER
 62
               2
100
AcDbLine
 10
0.0
 20
43.049999999999997
 30
0.0
 11
0.0
 21
-10.0
 31
0.0
  0
ENDBLK
  5
2B7
100
AcDbEntity
  8
0
100
AcDbBlockEnd
  0
BLOCK
  5
2B8
100
AcDbEntity
  8
0
100
AcDbBlockBegin
  2
MS_30
 70
               0
 10
0.0
 20
0.0
 30
0.0
  3
MS_30
  1

  0
CIRCLE
  5
2B9
100
AcDbEntity
  8
0
  6
CONTINUOUS
 62
               7
100
AcDbCircle
 10
0.0
 20
0.0
 30
0.0
 40
10.5
  0
CIRCLE
  5
2BA
100
AcDbEntity
  8
0
  6
CONTINUOUS
 62
               7
100
AcDbCircle
 10
0.0
 20
0.0
 30
0.0
 40
7.4749994277954102
  0
CIRCLE
  5
2BB
100
AcDbEntity
  8
0
  6
CONTINUOUS
 62
               7
100
AcDbCircle
 10
0.0
 20
0.0
 30
0.0
 40
5.0
  0
CIRCLE
  5
2BC
100
AcDbEntity
  8
0
  6
CONTINUOUS
 62
               2
100
AcDbCircle
 10
0.0
 20
0.0
 30
0.0
 40
8.4750003814697266
  0
LINE
  5
2BD
100
AcDbEntity
  8
0
  6
CONTINUOUS
 62
               7
100
AcDbLine
 10
-6.4800000000000004
 20
-9.7599999999999998
 30
0.0
 11
-5.21
 21
-10.5
 31
0.0
  0
LINE
  5
2BE
100
AcDbEntity
  8
0
  6
CONTINUOUS
 62
               7
100
AcDbLine
 10
5.21
 20
10.5
 30
0.0
 11
6.4800000000000004
 21
9.7599999999999998
 31
0.0
  0
LINE
  5
2BF
100
AcDbEntity
  8
0
  6
CONTINUOUS
 62
               7
100
AcDbLine
 10
-11.699999999999999
 20
0.73
 30
0.0
 11
-11.699999999999999
 21
-0.73
 31
0.0
  0
LINE
  5
2C0
100
AcDbEntity
  8
0
  6
CONTINUOUS
 62
               7
100
AcDbLine
 10
11.699999999999999
 20
0.73
 30
0.0
 11
11.699999999999999
 21
-0.73
 31
0.0
  0
LINE
  5
2C1
100
AcDbEntity
  8
0
  6
CONTINUOUS
 62
               7
100
AcDbLine
 10
5.21
 20
-10.5
 30
0.0
 11
6.4800000000000004
 21
-9.7599999999999998
 31
0.0
  0
LINE
  5
2C2
100
AcDbEntity
  8
0
  6
CONTINUOUS
 62
               7
100
AcDbLine
 10
-6.4800000000000004
 20
9.7599999999999998
 30
0.0
 11
-5.21
 21
10.5
 31
0.0
  0
LINE
  5
2C3
100
AcDbEntity
  8
0
  6
CONTINUOUS
 62
               7
100
AcDbLine
 10
-5.21
 20
10.5
 30
0.0
 11
5.21
 21
10.5
 31
0.0
  0
LINE
  5
2C4
100
AcDbEntity
  8
0
  6
CONTINUOUS
 62
               7
100
AcDbLine
 10
-5.21
 20
-10.5
 30
0.0
 11
5.21
 21
-10.5
 31
0.0
  0
LINE
  5
2C5
100
AcDbEntity
  8
0
  6
CONTINUOUS
 62
               7
100
AcDbLine
 10
11.699999999999999
 20
0.73
 30
0.0
 11
6.4800000000000004
 21
9.7599999999999998
 31
0.0
  0
LINE
  5
2C6
100
AcDbEntity
  8
0
  6
CONTINUOUS
 62
               7
100
AcDbLine
 10
-6.4800000000000004
 20
-9.7599999999999998
 30
0.0
 11
-11.699999999999999
 21
-0.73
 31
0.0
  0
LINE
  5
2C7
100
AcDbEntity
  8
0
  6
CONTINUOUS
 62
               7
100
AcDbLine
 10
-11.699999999999999
 20
0.73
 30
0.0
 11
-6.4800000000000004
 21
9.7599999999999998
 31
0.0
  0
LINE
  5
2C8
100
AcDbEntity
  8
0
  6
CONTINUOUS
 62
               7
100
AcDbLine
 10
6.4800000000000004
 20
-9.7599999999999998
 30
0.0
 11
11.699999999999999
 21
-0.73
 31
0.0
  0
LINE
  5
2C9
100
AcDbEntity
  8
0
  6
CENTER
 62
               2
100
AcDbLine
 10
-30.0
 20
0.0
 30
0.0
 11
29.989999999999998
 21
0.0
 31
0.0
  0
LINE
  5
2CA
100
AcDbEntity
  8
0
  6
CENTER
 62
               2
100
AcDbLine
 10
0.0
 20
21.5
 30
0.0
 11
0.0
 21
-19.489999999999998
 31
0.0
  0
ENDBLK
  5
2CB
100
AcDbEntity
  8
0
100
AcDbBlockEnd
  0
BLOCK
  5
2CC
100
AcDbEntity
  8
0
100
AcDbBlockBegin
  2
MS_31
 70
               0
 10
0.0
 20
0.0
 30
0.0
  3
MS_31
  1

  0
LINE
  5
2CD
100
AcDbEntity
  8
0
  6
CONTINUOUS
 62
               7
100
AcDbLine
 10
-13.25
 20
14.16
 30
0.0
 11
-13.25
 21
5.8300000000000001
 31
0.0
  0
LINE
  5
2CE
100
AcDbEntity
  8
0
  6
CONTINUOUS
 62
               7
100
AcDbLine
 10
13.25
 20
14.16
 30
0.0
 11
13.25
 21
5.8300000000000001
 31
0.0
  0
LINE
  5
2CF
100
AcDbEntity
  8
0
  6
CONTINUOUS
 62
               2
100
AcDbLine
 10
-7.7000000000000002
 20
5.5199999999999996
 30
0.0
 11
-7.2999999999999998
 21
-6.4699999999999998
 31
0.0
  0
LINE
  5
2D0
100
AcDbEntity
  8
0
  6
CONTINUOUS
 62
               7
100
AcDbLine
 10
8.5
 20
5.5
 30
0.0
 11
8.0999999999999996
 21
-6.5
 31
0.0
  0
LINE
  5
2D1
100
AcDbEntity
  8
0
  6
CONTINUOUS
 62
               7
100
AcDbLine
 10
-8.5
 20
5.5
 30
0.0
 11
-8.0999999999999996
 21
-6.5
 31
0.0
  0
LINE
  5
2D2
100
AcDbEntity
  8
0
  6
CONTINUOUS
 62
               7
100
AcDbLine
 10
-13.25
 20
5.8300000000000001
 30
0.0
 11
-12.0
 21
5.5
 31
0.0
  0
LINE
  5
2D3
100
AcDbEntity
  8
0
  6
CONTINUOUS
 62
               7
100
AcDbLine
 10
12.0
 20
14.5
 30
0.0
 11
13.25
 21
14.16
 31
0.0
  0
LINE
  5
2D4
100
AcDbEntity
  8
0
  6
CONTINUOUS
 62
               7
100
AcDbLine
 10
12.0
 20
5.5
 30
0.0
 11
13.25
 21
5.8300000000000001
 31
0.0
  0
LINE
  5
2D5
100
AcDbEntity
  8
0
  6
CONTINUOUS
 62
               7
100
AcDbLine
 10
-13.25
 20
14.16
 30
0.0
 11
-12.0
 21
14.5
 31
0.0
  0
LINE
  5
2D6
100
AcDbEntity
  8
0
  6
CONTINUOUS
 62
               7
100
AcDbLine
 10
12.0
 20
24.5
 30
0.0
 11
12.0
 21
14.5
 31
0.0
  0
LINE
  5
2D7
100
AcDbEntity
  8
0
  6
CONTINUOUS
 62
               7
100
AcDbLine
 10
-6.9000000000000004
 20
14.5
 30
0.0
 11
-6.9000000000000004
 21
5.5
 31
0.0
  0
LINE
  5
2D8
100
AcDbEntity
  8
0
  6
CONTINUOUS
 62
               7
100
AcDbLine
 10
6.9000000000000004
 20
14.5
 30
0.0
 11
6.9000000000000004
 21
5.5
 31
0.0
  0
LINE
  5
2D9
100
AcDbEntity
  8
0
  6
CONTINUOUS
 62
               7
100
AcDbLine
 10
-12.0
 20
24.5
 30
0.0
 11
-12.0
 21
14.5
 31
0.0
  0
LINE
  5
2DA
100
AcDbEntity
  8
0
  6
CONTINUOUS
 62
               7
100
AcDbLine
 10
-12.0
 20
5.5
 30
0.0
 11
12.0
 21
5.5
 31
0.0
  0
LINE
  5
2DB
100
AcDbEntity
  8
0
  6
CONTINUOUS
 62
               7
100
AcDbLine
 10
-12.0
 20
14.5
 30
0.0
 11
12.0
 21
14.5
 31
0.0
  0
LINE
  5
2DC
100
AcDbEntity
  8
0
  6
CONTINUOUS
 62
               7
100
AcDbLine
 10
-12.0
 20
24.5
 30
0.0
 11
12.0
 21
24.5
 31
0.0
  0
LINE
  5
2DD
100
AcDbEntity
  8
0
  6
CONTINUOUS
 62
               7
100
AcDbLine
 10
-8.0999999999999996
 20
-6.5
 30
0.0
 11
8.0999999999999996
 21
-6.5
 31
0.0
  0
LINE
  5
2DE
100
AcDbEntity
  8
0
  6
DASHED
 62
               2
100
AcDbLine
 10
9.5500000000000007
 20
24.530000000000001
 30
0.0
 11
9.0800000000000001
 21
9.5299999999999994
 31
0.0
  0
LINE
  5
2DF
100
AcDbEntity
  8
0
  6
DASHED
 62
               2
100
AcDbLine
 10
-9.5500000000000007
 20
24.530000000000001
 30
0.0
 11
-9.0800000000000001
 21
9.5299999999999994
 31
0.0
  0
LINE
  5
2E0
100
AcDbEntity
  8
0
  6
DASHED
 62
               2
100
AcDbLine
 10
10.699999999999999
 20
24.5
 30
0.0
 11
10.23
 21
9.5
 31
0.0
  0
LINE
  5
2E1
100
AcDbEntity
  8
0
  6
DASHED
 62
               2
100
AcDbLine
 10
-10.699999999999999
 20
24.5
 30
0.0
 11
-10.23
 21
9.5
 31
0.0
  0
LINE
  5
2E2
100
AcDbEntity
  8
0
  6
DASHED
 62
               2
100
AcDbLine
 10
-10.23
 20
9.5
 30
0.0
 11
10.23
 21
9.5
 31
0.0
  0
LINE
  5
2E3
100
AcDbEntity
  8
0
  6
CENTER
 62
               2
100
AcDbLine
 10
0.0
 20
43.0
 30
0.0
 11
0.0
 21
-20.0
 31
0.0
  0
LINE
  5
2E4
100
AcDbEntity
  8
0
  6
CENTER
 62
               2
100
AcDbLine
 10
-12.76
 20
0.0
 30
0.0
 11
12.210000000000001
 21
0.0
 31
0.0
  0
LINE
  5
2E5
100
AcDbEntity
  8
0
  6
CONTINUOUS
 62
               2
100
AcDbLine
 10
7.7000000000000002
 20
5.5199999999999996
 30
0.0
 11
7.2999999999999998
 21
-6.4699999999999998
 31
0.0
  0
ENDBLK
  5
2E6
100
AcDbEntity
  8
0
100
AcDbBlockEnd
  0
BLOCK
  5
2E7
100
AcDbEntity
  8
0
100
AcDbBlockBegin
  2
MS_32
 70
               0
 10
0.0
 20
0.0
 30
0.0
  3
MS_32
  1

  0
CIRCLE
  5
2E8
100
AcDbEntity
  8
0
  6
CONTINUOUS
 62
               2
100
AcDbCircle
 10
0.0
 20
0.0
 30
0.0
 40
10.699999809265137
  0
CIRCLE
  5
2E9
100
AcDbEntity
  8
0
  6
CONTINUOUS
 62
               7
100
AcDbCircle
 10
0.0
 20
0.0
 30
0.0
 40
5.0
  0
CIRCLE
  5
2EA
100
AcDbEntity
  8
0
  6
CONTINUOUS
 62
               7
100
AcDbCircle
 10
0.0
 20
0.0
 30
0.0
 40
12.0
  0
CIRCLE
  5
2EB
100
AcDbEntity
  8
0
  6
CONTINUOUS
 62
               7
100
AcDbCircle
 10
0.0
 20
0.0
 30
0.0
 40
9.5500001907348633
  0
LINE
  5
2EC
100
AcDbEntity
  8
0
  6
CONTINUOUS
 62
               7
100
AcDbLine
 10
6.9199999999999999
 20
12.0
 30
0.0
 11
13.85
 21
0.0
 31
0.0
  0
LINE
  5
2ED
100
AcDbEntity
  8
0
  6
CONTINUOUS
 62
               7
100
AcDbLine
 10
-13.85
 20
0.0
 30
0.0
 11
-6.9199999999999999
 21
-12.0
 31
0.0
  0
LINE
  5
2EE
100
AcDbEntity
  8
0
  6
CONTINUOUS
 62
               7
100
AcDbLine
 10
6.9199999999999999
 20
-12.0
 30
0.0
 11
13.85
 21
0.0
 31
0.0
  0
LINE
  5
2EF
100
AcDbEntity
  8
0
  6
CONTINUOUS
 62
               7
100
AcDbLine
 10
-13.85
 20
0.0
 30
0.0
 11
-6.9199999999999999
 21
12.0
 31
0.0
  0
LINE
  5
2F0
100
AcDbEntity
  8
0
  6
CONTINUOUS
 62
               7
100
AcDbLine
 10
-6.9199999999999999
 20
12.0
 30
0.0
 11
6.9199999999999999
 21
12.0
 31
0.0
  0
LINE
  5
2F1
100
AcDbEntity
  8
0
  6
CONTINUOUS
 62
               7
100
AcDbLine
 10
-6.9199999999999999
 20
-12.0
 30
0.0
 11
6.9199999999999999
 21
-12.0
 31
0.0
  0
LINE
  5
2F2
100
AcDbEntity
  8
0
  6
CENTER
 62
               2
100
AcDbLine
 10
-35.850000000000001
 20
0.0
 30
0.0
 11
33.350000000000001
 21
0.0
 31
0.0
  0
LINE
  5
2F3
100
AcDbEntity
  8
0
  6
CENTER
 62
               2
100
AcDbLine
 10
0.0
 20
16.300000000000001
 30
0.0
 11
0.0
 21
-14.0
 31
0.0
  0
ENDBLK
  5
2F4
100
AcDbEntity
  8
0
100
AcDbBlockEnd
  0
BLOCK
  5
2F5
100
AcDbEntity
  8
0
100
AcDbBlockBegin
  2
MS_33
 70
               0
 10
0.0
 20
0.0
 30
0.0
  3
MS_33
  1

  0
LINE
  5
2F6
100
AcDbEntity
  8
0
  6
CONTINUOUS
 62
               7
100
AcDbLine
 10
13.25
 20
16.359999999999999
 30
0.0
 11
11.9
 21
16.0
 31
0.0
  0
LINE
  5
2F7
100
AcDbEntity
  8
0
  6
CONTINUOUS
 62
               7
100
AcDbLine
 10
-13.25
 20
16.359999999999999
 30
0.0
 11
-11.9
 21
16.0
 31
0.0
  0
LINE
  5
2F8
100
AcDbEntity
  8
0
  6
CONTINUOUS
 62
               7
100
AcDbLine
 10
11.9
 20
35.0
 30
0.0
 11
13.25
 21
34.630000000000003
 31
0.0
  0
LINE
  5
2F9
100
AcDbEntity
  8
0
  6
CONTINUOUS
 62
               7
100
AcDbLine
 10
-11.9
 20
35.0
 30
0.0
 11
-13.25
 21
34.630000000000003
 31
0.0
  0
LINE
  5
2FA
100
AcDbEntity
  8
0
  6
CENTER
 62
               2
100
AcDbLine
 10
-19.050000000000001
 20
0.0
 30
0.0
 11
15.880000000000001
 21
0.0
 31
0.0
  0
LINE
  5
2FB
100
AcDbEntity
  8
0
  6
DASHED
 62
               2
100
AcDbLine
 10
9.9499999999999993
 20
20.0
 30
0.0
 11
0.0
 21
20.0
 31
0.0
  0
LINE
  5
2FC
100
AcDbEntity
  8
0
  6
DASHED
 62
               2
100
AcDbLine
 10
9.3300000000000001
 20
34.950000000000003
 30
0.0
 11
8.8499999999999996
 21
20.0
 31
0.0
  0
LINE
  5
2FD
100
AcDbEntity
  8
0
  6
DASHED
 62
               2
100
AcDbLine
 10
10.43
 20
34.920000000000002
 30
0.0
 11
9.9499999999999993
 21
20.0
 31
0.0
  0
LINE
  5
2FE
100
AcDbEntity
  8
0
  6
CONTINUOUS
 62
               7
100
AcDbLine
 10
13.25
 20
34.479999999999997
 30
0.0
 11
13.25
 21
16.359999999999999
 31
0.0
  0
LINE
  5
2FF
100
AcDbEntity
  8
0
  6
CONTINUOUS
 62
               2
100
AcDbLine
 10
9.5899999999999999
 20
7.0300000000000002
 30
0.0
 11
9.0099999999999998
 21
-8.0
 31
0.0
  0
LINE
  5
300
100
AcDbEntity
  8
0
  6
CONTINUOUS
 62
               7
100
AcDbLine
 10
10.69
 20
6.9800000000000004
 30
0.0
 11
10.119999999999999
 21
-8.0
 31
0.0
  0
LINE
  5
301
100
AcDbEntity
  8
0
  6
CONTINUOUS
 62
               7
100
AcDbLine
 10
10.699999999999999
 20
16.0
 30
0.0
 11
10.699999999999999
 21
7.0
 31
0.0
  0
LINE
  5
302
100
AcDbEntity
  8
0
  6
CONTINUOUS
 62
               2
100
AcDbLine
 10
-9.5899999999999999
 20
7.0300000000000002
 30
0.0
 11
-9.0099999999999998
 21
-8.0
 31
0.0
  0
LINE
  5
303
100
AcDbEntity
  8
0
  6
CONTINUOUS
 62
               7
100
AcDbLine
 10
-10.69
 20
6.9800000000000004
 30
0.0
 11
-10.119999999999999
 21
-8.0
 31
0.0
  0
LINE
  5
304
100
AcDbEntity
  8
0
  6
CENTER
 62
               2
100
AcDbLine
 10
0.0
 20
38.859999999999999
 30
0.0
 11
0.0
 21
-12.539999999999999
 31
0.0
  0
LINE
  5
305
100
AcDbEntity
  8
0
  6
CONTINUOUS
 62
               7
100
AcDbLine
 10
-6.0
 20
35.0
 30
0.0
 11
-6.0
 21
16.0
 31
0.0
  0
LINE
  5
306
100
AcDbEntity
  8
0
  6
CONTINUOUS
 62
               7
100
AcDbLine
 10
-10.699999999999999
 20
16.0
 30
0.0
 11
-10.699999999999999
 21
7.0
 31
0.0
  0
LINE
  5
307
100
AcDbEntity
  8
0
  6
DASHED
 62
               2
100
AcDbLine
 10
-10.43
 20
34.920000000000002
 30
0.0
 11
-9.9499999999999993
 21
20.0
 31
0.0
  0
LINE
  5
308
100
AcDbEntity
  8
0
  6
DASHED
 62
               2
100
AcDbLine
 10
-9.3300000000000001
 20
34.950000000000003
 30
0.0
 11
-8.8499999999999996
 21
20.0
 31
0.0
  0
LINE
  5
309
100
AcDbEntity
  8
0
  6
DASHED
 62
               2
100
AcDbLine
 10
-9.9499999999999993
 20
20.0
 30
0.0
 11
0.0
 21
20.0
 31
0.0
  0
LINE
  5
30A
100
AcDbEntity
  8
0
  6
CONTINUOUS
 62
               7
100
AcDbLine
 10
-11.9
 20
16.0
 30
0.0
 11
11.9
 21
16.0
 31
0.0
  0
LINE
  5
30B
100
AcDbEntity
  8
0
  6
CONTINUOUS
 62
               7
100
AcDbLine
 10
-13.25
 20
34.630000000000003
 30
0.0
 11
-13.25
 21
16.359999999999999
 31
0.0
  0
LINE
  5
30C
100
AcDbEntity
  8
0
  6
CONTINUOUS
 62
               7
100
AcDbLine
 10
-11.9
 20
35.0
 30
0.0
 11
11.9
 21
35.0
 31
0.0
  0
LINE
  5
30D
100
AcDbEntity
  8
0
  6
CONTINUOUS
 62
               7
100
AcDbLine
 10
-10.699999999999999
 20
7.0
 30
0.0
 11
10.699999999999999
 21
7.0
 31
0.0
  0
LINE
  5
30E
100
AcDbEntity
  8
0
  6
CONTINUOUS
 62
               7
100
AcDbLine
 10
-10.119999999999999
 20
-8.0
 30
0.0
 11
10.119999999999999
 21
-8.0
 31
0.0
  0
LINE
  5
30F
100
AcDbEntity
  8
0
  6
CONTINUOUS
 62
               7
100
AcDbLine
 10
6.0
 20
35.0
 30
0.0
 11
6.0
 21
16.0
 31
0.0
  0
ENDBLK
  5
310
100
AcDbEntity
  8
0
100
AcDbBlockEnd
  0
BLOCK
  5
311
100
AcDbEntity
  8
0
100
AcDbBlockBegin
  2
MS_34
 70
               0
 10
0.0
 20
0.0
 30
0.0
  3
MS_34
  1

  0
CIRCLE
  5
312
100
AcDbEntity
  8
0
  6
CONTINUOUS
 62
               7
100
AcDbCircle
 10
0.0
 20
0.0
 30
0.0
 40
11.899999618530273
  0
CIRCLE
  5
313
100
AcDbEntity
  8
0
  6
CONTINUOUS
 62
               7
100
AcDbCircle
 10
0.0
 20
0.0
 30
0.0
 40
5.5
  0
CIRCLE
  5
314
100
AcDbEntity
  8
0
  6
CONTINUOUS
 62
               7
100
AcDbCircle
 10
0.0
 20
0.0
 30
0.0
 40
9.3155002593994141
  0
CIRCLE
  5
315
100
AcDbEntity
  8
0
  6
CONTINUOUS
 62
               2
100
AcDbCircle
 10
0.0
 20
0.0
 30
0.0
 40
10.699999809265137
  0
LINE
  5
316
100
AcDbEntity
  8
0
  6
CONTINUOUS
 62
               7
100
AcDbLine
 10
-7.5300000000000002
 20
-10.949999999999999
 30
0.0
 11
-5.71
 21
-12.0
 31
0.0
  0
LINE
  5
317
100
AcDbEntity
  8
0
  6
CONTINUOUS
 62
               7
100
AcDbLine
 10
5.71
 20
12.0
 30
0.0
 11
7.5300000000000002
 21
10.949999999999999
 31
0.0
  0
LINE
  5
318
100
AcDbEntity
  8
0
  6
CONTINUOUS
 62
               7
100
AcDbLine
 10
-13.25
 20
1.05
 30
0.0
 11
-13.25
 21
-1.05
 31
0.0
  0
LINE
  5
319
100
AcDbEntity
  8
0
  6
CONTINUOUS
 62
               7
100
AcDbLine
 10
13.25
 20
1.05
 30
0.0
 11
13.25
 21
-1.05
 31
0.0
  0
LINE
  5
31A
100
AcDbEntity
  8
0
  6
CONTINUOUS
 62
               7
100
AcDbLine
 10
-7.5300000000000002
 20
10.949999999999999
 30
0.0
 11
-5.71
 21
12.0
 31
0.0
  0
LINE
  5
31B
100
AcDbEntity
  8
0
  6
CONTINUOUS
 62
               7
100
AcDbLine
 10
5.71
 20
-12.0
 30
0.0
 11
7.5300000000000002
 21
-10.949999999999999
 31
0.0
  0
LINE
  5
31C
100
AcDbEntity
  8
0
  6
CONTINUOUS
 62
               7
100
AcDbLine
 10
-7.5300000000000002
 20
-10.949999999999999
 30
0.0
 11
-13.25
 21
-1.05
 31
0.0
  0
LINE
  5
31D
100
AcDbEntity
  8
0
  6
CONTINUOUS
 62
               7
100
AcDbLine
 10
13.25
 20
1.05
 30
0.0
 11
7.5300000000000002
 21
10.949999999999999
 31
0.0
  0
LINE
  5
31E
100
AcDbEntity
  8
0
  6
CONTINUOUS
 62
               7
100
AcDbLine
 10
-13.25
 20
1.05
 30
0.0
 11
-7.5300000000000002
 21
10.949999999999999
 31
0.0
  0
LINE
  5
31F
100
AcDbEntity
  8
0
  6
CONTINUOUS
 62
               7
100
AcDbLine
 10
7.5300000000000002
 20
-10.949999999999999
 30
0.0
 11
13.25
 21
-1.05
 31
0.0
  0
LINE
  5
320
100
AcDbEntity
  8
0
  6
CONTINUOUS
 62
               7
100
AcDbLine
 10
-5.71
 20
-12.0
 30
0.0
 11
5.71
 21
-12.0
 31
0.0
  0
LINE
  5
321
100
AcDbEntity
  8
0
  6
CONTINUOUS
 62
               7
100
AcDbLine
 10
-5.71
 20
12.0
 30
0.0
 11
5.71
 21
12.0
 31
0.0
  0
LINE
  5
322
100
AcDbEntity
  8
0
  6
CENTER
 62
               2
100
AcDbLine
 10
-30.0
 20
0.0
 30
0.0
 11
29.989999999999998
 21
0.0
 31
0.0
  0
LINE
  5
323
100
AcDbEntity
  8
0
  6
CENTER
 62
               2
100
AcDbLine
 10
0.0
 20
16.5
 30
0.0
 11
0.0
 21
-16.75
 31
0.0
  0
ENDBLK
  5
324
100
AcDbEntity
  8
0
100
AcDbBlockEnd
  0
ENDSEC
  0
SECTION
  2
ENTITIES
  0
INSERT
  5
325
100
AcDbEntity
  8
0
100
AcDbBlockReference
  2
MS_26
 10
-228.79425048828125
 20
-98.640609741210938
 30
0.0
  0
INSERT
  5
326
100
AcDbEntity
  8
0
100
AcDbBlockReference
  2
MS_30
 10
-1.1885490417480469
 20
-91.708450317382813
 30
0.0
  0
INSERT
  5
327
100
AcDbEntity
  8
0
100
AcDbBlockReference
  2
MS_28
 10
-112.68067932128906
 20
-95.174530029296875
 30
0.0
  0
INSERT
  5
328
100
AcDbEntity
  8
0
100
AcDbBlockReference
  2
MS_34
 10
224.10643005371094
 20
-89.397735595703125
 30
0.0
  0
INSERT
  5
329
100
AcDbEntity
  8
0
100
AcDbBlockReference
  2
MS_33
 10
224.10643005371094
 20
-149.39773559570312
 30
0.0
  0
INSERT
  5
32A
100
AcDbEntity
  8
0
100
AcDbBlockReference
  2
MS_32
 10
110.30357360839844
 20
-89.975418090820313
 30
0.0
  0
INSERT
  5
32B
100
AcDbEntity
  8
0
100
AcDbBlockReference
  2
MS_31
 10
110.30357360839844
 20
-159.97541809082031
 30
0.0
  0
INSERT
  5
32C
100
AcDbEntity
  8
0
100
AcDbBlockReference
  2
MS_29
 10
-1.1885490417480469
 20
-161.70846557617187
 30
0.0
  0
INSERT
  5
32D
100
AcDbEntity
  8
0
100
AcDbBlockReference
  2
MS_27
 10
-112.68067932128906
 20
-155.17453002929687
 30
0.0
 50
0.0011071587086869
  0
INSERT
  5
32E
100
AcDbEntity
  8
0
100
AcDbBlockReference
  2
MS_25
 10
-228.79425048828125
 20
-153.64060974121094
 30
0.0
  0
INSERT
  5
32F
100
AcDbEntity
  8
0
100
AcDbBlockReference
  2
MS_24
 10
235.08233642578125
 20
37.381011962890625
 30
0.0
  0
INSERT
  5
330
100
AcDbEntity
  8
0
100
AcDbBlockReference
  2
MS_23
 10
235.08233642578125
 20
-24.618972778320313
 30
0.0
  0
INSERT
  5
331
100
AcDbEntity
  8
0
100
AcDbBlockReference
  2
MS_22
 10
140.92059326171875
 20
39.49261474609375
 30
0.0
  0
INSERT
  5
332
100
AcDbEntity
  8
0
100
AcDbBlockReference
  2
MS_21
 10
140.92059326171875
 20
-27.507369995117188
 30
0.0
  0
INSERT
  5
333
100
AcDbEntity
  8
0
100
AcDbBlockReference
  2
MS_20
 10
46.758834838867188
 20
40.75958251953125
 30
0.0
  0
INSERT
  5
334
100
AcDbEntity
  8
0
100
AcDbBlockReference
  2
MS_19
 10
46.758834838867188
 20
-29.24041748046875
 30
0.0
  0
INSERT
  5
335
100
AcDbEntity
  8
0
100
AcDbBlockReference
  2
MS_18
 10
-45.562210083007813
 20
28.501739501953125
 30
0.0
  0
INSERT
  5
336
100
AcDbEntity
  8
0
100
AcDbBlockReference
  2
MS_17
 10
-45.562210083007813
 20
-21.498245239257813
 30
0.0
  0
INSERT
  5
337
100
AcDbEntity
  8
0
100
AcDbBlockReference
  2
MS_16
 10
-139.80009460449219
 20
28.616592407226563
 30
0.0
  0
INSERT
  5
338
100
AcDbEntity
  8
0
100
AcDbBlockReference
  2
MS_15
 10
-139.80009460449219
 20
-21.383392333984375
 30
0.0
  0
INSERT
  5
339
100
AcDbEntity
  8
0
100
AcDbBlockReference
  2
MS_14
 10
-238.61480712890625
 20
29.783660888671875
 30
0.0
  0
INSERT
  5
33A
100
AcDbEntity
  8
0
100
AcDbBlockReference
  2
MS_13
 10
-238.61480712890625
 20
-20.216323852539063
 30
0.0
  0
INSERT
  5
33B
100
AcDbEntity
  8
0
100
AcDbBlockReference
  2
MS_12
 10
237.12188720703125
 20
157.51434326171875
 30
0.0
  0
INSERT
  5
33C
100
AcDbEntity
  8
0
100
AcDbBlockReference
  2
MS_11
 10
237.12188720703125
 20
102.51434326171875
 30
0.0
  0
INSERT
  5
33D
100
AcDbEntity
  8
0
100
AcDbBlockReference
  2
MS_10
 10
138.91397094726562
 20
165.38172912597656
 30
0.0
  0
INSERT
  5
33E
100
AcDbEntity
  8
0
100
AcDbBlockReference
  2
MS_9
 10
138.91397094726562
 20
100.38172912597656
 30
0.0
  0
INSERT
  5
33F
100
AcDbEntity
  8
0
100
AcDbBlockReference
  2
MS_8
 10
48.232955932617188
 20
162.15591430664062
 30
0.0
  0
INSERT
  5
340
100
AcDbEntity
  8
0
100
AcDbBlockReference
  2
MS_7
 10
48.232955932617188
 20
112.15591430664062
 30
0.0
  0
INSERT
  5
341
100
AcDbEntity
  8
0
100
AcDbBlockReference
  2
MS_6
 10
-49.333328247070313
 20
159.33332824707031
 30
0.0
  0
INSERT
  5
342
100
AcDbEntity
  8
0
100
AcDbBlockReference
  2
MS_5
 10
-49.333328247070313
 20
109.33332824707031
 30
0.0
  0
INSERT
  5
343
100
AcDbEntity
  8
0
100
AcDbBlockReference
  2
MS_4
 10
-142.19805908203125
 20
153.403564453125
 30
0.0
  0
INSERT
  5
344
100
AcDbEntity
  8
0
100
AcDbBlockReference
  2
MS_3
 10
-142.19805908203125
 20
96.803558349609375
 30
0.0
  0
INSERT
  5
345
100
AcDbEntity
  8
0
100
AcDbBlockReference
  2
MS_2
 10
-236.03700256347656
 20
155.12495422363281
 30
0.0
  0
INSERT
  5
346
100
AcDbEntity
  8
0
100
AcDbBlockReference
  2
MS_1
 10
-236.03700256347656
 20
100.27494812011719
 30
0.0
  0
MTEXT
  5
347
100
AcDbEntity
  8
0
  6
CONTINUOUS
 62
               7
100
AcDbMText
 10
232.0999755859375
 20
-181.5
 30
0.0
 40
7.0
 41
0.0
 71
               2
 72
               1
  1
\T1.254;\W0.968;\A1;KOGANEI CORP.
  7
MX_NOTE_STANDARD
  0
MTEXT
  5
348
100
AcDbEntity
  8
0
  6
CONTINUOUS
 62
               7
100
AcDbMText
 10
194.0972018789362
 20
-59.833343505859375
 30
0.0
 40
5.0
 41
0.0
 71
               4
 72
               1
  1
\W1.067;\A1;MODEL:CS-BB02-04
  7
MX_NOTE_STANDARD
  0
MTEXT
  5
349
100
AcDbEntity
  8
0
  6
CONTINUOUS
 62
               7
100
AcDbMText
 10
-275.34090909029334
 20
-59.833343505859375
 30
0.0
 40
5.0
 41
0.0
 71
               4
 72
               1
  1
\W1.091;\A1;MODEL:CS-BB01-03
  7
MX_NOTE_STANDARD
  0
MTEXT
  5
34A
100
AcDbEntity
  8
0
  6
CONTINUOUS
 62
               7
100
AcDbMText
 10
-181.47921652264705
 20
-59.833343505859375
 30
0.0
 40
5.0
 41
0.0
 71
               4
 72
               1
  1
\W1.055;\A1;MODEL:CS-BB02-M5
  7
MX_NOTE_STANDARD
  0
MTEXT
  5
34B
100
AcDbEntity
  8
0
  6
CONTINUOUS
 62
               7
100
AcDbMText
 10
-87.557583894980837
 20
-59.833343505859375
 30
0.0
 40
5.0
 41
0.0
 71
               4
 72
               1
  1
\W1.091;\A1;MODEL:CS-BB02-01
  7
MX_NOTE_STANDARD
  0
MTEXT
  5
34C
100
AcDbEntity
  8
0
  6
CONTINUOUS
 62
               7
100
AcDbMText
 10
6.3138766836237021
 20
-59.833343505859375
 30
0.0
 40
5.0
 41
0.0
 71
               4
 72
               1
  1
\W1.067;\A1;MODEL:CS-BB02-02
  7
MX_NOTE_STANDARD
  0
MTEXT
  5
34D
100
AcDbEntity
  8
0
  6
CONTINUOUS
 62
               7
100
AcDbMText
 10
100.20553928127995
 20
-59.833343505859375
 30
0.0
 40
5.0
 41
0.0
 71
               4
 72
               1
  1
\W1.067;\A1;MODEL:CS-BB02-03
  7
MX_NOTE_STANDARD
  0
MTEXT
  5
34E
100
AcDbEntity
  8
0
  6
CONTINUOUS
 62
               7
100
AcDbMText
 10
194.11740389798791
 20
70.333328247070312
 30
0.0
 40
5.0
 41
0.0
 71
               4
 72
               1
  1
\W1.091;\A1;MODEL:CS-BB01-02
  7
MX_NOTE_STANDARD
  0
MTEXT
  5
34F
100
AcDbEntity
  8
0
  6
CONTINUOUS
 62
               7
100
AcDbMText
 10
-275.38043478317206
 20
70.333328247070312
 30
0.0
 40
5.0
 41
0.0
 71
               4
 72
               1
  1
\W1.043;\A1;MODEL:CS-BBM5-M5
  7
MX_NOTE_STANDARD
  0
MTEXT
  5
350
100
AcDbEntity
  8
0
  6
CONTINUOUS
 62
               7
100
AcDbMText
 10
-181.49099046409577
 20
70.333328247070312
 30
0.0
 40
5.0
 41
0.0
 71
               4
 72
               1
  1
\W1.041;\A1;MODEL:CS-BBM5-M5L
  7
MX_NOTE_STANDARD
  0
MTEXT
  5
351
100
AcDbEntity
  8
0
  6
CONTINUOUS
 62
               7
100
AcDbMText
 10
-87.567798400795112
 20
70.333328247070312
 30
0.0
 40
5.0
 41
0.0
 71
               4
 72
               1
  1
\W1.079;\A1;MODEL:CS-BBM5-01
  7
MX_NOTE_STANDARD
  0
MTEXT
  5
352
100
AcDbEntity
  8
0
  6
CONTINUOUS
 62
               7
100
AcDbMText
 10
6.3238641968611411
 20
70.333328247070312
 30
0.0
 40
5.0
 41
0.0
 71
               4
 72
               1
  1
\W1.079;\A1;MODEL:CS-BB01-M5
  7
MX_NOTE_STANDARD
  0
MTEXT
  5
353
100
AcDbEntity
  8
0
  6
CONTINUOUS
 62
               7
100
AcDbMText
 10
100.24688294811982
 20
70.333328247070312
 30
0.0
 40
5.0
 41
0.0
 71
               4
 72
               1
  1
\W1.116;\A1;MODEL:CS-BB01-01
  7
MX_NOTE_STANDARD
  0
MTEXT
  5
354
100
AcDbEntity
  8
0
  6
CONTINUOUS
 62
               7
100
AcDbMText
 10
175.3188815664362
 20
-170.0
 30
0.0
 40
5.0
 41
0.0
 71
               4
 72
               1
  1
\W1.067;\A1;MODEL:CS-BB04-04
  7
MX_NOTE_STANDARD
  0
MTEXT
  5
355
100
AcDbEntity
  8
0
  6
CONTINUOUS
 62
               7
100
AcDbMText
 10
62.648883397490891
 20
-190.0
 30
0.0
 40
5.0
 41
0.0
 71
               4
 72
               1
  1
\W1.067;\A1;MODEL:CS-BB03-04
  7
MX_NOTE_STANDARD
  0
MTEXT
  5
356
100
AcDbEntity
  8
0
  6
CONTINUOUS
 62
               7
100
AcDbMText
 10
-50.021114771454421
 20
-190.0
 30
0.0
 40
5.0
 41
0.0
 71
               4
 72
               1
  1
\W1.067;\A1;MODEL:CS-BB03-03
  7
MX_NOTE_STANDARD
  0
MTEXT
  5
357
100
AcDbEntity
  8
0
  6
CONTINUOUS
 62
               7
100
AcDbMText
 10
-162.69111294039973
 20
-190.0
 30
0.0
 40
5.0
 41
0.0
 71
               4
 72
               1
  1
\W1.067;\A1;MODEL:CS-BB03-02
  7
MX_NOTE_STANDARD
  0
MTEXT
  5
358
100
AcDbEntity
  8
0
  6
CONTINUOUS
 62
               7
100
AcDbMText
 10
-275.34090909029334
 20
-190.00001525878906
 30
0.0
 40
5.0
 41
0.0
 71
               4
 72
               1
  1
\W1.091;\A1;MODEL:CS-BB03-01
  7
MX_NOTE_STANDARD
  0
MTEXT
  5
359
100
AcDbEntity
  8
0
  6
CONTINUOUS
 62
               7
100
AcDbMText
 10
-275.31250000174623
 20
-59.833343505859375
 30
0.0
 40
5.0
 41
0.0
 71
               4
 72
               1
  1
\W1.125;\A1;MODEL:
  7
MX_NOTE_STANDARD
  0
MTEXT
  5
35A
100
AcDbEntity
  8
0
  6
CONTINUOUS
 62
               7
100
AcDbMText
 10
213.03027797579438
 20
188.0
 30
0.0
 40
5.8000001907348633
 41
0.0
 71
               4
 72
               1
  1
\W1.273;\A1;Ver.1.0
  7
MX_NOTE_STANDARD
  0
MTEXT
  5
35B
100
AcDbEntity
  8
0
  6
CONTINUOUS
 62
               7
100
AcDbMText
 10
-275.37280748814351
 20
188.0
 30
0.0
 40
5.8000001907348633
 41
0.0
 71
               4
 72
               1
  1
\W0.907;\A1;CS-QUICK FITTING,BB
  7
MX_NOTE_STANDARD
  0
LINE
  5
35C
100
AcDbEntity
  8
0
  6
CONTINUOUS
 62
               7
100
AcDbLine
 10
169.43000000000001
 20
-195.0
 30
0.0
 11
169.43000000000001
 21
-64.829999999999998
 31
0.0
  0
LINE
  5
35D
100
AcDbEntity
  8
0
  6
CONTINUOUS
 62
               7
100
AcDbLine
 10
56.759999999999998
 20
-195.0
 30
0.0
 11
56.759999999999998
 21
-64.829999999999998
 31
0.0
  0
LINE
  5
35E
100
AcDbEntity
  8
0
  6
CONTINUOUS
 62
               7
100
AcDbLine
 10
-55.909999999999997
 20
-195.0
 30
0.0
 11
-55.909999999999997
 21
-64.829999999999998
 31
0.0
  0
LINE
  5
35F
100
AcDbEntity
  8
0
  6
CONTINUOUS
 62
               7
100
AcDbLine
 10
-168.58000000000001
 20
-195.0
 30
0.0
 11
-168.58000000000001
 21
-64.829999999999998
 31
0.0
  0
LINE
  5
360
100
AcDbEntity
  8
0
  6
CONTINUOUS
 62
               7
100
AcDbLine
 10
188.19999999999999
 20
180.5
 30
0.0
 11
188.19999999999999
 21
-64.829999999999998
 31
0.0
  0
LINE
  5
361
100
AcDbEntity
  8
0
  6
CONTINUOUS
 62
               7
100
AcDbLine
 10
94.310000000000002
 20
195.5
 30
0.0
 11
94.310000000000002
 21
-64.829999999999998
 31
0.0
  0
LINE
  5
362
100
AcDbEntity
  8
0
  6
CONTINUOUS
 62
               7
100
AcDbLine
 10
0.42
 20
195.5
 30
0.0
 11
0.42
 21
-64.829999999999998
 31
0.0
  0
LINE
  5
363
100
AcDbEntity
  8
0
  6
CONTINUOUS
 62
               7
100
AcDbLine
 10
-93.459999999999994
 20
195.5
 30
0.0
 11
-93.459999999999994
 21
-64.829999999999998
 31
0.0
  0
LINE
  5
364
100
AcDbEntity
  8
0
  6
CONTINUOUS
 62
               7
100
AcDbLine
 10
-187.34999999999999
 20
180.5
 30
0.0
 11
-187.34999999999999
 21
-64.829999999999998
 31
0.0
  0
LINE
  5
365
100
AcDbEntity
  8
0
  6
CONTINUOUS
 62
               7
100
AcDbLine
 10
-281.25
 20
65.329999999999998
 30
0.0
 11
282.10000000000002
 21
65.329999999999998
 31
0.0
  0
LINE
  5
366
100
AcDbEntity
  8
0
  6
CONTINUOUS
 62
               7
100
AcDbLine
 10
-281.25
 20
-195.0
 30
0.0
 11
282.10000000000002
 21
-195.0
 31
0.0
  0
LINE
  5
367
100
AcDbEntity
  8
0
  6
CONTINUOUS
 62
               7
100
AcDbLine
 10
282.10000000000002
 20
195.5
 30
0.0
 11
282.10000000000002
 21
-195.0
 31
0.0
  0
LINE
  5
368
100
AcDbEntity
  8
0
  6
CONTINUOUS
 62
               7
100
AcDbLine
 10
-281.25
 20
195.5
 30
0.0
 11
-281.25
 21
-195.0
 31
0.0
  0
LINE
  5
369
100
AcDbEntity
  8
0
  6
CONTINUOUS
 62
               7
100
AcDbLine
 10
-281.25
 20
195.5
 30
0.0
 11
282.10000000000002
 21
195.5
 31
0.0
  0
LINE
  5
36A
100
AcDbEntity
  8
0
  6
CONTINUOUS
 62
               7
100
AcDbLine
 10
-281.25
 20
-64.829999999999998
 30
0.0
 11
282.10000000000002
 21
-64.829999999999998
 31
0.0
  0
LINE
  5
36B
100
AcDbEntity
  8
0
  6
CONTINUOUS
 62
               7
100
AcDbLine
 10
169.43000000000001
 20
-175.0
 30
0.0
 11
282.10000000000002
 21
-175.0
 31
0.0
  0
LINE
  5
36C
100
AcDbEntity
  8
0
  6
CONTINUOUS
 62
               7
100
AcDbLine
 10
182.09999999999999
 20
180.5
 30
0.0
 11
282.10000000000002
 21
180.5
 31
0.0
  0
LINE
  5
36D
100
AcDbEntity
  8
0
  6
CONTINUOUS
 62
               7
100
AcDbLine
 10
182.09999999999999
 20
-175.0
 30
0.0
 11
182.09999999999999
 21
-195.0
 31
0.0
  0
LINE
  5
36E
100
AcDbEntity
  8
0
  6
CONTINUOUS
 62
               7
100
AcDbLine
 10
-281.25
 20
180.5
 30
0.0
 11
-181.25
 21
180.5
 31
0.0
  0
LINE
  5
36F
100
AcDbEntity
  8
0
  6
CONTINUOUS
 62
               7
100
AcDbLine
 10
182.09999999999999
 20
195.5
 30
0.0
 11
182.09999999999999
 21
180.5
 31
0.0
  0
LINE
  5
370
100
AcDbEntity
  8
0
  6
CONTINUOUS
 62
               7
100
AcDbLine
 10
-181.25
 20
195.5
 30
0.0
 11
-181.25
 21
180.5
 31
0.0
  0
ENDSEC
  0
SECTION
  2
OBJECTS
  0
DICTIONARY
  5
19
100
AcDbDictionary
  3
ACAD_GROUP
350
1A
  3
ACAD_MLINESTYLE
350
1B
  0
DICTIONARY
  5
1A
102
{ACAD_REACTORS
330
19
102
}
100
AcDbDictionary
  0
DICTIONARY
  5
1B
102
{ACAD_REACTORS
330
19
102
}
100
AcDbDictionary
  3
STANDARD
350
1C
  0
MLINESTYLE
  5
1C
102
{ACAD_REACTORS
330
1B
102
}
100
AcDbMlineStyle
  2
Standard
 70
               0
  3

 62
               0
 51
90.0
 52
90.0
 71
               2
 49
0.5
 62
             256
  6
ByLayer
 49
-0.5
 62
             256
  6
ByLayer
  0
ENDSEC
  0
EOF
