  0
SECTION
  2
HEADER
  9
$ACADVER
  1
AC1012
  9
$DWGCODEPAGE
  3
dos932
  9
$INSBASE
 10
0.0
 20
0.0
 30
0.0
  9
$EXTMIN
 10
-194.25
 20
-133.5
 30
0.0
  9
$EXTMAX
 10
194.80000000000001
 20
132.59999999999999
 30
0.0
  9
$LIMMIN
 10
-194.25
 20
-133.5
  9
$LIMMAX
 10
194.80000000000001
 20
132.59999999999999
  9
$ORTHOMODE
 70
               0
  9
$REGENMODE
 70
               1
  9
$FILLMODE
 70
               1
  9
$QTEXTMODE
 70
               0
  9
$MIRRTEXT
 70
               1
  9
$DRAGMODE
 70
               2
  9
$LTSCALE
 40
1.0
  9
$OSMODE
 70
               0
  9
$ATTMODE
 70
               1
  9
$TEXTSIZE
 40
3.2000000476837158
  9
$TRACEWID
 40
0.05
  9
$TEXTSTYLE
  7
MX_NOTE_STANDARD
  9
$CLAYER
  8
0
  9
$CELTYPE
  6
CONTINUOUS
  9
$CECOLOR
 62
             256
  9
$CELTSCALE
 40
1.0
  9
$DELOBJ
 70
               1
  9
$DISPSILH
 70
               0
  9
$DIMSCALE
 40
1.0
  9
$DIMASZ
 40
2.5
  9
$DIMEXO
 40
1.5
  9
$DIMDLI
 40
3.75
  9
$DIMRND
 40
0.0
  9
$DIMDLE
 40
0.0
  9
$DIMEXE
 40
1.5
  9
$DIMTP
 40
0.0
  9
$DIMTM
 40
0.0
  9
$DIMTXT
 40
3.2000000476837158
  9
$DIMCEN
 40
2.5
  9
$DIMTSZ
 40
0.0
  9
$DIMTOL
 70
               0
  9
$DIMLIM
 70
               0
  9
$DIMTIH
 70
               0
  9
$DIMTOH
 70
               0
  9
$DIMSE1
 70
               0
  9
$DIMSE2
 70
               0
  9
$DIMTAD
 70
               1
  9
$DIMZIN
 70
               8
  9
$DIMBLK
  1

  9
$DIMASO
 70
               1
  9
$DIMSHO
 70
               1
  9
$DIMPOST
  1

  9
$DIMAPOST
  1

  9
$DIMALT
 70
               0
  9
$DIMALTD
 70
               4
  9
$DIMALTF
 40
0.0394
  9
$DIMLFAC
 40
1.0
  9
$DIMTOFL
 70
               1
  9
$DIMTVP
 40
0.0
  9
$DIMTIX
 70
               0
  9
$DIMSOXD
 70
               0
  9
$DIMSAH
 70
               0
  9
$DIMBLK1
  1

  9
$DIMBLK2
  1

  9
$DIMSTYLE
  2
MXDIMSTYLE
  9
$DIMCLRD
 70
               0
  9
$DIMCLRE
 70
               0
  9
$DIMCLRT
 70
               0
  9
$DIMTFAC
 40
1.0
  9
$DIMGAP
 40
1.0
  9
$DIMJUST
 70
               0
  9
$DIMSD1
 70
               0
  9
$DIMSD2
 70
               0
  9
$DIMTOLJ
 70
               1
  9
$DIMTZIN
 70
               0
  9
$DIMALTZ
 70
               0
  9
$DIMALTTZ
 70
               0
  9
$DIMFIT
 70
               3
  9
$DIMUPT
 70
               1
  9
$DIMUNIT
 70
               2
  9
$DIMDEC
 70
               4
  9
$DIMTDEC
 70
               4
  9
$DIMALTU
 70
               8
  9
$DIMALTTD
 70
               4
  9
$DIMTXSTY
  7
MX_NOTE_STANDARD
  9
$DIMAUNIT
 70
               0
  9
$LUNITS
 70
               2
  9
$LUPREC
 70
               4
  9
$SKETCHINC
 40
0.1
  9
$FILLETRAD
 40
0.0
  9
$AUNITS
 70
               0
  9
$AUPREC
 70
               0
  9
$MENU
  1
acad
  9
$ELEVATION
 40
0.0
  9
$PELEVATION
 40
0.0
  9
$THICKNESS
 40
0.0
  9
$LIMCHECK
 70
               0
  9
$BLIPMODE
 70
               1
  9
$CHAMFERA
 40
0.0
  9
$CHAMFERB
 40
0.0
  9
$CHAMFERC
 40
0.0
  9
$CHAMFERD
 40
0.0
  9
$SKPOLY
 70
               0
  9
$TDCREATE
 40
2452220.697615741
  9
$TDUPDATE
 40
2452220.697615741
  9
$TDINDWG
 40
0.0000000000
  9
$TDUSRTIMER
 40
0.0000000000
  9
$USRTIMER
 70
               1
  9
$ANGBASE
 50
0.0
  9
$ANGDIR
 70
               0
  9
$PDMODE
 70
               0
  9
$PDSIZE
 40
0.0
  9
$PLINEWID
 40
0.0
  9
$COORDS
 70
               1
  9
$SPLFRAME
 70
               0
  9
$SPLINETYPE
 70
               6
  9
$SPLINESEGS
 70
               8
  9
$ATTDIA
 70
               0
  9
$ATTREQ
 70
               1
  9
$HANDLING
 70
               1
  9
$HANDSEED
  5
19B
  9
$SURFTAB1
 70
               6
  9
$SURFTAB2
 70
               6
  9
$SURFTYPE
 70
               6
  9
$SURFU
 70
               6
  9
$SURFV
 70
               6
  9
$UCSNAME
  2

  9
$UCSORG
 10
0.0
 20
0.0
 30
0.0
  9
$UCSXDIR
 10
1.0
 20
0.0
 30
0.0
  9
$UCSYDIR
 10
0.0
 20
1.0
 30
0.0
  9
$PUCSNAME
  2

  9
$PUCSORG
 10
0.0
 20
0.0
 30
0.0
  9
$PUCSXDIR
 10
1.0
 20
0.0
 30
0.0
  9
$PUCSYDIR
 10
0.0
 20
1.0
 30
0.0
  9
$USERI1
 70
               0
  9
$USERI2
 70
               0
  9
$USERI3
 70
               0
  9
$USERI4
 70
               0
  9
$USERI5
 70
               0
  9
$USERR1
 40
0.0
  9
$USERR2
 40
0.0
  9
$USERR3
 40
0.0
  9
$USERR4
 40
0.0
  9
$USERR5
 40
0.0
  9
$WORLDVIEW
 70
               1
  9
$SHADEDGE
 70
               3
  9
$SHADEDIF
 70
              70
  9
$TILEMODE
 70
               1
  9
$MAXACTVP
 70
              16
  9
$PINSBASE
 10
0.0
 20
0.0
 30
0.0
  9
$PLIMCHECK
 70
               0
  9
$PEXTMIN
 10
1.0000000000000000E+20
 20
1.0000000000000000E+20
 30
1.0000000000000000E+20
  9
$PEXTMAX
 10
-1.0000000000000000E+20
 20
-1.0000000000000000E+20
 30
-1.0000000000000000E+20
  9
$PLIMMIN
 10
0.0
 20
0.0
  9
$PLIMMAX
 10
12.0
 20
9.0
  9
$UNITMODE
 70
               0
  9
$VISRETAIN
 70
               0
  9
$PLINEGEN
 70
               1
  9
$PSLTSCALE
 70
               0
  9
$TREEDEPTH
 70
            3020
  9
$PICKSTYLE
 70
               1
  9
$CMLSTYLE
  2
Standard
  9
$CMLJUST
 70
               0
  9
$CMLSCALE
 40
1.0
  9
$SAVEIMAGES
 70
               0
  0
ENDSEC
  0
SECTION
  2
CLASSES
  0
CLASS
  1
LWPOLYLINE
  2
AcDbPolyline
  3
"AutoCAD"
 90
        0
280
               0
281
               1
  0
CLASS
  1
IMAGE
  2
AcDbRasterImage
  3
ISM
 90
      127
280
               0
281
               1
  0
CLASS
  1
OLE2FRAME
  2
AcDbOle2Frame
  3
""
 90
        0
280
               0
281
               1
  0
CLASS
  1
HATCH
  2
AcDbHatch
  3
"ACAD_SEDONA"
 90
        0
280
               0
281
               1
  0
CLASS
  1
DICTIONARYVAR
  2
AcDbDictionaryVar
  3
"AutoCAD"
 90
        0
280
               0
281
               0
  0
CLASS
  1
RASTERVARIABLES
  2
AcDbRasterVariables
  3
ISM
 90
        0
280
               0
281
               0
  0
CLASS
  1
IMAGEDEF
  2
AcDbRasterImageDef
  3
ISM
 90
        0
280
               0
281
               0
  0
CLASS
  1
IMAGEDEF_REACTOR
  2
AcDbRasterImageDefReactor
  3
ISM
 90
        1
280
               0
281
               0
  0
CLASS
  1
IDBUFFER
  2
AcDbIdBuffer
  3
"Acad"
 90
        0
280
               0
281
               0
  0
CLASS
  1
SPATIAL_FILTER
  2
AcDbSpatialFilter
  3
"Acad"
 90
        0
280
               0
281
               0
  0
CLASS
  1
XRECORD
  2
AcDbXrecord
  3
"<Built In>"
 90
        0
280
               0
281
               0
  0
CLASS
  1
SORTENTSTABLE
  2
AcDbSortentsTable
  3
"AutoCAD"
 90
        0
280
               0
281
               0
  0
CLASS
  1
LAYER_INDEX
  2
AcDbLayerIndex
  3
"Acad"
 90
        0
280
               0
281
               0
  0
CLASS
  1
SPATIAL_INDEX
  2
AcDbSpatialIndex
  3
"Acad"
 90
        0
280
               0
281
               0
  0
CLASS
  1
OBJECT_PTR
  2
CAseDLPNTableRecord
  3
"ASE-LPNTableRecord"
 90
        1
280
               0
281
               0
  0
CLASS
  1
LAYOUT
  2
AcDbLayout
  3
"AutoCAD 2000"
 90
        1
280
               0
281
               0
  0
CLASS
  1
PLOTSETTINGS
  2
AcDbPlotSettings
  3
"AutoCAD 2000"
 90
        1
280
               0
281
               0
  0
CLASS
  1
ACDBDICTIONARYWDFLT
  2
AcDbDictionaryWithDefault
  3
"AutoCAD 2000"
 90
        1
280
               0
281
               0
  0
CLASS
  1
ACDBPLACEHOLDER
  2
AcDbPlaceHolder
  3
"AutoCAD 2000"
 90
        1
280
               0
281
               0
  0
CLASS
  1
VBA_PROJECT
  2
AcDbVbaProject
  3
"acadvba"
 90
        1
280
               0
281
               0
  0
CLASS
  1
WIPEOUT
  2
AcDbWipeout
  3
WipeOut|AutoCAD Express Tool|expresstools@autodesk.com
 90
      127
280
               0
281
               1
  0
CLASS
  1
WIPEOUTVARIABLES
  2
AcDbWipeoutVariables
  3
WipeOut|AutoCAD Express Tool|expresstools@autodesk.com
 90
        0
280
               0
281
               0
  0
CLASS
  1
RTEXT
  2
RText
  3
RText|AutoCAD Express Tool|expresstools@autodesk.com
 90
        0
280
               0
281
               1
  0
CLASS
  1
ARCALIGNEDTEXT
  2
AcDbArcAlignedText
  3
ATEXT|AutoCAD Express Tool|expresstools@autodesk.com
 90
        0
280
               0
281
               1
  0
ENDSEC
  0
SECTION
  2
TABLES
  0
TABLE
  2
VPORT
  5
7
100
AcDbSymbolTable
 70
               1
  0
VPORT
  5
15
100
AcDbSymbolTableRecord
100
AcDbViewportTableRecord
  2
*ACTIVE
 70
               0
 10
0.0
 20
0.0
 11
1.0
 21
1.0
 12
0.2750000000000057
 22
-0.4499999999999886
 13
0.0
 23
0.0
 14
1.0
 24
1.0
 15
0.0
 25
0.0
 16
0.0
 26
0.0
 36
1.0
 17
0.0
 27
0.0
 37
0.0
 40
268.76100000000002
 41
1.7320508075688772
 42
50.0
 43
0.0
 44
0.0
 50
0.0
 51
0.0
 71
               0
 72
             100
 73
               1
 74
               1
 75
               0
 76
               0
 77
               0
 78
               0
  0
ENDTAB
  0
TABLE
  2
LTYPE
  5
4
100
AcDbSymbolTable
 70
               5
  0
LTYPE
  5
11
100
AcDbSymbolTableRecord
100
AcDbLinetypeTableRecord
  2
BYBLOCK
 70
              64
  3

 72
              65
 73
               0
 40
0.0
  0
LTYPE
  5
12
100
AcDbSymbolTableRecord
100
AcDbLinetypeTableRecord
  2
BYLAYER
 70
              64
  3

 72
              65
 73
               0
 40
0.0
  0
LTYPE
  5
13
100
AcDbSymbolTableRecord
100
AcDbLinetypeTableRecord
  2
CONTINUOUS
 70
              64
  3
Solid line
 72
              65
 73
               0
 40
0.0
  0
LTYPE
  5
36
100
AcDbSymbolTableRecord
100
AcDbLinetypeTableRecord
  2
DASHED
 70
              64
  3
Dashed __ __ __ __ __ __ __ __ __ __ __ __ __ _
 72
              65
 73
               2
 40
19.049999999999997
 49
12.699999999999999
 74
               0
 49
-6.3499999999999996
 74
               0
  0
LTYPE
  5
4A
100
AcDbSymbolTableRecord
100
AcDbLinetypeTableRecord
  2
CENTER
 70
              64
  3
Center ____ _ ____ _ ____ _ ____ _ ____ _ ____
 72
              65
 73
               4
 40
50.800000000000004
 49
31.75
 74
               0
 49
-6.3499999999999996
 74
               0
 49
6.3499999999999996
 74
               0
 49
-6.3499999999999996
 74
               0
  0
ENDTAB
  0
TABLE
  2
LAYER
  5
2
100
AcDbSymbolTable
 70
               2
  0
LAYER
  5
14
100
AcDbSymbolTableRecord
100
AcDbLayerTableRecord
  2
0
 70
               0
 62
               7
  6
CONTINUOUS
  0
LAYER
  5
1D
100
AcDbSymbolTableRecord
100
AcDbLayerTableRecord
  2
DEFPOINTS
 70
               0
 62
               7
  6
CONTINUOUS
  0
ENDTAB
  0
TABLE
  2
STYLE
  5
3
100
AcDbSymbolTable
 70
               1
  0
STYLE
  5
17
100
AcDbSymbolTableRecord
100
AcDbTextStyleTableRecord
  2
MX_NOTE_STANDARD
 70
               0
 40
3.2000000476837158
 41
1.0
 50
0.0
 71
               0
 42
3.2000000476837158
  3
txt.shx
  4
extfont.shx
  0
ENDTAB
  0
TABLE
  2
VIEW
  5
5
100
AcDbSymbolTable
 70
               0
  0
ENDTAB
  0
TABLE
  2
UCS
  5
6
100
AcDbSymbolTable
 70
               0
  0
ENDTAB
  0
TABLE
  2
APPID
  5
8
100
AcDbSymbolTable
 70
               1
  0
APPID
  5
16
100
AcDbSymbolTableRecord
100
AcDbRegAppTableRecord
  2
ACAD
 70
               0
  0
ENDTAB
  0
TABLE
  2
DIMSTYLE
  5
9
100
AcDbSymbolTable
 70
               1
  0
DIMSTYLE
105
18
100
AcDbSymbolTableRecord
100
AcDbDimStyleTableRecord
  2
MXDIMSTYLE
 70
               0
  3

  4

  5

  6

  7

 40
1.0
 41
2.5
 42
1.5
 43
3.75
 44
1.5
 45
0.0
 46
0.0
 47
0.0
 48
0.0
 71
               0
 72
               0
 73
               0
 74
               0
 75
               0
 76
               0
 77
               1
 78
               8
140
3.2000000476837158
141
2.5
142
0.0
143
0.0394
144
1.0
145
0.0
146
1.0
147
1.0
170
               0
171
               4
172
               1
173
               0
174
               0
175
               0
176
               0
177
               0
178
               0
270
               2
271
               4
272
               4
273
               8
274
               4
275
               0
280
               0
281
               0
282
               0
283
               1
284
               0
285
               0
286
               0
287
               3
288
               1
340
17
  0
ENDTAB
  0
TABLE
  2
BLOCK_RECORD
  5
1
100
AcDbSymbolTable
 70
              12
  0
BLOCK_RECORD
  5
A
100
AcDbSymbolTableRecord
100
AcDbBlockTableRecord
  2
*MODEL_SPACE
  0
BLOCK_RECORD
  5
B
100
AcDbSymbolTableRecord
100
AcDbBlockTableRecord
  2
*PAPER_SPACE
  0
BLOCK_RECORD
  5
1E
100
AcDbSymbolTableRecord
100
AcDbBlockTableRecord
  2
MS_1
  0
BLOCK_RECORD
  5
1F
100
AcDbSymbolTableRecord
100
AcDbBlockTableRecord
  2
MS_2
  0
BLOCK_RECORD
  5
20
100
AcDbSymbolTableRecord
100
AcDbBlockTableRecord
  2
MS_3
  0
BLOCK_RECORD
  5
21
100
AcDbSymbolTableRecord
100
AcDbBlockTableRecord
  2
MS_4
  0
BLOCK_RECORD
  5
22
100
AcDbSymbolTableRecord
100
AcDbBlockTableRecord
  2
MS_5
  0
BLOCK_RECORD
  5
23
100
AcDbSymbolTableRecord
100
AcDbBlockTableRecord
  2
MS_6
  0
BLOCK_RECORD
  5
24
100
AcDbSymbolTableRecord
100
AcDbBlockTableRecord
  2
MS_7
  0
BLOCK_RECORD
  5
25
100
AcDbSymbolTableRecord
100
AcDbBlockTableRecord
  2
MS_8
  0
BLOCK_RECORD
  5
26
100
AcDbSymbolTableRecord
100
AcDbBlockTableRecord
  2
MS_9
  0
BLOCK_RECORD
  5
27
100
AcDbSymbolTableRecord
100
AcDbBlockTableRecord
  2
MS_10
  0
BLOCK_RECORD
  5
28
100
AcDbSymbolTableRecord
100
AcDbBlockTableRecord
  2
MS_11
  0
BLOCK_RECORD
  5
29
100
AcDbSymbolTableRecord
100
AcDbBlockTableRecord
  2
MS_12
  0
ENDTAB
  0
ENDSEC
  0
SECTION
  2
BLOCKS
  0
BLOCK
  5
D
100
AcDbEntity
  8
0
100
AcDbBlockBegin
  2
*MODEL_SPACE
 70
               0
 10
0.0
 20
0.0
 30
0.0
  3
*MODEL_SPACE
  1

  0
ENDBLK
  5
E
100
AcDbEntity
  8
0
100
AcDbBlockEnd
  0
BLOCK
  5
F
100
AcDbEntity
 67
               1
  8
0
100
AcDbBlockBegin
  2
*PAPER_SPACE
 70
               0
 10
0.0
 20
0.0
 30
0.0
  3
*PAPER_SPACE
  1

  0
ENDBLK
  5
10
100
AcDbEntity
 67
               1
  8
0
100
AcDbBlockEnd
  0
BLOCK
  5
2A
100
AcDbEntity
  8
0
100
AcDbBlockBegin
  2
MS_1
 70
               0
 10
0.0
 20
0.0
 30
0.0
  3
MS_1
  1

  0
ARC
  5
2B
100
AcDbEntity
  8
0
  6
CONTINUOUS
 62
               7
100
AcDbCircle
 10
22.521618355559234
 20
-6.6857205228184657
 30
0.0
 40
15.541626306300554
100
AcDbArc
 50
168.17167940368395
 51
179.942044690492
  0
ARC
  5
2C
100
AcDbEntity
  8
0
  6
CONTINUOUS
 62
               7
100
AcDbCircle
 10
26.561233520507912
 20
0.0
 30
0.0
 40
19.566808428078595
100
AcDbArc
 50
169.69579966732888
 51
190.30420033267032
  0
ARC
  5
2D
100
AcDbEntity
  8
0
  6
CONTINUOUS
 62
               7
100
AcDbCircle
 10
22.521618745979971
 20
6.6857205634616337
 30
0.0
 40
15.541626696762204
100
AcDbArc
 50
180.05795545788638
 51
191.82832044793605
  0
ARC
  5
2E
100
AcDbEntity
  8
0
  6
CONTINUOUS
 62
               7
100
AcDbCircle
 10
1.4782777003349423
 20
-6.684690334034542
 30
0.0
 40
15.531729246926334
100
AcDbArc
 50
0.0541919223500739
 51
11.832083983473263
  0
ARC
  5
2F
100
AcDbEntity
  8
0
  6
CONTINUOUS
 62
               7
100
AcDbCircle
 10
-2.5612277984619176
 20
0.0
 30
0.0
 40
19.556964160940307
100
AcDbArc
 50
349.69055621071652
 51
10.309443789282692
  0
ARC
  5
30
100
AcDbEntity
  8
0
  6
CONTINUOUS
 62
               7
100
AcDbCircle
 10
1.4782767568280502
 20
6.6846904322545022
 30
0.0
 40
15.531730190525703
100
AcDbArc
 50
348.1679163755623
 51
359.94580771861274
  0
LINE
  5
31
100
AcDbEntity
  8
0
  6
CONTINUOUS
 62
               7
100
AcDbLine
 10
0.3
 20
4.0
 30
0.0
 11
0.3
 21
-4.0
 31
0.0
  0
LINE
  5
32
100
AcDbEntity
  8
0
  6
CONTINUOUS
 62
               7
100
AcDbLine
 10
0.0
 20
-3.7000000000000002
 30
0.0
 11
0.3
 21
-4.0
 31
0.0
  0
LINE
  5
33
100
AcDbEntity
  8
0
  6
CONTINUOUS
 62
               7
100
AcDbLine
 10
0.3
 20
4.0
 30
0.0
 11
0.0
 21
3.7000000000000002
 31
0.0
  0
LINE
  5
34
100
AcDbEntity
  8
0
  6
CONTINUOUS
 62
               7
100
AcDbLine
 10
16.68
 20
-7.9000000000000004
 30
0.0
 11
7.2999999999999998
 21
-7.9000000000000004
 31
0.0
  0
LINE
  5
35
100
AcDbEntity
  8
0
  6
CONTINUOUS
 62
               7
100
AcDbLine
 10
17.010000000000002
 20
-6.6699999999999999
 30
0.0
 11
16.68
 21
-7.9000000000000004
 31
0.0
  0
LINE
  5
37
100
AcDbEntity
  8
0
  6
DASHED
 62
               2
100
AcDbLine
 10
16.969999999999999
 20
-4.8899999999999997
 30
0.0
 11
8.9900000000000002
 21
-4.6200000000000001
 31
0.0
  0
LINE
  5
38
100
AcDbEntity
  8
0
  6
DASHED
 62
               2
100
AcDbLine
 10
16.989999999999998
 20
-4.29
 30
0.0
 11
9.0099999999999998
 21
-4.0199999999999996
 31
0.0
  0
LINE
  5
39
100
AcDbEntity
  8
0
  6
CONTINUOUS
 62
               7
100
AcDbLine
 10
16.68
 20
-3.5
 30
0.0
 11
7.3099999999999996
 21
-3.5
 31
0.0
  0
LINE
  5
3A
100
AcDbEntity
  8
0
  6
DASHED
 62
               2
100
AcDbLine
 10
5.0
 20
-2.1000000000000001
 30
0.0
 11
0.0
 21
-2.1000000000000001
 31
0.0
  0
LINE
  5
3B
100
AcDbEntity
  8
0
  6
DASHED
 62
               2
100
AcDbLine
 10
5.0
 20
-2.5
 30
0.0
 11
0.0
 21
-2.5
 31
0.0
  0
LINE
  5
3C
100
AcDbEntity
  8
0
  6
CONTINUOUS
 62
               7
100
AcDbLine
 10
7.0
 20
4.0
 30
0.0
 11
0.3
 21
4.0
 31
0.0
  0
LINE
  5
3D
100
AcDbEntity
  8
0
  6
CONTINUOUS
 62
               7
100
AcDbLine
 10
16.68
 20
3.5
 30
0.0
 11
7.3099999999999996
 21
3.5
 31
0.0
  0
LINE
  5
3E
100
AcDbEntity
  8
0
  6
DASHED
 62
               2
100
AcDbLine
 10
16.969999999999999
 20
4.8899999999999997
 30
0.0
 11
8.9900000000000002
 21
4.6200000000000001
 31
0.0
  0
LINE
  5
3F
100
AcDbEntity
  8
0
  6
DASHED
 62
               2
100
AcDbLine
 10
16.989999999999998
 20
4.29
 30
0.0
 11
9.0099999999999998
 21
4.0199999999999996
 31
0.0
  0
LINE
  5
40
100
AcDbEntity
  8
0
  6
DASHED
 62
               2
100
AcDbLine
 10
9.0099999999999998
 20
4.6200000000000001
 30
0.0
 11
9.0099999999999998
 21
-4.6200000000000001
 31
0.0
  0
LINE
  5
41
100
AcDbEntity
  8
0
  6
DASHED
 62
               2
100
AcDbLine
 10
5.0
 20
2.5
 30
0.0
 11
5.0
 21
-2.5
 31
0.0
  0
LINE
  5
42
100
AcDbEntity
  8
0
  6
DASHED
 62
               2
100
AcDbLine
 10
5.0
 20
2.1000000000000001
 30
0.0
 11
0.0
 21
2.1000000000000001
 31
0.0
  0
LINE
  5
43
100
AcDbEntity
  8
0
  6
DASHED
 62
               2
100
AcDbLine
 10
5.0
 20
2.5
 30
0.0
 11
0.0
 21
2.5
 31
0.0
  0
LINE
  5
44
100
AcDbEntity
  8
0
  6
CONTINUOUS
 62
               7
100
AcDbLine
 10
7.2999999999999998
 20
7.9000000000000004
 30
0.0
 11
7.0
 21
6.7599999999999998
 31
0.0
  0
LINE
  5
45
100
AcDbEntity
  8
0
  6
CONTINUOUS
 62
               7
100
AcDbLine
 10
17.010000000000002
 20
6.6699999999999999
 30
0.0
 11
16.68
 21
7.9000000000000004
 31
0.0
  0
LINE
  5
46
100
AcDbEntity
  8
0
  6
CONTINUOUS
 62
               7
100
AcDbLine
 10
17.0
 20
6.7199999999999998
 30
0.0
 11
17.0
 21
-6.7199999999999998
 31
0.0
  0
LINE
  5
47
100
AcDbEntity
  8
0
  6
CONTINUOUS
 62
               7
100
AcDbLine
 10
16.68
 20
7.9000000000000004
 30
0.0
 11
7.2999999999999998
 21
7.9000000000000004
 31
0.0
  0
LINE
  5
48
100
AcDbEntity
  8
0
  6
CONTINUOUS
 62
               7
100
AcDbLine
 10
7.0
 20
7.0
 30
0.0
 11
7.0
 21
-6.7599999999999998
 31
0.0
  0
LINE
  5
49
100
AcDbEntity
  8
0
  6
CONTINUOUS
 62
               7
100
AcDbLine
 10
0.0
 20
3.7000000000000002
 30
0.0
 11
0.0
 21
-3.7000000000000002
 31
0.0
  0
LINE
  5
4B
100
AcDbEntity
  8
0
  6
CENTER
 62
               2
100
AcDbLine
 10
20.0
 20
0.0
 30
0.0
 11
-3.0
 21
0.0
 31
0.0
  0
LINE
  5
4C
100
AcDbEntity
  8
0
  6
CONTINUOUS
 62
               7
100
AcDbLine
 10
7.2999999999999998
 20
-7.9000000000000004
 30
0.0
 11
7.0
 21
-6.7599999999999998
 31
0.0
  0
LINE
  5
4D
100
AcDbEntity
  8
0
  6
CONTINUOUS
 62
               7
100
AcDbLine
 10
7.0
 20
-4.0
 30
0.0
 11
0.3
 21
-4.0
 31
0.0
  0
ENDBLK
  5
4E
100
AcDbEntity
  8
0
100
AcDbBlockEnd
  0
BLOCK
  5
4F
100
AcDbEntity
  8
0
100
AcDbBlockBegin
  2
MS_2
 70
               0
 10
0.0
 20
0.0
 30
0.0
  3
MS_2
  1

  0
CIRCLE
  5
50
100
AcDbEntity
  8
0
  6
CONTINUOUS
 62
               2
100
AcDbCircle
 10
0.0003890991210938
 20
-0.0228652954101563
 30
0.0
 40
4.8829994201660156
  0
CIRCLE
  5
51
100
AcDbEntity
  8
0
  6
CONTINUOUS
 62
               7
100
AcDbCircle
 10
0.0003890991210938
 20
-0.0228652954101563
 30
0.0
 40
4.2829999923706055
  0
CIRCLE
  5
52
100
AcDbEntity
  8
0
  6
CONTINUOUS
 62
               7
100
AcDbCircle
 10
0.0003890991210938
 20
-0.0228652954101563
 30
0.0
 40
7.0
  0
LINE
  5
53
100
AcDbEntity
  8
0
  6
CONTINUOUS
 62
               7
100
AcDbLine
 10
6.6799999999999997
 20
4.2199999999999998
 30
0.0
 11
7.0
 21
3.6699999999999999
 31
0.0
  0
LINE
  5
54
100
AcDbEntity
  8
0
  6
CONTINUOUS
 62
               7
100
AcDbLine
 10
-7.0
 20
-3.6699999999999999
 30
0.0
 11
-6.6799999999999997
 21
-4.2199999999999998
 31
0.0
  0
LINE
  5
55
100
AcDbEntity
  8
0
  6
CONTINUOUS
 62
               7
100
AcDbLine
 10
7.0
 20
-3.6699999999999999
 30
0.0
 11
6.6799999999999997
 21
-4.2199999999999998
 31
0.0
  0
LINE
  5
56
100
AcDbEntity
  8
0
  6
CONTINUOUS
 62
               7
100
AcDbLine
 10
-6.6799999999999997
 20
4.2199999999999998
 30
0.0
 11
-7.0
 21
3.6699999999999999
 31
0.0
  0
LINE
  5
57
100
AcDbEntity
  8
0
  6
CONTINUOUS
 62
               7
100
AcDbLine
 10
-0.31
 20
7.9000000000000004
 30
0.0
 11
0.31
 21
7.9000000000000004
 31
0.0
  0
LINE
  5
58
100
AcDbEntity
  8
0
  6
CONTINUOUS
 62
               7
100
AcDbLine
 10
-0.31
 20
-7.9000000000000004
 30
0.0
 11
0.31
 21
-7.9000000000000004
 31
0.0
  0
LINE
  5
59
100
AcDbEntity
  8
0
  6
CONTINUOUS
 62
               7
100
AcDbLine
 10
0.31
 20
7.9000000000000004
 30
0.0
 11
6.6799999999999997
 21
4.2199999999999998
 31
0.0
  0
LINE
  5
5A
100
AcDbEntity
  8
0
  6
CONTINUOUS
 62
               7
100
AcDbLine
 10
-6.6799999999999997
 20
-4.2199999999999998
 30
0.0
 11
-0.31
 21
-7.9000000000000004
 31
0.0
  0
LINE
  5
5B
100
AcDbEntity
  8
0
  6
CONTINUOUS
 62
               7
100
AcDbLine
 10
6.6799999999999997
 20
-4.2199999999999998
 30
0.0
 11
0.31
 21
-7.9000000000000004
 31
0.0
  0
LINE
  5
5C
100
AcDbEntity
  8
0
  6
CONTINUOUS
 62
               7
100
AcDbLine
 10
-0.31
 20
7.9000000000000004
 30
0.0
 11
-6.6799999999999997
 21
4.2199999999999998
 31
0.0
  0
LINE
  5
5D
100
AcDbEntity
  8
0
  6
CONTINUOUS
 62
               7
100
AcDbLine
 10
7.0
 20
3.6699999999999999
 30
0.0
 11
7.0
 21
-3.6699999999999999
 31
0.0
  0
LINE
  5
5E
100
AcDbEntity
  8
0
  6
CONTINUOUS
 62
               7
100
AcDbLine
 10
-7.0
 20
3.6699999999999999
 30
0.0
 11
-7.0
 21
-3.6699999999999999
 31
0.0
  0
LINE
  5
5F
100
AcDbEntity
  8
0
  6
CENTER
 62
               2
100
AcDbLine
 10
11.16
 20
0.0
 30
0.0
 11
-11.16
 21
0.0
 31
0.0
  0
LINE
  5
60
100
AcDbEntity
  8
0
  6
CENTER
 62
               2
100
AcDbLine
 10
0.0
 20
11.16
 30
0.0
 11
0.0
 21
-11.16
 31
0.0
  0
ENDBLK
  5
61
100
AcDbEntity
  8
0
100
AcDbBlockEnd
  0
BLOCK
  5
62
100
AcDbEntity
  8
0
100
AcDbBlockBegin
  2
MS_3
 70
               0
 10
0.0
 20
0.0
 30
0.0
  3
MS_3
  1

  0
ARC
  5
63
100
AcDbEntity
  8
0
  6
CONTINUOUS
 62
               7
100
AcDbCircle
 10
31.695611894360272
 20
-8.0576570425125524
 30
0.0
 40
23.695615109060732
100
AcDbArc
 50
170.14002803617265
 51
180.02984515909196
  0
ARC
  5
64
100
AcDbEntity
  8
0
  6
CONTINUOUS
 62
               7
100
AcDbCircle
 10
30.786621093750114
 20
0.0
 30
0.0
 40
22.790391969084531
100
AcDbArc
 50
169.89151279284755
 51
190.10848720715165
  0
ARC
  5
65
100
AcDbEntity
  8
0
  6
CONTINUOUS
 62
               7
100
AcDbCircle
 10
31.695604162948307
 20
8.0576988865274259
 30
0.0
 40
23.695614657290385
100
AcDbArc
 50
179.94607610363593
 51
189.86007484904417
  0
ARC
  5
66
100
AcDbEntity
  8
0
  6
CONTINUOUS
 62
               7
100
AcDbCircle
 10
-1.7866210937500036
 20
0.0
 30
0.0
 40
22.780547264774668
100
AcDbArc
 50
349.88709844373716
 51
10.112901556262022
  0
ARC
  5
67
100
AcDbEntity
  8
0
  6
CONTINUOUS
 62
               7
100
AcDbCircle
 10
-2.6906509530409117
 20
-8.1145661776645497
 30
0.0
 40
23.690692871315733
100
AcDbArc
 50
0.1077830610149602
 51
10.001769491192871
  0
ARC
  5
68
100
AcDbEntity
  8
0
  6
CONTINUOUS
 62
               7
100
AcDbCircle
 10
-2.6906518994347763
 20
8.1145662613750638
 30
0.0
 40
23.690693817865395
100
AcDbArc
 50
349.99823070695356
 51
359.892216740837
  0
LINE
  5
69
100
AcDbEntity
  8
0
  6
CONTINUOUS
 62
               7
100
AcDbLine
 10
0.3
 20
7.0
 30
0.0
 11
0.3
 21
-7.0
 31
0.0
  0
LINE
  5
6A
100
AcDbEntity
  8
0
  6
CONTINUOUS
 62
               7
100
AcDbLine
 10
0.0
 20
-6.7000000000000002
 30
0.0
 11
0.3
 21
-7.0
 31
0.0
  0
LINE
  5
6B
100
AcDbEntity
  8
0
  6
CONTINUOUS
 62
               7
100
AcDbLine
 10
0.3
 20
7.0
 30
0.0
 11
0.0
 21
6.7000000000000002
 31
0.0
  0
LINE
  5
6C
100
AcDbEntity
  8
0
  6
DASHED
 62
               2
100
AcDbLine
 10
7.7999999999999998
 20
-4.5099999999999998
 30
0.0
 11
-0.02
 21
-4.7300000000000004
 31
0.0
  0
LINE
  5
6D
100
AcDbEntity
  8
0
  6
DASHED
 62
               2
100
AcDbLine
 10
7.7999999999999998
 20
-5.1100000000000003
 30
0.0
 11
0.0
 21
-5.3300000000000001
 31
0.0
  0
LINE
  5
6E
100
AcDbEntity
  8
0
  6
CONTINUOUS
 62
               7
100
AcDbLine
 10
8.0
 20
-7.0
 30
0.0
 11
0.3
 21
-7.0
 31
0.0
  0
LINE
  5
6F
100
AcDbEntity
  8
0
  6
CONTINUOUS
 62
               7
100
AcDbLine
 10
8.2200000000000006
 20
-9.4000000000000004
 30
0.0
 11
8.0
 21
-8.5500000000000007
 31
0.0
  0
LINE
  5
70
100
AcDbEntity
  8
0
  6
CONTINUOUS
 62
               7
100
AcDbLine
 10
20.640000000000001
 20
-9.4000000000000004
 30
0.0
 11
8.2200000000000006
 21
-9.4000000000000004
 31
0.0
  0
LINE
  5
71
100
AcDbEntity
  8
0
  6
CONTINUOUS
 62
               7
100
AcDbLine
 10
21.0
 20
-8.0700000000000003
 30
0.0
 11
20.640000000000001
 21
-9.4000000000000004
 31
0.0
  0
LINE
  5
72
100
AcDbEntity
  8
0
  6
DASHED
 62
               2
100
AcDbLine
 10
20.98
 20
-6.5199999999999996
 30
0.0
 11
9.9700000000000006
 21
-6.1500000000000004
 31
0.0
  0
LINE
  5
73
100
AcDbEntity
  8
0
  6
DASHED
 62
               2
100
AcDbLine
 10
21.010000000000002
 20
-5.7300000000000004
 30
0.0
 11
10.0
 21
-5.3499999999999996
 31
0.0
  0
LINE
  5
74
100
AcDbEntity
  8
0
  6
CONTINUOUS
 62
               7
100
AcDbLine
 10
20.640000000000001
 20
-4.0
 30
0.0
 11
8.3499999999999996
 21
-4.0
 31
0.0
  0
LINE
  5
75
100
AcDbEntity
  8
0
  6
CONTINUOUS
 62
               7
100
AcDbLine
 10
20.640000000000001
 20
4.0
 30
0.0
 11
8.3499999999999996
 21
4.0
 31
0.0
  0
LINE
  5
76
100
AcDbEntity
  8
0
  6
DASHED
 62
               2
100
AcDbLine
 10
7.7999999999999998
 20
5.1100000000000003
 30
0.0
 11
7.7999999999999998
 21
-5.1100000000000003
 31
0.0
  0
LINE
  5
77
100
AcDbEntity
  8
0
  6
DASHED
 62
               2
100
AcDbLine
 10
7.7999999999999998
 20
5.1100000000000003
 30
0.0
 11
0.0
 21
5.3300000000000001
 31
0.0
  0
LINE
  5
78
100
AcDbEntity
  8
0
  6
DASHED
 62
               2
100
AcDbLine
 10
7.7999999999999998
 20
4.5099999999999998
 30
0.0
 11
-0.02
 21
4.7300000000000004
 31
0.0
  0
LINE
  5
79
100
AcDbEntity
  8
0
  6
DASHED
 62
               2
100
AcDbLine
 10
20.98
 20
6.5199999999999996
 30
0.0
 11
9.9700000000000006
 21
6.1500000000000004
 31
0.0
  0
LINE
  5
7A
100
AcDbEntity
  8
0
  6
DASHED
 62
               2
100
AcDbLine
 10
21.010000000000002
 20
5.7300000000000004
 30
0.0
 11
10.0
 21
5.3499999999999996
 31
0.0
  0
LINE
  5
7B
100
AcDbEntity
  8
0
  6
DASHED
 62
               2
100
AcDbLine
 10
10.0
 20
6.1500000000000004
 30
0.0
 11
10.0
 21
-6.1500000000000004
 31
0.0
  0
LINE
  5
7C
100
AcDbEntity
  8
0
  6
CONTINUOUS
 62
               7
100
AcDbLine
 10
8.2200000000000006
 20
9.4000000000000004
 30
0.0
 11
8.0
 21
8.5500000000000007
 31
0.0
  0
LINE
  5
7D
100
AcDbEntity
  8
0
  6
CONTINUOUS
 62
               7
100
AcDbLine
 10
21.0
 20
8.0700000000000003
 30
0.0
 11
20.640000000000001
 21
9.4000000000000004
 31
0.0
  0
LINE
  5
7E
100
AcDbEntity
  8
0
  6
CONTINUOUS
 62
               7
100
AcDbLine
 10
8.0
 20
8.5500000000000007
 30
0.0
 11
8.0
 21
-8.5500000000000007
 31
0.0
  0
LINE
  5
7F
100
AcDbEntity
  8
0
  6
CONTINUOUS
 62
               7
100
AcDbLine
 10
20.640000000000001
 20
9.4000000000000004
 30
0.0
 11
8.2200000000000006
 21
9.4000000000000004
 31
0.0
  0
LINE
  5
80
100
AcDbEntity
  8
0
  6
CONTINUOUS
 62
               7
100
AcDbLine
 10
8.0
 20
7.0
 30
0.0
 11
0.3
 21
7.0
 31
0.0
  0
LINE
  5
81
100
AcDbEntity
  8
0
  6
CONTINUOUS
 62
               7
100
AcDbLine
 10
21.0
 20
8.0700000000000003
 30
0.0
 11
21.0
 21
-8.0700000000000003
 31
0.0
  0
LINE
  5
82
100
AcDbEntity
  8
0
  6
CONTINUOUS
 62
               7
100
AcDbLine
 10
8.0
 20
8.5600000000000005
 30
0.0
 11
8.0
 21
8.5500000000000007
 31
0.0
  0
LINE
  5
83
100
AcDbEntity
  8
0
  6
CONTINUOUS
 62
               7
100
AcDbLine
 10
0.0
 20
6.7000000000000002
 30
0.0
 11
0.0
 21
-6.7000000000000002
 31
0.0
  0
LINE
  5
84
100
AcDbEntity
  8
0
  6
CENTER
 62
               2
100
AcDbLine
 10
24.0
 20
0.0
 30
0.0
 11
-3.0
 21
0.0
 31
0.0
  0
ENDBLK
  5
85
100
AcDbEntity
  8
0
100
AcDbBlockEnd
  0
BLOCK
  5
86
100
AcDbEntity
  8
0
100
AcDbBlockBegin
  2
MS_4
 70
               0
 10
0.0
 20
0.0
 30
0.0
  3
MS_4
  1

  0
CIRCLE
  5
87
100
AcDbEntity
  8
0
  6
CONTINUOUS
 62
               7
100
AcDbCircle
 10
0.0
 20
0.0
 30
0.0
 40
5.7224998474121094
  0
CIRCLE
  5
88
100
AcDbEntity
  8
0
  6
CONTINUOUS
 62
               7
100
AcDbCircle
 10
0.0
 20
0.0
 30
0.0
 40
8.5
  0
CIRCLE
  5
89
100
AcDbEntity
  8
0
  6
CONTINUOUS
 62
               2
100
AcDbCircle
 10
0.0
 20
0.0
 30
0.0
 40
6.5225000381469727
  0
LINE
  5
8A
100
AcDbEntity
  8
0
  6
CONTINUOUS
 62
               7
100
AcDbLine
 10
7.7300000000000004
 20
5.4100000000000001
 30
0.0
 11
8.5500000000000007
 21
3.9900000000000002
 31
0.0
  0
LINE
  5
8B
100
AcDbEntity
  8
0
  6
CONTINUOUS
 62
               7
100
AcDbLine
 10
-8.5500000000000007
 20
-3.9900000000000002
 30
0.0
 11
-7.7300000000000004
 21
-5.4100000000000001
 31
0.0
  0
LINE
  5
8C
100
AcDbEntity
  8
0
  6
CONTINUOUS
 62
               7
100
AcDbLine
 10
8.5500000000000007
 20
-3.9900000000000002
 30
0.0
 11
7.7300000000000004
 21
-5.4100000000000001
 31
0.0
  0
LINE
  5
8D
100
AcDbEntity
  8
0
  6
CONTINUOUS
 62
               7
100
AcDbLine
 10
-7.7300000000000004
 20
5.4100000000000001
 30
0.0
 11
-8.5500000000000007
 21
3.9900000000000002
 31
0.0
  0
LINE
  5
8E
100
AcDbEntity
  8
0
  6
CONTINUOUS
 62
               7
100
AcDbLine
 10
-0.82
 20
-9.4000000000000004
 30
0.0
 11
0.82
 21
-9.4000000000000004
 31
0.0
  0
LINE
  5
8F
100
AcDbEntity
  8
0
  6
CONTINUOUS
 62
               7
100
AcDbLine
 10
-0.82
 20
9.4000000000000004
 30
0.0
 11
0.82
 21
9.4000000000000004
 31
0.0
  0
LINE
  5
90
100
AcDbEntity
  8
0
  6
CONTINUOUS
 62
               7
100
AcDbLine
 10
-0.82
 20
9.4000000000000004
 30
0.0
 11
-7.7300000000000004
 21
5.4100000000000001
 31
0.0
  0
LINE
  5
91
100
AcDbEntity
  8
0
  6
CONTINUOUS
 62
               7
100
AcDbLine
 10
7.7300000000000004
 20
5.4100000000000001
 30
0.0
 11
0.82
 21
9.4000000000000004
 31
0.0
  0
LINE
  5
92
100
AcDbEntity
  8
0
  6
CONTINUOUS
 62
               7
100
AcDbLine
 10
8.5500000000000007
 20
-3.9900000000000002
 30
0.0
 11
8.5500000000000007
 21
3.9900000000000002
 31
0.0
  0
LINE
  5
93
100
AcDbEntity
  8
0
  6
CONTINUOUS
 62
               7
100
AcDbLine
 10
0.82
 20
-9.4000000000000004
 30
0.0
 11
7.7300000000000004
 21
-5.4100000000000001
 31
0.0
  0
LINE
  5
94
100
AcDbEntity
  8
0
  6
CONTINUOUS
 62
               7
100
AcDbLine
 10
-7.7300000000000004
 20
-5.4100000000000001
 30
0.0
 11
-0.82
 21
-9.4000000000000004
 31
0.0
  0
LINE
  5
95
100
AcDbEntity
  8
0
  6
CONTINUOUS
 62
               7
100
AcDbLine
 10
-8.5500000000000007
 20
3.9900000000000002
 30
0.0
 11
-8.5500000000000007
 21
-3.9900000000000002
 31
0.0
  0
LINE
  5
96
100
AcDbEntity
  8
0
  6
CENTER
 62
               2
100
AcDbLine
 10
12.4
 20
0.0
 30
0.0
 11
-12.4
 21
0.0
 31
0.0
  0
LINE
  5
97
100
AcDbEntity
  8
0
  6
CENTER
 62
               2
100
AcDbLine
 10
0.0
 20
12.4
 30
0.0
 11
0.0
 21
-12.4
 31
0.0
  0
ENDBLK
  5
98
100
AcDbEntity
  8
0
100
AcDbBlockEnd
  0
BLOCK
  5
99
100
AcDbEntity
  8
0
100
AcDbBlockBegin
  2
MS_5
 70
               0
 10
0.0
 20
0.0
 30
0.0
  3
MS_5
  1

  0
ARC
  5
9A
100
AcDbEntity
  8
0
  6
CONTINUOUS
 62
               7
100
AcDbCircle
 10
-37.025301009533166
 20
-10.739353798673916
 30
0.0
 40
59.025314128664043
100
AcDbArc
 50
0.0382006732562424
 51
5.4824743237088596
  0
ARC
  5
9B
100
AcDbEntity
  8
0
  6
CONTINUOUS
 62
               7
100
AcDbCircle
 10
-26.900451660157554
 20
0.0
 30
0.0
 40
48.897145404112507
100
AcDbArc
 50
354.01312924924792
 51
5.9868707507512671
  0
ARC
  5
9C
100
AcDbEntity
  8
0
  6
CONTINUOUS
 62
               7
100
AcDbCircle
 10
-37.025286873274702
 20
10.739353117104312
 30
0.0
 40
59.025299991954299
100
AcDbArc
 50
354.51752502384062
 51
359.96179997919268
  0
ARC
  5
9D
100
AcDbEntity
  8
0
  6
CONTINUOUS
 62
               7
100
AcDbCircle
 10
67.030241596470148
 20
-10.634654074121826
 30
0.0
 40
59.030277765123749
100
AcDbArc
 50
174.62006966393358
 51
180.06342586665005
  0
ARC
  5
9E
100
AcDbEntity
  8
0
  6
CONTINUOUS
 62
               7
100
AcDbCircle
 10
56.900451660157927
 20
0.0
 30
0.0
 40
48.907090873452702
100
AcDbArc
 50
174.0143511543331
 51
185.98564884566611
  0
ARC
  5
9F
100
AcDbEntity
  8
0
  6
CONTINUOUS
 62
               7
100
AcDbCircle
 10
67.030255054435798
 20
10.634654698955945
 30
0.0
 40
59.030291222389465
100
AcDbArc
 50
179.93657475428321
 51
185.37992971513154
  0
LINE
  5
A0
100
AcDbEntity
  8
0
  6
CONTINUOUS
 62
               7
100
AcDbLine
 10
0.3
 20
7.0
 30
0.0
 11
0.3
 21
-7.0
 31
0.0
  0
LINE
  5
A1
100
AcDbEntity
  8
0
  6
CONTINUOUS
 62
               7
100
AcDbLine
 10
0.0
 20
-6.7000000000000002
 30
0.0
 11
0.3
 21
-7.0
 31
0.0
  0
LINE
  5
A2
100
AcDbEntity
  8
0
  6
CONTINUOUS
 62
               7
100
AcDbLine
 10
0.3
 20
7.0
 30
0.0
 11
0.0
 21
6.7000000000000002
 31
0.0
  0
LINE
  5
A3
100
AcDbEntity
  8
0
  6
CONTINUOUS
 62
               7
100
AcDbLine
 10
21.73
 20
-11.699999999999999
 30
0.0
 11
22.0
 21
-10.699999999999999
 31
0.0
  0
LINE
  5
A4
100
AcDbEntity
  8
0
  6
CONTINUOUS
 62
               7
100
AcDbLine
 10
21.73
 20
11.699999999999999
 30
0.0
 11
22.0
 21
10.699999999999999
 31
0.0
  0
LINE
  5
A5
100
AcDbEntity
  8
0
  6
DASHED
 62
               2
100
AcDbLine
 10
7.7999999999999998
 20
-4.5700000000000003
 30
0.0
 11
7.7999999999999998
 21
0.0
 31
0.0
  0
LINE
  5
A6
100
AcDbEntity
  8
0
  6
DASHED
 62
               2
100
AcDbLine
 10
7.7999999999999998
 20
-3.98
 30
0.0
 11
-0.05
 21
-4.2699999999999996
 31
0.0
  0
LINE
  5
A7
100
AcDbEntity
  8
0
  6
DASHED
 62
               2
100
AcDbLine
 10
7.7999999999999998
 20
-4.5800000000000001
 30
0.0
 11
-0.03
 21
-4.8700000000000001
 31
0.0
  0
LINE
  5
A8
100
AcDbEntity
  8
0
  6
CONTINUOUS
 62
               7
100
AcDbLine
 10
8.2599999999999998
 20
-11.699999999999999
 30
0.0
 11
8.0
 21
-10.699999999999999
 31
0.0
  0
LINE
  5
A9
100
AcDbEntity
  8
0
  6
DASHED
 62
               2
100
AcDbLine
 10
21.969999999999999
 20
-8.4399999999999995
 30
0.0
 11
9.9600000000000009
 21
-8.0299999999999994
 31
0.0
  0
LINE
  5
AA
100
AcDbEntity
  8
0
  6
DASHED
 62
               2
100
AcDbLine
 10
22.010000000000002
 20
-7.4400000000000004
 30
0.0
 11
10.0
 21
-7.0300000000000002
 31
0.0
  0
LINE
  5
AB
100
AcDbEntity
  8
0
  6
DASHED
 62
               2
100
AcDbLine
 10
10.0
 20
-8.0299999999999994
 30
0.0
 11
10.0
 21
0.0
 31
0.0
  0
LINE
  5
AC
100
AcDbEntity
  8
0
  6
CONTINUOUS
 62
               7
100
AcDbLine
 10
21.73
 20
-5.0999999999999996
 30
0.0
 11
8.2599999999999998
 21
-5.0999999999999996
 31
0.0
  0
LINE
  5
AD
100
AcDbEntity
  8
0
  6
CONTINUOUS
 62
               7
100
AcDbLine
 10
21.73
 20
5.0999999999999996
 30
0.0
 11
8.2599999999999998
 21
5.0999999999999996
 31
0.0
  0
LINE
  5
AE
100
AcDbEntity
  8
0
  6
DASHED
 62
               2
100
AcDbLine
 10
7.7999999999999998
 20
4.5700000000000003
 30
0.0
 11
7.7999999999999998
 21
0.0
 31
0.0
  0
LINE
  5
AF
100
AcDbEntity
  8
0
  6
CONTINUOUS
 62
               7
100
AcDbLine
 10
8.0
 20
10.699999999999999
 30
0.0
 11
8.0
 21
-10.699999999999999
 31
0.0
  0
LINE
  5
B0
100
AcDbEntity
  8
0
  6
DASHED
 62
               2
100
AcDbLine
 10
7.7999999999999998
 20
4.5800000000000001
 30
0.0
 11
-0.03
 21
4.8700000000000001
 31
0.0
  0
LINE
  5
B1
100
AcDbEntity
  8
0
  6
DASHED
 62
               2
100
AcDbLine
 10
7.7999999999999998
 20
3.98
 30
0.0
 11
-0.05
 21
4.2699999999999996
 31
0.0
  0
LINE
  5
B2
100
AcDbEntity
  8
0
  6
DASHED
 62
               2
100
AcDbLine
 10
21.969999999999999
 20
8.4399999999999995
 30
0.0
 11
9.9600000000000009
 21
8.0299999999999994
 31
0.0
  0
LINE
  5
B3
100
AcDbEntity
  8
0
  6
DASHED
 62
               2
100
AcDbLine
 10
22.010000000000002
 20
7.4400000000000004
 30
0.0
 11
10.0
 21
7.0300000000000002
 31
0.0
  0
LINE
  5
B4
100
AcDbEntity
  8
0
  6
DASHED
 62
               2
100
AcDbLine
 10
10.0
 20
8.0299999999999994
 30
0.0
 11
10.0
 21
0.0
 31
0.0
  0
LINE
  5
B5
100
AcDbEntity
  8
0
  6
CONTINUOUS
 62
               7
100
AcDbLine
 10
8.2599999999999998
 20
11.699999999999999
 30
0.0
 11
8.0
 21
10.699999999999999
 31
0.0
  0
LINE
  5
B6
100
AcDbEntity
  8
0
  6
CONTINUOUS
 62
               7
100
AcDbLine
 10
21.620000000000001
 20
11.699999999999999
 30
0.0
 11
8.2599999999999998
 21
11.699999999999999
 31
0.0
  0
LINE
  5
B7
100
AcDbEntity
  8
0
  6
CONTINUOUS
 62
               7
100
AcDbLine
 10
8.0
 20
7.0
 30
0.0
 11
0.3
 21
7.0
 31
0.0
  0
LINE
  5
B8
100
AcDbEntity
  8
0
  6
CONTINUOUS
 62
               7
100
AcDbLine
 10
22.0
 20
10.5
 30
0.0
 11
22.0
 21
-10.31
 31
0.0
  0
LINE
  5
B9
100
AcDbEntity
  8
0
  6
CONTINUOUS
 62
               7
100
AcDbLine
 10
0.0
 20
6.7000000000000002
 30
0.0
 11
0.0
 21
-6.7000000000000002
 31
0.0
  0
LINE
  5
BA
100
AcDbEntity
  8
0
  6
CENTER
 62
               2
100
AcDbLine
 10
25.0
 20
0.0
 30
0.0
 11
-3.0
 21
0.0
 31
0.0
  0
LINE
  5
BB
100
AcDbEntity
  8
0
  6
CONTINUOUS
 62
               7
100
AcDbLine
 10
8.0
 20
-7.0
 30
0.0
 11
0.3
 21
-7.0
 31
0.0
  0
LINE
  5
BC
100
AcDbEntity
  8
0
  6
CONTINUOUS
 62
               7
100
AcDbLine
 10
21.620000000000001
 20
-11.699999999999999
 30
0.0
 11
8.2599999999999998
 21
-11.699999999999999
 31
0.0
  0
ENDBLK
  5
BD
100
AcDbEntity
  8
0
100
AcDbBlockEnd
  0
BLOCK
  5
BE
100
AcDbEntity
  8
0
100
AcDbBlockBegin
  2
MS_6
 70
               0
 10
0.0
 20
0.0
 30
0.0
  3
MS_6
  1

  0
CIRCLE
  5
BF
100
AcDbEntity
  8
0
  6
CONTINUOUS
 62
               7
100
AcDbCircle
 10
0.0
 20
0.0
 30
0.0
 40
10.5
  0
CIRCLE
  5
C0
100
AcDbEntity
  8
0
  6
CONTINUOUS
 62
               2
100
AcDbCircle
 10
0.0
 20
0.0
 30
0.0
 40
8.4750003814697266
  0
CIRCLE
  5
C1
100
AcDbEntity
  8
0
  6
CONTINUOUS
 62
               7
100
AcDbCircle
 10
0.0
 20
0.0
 30
0.0
 40
7.4749994277954102
  0
LINE
  5
C2
100
AcDbEntity
  8
0
  6
CONTINUOUS
 62
               7
100
AcDbLine
 10
10.5
 20
-5.21
 30
0.0
 11
9.7599999999999998
 21
-6.4800000000000004
 31
0.0
  0
LINE
  5
C3
100
AcDbEntity
  8
0
  6
CONTINUOUS
 62
               7
100
AcDbLine
 10
-9.7599999999999998
 20
6.4800000000000004
 30
0.0
 11
-10.5
 21
5.21
 31
0.0
  0
LINE
  5
C4
100
AcDbEntity
  8
0
  6
CONTINUOUS
 62
               7
100
AcDbLine
 10
0.73
 20
-11.699999999999999
 30
0.0
 11
-0.73
 21
-11.699999999999999
 31
0.0
  0
LINE
  5
C5
100
AcDbEntity
  8
0
  6
CONTINUOUS
 62
               7
100
AcDbLine
 10
0.73
 20
11.699999999999999
 30
0.0
 11
-0.73
 21
11.699999999999999
 31
0.0
  0
LINE
  5
C6
100
AcDbEntity
  8
0
  6
CONTINUOUS
 62
               7
100
AcDbLine
 10
9.7599999999999998
 20
6.4800000000000004
 30
0.0
 11
10.5
 21
5.21
 31
0.0
  0
LINE
  5
C7
100
AcDbEntity
  8
0
  6
CONTINUOUS
 62
               7
100
AcDbLine
 10
-10.5
 20
-5.21
 30
0.0
 11
-9.7599999999999998
 21
-6.4800000000000004
 31
0.0
  0
LINE
  5
C8
100
AcDbEntity
  8
0
  6
CENTER
 62
               2
100
AcDbLine
 10
14.699999999999999
 20
0.0
 30
0.0
 11
-14.699999999999999
 21
0.0
 31
0.0
  0
LINE
  5
C9
100
AcDbEntity
  8
0
  6
CENTER
 62
               2
100
AcDbLine
 10
0.0
 20
14.699999999999999
 30
0.0
 11
0.0
 21
-14.699999999999999
 31
0.0
  0
LINE
  5
CA
100
AcDbEntity
  8
0
  6
CONTINUOUS
 62
               7
100
AcDbLine
 10
-0.73
 20
11.699999999999999
 30
0.0
 11
-9.7599999999999998
 21
6.4800000000000004
 31
0.0
  0
LINE
  5
CB
100
AcDbEntity
  8
0
  6
CONTINUOUS
 62
               7
100
AcDbLine
 10
9.7599999999999998
 20
6.4800000000000004
 30
0.0
 11
0.73
 21
11.699999999999999
 31
0.0
  0
LINE
  5
CC
100
AcDbEntity
  8
0
  6
CONTINUOUS
 62
               7
100
AcDbLine
 10
10.5
 20
-5.21
 30
0.0
 11
10.5
 21
5.21
 31
0.0
  0
LINE
  5
CD
100
AcDbEntity
  8
0
  6
CONTINUOUS
 62
               7
100
AcDbLine
 10
0.73
 20
-11.699999999999999
 30
0.0
 11
9.7599999999999998
 21
-6.4800000000000004
 31
0.0
  0
LINE
  5
CE
100
AcDbEntity
  8
0
  6
CONTINUOUS
 62
               7
100
AcDbLine
 10
-9.7599999999999998
 20
-6.4800000000000004
 30
0.0
 11
-0.73
 21
-11.699999999999999
 31
0.0
  0
LINE
  5
CF
100
AcDbEntity
  8
0
  6
CONTINUOUS
 62
               7
100
AcDbLine
 10
-10.5
 20
5.21
 30
0.0
 11
-10.5
 21
-5.21
 31
0.0
  0
ENDBLK
  5
D0
100
AcDbEntity
  8
0
100
AcDbBlockEnd
  0
BLOCK
  5
D1
100
AcDbEntity
  8
0
100
AcDbBlockBegin
  2
MS_7
 70
               0
 10
0.0
 20
0.0
 30
0.0
  3
MS_7
  1

  0
ARC
  5
D2
100
AcDbEntity
  8
0
  6
CONTINUOUS
 62
               7
100
AcDbCircle
 10
-22.196106534790573
 20
-10.57186639208742
 30
0.0
 40
47.196161250906968
100
AcDbArc
 50
0.0872452851576695
 51
6.780015439743325
  0
ARC
  5
D3
100
AcDbEntity
  8
0
  6
CONTINUOUS
 62
               7
100
AcDbCircle
 10
-14.036425590515435
 20
0.0
 30
0.0
 40
39.028033283706577
100
AcDbArc
 50
352.63943429239896
 51
7.3605657076002426
  0
ARC
  5
D4
100
AcDbEntity
  8
0
  6
CONTINUOUS
 62
               7
100
AcDbCircle
 10
-22.196120851127056
 20
10.571867251067609
 30
0.0
 40
47.196175568534848
100
AcDbArc
 50
353.21998557658503
 51
359.91275369851235
  0
ARC
  5
D5
100
AcDbEntity
  8
0
  6
CONTINUOUS
 62
               7
100
AcDbCircle
 10
50.036422729495136
 20
0.0
 30
0.0
 40
39.037948062993365
100
AcDbArc
 50
172.64131406241509
 51
187.35868593758408
  0
ARC
  5
D6
100
AcDbEntity
  8
0
  6
CONTINUOUS
 62
               7
100
AcDbCircle
 10
58.201139084517962
 20
-10.486939001281048
 30
0.0
 40
47.201140891568457
100
AcDbArc
 50
173.32450826211917
 51
180.01585428017663
  0
ARC
  5
D7
100
AcDbEntity
  8
0
  6
CONTINUOUS
 62
               7
100
AcDbCircle
 10
58.201126044383585
 20
10.486938242582321
 30
0.0
 40
47.201127851644536
100
AcDbArc
 50
179.98414479448502
 51
186.67549266321754
  0
LINE
  5
D8
100
AcDbEntity
  8
0
  6
CONTINUOUS
 62
               7
100
AcDbLine
 10
0.5
 20
8.5
 30
0.0
 11
0.5
 21
-8.5
 31
0.0
  0
LINE
  5
D9
100
AcDbEntity
  8
0
  6
CONTINUOUS
 62
               7
100
AcDbLine
 10
0.5
 20
-8.5
 30
0.0
 11
0.0
 21
-8.0
 31
0.0
  0
LINE
  5
DA
100
AcDbEntity
  8
0
  6
CONTINUOUS
 62
               7
100
AcDbLine
 10
0.5
 20
8.5
 30
0.0
 11
0.0
 21
8.0
 31
0.0
  0
LINE
  5
DB
100
AcDbEntity
  8
0
  6
CONTINUOUS
 62
               7
100
AcDbLine
 10
24.670000000000002
 20
-11.699999999999999
 30
0.0
 11
25.0
 21
-10.5
 31
0.0
  0
LINE
  5
DC
100
AcDbEntity
  8
0
  6
CONTINUOUS
 62
               7
100
AcDbLine
 10
24.670000000000002
 20
11.699999999999999
 30
0.0
 11
25.0
 21
10.5
 31
0.0
  0
LINE
  5
DD
100
AcDbEntity
  8
0
  6
CONTINUOUS
 62
               7
100
AcDbLine
 10
11.32
 20
-11.699999999999999
 30
0.0
 11
11.0
 21
-10.5
 31
0.0
  0
LINE
  5
DE
100
AcDbEntity
  8
0
  6
CONTINUOUS
 62
               7
100
AcDbLine
 10
11.32
 20
11.699999999999999
 30
0.0
 11
11.0
 21
10.5
 31
0.0
  0
LINE
  5
DF
100
AcDbEntity
  8
0
  6
CONTINUOUS
 62
               7
100
AcDbLine
 10
11.0
 20
-8.5
 30
0.0
 11
0.5
 21
-8.5
 31
0.0
  0
LINE
  5
E0
100
AcDbEntity
  8
0
  6
CONTINUOUS
 62
               7
100
AcDbLine
 10
24.57
 20
-11.699999999999999
 30
0.0
 11
11.27
 21
-11.699999999999999
 31
0.0
  0
LINE
  5
E1
100
AcDbEntity
  8
0
  6
DASHED
 62
               2
100
AcDbLine
 10
24.879999999999999
 20
-8.4900000000000002
 30
0.0
 11
11.300000000000001
 21
-8.0
 31
0.0
  0
LINE
  5
E2
100
AcDbEntity
  8
0
  6
DASHED
 62
               2
100
AcDbLine
 10
24.91
 20
-7.4900000000000002
 30
0.0
 11
11.300000000000001
 21
-7.0
 31
0.0
  0
LINE
  5
E3
100
AcDbEntity
  8
0
  6
CONTINUOUS
 62
               7
100
AcDbLine
 10
24.670000000000002
 20
-5.0
 30
0.0
 11
11.32
 21
-5.0
 31
0.0
  0
LINE
  5
E4
100
AcDbEntity
  8
0
  6
CONTINUOUS
 62
               7
100
AcDbLine
 10
24.670000000000002
 20
5.0
 30
0.0
 11
11.32
 21
5.0
 31
0.0
  0
LINE
  5
E5
100
AcDbEntity
  8
0
  6
DASHED
 62
               2
100
AcDbLine
 10
10.699999999999999
 20
6.6699999999999999
 30
0.0
 11
10.699999999999999
 21
-6.6699999999999999
 31
0.0
  0
LINE
  5
E6
100
AcDbEntity
  8
0
  6
DASHED
 62
               2
100
AcDbLine
 10
11.300000000000001
 20
8.0
 30
0.0
 11
11.300000000000001
 21
-8.0
 31
0.0
  0
LINE
  5
E7
100
AcDbEntity
  8
0
  6
DASHED
 62
               2
100
AcDbLine
 10
10.699999999999999
 20
6.6699999999999999
 30
0.0
 11
-0.04
 21
7.04
 31
0.0
  0
LINE
  5
E8
100
AcDbEntity
  8
0
  6
DASHED
 62
               2
100
AcDbLine
 10
10.699999999999999
 20
5.8700000000000001
 30
0.0
 11
-0.07
 21
6.2400000000000002
 31
0.0
  0
LINE
  5
E9
100
AcDbEntity
  8
0
  6
DASHED
 62
               2
100
AcDbLine
 10
24.879999999999999
 20
8.4900000000000002
 30
0.0
 11
11.300000000000001
 21
8.0
 31
0.0
  0
LINE
  5
EA
100
AcDbEntity
  8
0
  6
DASHED
 62
               2
100
AcDbLine
 10
24.91
 20
7.4900000000000002
 30
0.0
 11
11.300000000000001
 21
7.0
 31
0.0
  0
LINE
  5
EB
100
AcDbEntity
  8
0
  6
CONTINUOUS
 62
               7
100
AcDbLine
 10
11.0
 20
8.5
 30
0.0
 11
0.5
 21
8.5
 31
0.0
  0
LINE
  5
EC
100
AcDbEntity
  8
0
  6
CONTINUOUS
 62
               7
100
AcDbLine
 10
24.57
 20
11.699999999999999
 30
0.0
 11
11.32
 21
11.699999999999999
 31
0.0
  0
LINE
  5
ED
100
AcDbEntity
  8
0
  6
CONTINUOUS
 62
               7
100
AcDbLine
 10
25.0
 20
10.5
 30
0.0
 11
25.0
 21
-10.130000000000001
 31
0.0
  0
LINE
  5
EE
100
AcDbEntity
  8
0
  6
CONTINUOUS
 62
               7
100
AcDbLine
 10
11.0
 20
10.5
 30
0.0
 11
11.0
 21
-10.65
 31
0.0
  0
LINE
  5
EF
100
AcDbEntity
  8
0
  6
CONTINUOUS
 62
               7
100
AcDbLine
 10
0.0
 20
8.0
 30
0.0
 11
0.0
 21
-8.0
 31
0.0
  0
LINE
  5
F0
100
AcDbEntity
  8
0
  6
CENTER
 62
               2
100
AcDbLine
 10
28.0
 20
0.0
 30
0.0
 11
-3.0
 21
0.0
 31
0.0
  0
LINE
  5
F1
100
AcDbEntity
  8
0
  6
DASHED
 62
               2
100
AcDbLine
 10
10.699999999999999
 20
-6.6699999999999999
 30
0.0
 11
-0.04
 21
-7.04
 31
0.0
  0
LINE
  5
F2
100
AcDbEntity
  8
0
  6
DASHED
 62
               2
100
AcDbLine
 10
10.699999999999999
 20
-5.8700000000000001
 30
0.0
 11
-0.07
 21
-6.2400000000000002
 31
0.0
  0
ENDBLK
  5
F3
100
AcDbEntity
  8
0
100
AcDbBlockEnd
  0
BLOCK
  5
F4
100
AcDbEntity
  8
0
100
AcDbBlockBegin
  2
MS_8
 70
               0
 10
0.0
 20
0.0
 30
0.0
  3
MS_8
  1

  0
CIRCLE
  5
F5
100
AcDbEntity
  8
0
  6
CONTINUOUS
 62
               7
100
AcDbCircle
 10
0.0
 20
0.0
 30
0.0
 40
10.5
  0
CIRCLE
  5
F6
100
AcDbEntity
  8
0
  6
CONTINUOUS
 62
               2
100
AcDbCircle
 10
0.0
 20
0.0
 30
0.0
 40
8.4750003814697266
  0
CIRCLE
  5
F7
100
AcDbEntity
  8
0
  6
CONTINUOUS
 62
               7
100
AcDbCircle
 10
0.0
 20
0.0
 30
0.0
 40
7.4749994277954102
  0
LINE
  5
F8
100
AcDbEntity
  8
0
  6
CONTINUOUS
 62
               7
100
AcDbLine
 10
9.7599999999999998
 20
6.4800000000000004
 30
0.0
 11
10.5
 21
5.21
 31
0.0
  0
LINE
  5
F9
100
AcDbEntity
  8
0
  6
CONTINUOUS
 62
               7
100
AcDbLine
 10
-10.5
 20
-5.21
 30
0.0
 11
-9.7599999999999998
 21
-6.4800000000000004
 31
0.0
  0
LINE
  5
FA
100
AcDbEntity
  8
0
  6
CONTINUOUS
 62
               7
100
AcDbLine
 10
10.5
 20
-5.21
 30
0.0
 11
9.7599999999999998
 21
-6.4800000000000004
 31
0.0
  0
LINE
  5
FB
100
AcDbEntity
  8
0
  6
CONTINUOUS
 62
               7
100
AcDbLine
 10
-9.7599999999999998
 20
6.4800000000000004
 30
0.0
 11
-10.5
 21
5.21
 31
0.0
  0
LINE
  5
FC
100
AcDbEntity
  8
0
  6
CONTINUOUS
 62
               7
100
AcDbLine
 10
-0.73
 20
11.699999999999999
 30
0.0
 11
0.73
 21
11.699999999999999
 31
0.0
  0
LINE
  5
FD
100
AcDbEntity
  8
0
  6
CONTINUOUS
 62
               7
100
AcDbLine
 10
-0.73
 20
-11.699999999999999
 30
0.0
 11
0.73
 21
-11.699999999999999
 31
0.0
  0
LINE
  5
FE
100
AcDbEntity
  8
0
  6
CENTER
 62
               2
100
AcDbLine
 10
14.699999999999999
 20
0.0
 30
0.0
 11
-14.699999999999999
 21
0.0
 31
0.0
  0
LINE
  5
FF
100
AcDbEntity
  8
0
  6
CENTER
 62
               2
100
AcDbLine
 10
0.0
 20
14.699999999999999
 30
0.0
 11
0.0
 21
-14.699999999999999
 31
0.0
  0
LINE
  5
100
100
AcDbEntity
  8
0
  6
CONTINUOUS
 62
               7
100
AcDbLine
 10
-0.73
 20
11.699999999999999
 30
0.0
 11
-9.7599999999999998
 21
6.4800000000000004
 31
0.0
  0
LINE
  5
101
100
AcDbEntity
  8
0
  6
CONTINUOUS
 62
               7
100
AcDbLine
 10
9.7599999999999998
 20
6.4800000000000004
 30
0.0
 11
0.73
 21
11.699999999999999
 31
0.0
  0
LINE
  5
102
100
AcDbEntity
  8
0
  6
CONTINUOUS
 62
               7
100
AcDbLine
 10
10.5
 20
-5.21
 30
0.0
 11
10.5
 21
5.21
 31
0.0
  0
LINE
  5
103
100
AcDbEntity
  8
0
  6
CONTINUOUS
 62
               7
100
AcDbLine
 10
0.73
 20
-11.699999999999999
 30
0.0
 11
9.7599999999999998
 21
-6.4800000000000004
 31
0.0
  0
LINE
  5
104
100
AcDbEntity
  8
0
  6
CONTINUOUS
 62
               7
100
AcDbLine
 10
-9.7599999999999998
 20
-6.4800000000000004
 30
0.0
 11
-0.73
 21
-11.699999999999999
 31
0.0
  0
LINE
  5
105
100
AcDbEntity
  8
0
  6
CONTINUOUS
 62
               7
100
AcDbLine
 10
-10.5
 20
5.21
 30
0.0
 11
-10.5
 21
-5.21
 31
0.0
  0
ENDBLK
  5
106
100
AcDbEntity
  8
0
100
AcDbBlockEnd
  0
BLOCK
  5
107
100
AcDbEntity
  8
0
100
AcDbBlockBegin
  2
MS_9
 70
               0
 10
0.0
 20
0.0
 30
0.0
  3
MS_9
  1

  0
ARC
  5
108
100
AcDbEntity
  8
0
  6
CONTINUOUS
 62
               7
100
AcDbCircle
 10
-23.906583522439782
 20
-12.045073066271586
 30
0.0
 40
53.90660236597256
100
AcDbArc
 50
0.0479068732704449
 51
6.4386776922819271
  0
ARC
  5
109
100
AcDbEntity
  8
0
  6
CONTINUOUS
 62
               7
100
AcDbCircle
 10
-23.909057617187525
 20
0.0
 30
0.0
 40
53.904025211421427
100
AcDbArc
 50
353.60922418353556
 51
6.3907758164636341
  0
ARC
  5
10A
100
AcDbEntity
  8
0
  6
CONTINUOUS
 62
               7
100
AcDbCircle
 10
-23.906583310145045
 20
12.045073054241552
 30
0.0
 40
53.906602153667841
100
AcDbArc
 50
353.56132229511957
 51
359.95209313932651
  0
ARC
  5
10B
100
AcDbEntity
  8
0
  6
CONTINUOUS
 62
               7
100
AcDbCircle
 10
64.911553023506158
 20
-11.956060416292839
 30
0.0
 40
53.911570929563283
100
AcDbArc
 50
173.65710997821196
 51
180.04669782266174
  0
ARC
  5
10C
100
AcDbEntity
  8
0
  6
CONTINUOUS
 62
               7
100
AcDbCircle
 10
64.911553554194086
 20
11.956060445480675
 30
0.0
 40
53.91157146022725
100
AcDbArc
 50
179.95330220881718
 51
186.34288999030753
  0
ARC
  5
10D
100
AcDbEntity
  8
0
  6
CONTINUOUS
 62
               7
100
AcDbCircle
 10
64.909057617187727
 20
0.0
 30
0.0
 40
53.913963081431163
100
AcDbArc
 50
173.6104070927895
 51
186.3895929072097
  0
LINE
  5
10E
100
AcDbEntity
  8
0
  6
CONTINUOUS
 62
               7
100
AcDbLine
 10
0.5
 20
8.5
 30
0.0
 11
0.5
 21
-8.5
 31
0.0
  0
LINE
  5
10F
100
AcDbEntity
  8
0
  6
CONTINUOUS
 62
               7
100
AcDbLine
 10
0.5
 20
-8.5
 30
0.0
 11
0.0
 21
-8.0
 31
0.0
  0
LINE
  5
110
100
AcDbEntity
  8
0
  6
CONTINUOUS
 62
               7
100
AcDbLine
 10
0.5
 20
8.5
 30
0.0
 11
0.0
 21
8.0
 31
0.0
  0
LINE
  5
111
100
AcDbEntity
  8
0
  6
CONTINUOUS
 62
               7
100
AcDbLine
 10
29.609999999999999
 20
-13.25
 30
0.0
 11
30.0
 21
-11.82
 31
0.0
  0
LINE
  5
112
100
AcDbEntity
  8
0
  6
CONTINUOUS
 62
               7
100
AcDbLine
 10
29.66
 20
13.25
 30
0.0
 11
30.0
 21
12.0
 31
0.0
  0
LINE
  5
113
100
AcDbEntity
  8
0
  6
CONTINUOUS
 62
               7
100
AcDbLine
 10
11.33
 20
13.25
 30
0.0
 11
11.0
 21
12.0
 31
0.0
  0
LINE
  5
114
100
AcDbEntity
  8
0
  6
CONTINUOUS
 62
               7
100
AcDbLine
 10
29.59
 20
-13.25
 30
0.0
 11
11.380000000000001
 21
-13.25
 31
0.0
  0
LINE
  5
115
100
AcDbEntity
  8
0
  6
DASHED
 62
               2
100
AcDbLine
 10
29.969999999999999
 20
-10.42
 30
0.0
 11
15.0
 21
-9.9100000000000001
 31
0.0
  0
LINE
  5
116
100
AcDbEntity
  8
0
  6
DASHED
 62
               2
100
AcDbLine
 10
30.0
 20
-9.3200000000000003
 30
0.0
 11
15.0
 21
-8.8100000000000005
 31
0.0
  0
LINE
  5
117
100
AcDbEntity
  8
0
  6
DASHED
 62
               2
100
AcDbLine
 10
15.0
 20
-9.9100000000000001
 30
0.0
 11
15.0
 21
0.0
 31
0.0
  0
LINE
  5
118
100
AcDbEntity
  8
0
  6
CONTINUOUS
 62
               7
100
AcDbLine
 10
29.66
 20
-6.0
 30
0.0
 11
11.33
 21
-6.0
 31
0.0
  0
LINE
  5
119
100
AcDbEntity
  8
0
  6
CONTINUOUS
 62
               7
100
AcDbLine
 10
11.0
 20
-8.5
 30
0.0
 11
0.5
 21
-8.5
 31
0.0
  0
LINE
  5
11A
100
AcDbEntity
  8
0
  6
DASHED
 62
               2
100
AcDbLine
 10
10.75
 20
-6.6399999999999997
 30
0.0
 11
0.03
 21
-7.0300000000000002
 31
0.0
  0
LINE
  5
11B
100
AcDbEntity
  8
0
  6
DASHED
 62
               2
100
AcDbLine
 10
10.75
 20
-5.8399999999999999
 30
0.0
 11
0.0
 21
-6.2300000000000004
 31
0.0
  0
LINE
  5
11C
100
AcDbEntity
  8
0
  6
DASHED
 62
               2
100
AcDbLine
 10
10.75
 20
-6.6399999999999997
 30
0.0
 11
10.75
 21
0.0
 31
0.0
  0
LINE
  5
11D
100
AcDbEntity
  8
0
  6
CONTINUOUS
 62
               7
100
AcDbLine
 10
29.66
 20
6.0
 30
0.0
 11
11.33
 21
6.0
 31
0.0
  0
LINE
  5
11E
100
AcDbEntity
  8
0
  6
DASHED
 62
               2
100
AcDbLine
 10
10.75
 20
6.6399999999999997
 30
0.0
 11
10.75
 21
0.0
 31
0.0
  0
LINE
  5
11F
100
AcDbEntity
  8
0
  6
DASHED
 62
               2
100
AcDbLine
 10
10.75
 20
6.6399999999999997
 30
0.0
 11
0.03
 21
7.0300000000000002
 31
0.0
  0
LINE
  5
120
100
AcDbEntity
  8
0
  6
DASHED
 62
               2
100
AcDbLine
 10
10.75
 20
5.8399999999999999
 30
0.0
 11
0.0
 21
6.2300000000000004
 31
0.0
  0
LINE
  5
121
100
AcDbEntity
  8
0
  6
CONTINUOUS
 62
               7
100
AcDbLine
 10
11.0
 20
8.5
 30
0.0
 11
0.5
 21
8.5
 31
0.0
  0
LINE
  5
122
100
AcDbEntity
  8
0
  6
DASHED
 62
               2
100
AcDbLine
 10
29.969999999999999
 20
10.42
 30
0.0
 11
15.0
 21
9.9100000000000001
 31
0.0
  0
LINE
  5
123
100
AcDbEntity
  8
0
  6
DASHED
 62
               2
100
AcDbLine
 10
30.0
 20
9.3200000000000003
 30
0.0
 11
15.0
 21
8.8100000000000005
 31
0.0
  0
LINE
  5
124
100
AcDbEntity
  8
0
  6
CONTINUOUS
 62
               7
100
AcDbLine
 10
29.59
 20
13.25
 30
0.0
 11
11.33
 21
13.25
 31
0.0
  0
LINE
  5
125
100
AcDbEntity
  8
0
  6
DASHED
 62
               2
100
AcDbLine
 10
15.0
 20
9.9100000000000001
 30
0.0
 11
15.0
 21
0.0
 31
0.0
  0
LINE
  5
126
100
AcDbEntity
  8
0
  6
CONTINUOUS
 62
               7
100
AcDbLine
 10
30.0
 20
12.0
 30
0.0
 11
30.0
 21
-11.82
 31
0.0
  0
LINE
  5
127
100
AcDbEntity
  8
0
  6
CONTINUOUS
 62
               7
100
AcDbLine
 10
11.0
 20
12.0
 30
0.0
 11
11.0
 21
-11.82
 31
0.0
  0
LINE
  5
128
100
AcDbEntity
  8
0
  6
CONTINUOUS
 62
               7
100
AcDbLine
 10
0.0
 20
8.0
 30
0.0
 11
0.0
 21
-8.0
 31
0.0
  0
LINE
  5
129
100
AcDbEntity
  8
0
  6
CENTER
 62
               2
100
AcDbLine
 10
33.0
 20
0.0
 30
0.0
 11
-3.0
 21
0.0
 31
0.0
  0
LINE
  5
12A
100
AcDbEntity
  8
0
  6
CONTINUOUS
 62
               7
100
AcDbLine
 10
11.380000000000001
 20
-13.25
 30
0.0
 11
11.0
 21
-11.82
 31
0.0
  0
ENDBLK
  5
12B
100
AcDbEntity
  8
0
100
AcDbBlockEnd
  0
BLOCK
  5
12C
100
AcDbEntity
  8
0
100
AcDbBlockBegin
  2
MS_10
 70
               0
 10
0.0
 20
0.0
 30
0.0
  3
MS_10
  1

  0
CIRCLE
  5
12D
100
AcDbEntity
  8
0
  6
CONTINUOUS
 62
               7
100
AcDbCircle
 10
0.0
 20
0.0
 30
0.0
 40
12.0
  0
CIRCLE
  5
12E
100
AcDbEntity
  8
0
  6
CONTINUOUS
 62
               7
100
AcDbCircle
 10
0.0
 20
0.0
 30
0.0
 40
9.3155002593994141
  0
CIRCLE
  5
12F
100
AcDbEntity
  8
0
  6
CONTINUOUS
 62
               2
100
AcDbCircle
 10
0.0
 20
0.0
 30
0.0
 40
10.415500640869141
  0
LINE
  5
130
100
AcDbEntity
  8
0
  6
CONTINUOUS
 62
               7
100
AcDbLine
 10
12.0
 20
-5.71
 30
0.0
 11
10.949999999999999
 21
-7.5300000000000002
 31
0.0
  0
LINE
  5
131
100
AcDbEntity
  8
0
  6
CONTINUOUS
 62
               7
100
AcDbLine
 10
-10.949999999999999
 20
7.5300000000000002
 30
0.0
 11
-12.0
 21
5.71
 31
0.0
  0
LINE
  5
132
100
AcDbEntity
  8
0
  6
CONTINUOUS
 62
               7
100
AcDbLine
 10
1.05
 20
-13.25
 30
0.0
 11
-1.05
 21
-13.25
 31
0.0
  0
LINE
  5
133
100
AcDbEntity
  8
0
  6
CONTINUOUS
 62
               7
100
AcDbLine
 10
1.05
 20
13.25
 30
0.0
 11
-1.05
 21
13.25
 31
0.0
  0
LINE
  5
134
100
AcDbEntity
  8
0
  6
CONTINUOUS
 62
               7
100
AcDbLine
 10
10.949999999999999
 20
7.5300000000000002
 30
0.0
 11
12.0
 21
5.71
 31
0.0
  0
LINE
  5
135
100
AcDbEntity
  8
0
  6
CONTINUOUS
 62
               7
100
AcDbLine
 10
-12.0
 20
-5.71
 30
0.0
 11
-10.949999999999999
 21
-7.5300000000000002
 31
0.0
  0
LINE
  5
136
100
AcDbEntity
  8
0
  6
CENTER
 62
               2
100
AcDbLine
 10
16.25
 20
0.0
 30
0.0
 11
-16.25
 21
0.0
 31
0.0
  0
LINE
  5
137
100
AcDbEntity
  8
0
  6
CENTER
 62
               2
100
AcDbLine
 10
0.0
 20
16.25
 30
0.0
 11
0.0
 21
-16.25
 31
0.0
  0
LINE
  5
138
100
AcDbEntity
  8
0
  6
CONTINUOUS
 62
               7
100
AcDbLine
 10
-1.05
 20
13.25
 30
0.0
 11
-10.949999999999999
 21
7.5300000000000002
 31
0.0
  0
LINE
  5
139
100
AcDbEntity
  8
0
  6
CONTINUOUS
 62
               7
100
AcDbLine
 10
10.949999999999999
 20
7.5300000000000002
 30
0.0
 11
1.05
 21
13.25
 31
0.0
  0
LINE
  5
13A
100
AcDbEntity
  8
0
  6
CONTINUOUS
 62
               7
100
AcDbLine
 10
12.0
 20
-5.71
 30
0.0
 11
12.0
 21
5.71
 31
0.0
  0
LINE
  5
13B
100
AcDbEntity
  8
0
  6
CONTINUOUS
 62
               7
100
AcDbLine
 10
1.05
 20
-13.25
 30
0.0
 11
10.949999999999999
 21
-7.5300000000000002
 31
0.0
  0
LINE
  5
13C
100
AcDbEntity
  8
0
  6
CONTINUOUS
 62
               7
100
AcDbLine
 10
-10.949999999999999
 20
-7.5300000000000002
 30
0.0
 11
-1.05
 21
-13.25
 31
0.0
  0
LINE
  5
13D
100
AcDbEntity
  8
0
  6
CONTINUOUS
 62
               7
100
AcDbLine
 10
-12.0
 20
5.71
 30
0.0
 11
-12.0
 21
-5.71
 31
0.0
  0
ENDBLK
  5
13E
100
AcDbEntity
  8
0
100
AcDbBlockEnd
  0
BLOCK
  5
13F
100
AcDbEntity
  8
0
100
AcDbBlockBegin
  2
MS_11
 70
               0
 10
0.0
 20
0.0
 30
0.0
  3
MS_11
  1

  0
ARC
  5
140
100
AcDbEntity
  8
0
  6
CONTINUOUS
 62
               7
100
AcDbCircle
 10
-20.906583522439782
 20
-12.045073066271618
 30
0.0
 40
53.90660236597256
100
AcDbArc
 50
0.0479068732704789
 51
6.4386776922819617
  0
ARC
  5
141
100
AcDbEntity
  8
0
  6
CONTINUOUS
 62
               7
100
AcDbCircle
 10
-20.909057617187514
 20
0.0
 30
0.0
 40
53.904025211421413
100
AcDbArc
 50
353.60922418353556
 51
6.3907758164636341
  0
ARC
  5
142
100
AcDbEntity
  8
0
  6
CONTINUOUS
 62
               7
100
AcDbCircle
 10
-20.906583310145045
 20
12.045073054241584
 30
0.0
 40
53.906602153667841
100
AcDbArc
 50
353.56132229511957
 51
359.95209313932645
  0
ARC
  5
143
100
AcDbEntity
  8
0
  6
CONTINUOUS
 62
               7
100
AcDbCircle
 10
67.911553023506158
 20
-11.956060416292839
 30
0.0
 40
53.911570929563283
100
AcDbArc
 50
173.65710997821196
 51
180.04669782266174
  0
ARC
  5
144
100
AcDbEntity
  8
0
  6
CONTINUOUS
 62
               7
100
AcDbCircle
 10
67.909057617187742
 20
0.0
 30
0.0
 40
53.913963081431177
100
AcDbArc
 50
173.61040709278953
 51
186.38959290720967
  0
ARC
  5
145
100
AcDbEntity
  8
0
  6
CONTINUOUS
 62
               7
100
AcDbCircle
 10
67.911553554194086
 20
11.956060445480675
 30
0.0
 40
53.91157146022725
100
AcDbArc
 50
179.95330220881718
 51
186.34288999030753
  0
LINE
  5
146
100
AcDbEntity
  8
0
  6
CONTINUOUS
 62
               7
100
AcDbLine
 10
0.5
 20
10.5
 30
0.0
 11
0.5
 21
-10.5
 31
0.0
  0
LINE
  5
147
100
AcDbEntity
  8
0
  6
CONTINUOUS
 62
               7
100
AcDbLine
 10
0.0
 20
-10.0
 30
0.0
 11
0.5
 21
-10.5
 31
0.0
  0
LINE
  5
148
100
AcDbEntity
  8
0
  6
CONTINUOUS
 62
               7
100
AcDbLine
 10
0.5
 20
10.5
 30
0.0
 11
0.0
 21
10.0
 31
0.0
  0
LINE
  5
149
100
AcDbEntity
  8
0
  6
CONTINUOUS
 62
               7
100
AcDbLine
 10
32.659999999999997
 20
13.25
 30
0.0
 11
33.0
 21
12.0
 31
0.0
  0
LINE
  5
14A
100
AcDbEntity
  8
0
  6
CONTINUOUS
 62
               7
100
AcDbLine
 10
32.659999999999997
 20
-13.25
 30
0.0
 11
33.0
 21
-12.0
 31
0.0
  0
LINE
  5
14B
100
AcDbEntity
  8
0
  6
CONTINUOUS
 62
               7
100
AcDbLine
 10
14.33
 20
-13.25
 30
0.0
 11
14.0
 21
-12.0
 31
0.0
  0
LINE
  5
14C
100
AcDbEntity
  8
0
  6
CONTINUOUS
 62
               7
100
AcDbLine
 10
14.33
 20
13.25
 30
0.0
 11
14.0
 21
12.0
 31
0.0
  0
LINE
  5
14D
100
AcDbEntity
  8
0
  6
DASHED
 62
               2
100
AcDbLine
 10
32.859999999999999
 20
10.380000000000001
 30
0.0
 11
18.0
 21
9.8599999999999994
 31
0.0
  0
LINE
  5
14E
100
AcDbEntity
  8
0
  6
DASHED
 62
               2
100
AcDbLine
 10
12.0
 20
-8.0800000000000001
 30
0.0
 11
12.0
 21
0.0
 31
0.0
  0
LINE
  5
14F
100
AcDbEntity
  8
0
  6
DASHED
 62
               2
100
AcDbLine
 10
0.0
 20
-7.4000000000000004
 30
0.0
 11
12.0
 21
-7.0800000000000001
 31
0.0
  0
LINE
  5
150
100
AcDbEntity
  8
0
  6
DASHED
 62
               2
100
AcDbLine
 10
0.0
 20
-8.4000000000000004
 30
0.0
 11
12.0
 21
-8.0800000000000001
 31
0.0
  0
LINE
  5
151
100
AcDbEntity
  8
0
  6
CONTINUOUS
 62
               7
100
AcDbLine
 10
14.0
 20
-10.5
 30
0.0
 11
0.5
 21
-10.5
 31
0.0
  0
LINE
  5
152
100
AcDbEntity
  8
0
  6
CONTINUOUS
 62
               7
100
AcDbLine
 10
32.579999999999998
 20
-13.25
 30
0.0
 11
14.390000000000001
 21
-13.25
 31
0.0
  0
LINE
  5
153
100
AcDbEntity
  8
0
  6
DASHED
 62
               2
100
AcDbLine
 10
32.859999999999999
 20
-10.380000000000001
 30
0.0
 11
18.0
 21
-9.8599999999999994
 31
0.0
  0
LINE
  5
154
100
AcDbEntity
  8
0
  6
DASHED
 62
               2
100
AcDbLine
 10
32.899999999999999
 20
-9.2799999999999994
 30
0.0
 11
18.0
 21
-8.7599999999999998
 31
0.0
  0
LINE
  5
155
100
AcDbEntity
  8
0
  6
DASHED
 62
               2
100
AcDbLine
 10
18.0
 20
-9.8599999999999994
 30
0.0
 11
18.0
 21
0.0
 31
0.0
  0
LINE
  5
156
100
AcDbEntity
  8
0
  6
CONTINUOUS
 62
               7
100
AcDbLine
 10
32.659999999999997
 20
6.0
 30
0.0
 11
14.33
 21
6.0
 31
0.0
  0
LINE
  5
157
100
AcDbEntity
  8
0
  6
CONTINUOUS
 62
               7
100
AcDbLine
 10
32.659999999999997
 20
-6.0
 30
0.0
 11
14.33
 21
-6.0
 31
0.0
  0
LINE
  5
158
100
AcDbEntity
  8
0
  6
CENTER
 62
               2
100
AcDbLine
 10
36.0
 20
0.0
 30
0.0
 11
-3.0
 21
0.0
 31
0.0
  0
LINE
  5
159
100
AcDbEntity
  8
0
  6
CONTINUOUS
 62
               7
100
AcDbLine
 10
0.0
 20
10.0
 30
0.0
 11
0.0
 21
-10.0
 31
0.0
  0
LINE
  5
15A
100
AcDbEntity
  8
0
  6
CONTINUOUS
 62
               7
100
AcDbLine
 10
33.0
 20
11.9
 30
0.0
 11
33.0
 21
-11.69
 31
0.0
  0
LINE
  5
15B
100
AcDbEntity
  8
0
  6
CONTINUOUS
 62
               7
100
AcDbLine
 10
32.579999999999998
 20
13.25
 30
0.0
 11
14.33
 21
13.25
 31
0.0
  0
LINE
  5
15C
100
AcDbEntity
  8
0
  6
CONTINUOUS
 62
               7
100
AcDbLine
 10
14.0
 20
10.5
 30
0.0
 11
0.5
 21
10.5
 31
0.0
  0
LINE
  5
15D
100
AcDbEntity
  8
0
  6
DASHED
 62
               2
100
AcDbLine
 10
18.0
 20
9.8599999999999994
 30
0.0
 11
18.0
 21
0.0
 31
0.0
  0
LINE
  5
15E
100
AcDbEntity
  8
0
  6
DASHED
 62
               2
100
AcDbLine
 10
32.899999999999999
 20
9.2799999999999994
 30
0.0
 11
18.0
 21
8.7599999999999998
 31
0.0
  0
LINE
  5
15F
100
AcDbEntity
  8
0
  6
DASHED
 62
               2
100
AcDbLine
 10
0.0
 20
7.4000000000000004
 30
0.0
 11
12.0
 21
7.0800000000000001
 31
0.0
  0
LINE
  5
160
100
AcDbEntity
  8
0
  6
DASHED
 62
               2
100
AcDbLine
 10
12.0
 20
8.0800000000000001
 30
0.0
 11
12.0
 21
-8.0800000000000001
 31
0.0
  0
LINE
  5
161
100
AcDbEntity
  8
0
  6
CONTINUOUS
 62
               7
100
AcDbLine
 10
14.0
 20
12.0
 30
0.0
 11
14.0
 21
-12.0
 31
0.0
  0
LINE
  5
162
100
AcDbEntity
  8
0
  6
DASHED
 62
               2
100
AcDbLine
 10
0.0
 20
8.4000000000000004
 30
0.0
 11
12.0
 21
8.0800000000000001
 31
0.0
  0
ENDBLK
  5
163
100
AcDbEntity
  8
0
100
AcDbBlockEnd
  0
BLOCK
  5
164
100
AcDbEntity
  8
0
100
AcDbBlockBegin
  2
MS_12
 70
               0
 10
0.0
 20
0.0
 30
0.0
  3
MS_12
  1

  0
CIRCLE
  5
165
100
AcDbEntity
  8
0
  6
CONTINUOUS
 62
               7
100
AcDbCircle
 10
0.0
 20
0.0
 30
0.0
 40
12.0
  0
CIRCLE
  5
166
100
AcDbEntity
  8
0
  6
CONTINUOUS
 62
               7
100
AcDbCircle
 10
0.0476837158203125
 20
0.0000000432002487
 30
0.0
 40
9.3155002593994141
  0
CIRCLE
  5
167
100
AcDbEntity
  8
0
  6
CONTINUOUS
 62
               2
100
AcDbCircle
 10
0.0476837158203125
 20
0.0000000432002487
 30
0.0
 40
10.415500640869141
  0
LINE
  5
168
100
AcDbEntity
  8
0
  6
CONTINUOUS
 62
               7
100
AcDbLine
 10
12.0
 20
-5.71
 30
0.0
 11
10.949999999999999
 21
-7.5300000000000002
 31
0.0
  0
LINE
  5
169
100
AcDbEntity
  8
0
  6
CONTINUOUS
 62
               7
100
AcDbLine
 10
-10.949999999999999
 20
7.5300000000000002
 30
0.0
 11
-12.0
 21
5.71
 31
0.0
  0
LINE
  5
16A
100
AcDbEntity
  8
0
  6
CONTINUOUS
 62
               7
100
AcDbLine
 10
1.05
 20
-13.25
 30
0.0
 11
-1.05
 21
-13.25
 31
0.0
  0
LINE
  5
16B
100
AcDbEntity
  8
0
  6
CONTINUOUS
 62
               7
100
AcDbLine
 10
1.05
 20
13.25
 30
0.0
 11
-1.05
 21
13.25
 31
0.0
  0
LINE
  5
16C
100
AcDbEntity
  8
0
  6
CONTINUOUS
 62
               7
100
AcDbLine
 10
-12.0
 20
-5.71
 30
0.0
 11
-10.949999999999999
 21
-7.5300000000000002
 31
0.0
  0
LINE
  5
16D
100
AcDbEntity
  8
0
  6
CONTINUOUS
 62
               7
100
AcDbLine
 10
10.949999999999999
 20
7.5300000000000002
 30
0.0
 11
12.0
 21
5.71
 31
0.0
  0
LINE
  5
16E
100
AcDbEntity
  8
0
  6
CONTINUOUS
 62
               7
100
AcDbLine
 10
-1.05
 20
13.25
 30
0.0
 11
-10.949999999999999
 21
7.5300000000000002
 31
0.0
  0
LINE
  5
16F
100
AcDbEntity
  8
0
  6
CONTINUOUS
 62
               7
100
AcDbLine
 10
10.949999999999999
 20
7.5300000000000002
 30
0.0
 11
1.05
 21
13.25
 31
0.0
  0
LINE
  5
170
100
AcDbEntity
  8
0
  6
CONTINUOUS
 62
               7
100
AcDbLine
 10
12.0
 20
-5.71
 30
0.0
 11
12.0
 21
5.71
 31
0.0
  0
LINE
  5
171
100
AcDbEntity
  8
0
  6
CONTINUOUS
 62
               7
100
AcDbLine
 10
1.05
 20
-13.25
 30
0.0
 11
10.949999999999999
 21
-7.5300000000000002
 31
0.0
  0
LINE
  5
172
100
AcDbEntity
  8
0
  6
CONTINUOUS
 62
               7
100
AcDbLine
 10
-10.949999999999999
 20
-7.5300000000000002
 30
0.0
 11
-1.05
 21
-13.25
 31
0.0
  0
LINE
  5
173
100
AcDbEntity
  8
0
  6
CONTINUOUS
 62
               7
100
AcDbLine
 10
-12.0
 20
5.71
 30
0.0
 11
-12.0
 21
-5.71
 31
0.0
  0
LINE
  5
174
100
AcDbEntity
  8
0
  6
CENTER
 62
               2
100
AcDbLine
 10
16.25
 20
0.0
 30
0.0
 11
-16.25
 21
0.0
 31
0.0
  0
LINE
  5
175
100
AcDbEntity
  8
0
  6
CENTER
 62
               2
100
AcDbLine
 10
0.0
 20
16.25
 30
0.0
 11
0.0
 21
-16.25
 31
0.0
  0
ENDBLK
  5
176
100
AcDbEntity
  8
0
100
AcDbBlockEnd
  0
ENDSEC
  0
SECTION
  2
ENTITIES
  0
INSERT
  5
177
100
AcDbEntity
  8
0
100
AcDbBlockReference
  2
MS_12
 10
160.0
 20
-70.0
 30
0.0
 50
0.0000136657799887
  0
INSERT
  5
178
100
AcDbEntity
  8
0
100
AcDbBlockReference
  2
MS_11
 10
90.0
 20
-70.0
 30
0.0
 50
0.00001366037834
  0
INSERT
  5
179
100
AcDbEntity
  8
0
100
AcDbBlockReference
  2
MS_10
 10
30.0
 20
-70.0
 30
0.0
 50
0.00001366037834
  0
INSERT
  5
17A
100
AcDbEntity
  8
0
100
AcDbBlockReference
  2
MS_9
 10
-40.0
 20
-70.0
 30
0.0
 50
0.00001366037834
  0
INSERT
  5
17B
100
AcDbEntity
  8
0
100
AcDbBlockReference
  2
MS_8
 10
-100.0
 20
-70.0
 30
0.0
 50
359.99996584905335
  0
INSERT
  5
17C
100
AcDbEntity
  8
0
100
AcDbBlockReference
  2
MS_7
 10
-170.0
 20
-70.0
 30
0.0
 50
359.99996584905335
  0
INSERT
  5
17D
100
AcDbEntity
  8
0
100
AcDbBlockReference
  2
MS_6
 10
160.0
 20
60.0
 30
0.0
 50
0.00001366037834
  0
INSERT
  5
17E
100
AcDbEntity
  8
0
100
AcDbBlockReference
  2
MS_5
 10
90.0
 20
60.0
 30
0.0
 50
0.00001366037834
  0
INSERT
  5
17F
100
AcDbEntity
  8
0
100
AcDbBlockReference
  2
MS_4
 10
30.0
 20
60.0
 30
0.0
 50
0.00001366037834
  0
INSERT
  5
180
100
AcDbEntity
  8
0
100
AcDbBlockReference
  2
MS_3
 10
-40.0
 20
60.0
 30
0.0
 50
0.00001366037834
  0
INSERT
  5
181
100
AcDbEntity
  8
0
100
AcDbBlockReference
  2
MS_2
 10
-100.0
 20
60.0
 30
0.0
 50
0.00001366037834
  0
INSERT
  5
182
100
AcDbEntity
  8
0
100
AcDbBlockReference
  2
MS_1
 10
-170.0
 20
60.0
 30
0.0
 50
0.00001366037834
  0
MTEXT
  5
183
100
AcDbEntity
  8
0
  6
CONTINUOUS
 62
               7
100
AcDbMText
 10
144.80000305175781
 20
-120.0
 30
0.0
 40
7.0
 41
0.0
 71
               2
 72
               1
  1
\T1.254;\W0.968;\A1;KOGANEI CORP.
  7
MX_NOTE_STANDARD
  0
MTEXT
  5
184
100
AcDbEntity
  8
0
  6
CONTINUOUS
 62
               7
100
AcDbMText
 10
-188.22291663097761
 20
-128.5
 30
0.0
 40
5.8000001907348633
 41
0.0
 71
               4
 72
               1
  1
\W1.063;\A1;MODEL:CS-BBD03-02
  7
MX_NOTE_STANDARD
  0
MTEXT
  5
185
100
AcDbEntity
  8
0
  6
CONTINUOUS
 62
               7
100
AcDbMText
 10
-58.53958228039167
 20
-128.5
 30
0.0
 40
5.8000001907348633
 41
0.0
 71
               4
 72
               1
  1
\W1.063;\A1;MODEL:CS-BBD04-02
  7
MX_NOTE_STANDARD
  0
MTEXT
  5
186
100
AcDbEntity
  8
0
  6
CONTINUOUS
 62
               7
100
AcDbMText
 10
71.143752070194267
 20
-108.5
 30
0.0
 40
5.8000001907348633
 41
0.0
 71
               4
 72
               1
  1
\W1.063;\A1;MODEL:CS-BBD04-03
  7
MX_NOTE_STANDARD
  0
MTEXT
  5
187
100
AcDbEntity
  8
0
  6
CONTINUOUS
 62
               7
100
AcDbMText
 10
71.16560490654436
 20
4.5500030517578125
 30
0.0
 40
5.8000001907348633
 41
0.0
 71
               4
 72
               1
  1
\W1.085;\A1;MODEL:CS-BBD03-01
  7
MX_NOTE_STANDARD
  0
MTEXT
  5
188
100
AcDbEntity
  8
0
  6
CONTINUOUS
 62
               7
100
AcDbMText
 10
-58.517729444041571
 20
4.5500030517578125
 30
0.0
 40
5.8000001907348633
 41
0.0
 71
               4
 72
               1
  1
\W1.085;\A1;MODEL:CS-BBD02-01
  7
MX_NOTE_STANDARD
  0
MTEXT
  5
189
100
AcDbEntity
  8
0
  6
CONTINUOUS
 62
               7
100
AcDbMText
 10
-188.21210522967758
 20
4.5500030517578125
 30
0.0
 40
5.8000001907348633
 41
0.0
 71
               4
 72
               1
  1
\W1.074;\A1;MODEL:CS-BBD01-M5
  7
MX_NOTE_STANDARD
  0
MTEXT
  5
18A
100
AcDbEntity
  8
0
  6
CONTINUOUS
 62
               7
100
AcDbMText
 10
125.73030544161468
 20
125.10000610351562
 30
0.0
 40
5.8000001907348633
 41
0.0
 71
               4
 72
               1
  1
\W1.273;\A1;Ver.1.0
  7
MX_NOTE_STANDARD
  0
MTEXT
  5
18B
100
AcDbEntity
  8
0
  6
CONTINUOUS
 62
               7
100
AcDbMText
 10
-190.87523020545896
 20
125.10000610351562
 30
0.0
 40
5.8000001907348633
 41
0.0
 71
               4
 72
               1
  1
\W0.905;\A1;CS-QUICK FITTING,BBD
  7
MX_NOTE_STANDARD
  0
LINE
  5
18C
100
AcDbEntity
  8
0
  6
CONTINUOUS
 62
               7
100
AcDbLine
 10
-194.25
 20
-0.45
 30
0.0
 11
194.80000000000001
 21
-0.45
 31
0.0
  0
LINE
  5
18D
100
AcDbEntity
  8
0
  6
CONTINUOUS
 62
               7
100
AcDbLine
 10
65.109999999999999
 20
132.59999999999999
 30
0.0
 11
65.109999999999999
 21
-133.5
 31
0.0
  0
LINE
  5
18E
100
AcDbEntity
  8
0
  6
CONTINUOUS
 62
               7
100
AcDbLine
 10
-64.560000000000002
 20
132.59999999999999
 30
0.0
 11
-64.560000000000002
 21
-133.5
 31
0.0
  0
LINE
  5
18F
100
AcDbEntity
  8
0
  6
CONTINUOUS
 62
               7
100
AcDbLine
 10
-194.25
 20
-133.5
 30
0.0
 11
194.80000000000001
 21
-133.5
 31
0.0
  0
LINE
  5
190
100
AcDbEntity
  8
0
  6
CONTINUOUS
 62
               7
100
AcDbLine
 10
-194.25
 20
132.59999999999999
 30
0.0
 11
-194.25
 21
-133.5
 31
0.0
  0
LINE
  5
191
100
AcDbEntity
  8
0
  6
CONTINUOUS
 62
               7
100
AcDbLine
 10
194.80000000000001
 20
132.59999999999999
 30
0.0
 11
194.80000000000001
 21
-133.5
 31
0.0
  0
LINE
  5
192
100
AcDbEntity
  8
0
  6
CONTINUOUS
 62
               7
100
AcDbLine
 10
-194.25
 20
132.59999999999999
 30
0.0
 11
194.80000000000001
 21
132.59999999999999
 31
0.0
  0
LINE
  5
193
100
AcDbEntity
  8
0
  6
CONTINUOUS
 62
               7
100
AcDbLine
 10
65.109999999999999
 20
-113.5
 30
0.0
 11
194.80000000000001
 21
-113.5
 31
0.0
  0
LINE
  5
194
100
AcDbEntity
  8
0
  6
CONTINUOUS
 62
               7
100
AcDbLine
 10
94.799999999999997
 20
-113.5
 30
0.0
 11
94.799999999999997
 21
-133.5
 31
0.0
  0
LINE
  5
195
100
AcDbEntity
  8
0
  6
CONTINUOUS
 62
               7
100
AcDbLine
 10
94.799999999999997
 20
117.59999999999999
 30
0.0
 11
194.80000000000001
 21
117.59999999999999
 31
0.0
  0
LINE
  5
196
100
AcDbEntity
  8
0
  6
CONTINUOUS
 62
               7
100
AcDbLine
 10
94.799999999999997
 20
132.59999999999999
 30
0.0
 11
94.799999999999997
 21
117.59999999999999
 31
0.0
  0
LINE
  5
197
100
AcDbEntity
  8
0
  6
CONTINUOUS
 62
               7
100
AcDbLine
 10
-194.25
 20
117.59999999999999
 30
0.0
 11
-94.25
 21
117.59999999999999
 31
0.0
  0
LINE
  5
198
100
AcDbEntity
  8
0
  6
CONTINUOUS
 62
               7
100
AcDbLine
 10
-94.25
 20
132.59999999999999
 30
0.0
 11
-94.25
 21
117.59999999999999
 31
0.0
  0
ENDSEC
  0
SECTION
  2
OBJECTS
  0
DICTIONARY
  5
19
100
AcDbDictionary
  3
ACAD_GROUP
350
1A
  3
ACAD_MLINESTYLE
350
1B
  0
DICTIONARY
  5
1A
102
{ACAD_REACTORS
330
19
102
}
100
AcDbDictionary
  0
DICTIONARY
  5
1B
102
{ACAD_REACTORS
330
19
102
}
100
AcDbDictionary
  3
STANDARD
350
1C
  0
MLINESTYLE
  5
1C
102
{ACAD_REACTORS
330
1B
102
}
100
AcDbMlineStyle
  2
Standard
 70
               0
  3

 62
               0
 51
90.0
 52
90.0
 71
               2
 49
0.5
 62
             256
  6
ByLayer
 49
-0.5
 62
             256
  6
ByLayer
  0
ENDSEC
  0
EOF
