  0
SECTION
  2
HEADER
  9
$ACADVER
  1
AC1012
  9
$DWGCODEPAGE
  3
dos932
  9
$INSBASE
 10
0.0
 20
0.0
 30
0.0
  9
$EXTMIN
 10
-194.25
 20
-133.5
 30
0.0
  9
$EXTMAX
 10
194.80000000000001
 20
132.59999999999999
 30
0.0
  9
$LIMMIN
 10
-194.25
 20
-133.5
  9
$LIMMAX
 10
194.80000000000001
 20
132.59999999999999
  9
$ORTHOMODE
 70
               0
  9
$REGENMODE
 70
               1
  9
$FILLMODE
 70
               1
  9
$QTEXTMODE
 70
               0
  9
$MIRRTEXT
 70
               1
  9
$DRAGMODE
 70
               2
  9
$LTSCALE
 40
1.0
  9
$OSMODE
 70
               0
  9
$ATTMODE
 70
               1
  9
$TEXTSIZE
 40
3.2000000476837158
  9
$TRACEWID
 40
0.05
  9
$TEXTSTYLE
  7
MX_NOTE_STANDARD
  9
$CLAYER
  8
0
  9
$CELTYPE
  6
CONTINUOUS
  9
$CECOLOR
 62
             256
  9
$CELTSCALE
 40
1.0
  9
$DELOBJ
 70
               1
  9
$DISPSILH
 70
               0
  9
$DIMSCALE
 40
1.0
  9
$DIMASZ
 40
2.5
  9
$DIMEXO
 40
1.5
  9
$DIMDLI
 40
3.75
  9
$DIMRND
 40
0.0
  9
$DIMDLE
 40
0.0
  9
$DIMEXE
 40
1.5
  9
$DIMTP
 40
0.0
  9
$DIMTM
 40
0.0
  9
$DIMTXT
 40
3.2000000476837158
  9
$DIMCEN
 40
2.5
  9
$DIMTSZ
 40
0.0
  9
$DIMTOL
 70
               0
  9
$DIMLIM
 70
               0
  9
$DIMTIH
 70
               0
  9
$DIMTOH
 70
               0
  9
$DIMSE1
 70
               0
  9
$DIMSE2
 70
               0
  9
$DIMTAD
 70
               1
  9
$DIMZIN
 70
               8
  9
$DIMBLK
  1

  9
$DIMASO
 70
               1
  9
$DIMSHO
 70
               1
  9
$DIMPOST
  1

  9
$DIMAPOST
  1

  9
$DIMALT
 70
               0
  9
$DIMALTD
 70
               4
  9
$DIMALTF
 40
0.0394
  9
$DIMLFAC
 40
1.0
  9
$DIMTOFL
 70
               1
  9
$DIMTVP
 40
0.0
  9
$DIMTIX
 70
               0
  9
$DIMSOXD
 70
               0
  9
$DIMSAH
 70
               0
  9
$DIMBLK1
  1

  9
$DIMBLK2
  1

  9
$DIMSTYLE
  2
MXDIMSTYLE
  9
$DIMCLRD
 70
               0
  9
$DIMCLRE
 70
               0
  9
$DIMCLRT
 70
               0
  9
$DIMTFAC
 40
1.0
  9
$DIMGAP
 40
1.0
  9
$DIMJUST
 70
               0
  9
$DIMSD1
 70
               0
  9
$DIMSD2
 70
               0
  9
$DIMTOLJ
 70
               1
  9
$DIMTZIN
 70
               0
  9
$DIMALTZ
 70
               0
  9
$DIMALTTZ
 70
               0
  9
$DIMFIT
 70
               3
  9
$DIMUPT
 70
               1
  9
$DIMUNIT
 70
               2
  9
$DIMDEC
 70
               4
  9
$DIMTDEC
 70
               4
  9
$DIMALTU
 70
               8
  9
$DIMALTTD
 70
               4
  9
$DIMTXSTY
  7
MX_NOTE_STANDARD
  9
$DIMAUNIT
 70
               0
  9
$LUNITS
 70
               2
  9
$LUPREC
 70
               4
  9
$SKETCHINC
 40
0.1
  9
$FILLETRAD
 40
0.0
  9
$AUNITS
 70
               0
  9
$AUPREC
 70
               0
  9
$MENU
  1
acad
  9
$ELEVATION
 40
0.0
  9
$PELEVATION
 40
0.0
  9
$THICKNESS
 40
0.0
  9
$LIMCHECK
 70
               0
  9
$BLIPMODE
 70
               1
  9
$CHAMFERA
 40
0.0
  9
$CHAMFERB
 40
0.0
  9
$CHAMFERC
 40
0.0
  9
$CHAMFERD
 40
0.0
  9
$SKPOLY
 70
               0
  9
$TDCREATE
 40
2452220.697638889
  9
$TDUPDATE
 40
2452220.697638889
  9
$TDINDWG
 40
0.0000000000
  9
$TDUSRTIMER
 40
0.0000000000
  9
$USRTIMER
 70
               1
  9
$ANGBASE
 50
0.0
  9
$ANGDIR
 70
               0
  9
$PDMODE
 70
               0
  9
$PDSIZE
 40
0.0
  9
$PLINEWID
 40
0.0
  9
$COORDS
 70
               1
  9
$SPLFRAME
 70
               0
  9
$SPLINETYPE
 70
               6
  9
$SPLINESEGS
 70
               8
  9
$ATTDIA
 70
               0
  9
$ATTREQ
 70
               1
  9
$HANDLING
 70
               1
  9
$HANDSEED
  5
27C
  9
$SURFTAB1
 70
               6
  9
$SURFTAB2
 70
               6
  9
$SURFTYPE
 70
               6
  9
$SURFU
 70
               6
  9
$SURFV
 70
               6
  9
$UCSNAME
  2

  9
$UCSORG
 10
0.0
 20
0.0
 30
0.0
  9
$UCSXDIR
 10
1.0
 20
0.0
 30
0.0
  9
$UCSYDIR
 10
0.0
 20
1.0
 30
0.0
  9
$PUCSNAME
  2

  9
$PUCSORG
 10
0.0
 20
0.0
 30
0.0
  9
$PUCSXDIR
 10
1.0
 20
0.0
 30
0.0
  9
$PUCSYDIR
 10
0.0
 20
1.0
 30
0.0
  9
$USERI1
 70
               0
  9
$USERI2
 70
               0
  9
$USERI3
 70
               0
  9
$USERI4
 70
               0
  9
$USERI5
 70
               0
  9
$USERR1
 40
0.0
  9
$USERR2
 40
0.0
  9
$USERR3
 40
0.0
  9
$USERR4
 40
0.0
  9
$USERR5
 40
0.0
  9
$WORLDVIEW
 70
               1
  9
$SHADEDGE
 70
               3
  9
$SHADEDIF
 70
              70
  9
$TILEMODE
 70
               1
  9
$MAXACTVP
 70
              16
  9
$PINSBASE
 10
0.0
 20
0.0
 30
0.0
  9
$PLIMCHECK
 70
               0
  9
$PEXTMIN
 10
1.0000000000000000E+20
 20
1.0000000000000000E+20
 30
1.0000000000000000E+20
  9
$PEXTMAX
 10
-1.0000000000000000E+20
 20
-1.0000000000000000E+20
 30
-1.0000000000000000E+20
  9
$PLIMMIN
 10
0.0
 20
0.0
  9
$PLIMMAX
 10
12.0
 20
9.0
  9
$UNITMODE
 70
               0
  9
$VISRETAIN
 70
               0
  9
$PLINEGEN
 70
               1
  9
$PSLTSCALE
 70
               0
  9
$TREEDEPTH
 70
            3020
  9
$PICKSTYLE
 70
               1
  9
$CMLSTYLE
  2
Standard
  9
$CMLJUST
 70
               0
  9
$CMLSCALE
 40
1.0
  9
$SAVEIMAGES
 70
               0
  0
ENDSEC
  0
SECTION
  2
CLASSES
  0
CLASS
  1
LWPOLYLINE
  2
AcDbPolyline
  3
"AutoCAD"
 90
        0
280
               0
281
               1
  0
CLASS
  1
IMAGE
  2
AcDbRasterImage
  3
ISM
 90
      127
280
               0
281
               1
  0
CLASS
  1
OLE2FRAME
  2
AcDbOle2Frame
  3
""
 90
        0
280
               0
281
               1
  0
CLASS
  1
HATCH
  2
AcDbHatch
  3
"ACAD_SEDONA"
 90
        0
280
               0
281
               1
  0
CLASS
  1
DICTIONARYVAR
  2
AcDbDictionaryVar
  3
"AutoCAD"
 90
        0
280
               0
281
               0
  0
CLASS
  1
RASTERVARIABLES
  2
AcDbRasterVariables
  3
ISM
 90
        0
280
               0
281
               0
  0
CLASS
  1
IMAGEDEF
  2
AcDbRasterImageDef
  3
ISM
 90
        0
280
               0
281
               0
  0
CLASS
  1
IMAGEDEF_REACTOR
  2
AcDbRasterImageDefReactor
  3
ISM
 90
        1
280
               0
281
               0
  0
CLASS
  1
IDBUFFER
  2
AcDbIdBuffer
  3
"Acad"
 90
        0
280
               0
281
               0
  0
CLASS
  1
SPATIAL_FILTER
  2
AcDbSpatialFilter
  3
"Acad"
 90
        0
280
               0
281
               0
  0
CLASS
  1
XRECORD
  2
AcDbXrecord
  3
"<Built In>"
 90
        0
280
               0
281
               0
  0
CLASS
  1
SORTENTSTABLE
  2
AcDbSortentsTable
  3
"AutoCAD"
 90
        0
280
               0
281
               0
  0
CLASS
  1
LAYER_INDEX
  2
AcDbLayerIndex
  3
"Acad"
 90
        0
280
               0
281
               0
  0
CLASS
  1
SPATIAL_INDEX
  2
AcDbSpatialIndex
  3
"Acad"
 90
        0
280
               0
281
               0
  0
CLASS
  1
OBJECT_PTR
  2
CAseDLPNTableRecord
  3
"ASE-LPNTableRecord"
 90
        1
280
               0
281
               0
  0
CLASS
  1
LAYOUT
  2
AcDbLayout
  3
"AutoCAD 2000"
 90
        1
280
               0
281
               0
  0
CLASS
  1
PLOTSETTINGS
  2
AcDbPlotSettings
  3
"AutoCAD 2000"
 90
        1
280
               0
281
               0
  0
CLASS
  1
ACDBDICTIONARYWDFLT
  2
AcDbDictionaryWithDefault
  3
"AutoCAD 2000"
 90
        1
280
               0
281
               0
  0
CLASS
  1
ACDBPLACEHOLDER
  2
AcDbPlaceHolder
  3
"AutoCAD 2000"
 90
        1
280
               0
281
               0
  0
CLASS
  1
VBA_PROJECT
  2
AcDbVbaProject
  3
"acadvba"
 90
        1
280
               0
281
               0
  0
CLASS
  1
WIPEOUT
  2
AcDbWipeout
  3
WipeOut|AutoCAD Express Tool|expresstools@autodesk.com
 90
      127
280
               0
281
               1
  0
CLASS
  1
WIPEOUTVARIABLES
  2
AcDbWipeoutVariables
  3
WipeOut|AutoCAD Express Tool|expresstools@autodesk.com
 90
        0
280
               0
281
               0
  0
CLASS
  1
RTEXT
  2
RText
  3
RText|AutoCAD Express Tool|expresstools@autodesk.com
 90
        0
280
               0
281
               1
  0
CLASS
  1
ARCALIGNEDTEXT
  2
AcDbArcAlignedText
  3
ATEXT|AutoCAD Express Tool|expresstools@autodesk.com
 90
        0
280
               0
281
               1
  0
ENDSEC
  0
SECTION
  2
TABLES
  0
TABLE
  2
VPORT
  5
7
100
AcDbSymbolTable
 70
               1
  0
VPORT
  5
15
100
AcDbSymbolTableRecord
100
AcDbViewportTableRecord
  2
*ACTIVE
 70
               0
 10
0.0
 20
0.0
 11
1.0
 21
1.0
 12
0.2750000000000057
 22
-0.4499999999999886
 13
0.0
 23
0.0
 14
1.0
 24
1.0
 15
0.0
 25
0.0
 16
0.0
 26
0.0
 36
1.0
 17
0.0
 27
0.0
 37
0.0
 40
268.76100000000002
 41
1.7320508075688772
 42
50.0
 43
0.0
 44
0.0
 50
0.0
 51
0.0
 71
               0
 72
             100
 73
               1
 74
               1
 75
               0
 76
               0
 77
               0
 78
               0
  0
ENDTAB
  0
TABLE
  2
LTYPE
  5
4
100
AcDbSymbolTable
 70
               4
  0
LTYPE
  5
11
100
AcDbSymbolTableRecord
100
AcDbLinetypeTableRecord
  2
BYBLOCK
 70
              64
  3

 72
              65
 73
               0
 40
0.0
  0
LTYPE
  5
12
100
AcDbSymbolTableRecord
100
AcDbLinetypeTableRecord
  2
BYLAYER
 70
              64
  3

 72
              65
 73
               0
 40
0.0
  0
LTYPE
  5
13
100
AcDbSymbolTableRecord
100
AcDbLinetypeTableRecord
  2
CONTINUOUS
 70
              64
  3
Solid line
 72
              65
 73
               0
 40
0.0
  0
LTYPE
  5
56
100
AcDbSymbolTableRecord
100
AcDbLinetypeTableRecord
  2
CENTER
 70
              64
  3
Center ____ _ ____ _ ____ _ ____ _ ____ _ ____
 72
              65
 73
               4
 40
50.800000000000004
 49
31.75
 74
               0
 49
-6.3499999999999996
 74
               0
 49
6.3499999999999996
 74
               0
 49
-6.3499999999999996
 74
               0
  0
ENDTAB
  0
TABLE
  2
LAYER
  5
2
100
AcDbSymbolTable
 70
               2
  0
LAYER
  5
14
100
AcDbSymbolTableRecord
100
AcDbLayerTableRecord
  2
0
 70
               0
 62
               7
  6
CONTINUOUS
  0
LAYER
  5
1D
100
AcDbSymbolTableRecord
100
AcDbLayerTableRecord
  2
DEFPOINTS
 70
               0
 62
               7
  6
CONTINUOUS
  0
ENDTAB
  0
TABLE
  2
STYLE
  5
3
100
AcDbSymbolTable
 70
               1
  0
STYLE
  5
17
100
AcDbSymbolTableRecord
100
AcDbTextStyleTableRecord
  2
MX_NOTE_STANDARD
 70
               0
 40
3.2000000476837158
 41
1.0
 50
0.0
 71
               0
 42
3.2000000476837158
  3
txt.shx
  4
extfont.shx
  0
ENDTAB
  0
TABLE
  2
VIEW
  5
5
100
AcDbSymbolTable
 70
               0
  0
ENDTAB
  0
TABLE
  2
UCS
  5
6
100
AcDbSymbolTable
 70
               0
  0
ENDTAB
  0
TABLE
  2
APPID
  5
8
100
AcDbSymbolTable
 70
               1
  0
APPID
  5
16
100
AcDbSymbolTableRecord
100
AcDbRegAppTableRecord
  2
ACAD
 70
               0
  0
ENDTAB
  0
TABLE
  2
DIMSTYLE
  5
9
100
AcDbSymbolTable
 70
               1
  0
DIMSTYLE
105
18
100
AcDbSymbolTableRecord
100
AcDbDimStyleTableRecord
  2
MXDIMSTYLE
 70
               0
  3

  4

  5

  6

  7

 40
1.0
 41
2.5
 42
1.5
 43
3.75
 44
1.5
 45
0.0
 46
0.0
 47
0.0
 48
0.0
 71
               0
 72
               0
 73
               0
 74
               0
 75
               0
 76
               0
 77
               1
 78
               8
140
3.2000000476837158
141
2.5
142
0.0
143
0.0394
144
1.0
145
0.0
146
1.0
147
1.0
170
               0
171
               4
172
               1
173
               0
174
               0
175
               0
176
               0
177
               0
178
               0
270
               2
271
               4
272
               4
273
               8
274
               4
275
               0
280
               0
281
               0
282
               0
283
               1
284
               0
285
               0
286
               0
287
               3
288
               1
340
17
  0
ENDTAB
  0
TABLE
  2
BLOCK_RECORD
  5
1
100
AcDbSymbolTable
 70
              18
  0
BLOCK_RECORD
  5
A
100
AcDbSymbolTableRecord
100
AcDbBlockTableRecord
  2
*MODEL_SPACE
  0
BLOCK_RECORD
  5
B
100
AcDbSymbolTableRecord
100
AcDbBlockTableRecord
  2
*PAPER_SPACE
  0
BLOCK_RECORD
  5
1E
100
AcDbSymbolTableRecord
100
AcDbBlockTableRecord
  2
MS_1
  0
BLOCK_RECORD
  5
1F
100
AcDbSymbolTableRecord
100
AcDbBlockTableRecord
  2
MS_2
  0
BLOCK_RECORD
  5
20
100
AcDbSymbolTableRecord
100
AcDbBlockTableRecord
  2
MS_3
  0
BLOCK_RECORD
  5
21
100
AcDbSymbolTableRecord
100
AcDbBlockTableRecord
  2
MS_4
  0
BLOCK_RECORD
  5
22
100
AcDbSymbolTableRecord
100
AcDbBlockTableRecord
  2
MS_5
  0
BLOCK_RECORD
  5
23
100
AcDbSymbolTableRecord
100
AcDbBlockTableRecord
  2
MS_6
  0
BLOCK_RECORD
  5
24
100
AcDbSymbolTableRecord
100
AcDbBlockTableRecord
  2
MS_7
  0
BLOCK_RECORD
  5
25
100
AcDbSymbolTableRecord
100
AcDbBlockTableRecord
  2
MS_8
  0
BLOCK_RECORD
  5
26
100
AcDbSymbolTableRecord
100
AcDbBlockTableRecord
  2
MS_9
  0
BLOCK_RECORD
  5
27
100
AcDbSymbolTableRecord
100
AcDbBlockTableRecord
  2
MS_10
  0
BLOCK_RECORD
  5
28
100
AcDbSymbolTableRecord
100
AcDbBlockTableRecord
  2
MS_11
  0
BLOCK_RECORD
  5
29
100
AcDbSymbolTableRecord
100
AcDbBlockTableRecord
  2
MS_12
  0
BLOCK_RECORD
  5
2A
100
AcDbSymbolTableRecord
100
AcDbBlockTableRecord
  2
MS_13
  0
BLOCK_RECORD
  5
2B
100
AcDbSymbolTableRecord
100
AcDbBlockTableRecord
  2
MS_14
  0
BLOCK_RECORD
  5
2C
100
AcDbSymbolTableRecord
100
AcDbBlockTableRecord
  2
MS_15
  0
BLOCK_RECORD
  5
2D
100
AcDbSymbolTableRecord
100
AcDbBlockTableRecord
  2
MS_16
  0
BLOCK_RECORD
  5
2E
100
AcDbSymbolTableRecord
100
AcDbBlockTableRecord
  2
MS_17
  0
BLOCK_RECORD
  5
2F
100
AcDbSymbolTableRecord
100
AcDbBlockTableRecord
  2
MS_18
  0
ENDTAB
  0
ENDSEC
  0
SECTION
  2
BLOCKS
  0
BLOCK
  5
D
100
AcDbEntity
  8
0
100
AcDbBlockBegin
  2
*MODEL_SPACE
 70
               0
 10
0.0
 20
0.0
 30
0.0
  3
*MODEL_SPACE
  1

  0
ENDBLK
  5
E
100
AcDbEntity
  8
0
100
AcDbBlockEnd
  0
BLOCK
  5
F
100
AcDbEntity
 67
               1
  8
0
100
AcDbBlockBegin
  2
*PAPER_SPACE
 70
               0
 10
0.0
 20
0.0
 30
0.0
  3
*PAPER_SPACE
  1

  0
ENDBLK
  5
10
100
AcDbEntity
 67
               1
  8
0
100
AcDbBlockEnd
  0
BLOCK
  5
30
100
AcDbEntity
  8
0
100
AcDbBlockBegin
  2
MS_1
 70
               0
 10
0.0
 20
0.0
 30
0.0
  3
MS_1
  1

  0
LINE
  5
31
100
AcDbEntity
  8
0
  6
CONTINUOUS
 62
               7
100
AcDbLine
 10
19.800000000000001
 20
10.550000000000001
 30
0.0
 11
19.800000000000001
 21
0.65
 31
0.0
  0
LINE
  5
32
100
AcDbEntity
  8
0
  6
CONTINUOUS
 62
               7
100
AcDbLine
 10
17.0
 20
10.6
 30
0.0
 11
17.0
 21
0.6
 31
0.0
  0
LINE
  5
33
100
AcDbEntity
  8
0
  6
CONTINUOUS
 62
               7
100
AcDbLine
 10
17.0
 20
2.8999999999999999
 30
0.0
 11
18.199999999999999
 21
2.8999999999999999
 31
0.0
  0
LINE
  5
34
100
AcDbEntity
  8
0
  6
CONTINUOUS
 62
               7
100
AcDbLine
 10
18.199999999999999
 20
10.550000000000001
 30
0.0
 11
19.800000000000001
 21
10.550000000000001
 31
0.0
  0
LINE
  5
35
100
AcDbEntity
  8
0
  6
CONTINUOUS
 62
               7
100
AcDbLine
 10
18.199999999999999
 20
0.65
 30
0.0
 11
19.800000000000001
 21
0.65
 31
0.0
  0
LINE
  5
36
100
AcDbEntity
  8
0
  6
CONTINUOUS
 62
               7
100
AcDbLine
 10
-3.8999999999999999
 20
0.6
 30
0.0
 11
-3.8999999999999999
 21
0.0
 31
0.0
  0
LINE
  5
37
100
AcDbEntity
  8
0
  6
CONTINUOUS
 62
               7
100
AcDbLine
 10
3.8999999999999999
 20
0.6
 30
0.0
 11
3.8999999999999999
 21
0.0
 31
0.0
  0
LINE
  5
38
100
AcDbEntity
  8
0
  6
CONTINUOUS
 62
               7
100
AcDbLine
 10
3.3999999999999999
 20
12.800000000000001
 30
0.0
 11
-3.3999999999999999
 21
12.800000000000001
 31
0.0
  0
LINE
  5
39
100
AcDbEntity
  8
0
  6
CONTINUOUS
 62
               7
100
AcDbLine
 10
-3.1000000000000001
 20
13.33
 30
0.0
 11
3.1000000000000001
 21
13.32
 31
0.0
  0
LINE
  5
3A
100
AcDbEntity
  8
0
  6
CONTINUOUS
 62
               7
100
AcDbLine
 10
3.1000000000000001
 20
13.32
 30
0.0
 11
3.3999999999999999
 21
12.800000000000001
 31
0.0
  0
LINE
  5
3B
100
AcDbEntity
  8
0
  6
CONTINUOUS
 62
               7
100
AcDbLine
 10
-3.3999999999999999
 20
12.81
 30
0.0
 11
-3.1000000000000001
 21
13.33
 31
0.0
  0
LINE
  5
3C
100
AcDbEntity
  8
0
  6
CONTINUOUS
 62
               7
100
AcDbLine
 10
-3.1000000000000001
 20
14.6
 30
0.0
 11
-3.1000000000000001
 21
13.33
 31
0.0
  0
LINE
  5
3D
100
AcDbEntity
  8
0
  6
CONTINUOUS
 62
               7
100
AcDbLine
 10
3.1000000000000001
 20
14.6
 30
0.0
 11
3.1000000000000001
 21
13.32
 31
0.0
  0
LINE
  5
3E
100
AcDbEntity
  8
0
  6
CONTINUOUS
 62
               7
100
AcDbLine
 10
3.3999999999999999
 20
12.800000000000001
 30
0.0
 11
3.3999999999999999
 21
10.6
 31
0.0
  0
LINE
  5
3F
100
AcDbEntity
  8
0
  6
CONTINUOUS
 62
               7
100
AcDbLine
 10
-3.3999999999999999
 20
12.800000000000001
 30
0.0
 11
-3.3999999999999999
 21
10.6
 31
0.0
  0
LINE
  5
40
100
AcDbEntity
  8
0
  6
CONTINUOUS
 62
               7
100
AcDbLine
 10
-3.1000000000000001
 20
14.6
 30
0.0
 11
3.1000000000000001
 21
14.6
 31
0.0
  0
LINE
  5
41
100
AcDbEntity
  8
0
  6
CONTINUOUS
 62
               7
100
AcDbLine
 10
-3.8999999999999999
 20
0.0
 30
0.0
 11
3.8999999999999999
 21
0.0
 31
0.0
  0
LINE
  5
42
100
AcDbEntity
  8
0
  6
CONTINUOUS
 62
               7
100
AcDbLine
 10
-2.5
 20
-2.8999999999999999
 30
0.0
 11
2.5
 21
-2.8999999999999999
 31
0.0
  0
LINE
  5
43
100
AcDbEntity
  8
0
  6
CONTINUOUS
 62
               7
100
AcDbLine
 10
-2.5
 20
0.0
 30
0.0
 11
-2.5
 21
-2.8999999999999999
 31
0.0
  0
LINE
  5
44
100
AcDbEntity
  8
0
  6
CONTINUOUS
 62
               2
100
AcDbLine
 10
-2.1000000000000001
 20
0.0
 30
0.0
 11
-2.1000000000000001
 21
-2.8999999999999999
 31
0.0
  0
LINE
  5
45
100
AcDbEntity
  8
0
  6
CONTINUOUS
 62
               2
100
AcDbLine
 10
2.1000000000000001
 20
0.0
 30
0.0
 11
2.1000000000000001
 21
-2.8999999999999999
 31
0.0
  0
LINE
  5
46
100
AcDbEntity
  8
0
  6
CONTINUOUS
 62
               7
100
AcDbLine
 10
2.5
 20
0.0
 30
0.0
 11
2.5
 21
-2.8999999999999999
 31
0.0
  0
LINE
  5
47
100
AcDbEntity
  8
0
  6
CONTINUOUS
 62
               7
100
AcDbLine
 10
7.0
 20
0.6
 30
0.0
 11
17.0
 21
0.6
 31
0.0
  0
LINE
  5
48
100
AcDbEntity
  8
0
  6
CONTINUOUS
 62
               7
100
AcDbLine
 10
6.0
 20
4.5999999999999996
 30
0.0
 11
6.0
 21
1.6000000000000001
 31
0.0
  0
LINE
  5
49
100
AcDbEntity
  8
0
  6
CONTINUOUS
 62
               7
100
AcDbLine
 10
7.0
 20
10.6
 30
0.0
 11
17.0
 21
10.6
 31
0.0
  0
LINE
  5
4A
100
AcDbEntity
  8
0
  6
CONTINUOUS
 62
               7
100
AcDbLine
 10
5.0
 20
6.5999999999999996
 30
0.0
 11
7.0
 21
6.5999999999999996
 31
0.0
  0
LINE
  5
4B
100
AcDbEntity
  8
0
  6
CONTINUOUS
 62
               7
100
AcDbLine
 10
5.0
 20
4.5999999999999996
 30
0.0
 11
7.0
 21
4.5999999999999996
 31
0.0
  0
LINE
  5
4C
100
AcDbEntity
  8
0
  6
CONTINUOUS
 62
               7
100
AcDbLine
 10
6.0
 20
9.5999999999999996
 30
0.0
 11
7.0
 21
10.6
 31
0.0
  0
LINE
  5
4D
100
AcDbEntity
  8
0
  6
CONTINUOUS
 62
               7
100
AcDbLine
 10
6.0
 20
1.6000000000000001
 30
0.0
 11
7.0
 21
0.6
 31
0.0
  0
LINE
  5
4E
100
AcDbEntity
  8
0
  6
CONTINUOUS
 62
               7
100
AcDbLine
 10
5.0
 20
1.6000000000000001
 30
0.0
 11
6.0
 21
1.6000000000000001
 31
0.0
  0
LINE
  5
4F
100
AcDbEntity
  8
0
  6
CONTINUOUS
 62
               7
100
AcDbLine
 10
5.0
 20
9.5999999999999996
 30
0.0
 11
6.0
 21
9.5999999999999996
 31
0.0
  0
LINE
  5
50
100
AcDbEntity
  8
0
  6
CONTINUOUS
 62
               7
100
AcDbLine
 10
6.0
 20
9.5999999999999996
 30
0.0
 11
6.0
 21
6.5999999999999996
 31
0.0
  0
LINE
  5
51
100
AcDbEntity
  8
0
  6
CONTINUOUS
 62
               7
100
AcDbLine
 10
7.0
 20
10.6
 30
0.0
 11
7.0
 21
0.6
 31
0.0
  0
LINE
  5
52
100
AcDbEntity
  8
0
  6
CONTINUOUS
 62
               7
100
AcDbLine
 10
-5.0
 20
0.6
 30
0.0
 11
5.0
 21
0.6
 31
0.0
  0
LINE
  5
53
100
AcDbEntity
  8
0
  6
CONTINUOUS
 62
               7
100
AcDbLine
 10
-5.0
 20
10.6
 30
0.0
 11
5.0
 21
10.6
 31
0.0
  0
LINE
  5
54
100
AcDbEntity
  8
0
  6
CONTINUOUS
 62
               7
100
AcDbLine
 10
5.0
 20
10.6
 30
0.0
 11
5.0
 21
0.6
 31
0.0
  0
LINE
  5
55
100
AcDbEntity
  8
0
  6
CONTINUOUS
 62
               7
100
AcDbLine
 10
-5.0
 20
10.6
 30
0.0
 11
-5.0
 21
0.6
 31
0.0
  0
LINE
  5
57
100
AcDbEntity
  8
0
  6
CENTER
 62
               2
100
AcDbLine
 10
0.0
 20
18.309999999999999
 30
0.0
 11
0.0
 21
-11.31
 31
0.0
  0
LINE
  5
58
100
AcDbEntity
  8
0
  6
CENTER
 62
               2
100
AcDbLine
 10
-13.34
 20
5.5999999999999996
 30
0.0
 11
27.77
 21
5.5999999999999996
 31
0.0
  0
LINE
  5
59
100
AcDbEntity
  8
0
  6
CONTINUOUS
 62
               7
100
AcDbLine
 10
18.199999999999999
 20
10.550000000000001
 30
0.0
 11
18.199999999999999
 21
0.65
 31
0.0
  0
LINE
  5
5A
100
AcDbEntity
  8
0
  6
CONTINUOUS
 62
               7
100
AcDbLine
 10
17.0
 20
8.3000000000000007
 30
0.0
 11
18.199999999999999
 21
8.3000000000000007
 31
0.0
  0
ENDBLK
  5
5B
100
AcDbEntity
  8
0
100
AcDbBlockEnd
  0
BLOCK
  5
5C
100
AcDbEntity
  8
0
100
AcDbBlockBegin
  2
MS_2
 70
               0
 10
0.0
 20
0.0
 30
0.0
  3
MS_2
  1

  0
CIRCLE
  5
5D
100
AcDbEntity
  8
0
  6
CONTINUOUS
 62
               7
100
AcDbCircle
 10
0.0
 20
5.5999984741210937
 30
0.0
 40
4.9499998092651367
  0
CIRCLE
  5
5E
100
AcDbEntity
  8
0
  6
CONTINUOUS
 62
               7
100
AcDbCircle
 10
0.0
 20
5.5999984741210937
 30
0.0
 40
2.0999994277954102
  0
LINE
  5
5F
100
AcDbEntity
  8
0
  6
CONTINUOUS
 62
               7
100
AcDbLine
 10
-5.0
 20
10.6
 30
0.0
 11
5.0
 21
10.6
 31
0.0
  0
LINE
  5
60
100
AcDbEntity
  8
0
  6
CONTINUOUS
 62
               7
100
AcDbLine
 10
-5.0
 20
0.6
 30
0.0
 11
5.0
 21
0.6
 31
0.0
  0
LINE
  5
61
100
AcDbEntity
  8
0
  6
CONTINUOUS
 62
               7
100
AcDbLine
 10
5.0
 20
10.6
 30
0.0
 11
5.0
 21
0.6
 31
0.0
  0
LINE
  5
62
100
AcDbEntity
  8
0
  6
CONTINUOUS
 62
               7
100
AcDbLine
 10
-5.0
 20
10.6
 30
0.0
 11
-5.0
 21
0.6
 31
0.0
  0
LINE
  5
63
100
AcDbEntity
  8
0
  6
CONTINUOUS
 62
               2
100
AcDbLine
 10
2.1000000000000001
 20
0.0
 30
0.0
 11
2.1000000000000001
 21
-2.8999999999999999
 31
0.0
  0
LINE
  5
64
100
AcDbEntity
  8
0
  6
CONTINUOUS
 62
               2
100
AcDbLine
 10
-2.1000000000000001
 20
0.0
 30
0.0
 11
-2.1000000000000001
 21
-2.8999999999999999
 31
0.0
  0
LINE
  5
65
100
AcDbEntity
  8
0
  6
CONTINUOUS
 62
               7
100
AcDbLine
 10
2.5
 20
0.0
 30
0.0
 11
2.5
 21
-2.8999999999999999
 31
0.0
  0
LINE
  5
66
100
AcDbEntity
  8
0
  6
CONTINUOUS
 62
               7
100
AcDbLine
 10
-2.5
 20
0.0
 30
0.0
 11
-2.5
 21
-2.8999999999999999
 31
0.0
  0
LINE
  5
67
100
AcDbEntity
  8
0
  6
CONTINUOUS
 62
               7
100
AcDbLine
 10
-3.8999999999999999
 20
0.0
 30
0.0
 11
3.8999999999999999
 21
0.0
 31
0.0
  0
LINE
  5
68
100
AcDbEntity
  8
0
  6
CONTINUOUS
 62
               7
100
AcDbLine
 10
-2.5
 20
-2.8999999999999999
 30
0.0
 11
2.5
 21
-2.8999999999999999
 31
0.0
  0
LINE
  5
69
100
AcDbEntity
  8
0
  6
CONTINUOUS
 62
               7
100
AcDbLine
 10
-3.8999999999999999
 20
0.6
 30
0.0
 11
-3.8999999999999999
 21
0.0
 31
0.0
  0
LINE
  5
6A
100
AcDbEntity
  8
0
  6
CONTINUOUS
 62
               7
100
AcDbLine
 10
3.8999999999999999
 20
0.6
 30
0.0
 11
3.8999999999999999
 21
0.0
 31
0.0
  0
LINE
  5
6B
100
AcDbEntity
  8
0
  6
CONTINUOUS
 62
               7
100
AcDbLine
 10
-3.8999999999999999
 20
0.6
 30
0.0
 11
3.8999999999999999
 21
0.6
 31
0.0
  0
LINE
  5
6C
100
AcDbEntity
  8
0
  6
CONTINUOUS
 62
               7
100
AcDbLine
 10
3.3999999999999999
 20
12.800000000000001
 30
0.0
 11
-3.3999999999999999
 21
12.800000000000001
 31
0.0
  0
LINE
  5
6D
100
AcDbEntity
  8
0
  6
CONTINUOUS
 62
               7
100
AcDbLine
 10
-3.1000000000000001
 20
13.33
 30
0.0
 11
3.1000000000000001
 21
13.32
 31
0.0
  0
LINE
  5
6E
100
AcDbEntity
  8
0
  6
CONTINUOUS
 62
               7
100
AcDbLine
 10
3.1000000000000001
 20
13.32
 30
0.0
 11
3.3999999999999999
 21
12.800000000000001
 31
0.0
  0
LINE
  5
6F
100
AcDbEntity
  8
0
  6
CONTINUOUS
 62
               7
100
AcDbLine
 10
-3.3999999999999999
 20
12.81
 30
0.0
 11
-3.1000000000000001
 21
13.33
 31
0.0
  0
LINE
  5
70
100
AcDbEntity
  8
0
  6
CONTINUOUS
 62
               7
100
AcDbLine
 10
-3.1000000000000001
 20
14.6
 30
0.0
 11
-3.1000000000000001
 21
13.33
 31
0.0
  0
LINE
  5
71
100
AcDbEntity
  8
0
  6
CONTINUOUS
 62
               7
100
AcDbLine
 10
3.1000000000000001
 20
14.6
 30
0.0
 11
3.1000000000000001
 21
13.32
 31
0.0
  0
LINE
  5
72
100
AcDbEntity
  8
0
  6
CONTINUOUS
 62
               7
100
AcDbLine
 10
3.3999999999999999
 20
12.800000000000001
 30
0.0
 11
3.3999999999999999
 21
10.6
 31
0.0
  0
LINE
  5
73
100
AcDbEntity
  8
0
  6
CONTINUOUS
 62
               7
100
AcDbLine
 10
-3.3999999999999999
 20
12.800000000000001
 30
0.0
 11
-3.3999999999999999
 21
10.6
 31
0.0
  0
LINE
  5
74
100
AcDbEntity
  8
0
  6
CONTINUOUS
 62
               7
100
AcDbLine
 10
-3.1000000000000001
 20
14.6
 30
0.0
 11
3.1000000000000001
 21
14.6
 31
0.0
  0
LINE
  5
75
100
AcDbEntity
  8
0
  6
CENTER
 62
               2
100
AcDbLine
 10
-14.81
 20
5.5999999999999996
 30
0.0
 11
16.579999999999998
 21
5.5999999999999996
 31
0.0
  0
LINE
  5
76
100
AcDbEntity
  8
0
  6
CENTER
 62
               2
100
AcDbLine
 10
0.0
 20
23.43
 30
0.0
 11
0.0
 21
-10.16
 31
0.0
  0
ENDBLK
  5
77
100
AcDbEntity
  8
0
100
AcDbBlockEnd
  0
BLOCK
  5
78
100
AcDbEntity
  8
0
100
AcDbBlockBegin
  2
MS_3
 70
               0
 10
0.0
 20
0.0
 30
0.0
  3
MS_3
  1

  0
CIRCLE
  5
79
100
AcDbEntity
  8
0
  6
CONTINUOUS
 62
               7
100
AcDbCircle
 10
0.0
 20
0.0
 30
0.0
 40
3.0999994277954102
  0
CIRCLE
  5
7A
100
AcDbEntity
  8
0
  6
CONTINUOUS
 62
               7
100
AcDbCircle
 10
0.0
 20
0.0
 30
0.0
 40
5.0
  0
CIRCLE
  5
7B
100
AcDbEntity
  8
0
  6
CONTINUOUS
 62
               7
100
AcDbCircle
 10
0.0
 20
0.0
 30
0.0
 40
3.3999996185302734
  0
LINE
  5
7C
100
AcDbEntity
  8
0
  6
CONTINUOUS
 62
               7
100
AcDbLine
 10
6.0
 20
4.0
 30
0.0
 11
7.0
 21
5.0
 31
0.0
  0
LINE
  5
7D
100
AcDbEntity
  8
0
  6
CONTINUOUS
 62
               7
100
AcDbLine
 10
6.0
 20
-4.0
 30
0.0
 11
7.0
 21
-5.0
 31
0.0
  0
LINE
  5
7E
100
AcDbEntity
  8
0
  6
CONTINUOUS
 62
               7
100
AcDbLine
 10
3.0
 20
-4.0
 30
0.0
 11
6.0
 21
-4.0
 31
0.0
  0
LINE
  5
7F
100
AcDbEntity
  8
0
  6
CONTINUOUS
 62
               7
100
AcDbLine
 10
3.0
 20
4.0
 30
0.0
 11
6.0
 21
4.0
 31
0.0
  0
LINE
  5
80
100
AcDbEntity
  8
0
  6
CONTINUOUS
 62
               7
100
AcDbLine
 10
6.0
 20
4.0
 30
0.0
 11
6.0
 21
-4.0
 31
0.0
  0
LINE
  5
81
100
AcDbEntity
  8
0
  6
CONTINUOUS
 62
               7
100
AcDbLine
 10
7.0
 20
5.0
 30
0.0
 11
7.0
 21
-5.0
 31
0.0
  0
LINE
  5
82
100
AcDbEntity
  8
0
  6
CONTINUOUS
 62
               7
100
AcDbLine
 10
0.0
 20
-5.0
 30
0.0
 11
17.0
 21
-5.0
 31
0.0
  0
LINE
  5
83
100
AcDbEntity
  8
0
  6
CONTINUOUS
 62
               7
100
AcDbLine
 10
0.0
 20
5.0
 30
0.0
 11
17.0
 21
5.0
 31
0.0
  0
LINE
  5
84
100
AcDbEntity
  8
0
  6
CONTINUOUS
 62
               7
100
AcDbLine
 10
1.1499999999999999
 20
2.0
 30
0.0
 11
2.2999999999999998
 21
0.0
 31
0.0
  0
LINE
  5
85
100
AcDbEntity
  8
0
  6
CONTINUOUS
 62
               7
100
AcDbLine
 10
-2.2999999999999998
 20
0.0
 30
0.0
 11
-1.1499999999999999
 21
-2.0
 31
0.0
  0
LINE
  5
86
100
AcDbEntity
  8
0
  6
CONTINUOUS
 62
               7
100
AcDbLine
 10
1.1499999999999999
 20
-2.0
 30
0.0
 11
2.2999999999999998
 21
0.0
 31
0.0
  0
LINE
  5
87
100
AcDbEntity
  8
0
  6
CONTINUOUS
 62
               7
100
AcDbLine
 10
-2.2999999999999998
 20
0.0
 30
0.0
 11
-1.1499999999999999
 21
2.0
 31
0.0
  0
LINE
  5
88
100
AcDbEntity
  8
0
  6
CONTINUOUS
 62
               7
100
AcDbLine
 10
-1.1499999999999999
 20
2.0
 30
0.0
 11
1.1499999999999999
 21
2.0
 31
0.0
  0
LINE
  5
89
100
AcDbEntity
  8
0
  6
CONTINUOUS
 62
               7
100
AcDbLine
 10
-1.1499999999999999
 20
-2.0
 30
0.0
 11
1.1499999999999999
 21
-2.0
 31
0.0
  0
LINE
  5
8A
100
AcDbEntity
  8
0
  6
CONTINUOUS
 62
               7
100
AcDbLine
 10
18.199999999999999
 20
-4.9500000000000002
 30
0.0
 11
19.800000000000001
 21
-4.9500000000000002
 31
0.0
  0
LINE
  5
8B
100
AcDbEntity
  8
0
  6
CONTINUOUS
 62
               7
100
AcDbLine
 10
18.199999999999999
 20
4.9500000000000002
 30
0.0
 11
19.800000000000001
 21
4.9500000000000002
 31
0.0
  0
LINE
  5
8C
100
AcDbEntity
  8
0
  6
CONTINUOUS
 62
               7
100
AcDbLine
 10
17.0
 20
-2.7000000000000002
 30
0.0
 11
18.199999999999999
 21
-2.7000000000000002
 31
0.0
  0
LINE
  5
8D
100
AcDbEntity
  8
0
  6
CONTINUOUS
 62
               7
100
AcDbLine
 10
17.0
 20
2.7000000000000002
 30
0.0
 11
18.199999999999999
 21
2.7000000000000002
 31
0.0
  0
LINE
  5
8E
100
AcDbEntity
  8
0
  6
CONTINUOUS
 62
               7
100
AcDbLine
 10
18.199999999999999
 20
4.9500000000000002
 30
0.0
 11
18.199999999999999
 21
-4.9500000000000002
 31
0.0
  0
LINE
  5
8F
100
AcDbEntity
  8
0
  6
CONTINUOUS
 62
               7
100
AcDbLine
 10
19.800000000000001
 20
4.9500000000000002
 30
0.0
 11
19.800000000000001
 21
-4.9500000000000002
 31
0.0
  0
LINE
  5
90
100
AcDbEntity
  8
0
  6
CONTINUOUS
 62
               7
100
AcDbLine
 10
17.0
 20
5.0
 30
0.0
 11
17.0
 21
-5.0
 31
0.0
  0
LINE
  5
91
100
AcDbEntity
  8
0
  6
CENTER
 62
               2
100
AcDbLine
 10
-18.199999999999999
 20
0.0
 30
0.0
 11
32.630000000000003
 21
0.0
 31
0.0
  0
LINE
  5
92
100
AcDbEntity
  8
0
  6
CENTER
 62
               2
100
AcDbLine
 10
0.0
 20
17.5
 30
0.0
 11
0.0
 21
-15.0
 31
0.0
  0
ENDBLK
  5
93
100
AcDbEntity
  8
0
100
AcDbBlockEnd
  0
BLOCK
  5
94
100
AcDbEntity
  8
0
100
AcDbBlockBegin
  2
MS_4
 70
               0
 10
0.0
 20
0.0
 30
0.0
  3
MS_4
  1

  0
LINE
  5
95
100
AcDbEntity
  8
0
  6
CONTINUOUS
 62
               7
100
AcDbLine
 10
23.699999999999999
 20
16.43
 30
0.0
 11
23.699999999999999
 21
4.6299999999999999
 31
0.0
  0
LINE
  5
96
100
AcDbEntity
  8
0
  6
CONTINUOUS
 62
               7
100
AcDbLine
 10
20.699999999999999
 20
17.030000000000001
 30
0.0
 11
20.699999999999999
 21
4.0300000000000002
 31
0.0
  0
LINE
  5
97
100
AcDbEntity
  8
0
  6
CONTINUOUS
 62
               7
100
AcDbLine
 10
20.699999999999999
 20
6.4800000000000004
 30
0.0
 11
21.899999999999999
 21
6.4800000000000004
 31
0.0
  0
LINE
  5
98
100
AcDbEntity
  8
0
  6
CONTINUOUS
 62
               7
100
AcDbLine
 10
21.899999999999999
 20
4.6299999999999999
 30
0.0
 11
23.699999999999999
 21
4.6299999999999999
 31
0.0
  0
LINE
  5
99
100
AcDbEntity
  8
0
  6
CONTINUOUS
 62
               7
100
AcDbLine
 10
21.899999999999999
 20
16.43
 30
0.0
 11
23.699999999999999
 21
16.43
 31
0.0
  0
LINE
  5
9A
100
AcDbEntity
  8
0
  6
CONTINUOUS
 62
               7
100
AcDbLine
 10
5.0
 20
4.0300000000000002
 30
0.0
 11
4.75
 21
-3.9700000000000002
 31
0.0
  0
LINE
  5
9B
100
AcDbEntity
  8
0
  6
CONTINUOUS
 62
               7
100
AcDbLine
 10
-4.75
 20
-3.9700000000000002
 30
0.0
 11
4.75
 21
-3.9700000000000002
 31
0.0
  0
LINE
  5
9C
100
AcDbEntity
  8
0
  6
CONTINUOUS
 62
               7
100
AcDbLine
 10
-4.5999999999999996
 20
20.030000000000001
 30
0.0
 11
4.5999999999999996
 21
20.030000000000001
 31
0.0
  0
LINE
  5
9D
100
AcDbEntity
  8
0
  6
CONTINUOUS
 62
               7
100
AcDbLine
 10
4.5999999999999996
 20
20.030000000000001
 30
0.0
 11
5.0
 21
18.530000000000001
 31
0.0
  0
LINE
  5
9E
100
AcDbEntity
  8
0
  6
CONTINUOUS
 62
               7
100
AcDbLine
 10
-5.0
 20
18.530000000000001
 30
0.0
 11
-4.5999999999999996
 21
20.030000000000001
 31
0.0
  0
LINE
  5
9F
100
AcDbEntity
  8
0
  6
CONTINUOUS
 62
               7
100
AcDbLine
 10
-5.0
 20
4.0300000000000002
 30
0.0
 11
-4.75
 21
-3.9700000000000002
 31
0.0
  0
LINE
  5
A0
100
AcDbEntity
  8
0
  6
CONTINUOUS
 62
               7
100
AcDbLine
 10
-5.0
 20
18.530000000000001
 30
0.0
 11
5.0
 21
18.530000000000001
 31
0.0
  0
LINE
  5
A1
100
AcDbEntity
  8
0
  6
CONTINUOUS
 62
               7
100
AcDbLine
 10
-5.0
 20
18.530000000000001
 30
0.0
 11
-5.0
 21
17.030000000000001
 31
0.0
  0
LINE
  5
A2
100
AcDbEntity
  8
0
  6
CONTINUOUS
 62
               7
100
AcDbLine
 10
5.0
 20
18.530000000000001
 30
0.0
 11
5.0
 21
17.030000000000001
 31
0.0
  0
LINE
  5
A3
100
AcDbEntity
  8
0
  6
CONTINUOUS
 62
               2
100
AcDbLine
 10
4.4000000000000004
 20
4.04
 30
0.0
 11
4.1500000000000004
 21
-3.9500000000000002
 31
0.0
  0
LINE
  5
A4
100
AcDbEntity
  8
0
  6
CENTER
 62
               2
100
AcDbLine
 10
-8.1799999999999997
 20
0.0
 30
0.0
 11
7.8099999999999996
 21
0.0
 31
0.0
  0
LINE
  5
A5
100
AcDbEntity
  8
0
  6
CONTINUOUS
 62
               2
100
AcDbLine
 10
-4.4000000000000004
 20
4.04
 30
0.0
 11
-4.1500000000000004
 21
-3.9500000000000002
 31
0.0
  0
LINE
  5
A6
100
AcDbEntity
  8
0
  6
CONTINUOUS
 62
               7
100
AcDbLine
 10
8.0
 20
9.2799999999999994
 30
0.0
 11
8.0
 21
5.5300000000000002
 31
0.0
  0
LINE
  5
A7
100
AcDbEntity
  8
0
  6
CONTINUOUS
 62
               7
100
AcDbLine
 10
7.1500000000000004
 20
11.779999999999999
 30
0.0
 11
9.4000000000000004
 21
11.779999999999999
 31
0.0
  0
LINE
  5
A8
100
AcDbEntity
  8
0
  6
CONTINUOUS
 62
               7
100
AcDbLine
 10
7.1500000000000004
 20
9.2799999999999994
 30
0.0
 11
9.4000000000000004
 21
9.2799999999999994
 31
0.0
  0
LINE
  5
A9
100
AcDbEntity
  8
0
  6
CONTINUOUS
 62
               7
100
AcDbLine
 10
9.4000000000000004
 20
4.0300000000000002
 30
0.0
 11
20.699999999999999
 21
4.0300000000000002
 31
0.0
  0
LINE
  5
AA
100
AcDbEntity
  8
0
  6
CONTINUOUS
 62
               7
100
AcDbLine
 10
9.4000000000000004
 20
17.030000000000001
 30
0.0
 11
20.699999999999999
 21
17.030000000000001
 31
0.0
  0
LINE
  5
AB
100
AcDbEntity
  8
0
  6
CONTINUOUS
 62
               7
100
AcDbLine
 10
8.0
 20
15.529999999999999
 30
0.0
 11
9.4000000000000004
 21
17.030000000000001
 31
0.0
  0
LINE
  5
AC
100
AcDbEntity
  8
0
  6
CONTINUOUS
 62
               7
100
AcDbLine
 10
8.0
 20
5.5300000000000002
 30
0.0
 11
9.4000000000000004
 21
4.0300000000000002
 31
0.0
  0
LINE
  5
AD
100
AcDbEntity
  8
0
  6
CONTINUOUS
 62
               7
100
AcDbLine
 10
7.1500000000000004
 20
5.5300000000000002
 30
0.0
 11
8.0
 21
5.5300000000000002
 31
0.0
  0
LINE
  5
AE
100
AcDbEntity
  8
0
  6
CONTINUOUS
 62
               7
100
AcDbLine
 10
7.1500000000000004
 20
15.529999999999999
 30
0.0
 11
8.0
 21
15.529999999999999
 31
0.0
  0
LINE
  5
AF
100
AcDbEntity
  8
0
  6
CONTINUOUS
 62
               7
100
AcDbLine
 10
8.0
 20
15.529999999999999
 30
0.0
 11
8.0
 21
11.779999999999999
 31
0.0
  0
LINE
  5
B0
100
AcDbEntity
  8
0
  6
CONTINUOUS
 62
               7
100
AcDbLine
 10
9.4000000000000004
 20
17.030000000000001
 30
0.0
 11
9.4000000000000004
 21
4.0300000000000002
 31
0.0
  0
LINE
  5
B1
100
AcDbEntity
  8
0
  6
CONTINUOUS
 62
               7
100
AcDbLine
 10
-7.1500000000000004
 20
17.030000000000001
 30
0.0
 11
-7.1500000000000004
 21
4.0300000000000002
 31
0.0
  0
LINE
  5
B2
100
AcDbEntity
  8
0
  6
CONTINUOUS
 62
               7
100
AcDbLine
 10
7.1500000000000004
 20
17.030000000000001
 30
0.0
 11
7.1500000000000004
 21
4.0300000000000002
 31
0.0
  0
LINE
  5
B3
100
AcDbEntity
  8
0
  6
CONTINUOUS
 62
               7
100
AcDbLine
 10
-7.1500000000000004
 20
17.030000000000001
 30
0.0
 11
7.1500000000000004
 21
17.030000000000001
 31
0.0
  0
LINE
  5
B4
100
AcDbEntity
  8
0
  6
CONTINUOUS
 62
               7
100
AcDbLine
 10
-7.1500000000000004
 20
4.0300000000000002
 30
0.0
 11
7.1500000000000004
 21
4.0300000000000002
 31
0.0
  0
LINE
  5
B5
100
AcDbEntity
  8
0
  6
CENTER
 62
               2
100
AcDbLine
 10
0.0
 20
26.41
 30
0.0
 11
0.0
 21
-10.720000000000001
 31
0.0
  0
LINE
  5
B6
100
AcDbEntity
  8
0
  6
CENTER
 62
               2
100
AcDbLine
 10
-15.890000000000001
 20
10.529999999999999
 30
0.0
 11
30.969999999999999
 21
10.529999999999999
 31
0.0
  0
LINE
  5
B7
100
AcDbEntity
  8
0
  6
CONTINUOUS
 62
               7
100
AcDbLine
 10
21.899999999999999
 20
16.43
 30
0.0
 11
21.899999999999999
 21
4.6299999999999999
 31
0.0
  0
LINE
  5
B8
100
AcDbEntity
  8
0
  6
CONTINUOUS
 62
               7
100
AcDbLine
 10
20.699999999999999
 20
14.58
 30
0.0
 11
21.899999999999999
 21
14.58
 31
0.0
  0
ENDBLK
  5
B9
100
AcDbEntity
  8
0
100
AcDbBlockEnd
  0
BLOCK
  5
BA
100
AcDbEntity
  8
0
100
AcDbBlockBegin
  2
MS_5
 70
               0
 10
0.0
 20
0.0
 30
0.0
  3
MS_5
  1

  0
CIRCLE
  5
BB
100
AcDbEntity
  8
0
  6
CONTINUOUS
 62
               7
100
AcDbCircle
 10
0.0
 20
10.529998779296875
 30
0.0
 40
3.0999994277954102
  0
CIRCLE
  5
BC
100
AcDbEntity
  8
0
  6
CONTINUOUS
 62
               7
100
AcDbCircle
 10
0.0
 20
10.529998779296875
 30
0.0
 40
7.1499996185302734
  0
CIRCLE
  5
BD
100
AcDbEntity
  8
0
  6
CONTINUOUS
 62
               7
100
AcDbCircle
 10
0.0
 20
10.529998779296875
 30
0.0
 40
5.8999996185302734
  0
LINE
  5
BE
100
AcDbEntity
  8
0
  6
CONTINUOUS
 62
               7
100
AcDbLine
 10
2.9700000000000002
 20
4.0300000000000002
 30
0.0
 11
7.1500000000000004
 21
4.0300000000000002
 31
0.0
  0
LINE
  5
BF
100
AcDbEntity
  8
0
  6
CONTINUOUS
 62
               7
100
AcDbLine
 10
2.9700000000000002
 20
17.030000000000001
 30
0.0
 11
7.1500000000000004
 21
17.030000000000001
 31
0.0
  0
LINE
  5
C0
100
AcDbEntity
  8
0
  6
CONTINUOUS
 62
               7
100
AcDbLine
 10
-7.1500000000000004
 20
17.030000000000001
 30
0.0
 11
-2.9700000000000002
 21
17.030000000000001
 31
0.0
  0
LINE
  5
C1
100
AcDbEntity
  8
0
  6
CONTINUOUS
 62
               7
100
AcDbLine
 10
-7.1500000000000004
 20
4.0300000000000002
 30
0.0
 11
-2.9700000000000002
 21
4.0300000000000002
 31
0.0
  0
LINE
  5
C2
100
AcDbEntity
  8
0
  6
CONTINUOUS
 62
               7
100
AcDbLine
 10
-7.1500000000000004
 20
17.030000000000001
 30
0.0
 11
-7.1500000000000004
 21
4.0300000000000002
 31
0.0
  0
LINE
  5
C3
100
AcDbEntity
  8
0
  6
CONTINUOUS
 62
               7
100
AcDbLine
 10
7.1500000000000004
 20
17.030000000000001
 30
0.0
 11
7.1500000000000004
 21
4.0300000000000002
 31
0.0
  0
LINE
  5
C4
100
AcDbEntity
  8
0
  6
CENTER
 62
               2
100
AcDbLine
 10
-8.1799999999999997
 20
0.0
 30
0.0
 11
7.8099999999999996
 21
0.0
 31
0.0
  0
LINE
  5
C5
100
AcDbEntity
  8
0
  6
CONTINUOUS
 62
               2
100
AcDbLine
 10
4.4000000000000004
 20
4.04
 30
0.0
 11
4.1500000000000004
 21
-3.9500000000000002
 31
0.0
  0
LINE
  5
C6
100
AcDbEntity
  8
0
  6
CONTINUOUS
 62
               2
100
AcDbLine
 10
-4.4000000000000004
 20
4.04
 30
0.0
 11
-4.1500000000000004
 21
-3.9500000000000002
 31
0.0
  0
LINE
  5
C7
100
AcDbEntity
  8
0
  6
CONTINUOUS
 62
               7
100
AcDbLine
 10
5.0
 20
4.0300000000000002
 30
0.0
 11
4.75
 21
-3.9700000000000002
 31
0.0
  0
LINE
  5
C8
100
AcDbEntity
  8
0
  6
CONTINUOUS
 62
               7
100
AcDbLine
 10
-5.0
 20
4.0300000000000002
 30
0.0
 11
-4.75
 21
-3.9700000000000002
 31
0.0
  0
LINE
  5
C9
100
AcDbEntity
  8
0
  6
CONTINUOUS
 62
               7
100
AcDbLine
 10
-4.75
 20
-3.9700000000000002
 30
0.0
 11
4.75
 21
-3.9700000000000002
 31
0.0
  0
LINE
  5
CA
100
AcDbEntity
  8
0
  6
CONTINUOUS
 62
               7
100
AcDbLine
 10
-5.0
 20
18.530000000000001
 30
0.0
 11
5.0
 21
18.530000000000001
 31
0.0
  0
LINE
  5
CB
100
AcDbEntity
  8
0
  6
CONTINUOUS
 62
               7
100
AcDbLine
 10
4.5999999999999996
 20
20.030000000000001
 30
0.0
 11
5.0
 21
18.530000000000001
 31
0.0
  0
LINE
  5
CC
100
AcDbEntity
  8
0
  6
CONTINUOUS
 62
               7
100
AcDbLine
 10
-5.0
 20
18.530000000000001
 30
0.0
 11
-4.5999999999999996
 21
20.030000000000001
 31
0.0
  0
LINE
  5
CD
100
AcDbEntity
  8
0
  6
CONTINUOUS
 62
               7
100
AcDbLine
 10
-5.0
 20
18.530000000000001
 30
0.0
 11
-5.0
 21
17.030000000000001
 31
0.0
  0
LINE
  5
CE
100
AcDbEntity
  8
0
  6
CONTINUOUS
 62
               7
100
AcDbLine
 10
5.0
 20
18.530000000000001
 30
0.0
 11
5.0
 21
17.030000000000001
 31
0.0
  0
LINE
  5
CF
100
AcDbEntity
  8
0
  6
CONTINUOUS
 62
               7
100
AcDbLine
 10
-4.5999999999999996
 20
20.030000000000001
 30
0.0
 11
4.5999999999999996
 21
20.030000000000001
 31
0.0
  0
LINE
  5
D0
100
AcDbEntity
  8
0
  6
CENTER
 62
               2
100
AcDbLine
 10
-14.81
 20
10.529999999999999
 30
0.0
 11
14.81
 21
10.529999999999999
 31
0.0
  0
LINE
  5
D1
100
AcDbEntity
  8
0
  6
CENTER
 62
               2
100
AcDbLine
 10
0.0
 20
27.850000000000001
 30
0.0
 11
0.0
 21
-14.140000000000001
 31
0.0
  0
ENDBLK
  5
D2
100
AcDbEntity
  8
0
100
AcDbBlockEnd
  0
BLOCK
  5
D3
100
AcDbEntity
  8
0
100
AcDbBlockBegin
  2
MS_6
 70
               0
 10
0.0
 20
0.0
 30
0.0
  3
MS_6
  1

  0
CIRCLE
  5
D4
100
AcDbEntity
  8
0
  6
CONTINUOUS
 62
               7
100
AcDbCircle
 10
0.0
 20
0.0
 30
0.0
 40
4.5999994277954102
  0
CIRCLE
  5
D5
100
AcDbEntity
  8
0
  6
CONTINUOUS
 62
               7
100
AcDbCircle
 10
0.0
 20
0.0
 30
0.0
 40
7.1499996185302734
  0
CIRCLE
  5
D6
100
AcDbEntity
  8
0
  6
CONTINUOUS
 62
               7
100
AcDbCircle
 10
0.0
 20
0.0
 30
0.0
 40
5.0
  0
LINE
  5
D7
100
AcDbEntity
  8
0
  6
CONTINUOUS
 62
               7
100
AcDbLine
 10
8.0
 20
5.0
 30
0.0
 11
9.4000000000000004
 21
6.5
 31
0.0
  0
LINE
  5
D8
100
AcDbEntity
  8
0
  6
CONTINUOUS
 62
               7
100
AcDbLine
 10
8.0
 20
-5.0
 30
0.0
 11
9.4000000000000004
 21
-6.5
 31
0.0
  0
LINE
  5
D9
100
AcDbEntity
  8
0
  6
CONTINUOUS
 62
               7
100
AcDbLine
 10
5.1100000000000003
 20
5.0
 30
0.0
 11
8.0
 21
5.0
 31
0.0
  0
LINE
  5
DA
100
AcDbEntity
  8
0
  6
CONTINUOUS
 62
               7
100
AcDbLine
 10
5.1100000000000003
 20
-5.0
 30
0.0
 11
8.0
 21
-5.0
 31
0.0
  0
LINE
  5
DB
100
AcDbEntity
  8
0
  6
CONTINUOUS
 62
               7
100
AcDbLine
 10
8.0
 20
5.0
 30
0.0
 11
8.0
 21
-5.0
 31
0.0
  0
LINE
  5
DC
100
AcDbEntity
  8
0
  6
CONTINUOUS
 62
               7
100
AcDbLine
 10
9.4000000000000004
 20
6.5
 30
0.0
 11
9.4000000000000004
 21
-6.5
 31
0.0
  0
LINE
  5
DD
100
AcDbEntity
  8
0
  6
CONTINUOUS
 62
               7
100
AcDbLine
 10
2.9700000000000002
 20
-6.5
 30
0.0
 11
20.699999999999999
 21
-6.5
 31
0.0
  0
LINE
  5
DE
100
AcDbEntity
  8
0
  6
CONTINUOUS
 62
               7
100
AcDbLine
 10
2.9700000000000002
 20
6.5
 30
0.0
 11
20.699999999999999
 21
6.5
 31
0.0
  0
LINE
  5
DF
100
AcDbEntity
  8
0
  6
CONTINUOUS
 62
               7
100
AcDbLine
 10
1.5800000000000001
 20
2.75
 30
0.0
 11
3.1699999999999999
 21
0.0
 31
0.0
  0
LINE
  5
E0
100
AcDbEntity
  8
0
  6
CONTINUOUS
 62
               7
100
AcDbLine
 10
-3.1699999999999999
 20
0.0
 30
0.0
 11
-1.5800000000000001
 21
-2.75
 31
0.0
  0
LINE
  5
E1
100
AcDbEntity
  8
0
  6
CONTINUOUS
 62
               7
100
AcDbLine
 10
1.5800000000000001
 20
-2.75
 30
0.0
 11
3.1699999999999999
 21
0.0
 31
0.0
  0
LINE
  5
E2
100
AcDbEntity
  8
0
  6
CONTINUOUS
 62
               7
100
AcDbLine
 10
-3.1699999999999999
 20
0.0
 30
0.0
 11
-1.5800000000000001
 21
2.75
 31
0.0
  0
LINE
  5
E3
100
AcDbEntity
  8
0
  6
CONTINUOUS
 62
               7
100
AcDbLine
 10
-1.5800000000000001
 20
-2.75
 30
0.0
 11
1.5800000000000001
 21
-2.75
 31
0.0
  0
LINE
  5
E4
100
AcDbEntity
  8
0
  6
CONTINUOUS
 62
               7
100
AcDbLine
 10
-1.5800000000000001
 20
2.75
 30
0.0
 11
1.5800000000000001
 21
2.75
 31
0.0
  0
LINE
  5
E5
100
AcDbEntity
  8
0
  6
CONTINUOUS
 62
               7
100
AcDbLine
 10
21.899999999999999
 20
5.9000000000000004
 30
0.0
 11
23.699999999999999
 21
5.9000000000000004
 31
0.0
  0
LINE
  5
E6
100
AcDbEntity
  8
0
  6
CONTINUOUS
 62
               7
100
AcDbLine
 10
21.899999999999999
 20
-5.9000000000000004
 30
0.0
 11
23.699999999999999
 21
-5.9000000000000004
 31
0.0
  0
LINE
  5
E7
100
AcDbEntity
  8
0
  6
CONTINUOUS
 62
               7
100
AcDbLine
 10
20.699999999999999
 20
-4.0499999999999998
 30
0.0
 11
21.899999999999999
 21
-4.0499999999999998
 31
0.0
  0
LINE
  5
E8
100
AcDbEntity
  8
0
  6
CONTINUOUS
 62
               7
100
AcDbLine
 10
20.699999999999999
 20
4.0499999999999998
 30
0.0
 11
21.899999999999999
 21
4.0499999999999998
 31
0.0
  0
LINE
  5
E9
100
AcDbEntity
  8
0
  6
CONTINUOUS
 62
               7
100
AcDbLine
 10
21.899999999999999
 20
5.9000000000000004
 30
0.0
 11
21.899999999999999
 21
-5.9000000000000004
 31
0.0
  0
LINE
  5
EA
100
AcDbEntity
  8
0
  6
CONTINUOUS
 62
               7
100
AcDbLine
 10
23.699999999999999
 20
5.9000000000000004
 30
0.0
 11
23.699999999999999
 21
-5.9000000000000004
 31
0.0
  0
LINE
  5
EB
100
AcDbEntity
  8
0
  6
CONTINUOUS
 62
               7
100
AcDbLine
 10
20.699999999999999
 20
6.5
 30
0.0
 11
20.699999999999999
 21
-6.5
 31
0.0
  0
LINE
  5
EC
100
AcDbEntity
  8
0
  6
CENTER
 62
               2
100
AcDbLine
 10
-14.119999999999999
 20
0.0
 30
0.0
 11
30.969999999999999
 21
0.0
 31
0.0
  0
LINE
  5
ED
100
AcDbEntity
  8
0
  6
CENTER
 62
               2
100
AcDbLine
 10
0.0
 20
13.26
 30
0.0
 11
0.0
 21
-14.140000000000001
 31
0.0
  0
ENDBLK
  5
EE
100
AcDbEntity
  8
0
100
AcDbBlockEnd
  0
BLOCK
  5
EF
100
AcDbEntity
  8
0
100
AcDbBlockBegin
  2
MS_7
 70
               0
 10
0.0
 20
0.0
 30
0.0
  3
MS_7
  1

  0
LINE
  5
F0
100
AcDbEntity
  8
0
  6
CONTINUOUS
 62
               7
100
AcDbLine
 10
7.1500000000000004
 20
10.24
 30
0.0
 11
9.4000000000000004
 21
10.24
 31
0.0
  0
LINE
  5
F1
100
AcDbEntity
  8
0
  6
CONTINUOUS
 62
               7
100
AcDbLine
 10
20.699999999999999
 20
15.539999999999999
 30
0.0
 11
21.899999999999999
 21
15.539999999999999
 31
0.0
  0
LINE
  5
F2
100
AcDbEntity
  8
0
  6
CONTINUOUS
 62
               7
100
AcDbLine
 10
21.899999999999999
 20
17.390000000000001
 30
0.0
 11
21.899999999999999
 21
5.5899999999999999
 31
0.0
  0
LINE
  5
F3
100
AcDbEntity
  8
0
  6
CONTINUOUS
 62
               7
100
AcDbLine
 10
23.699999999999999
 20
17.390000000000001
 30
0.0
 11
23.699999999999999
 21
5.5899999999999999
 31
0.0
  0
LINE
  5
F4
100
AcDbEntity
  8
0
  6
CONTINUOUS
 62
               7
100
AcDbLine
 10
20.699999999999999
 20
17.989999999999998
 30
0.0
 11
20.699999999999999
 21
4.9900000000000002
 31
0.0
  0
LINE
  5
F5
100
AcDbEntity
  8
0
  6
CONTINUOUS
 62
               7
100
AcDbLine
 10
21.899999999999999
 20
5.5899999999999999
 30
0.0
 11
23.699999999999999
 21
5.5899999999999999
 31
0.0
  0
LINE
  5
F6
100
AcDbEntity
  8
0
  6
CONTINUOUS
 62
               7
100
AcDbLine
 10
20.699999999999999
 20
7.4400000000000004
 30
0.0
 11
21.899999999999999
 21
7.4400000000000004
 31
0.0
  0
LINE
  5
F7
100
AcDbEntity
  8
0
  6
CONTINUOUS
 62
               7
100
AcDbLine
 10
21.899999999999999
 20
17.390000000000001
 30
0.0
 11
23.699999999999999
 21
17.390000000000001
 31
0.0
  0
LINE
  5
F8
100
AcDbEntity
  8
0
  6
CONTINUOUS
 62
               7
100
AcDbLine
 10
-5.0
 20
19.489999999999998
 30
0.0
 11
-5.0
 21
17.989999999999998
 31
0.0
  0
LINE
  5
F9
100
AcDbEntity
  8
0
  6
CONTINUOUS
 62
               7
100
AcDbLine
 10
5.0
 20
19.489999999999998
 30
0.0
 11
5.0
 21
17.989999999999998
 31
0.0
  0
LINE
  5
FA
100
AcDbEntity
  8
0
  6
CONTINUOUS
 62
               7
100
AcDbLine
 10
-4.5999999999999996
 20
20.989999999999998
 30
0.0
 11
4.5999999999999996
 21
20.989999999999998
 31
0.0
  0
LINE
  5
FB
100
AcDbEntity
  8
0
  6
CONTINUOUS
 62
               7
100
AcDbLine
 10
-6.4000000000000004
 20
-6.0099999999999998
 30
0.0
 11
6.4000000000000004
 21
-6.0099999999999998
 31
0.0
  0
LINE
  5
FC
100
AcDbEntity
  8
0
  6
CONTINUOUS
 62
               7
100
AcDbLine
 10
-6.7000000000000002
 20
4.9900000000000002
 30
0.0
 11
-6.4000000000000004
 21
-6.0099999999999998
 31
0.0
  0
LINE
  5
FD
100
AcDbEntity
  8
0
  6
CONTINUOUS
 62
               7
100
AcDbLine
 10
4.5999999999999996
 20
20.989999999999998
 30
0.0
 11
5.0
 21
19.489999999999998
 31
0.0
  0
LINE
  5
FE
100
AcDbEntity
  8
0
  6
CONTINUOUS
 62
               7
100
AcDbLine
 10
-7.1500000000000004
 20
17.989999999999998
 30
0.0
 11
7.1500000000000004
 21
17.989999999999998
 31
0.0
  0
LINE
  5
FF
100
AcDbEntity
  8
0
  6
CONTINUOUS
 62
               7
100
AcDbLine
 10
-5.0
 20
19.489999999999998
 30
0.0
 11
5.0
 21
19.489999999999998
 31
0.0
  0
LINE
  5
100
100
AcDbEntity
  8
0
  6
CONTINUOUS
 62
               7
100
AcDbLine
 10
6.7000000000000002
 20
4.9900000000000002
 30
0.0
 11
6.4000000000000004
 21
-6.0099999999999998
 31
0.0
  0
LINE
  5
101
100
AcDbEntity
  8
0
  6
CONTINUOUS
 62
               7
100
AcDbLine
 10
-5.0
 20
19.489999999999998
 30
0.0
 11
-4.5999999999999996
 21
20.989999999999998
 31
0.0
  0
LINE
  5
102
100
AcDbEntity
  8
0
  6
CENTER
 62
               2
100
AcDbLine
 10
-10.050000000000001
 20
0.0
 30
0.0
 11
9.5399999999999991
 21
0.0
 31
0.0
  0
LINE
  5
103
100
AcDbEntity
  8
0
  6
CONTINUOUS
 62
               2
100
AcDbLine
 10
5.9000000000000004
 20
4.9900000000000002
 30
0.0
 11
5.5999999999999996
 21
-5.9800000000000004
 31
0.0
  0
LINE
  5
104
100
AcDbEntity
  8
0
  6
CONTINUOUS
 62
               2
100
AcDbLine
 10
-5.9000000000000004
 20
4.9900000000000002
 30
0.0
 11
-5.5999999999999996
 21
-5.9800000000000004
 31
0.0
  0
LINE
  5
105
100
AcDbEntity
  8
0
  6
CONTINUOUS
 62
               7
100
AcDbLine
 10
9.4000000000000004
 20
17.989999999999998
 30
0.0
 11
20.699999999999999
 21
17.989999999999998
 31
0.0
  0
LINE
  5
106
100
AcDbEntity
  8
0
  6
CONTINUOUS
 62
               7
100
AcDbLine
 10
9.4000000000000004
 20
4.9900000000000002
 30
0.0
 11
20.699999999999999
 21
4.9900000000000002
 31
0.0
  0
LINE
  5
107
100
AcDbEntity
  8
0
  6
CONTINUOUS
 62
               7
100
AcDbLine
 10
8.0
 20
16.489999999999998
 30
0.0
 11
9.4000000000000004
 21
17.989999999999998
 31
0.0
  0
LINE
  5
108
100
AcDbEntity
  8
0
  6
CONTINUOUS
 62
               7
100
AcDbLine
 10
8.0
 20
6.4900000000000002
 30
0.0
 11
9.4000000000000004
 21
4.9900000000000002
 31
0.0
  0
LINE
  5
109
100
AcDbEntity
  8
0
  6
CONTINUOUS
 62
               7
100
AcDbLine
 10
7.1500000000000004
 20
16.489999999999998
 30
0.0
 11
8.0
 21
16.489999999999998
 31
0.0
  0
LINE
  5
10A
100
AcDbEntity
  8
0
  6
CONTINUOUS
 62
               7
100
AcDbLine
 10
7.1500000000000004
 20
6.4900000000000002
 30
0.0
 11
8.0
 21
6.4900000000000002
 31
0.0
  0
LINE
  5
10B
100
AcDbEntity
  8
0
  6
CONTINUOUS
 62
               7
100
AcDbLine
 10
8.0
 20
16.489999999999998
 30
0.0
 11
8.0
 21
12.74
 31
0.0
  0
LINE
  5
10C
100
AcDbEntity
  8
0
  6
CONTINUOUS
 62
               7
100
AcDbLine
 10
9.4000000000000004
 20
17.989999999999998
 30
0.0
 11
9.4000000000000004
 21
4.9900000000000002
 31
0.0
  0
LINE
  5
10D
100
AcDbEntity
  8
0
  6
CONTINUOUS
 62
               7
100
AcDbLine
 10
-7.1500000000000004
 20
4.9900000000000002
 30
0.0
 11
7.1500000000000004
 21
4.9900000000000002
 31
0.0
  0
LINE
  5
10E
100
AcDbEntity
  8
0
  6
CONTINUOUS
 62
               7
100
AcDbLine
 10
-7.1500000000000004
 20
17.989999999999998
 30
0.0
 11
-7.1500000000000004
 21
4.9900000000000002
 31
0.0
  0
LINE
  5
10F
100
AcDbEntity
  8
0
  6
CONTINUOUS
 62
               7
100
AcDbLine
 10
7.1500000000000004
 20
17.989999999999998
 30
0.0
 11
7.1500000000000004
 21
4.9900000000000002
 31
0.0
  0
LINE
  5
110
100
AcDbEntity
  8
0
  6
CONTINUOUS
 62
               7
100
AcDbLine
 10
-7.1500000000000004
 20
17.989999999999998
 30
0.0
 11
7.1500000000000004
 21
17.989999999999998
 31
0.0
  0
LINE
  5
111
100
AcDbEntity
  8
0
  6
CENTER
 62
               2
100
AcDbLine
 10
0.0
 20
31.489999999999998
 30
0.0
 11
0.0
 21
-15.91
 31
0.0
  0
LINE
  5
112
100
AcDbEntity
  8
0
  6
CENTER
 62
               2
100
AcDbLine
 10
-15.699999999999999
 20
11.49
 30
0.0
 11
34.5
 21
11.49
 31
0.0
  0
LINE
  5
113
100
AcDbEntity
  8
0
  6
CONTINUOUS
 62
               7
100
AcDbLine
 10
7.1500000000000004
 20
12.74
 30
0.0
 11
9.4000000000000004
 21
12.74
 31
0.0
  0
LINE
  5
114
100
AcDbEntity
  8
0
  6
CONTINUOUS
 62
               7
100
AcDbLine
 10
8.0
 20
10.24
 30
0.0
 11
8.0
 21
6.4900000000000002
 31
0.0
  0
ENDBLK
  5
115
100
AcDbEntity
  8
0
100
AcDbBlockEnd
  0
BLOCK
  5
116
100
AcDbEntity
  8
0
100
AcDbBlockBegin
  2
MS_8
 70
               0
 10
0.0
 20
0.0
 30
0.0
  3
MS_8
  1

  0
CIRCLE
  5
117
100
AcDbEntity
  8
0
  6
CONTINUOUS
 62
               7
100
AcDbCircle
 10
0.0
 20
11.489997863769531
 30
0.0
 40
3.0999994277954102
  0
CIRCLE
  5
118
100
AcDbEntity
  8
0
  6
CONTINUOUS
 62
               7
100
AcDbCircle
 10
0.0
 20
11.489997863769531
 30
0.0
 40
6.5
  0
CIRCLE
  5
119
100
AcDbEntity
  8
0
  6
CONTINUOUS
 62
               7
100
AcDbCircle
 10
0.0
 20
11.489997863769531
 30
0.0
 40
5.8999996185302734
  0
LINE
  5
11A
100
AcDbEntity
  8
0
  6
CONTINUOUS
 62
               7
100
AcDbLine
 10
-7.1500000000000004
 20
17.989999999999998
 30
0.0
 11
7.1500000000000004
 21
17.989999999999998
 31
0.0
  0
LINE
  5
11B
100
AcDbEntity
  8
0
  6
CONTINUOUS
 62
               7
100
AcDbLine
 10
-7.1500000000000004
 20
4.9900000000000002
 30
0.0
 11
7.1500000000000004
 21
4.9900000000000002
 31
0.0
  0
LINE
  5
11C
100
AcDbEntity
  8
0
  6
CONTINUOUS
 62
               7
100
AcDbLine
 10
-7.1500000000000004
 20
17.989999999999998
 30
0.0
 11
-7.1500000000000004
 21
4.9900000000000002
 31
0.0
  0
LINE
  5
11D
100
AcDbEntity
  8
0
  6
CONTINUOUS
 62
               7
100
AcDbLine
 10
7.1500000000000004
 20
17.989999999999998
 30
0.0
 11
7.1500000000000004
 21
4.9900000000000002
 31
0.0
  0
LINE
  5
11E
100
AcDbEntity
  8
0
  6
CENTER
 62
               2
100
AcDbLine
 10
-10.050000000000001
 20
0.0
 30
0.0
 11
9.5399999999999991
 21
0.0
 31
0.0
  0
LINE
  5
11F
100
AcDbEntity
  8
0
  6
CONTINUOUS
 62
               2
100
AcDbLine
 10
5.9000000000000004
 20
5.0099999999999998
 30
0.0
 11
5.5999999999999996
 21
-5.9800000000000004
 31
0.0
  0
LINE
  5
120
100
AcDbEntity
  8
0
  6
CONTINUOUS
 62
               2
100
AcDbLine
 10
-5.9000000000000004
 20
5.0099999999999998
 30
0.0
 11
-5.5999999999999996
 21
-5.9800000000000004
 31
0.0
  0
LINE
  5
121
100
AcDbEntity
  8
0
  6
CONTINUOUS
 62
               7
100
AcDbLine
 10
6.7000000000000002
 20
4.9900000000000002
 30
0.0
 11
6.4000000000000004
 21
-6.0099999999999998
 31
0.0
  0
LINE
  5
122
100
AcDbEntity
  8
0
  6
CONTINUOUS
 62
               7
100
AcDbLine
 10
-6.7000000000000002
 20
4.9900000000000002
 30
0.0
 11
-6.4000000000000004
 21
-6.0099999999999998
 31
0.0
  0
LINE
  5
123
100
AcDbEntity
  8
0
  6
CONTINUOUS
 62
               7
100
AcDbLine
 10
-6.4000000000000004
 20
-6.0099999999999998
 30
0.0
 11
6.4000000000000004
 21
-6.0099999999999998
 31
0.0
  0
LINE
  5
124
100
AcDbEntity
  8
0
  6
CONTINUOUS
 62
               7
100
AcDbLine
 10
-5.0
 20
19.489999999999998
 30
0.0
 11
5.0
 21
19.489999999999998
 31
0.0
  0
LINE
  5
125
100
AcDbEntity
  8
0
  6
CONTINUOUS
 62
               7
100
AcDbLine
 10
4.5999999999999996
 20
20.989999999999998
 30
0.0
 11
5.0
 21
19.489999999999998
 31
0.0
  0
LINE
  5
126
100
AcDbEntity
  8
0
  6
CONTINUOUS
 62
               7
100
AcDbLine
 10
-5.0
 20
19.489999999999998
 30
0.0
 11
-4.5999999999999996
 21
20.989999999999998
 31
0.0
  0
LINE
  5
127
100
AcDbEntity
  8
0
  6
CONTINUOUS
 62
               7
100
AcDbLine
 10
-5.0
 20
19.489999999999998
 30
0.0
 11
-5.0
 21
17.989999999999998
 31
0.0
  0
LINE
  5
128
100
AcDbEntity
  8
0
  6
CONTINUOUS
 62
               7
100
AcDbLine
 10
5.0
 20
19.489999999999998
 30
0.0
 11
5.0
 21
17.989999999999998
 31
0.0
  0
LINE
  5
129
100
AcDbEntity
  8
0
  6
CONTINUOUS
 62
               7
100
AcDbLine
 10
-4.5999999999999996
 20
20.989999999999998
 30
0.0
 11
4.5999999999999996
 21
20.989999999999998
 31
0.0
  0
LINE
  5
12A
100
AcDbEntity
  8
0
  6
CONTINUOUS
 62
               7
100
AcDbLine
 10
-7.1500000000000004
 20
17.989999999999998
 30
0.0
 11
7.1500000000000004
 21
17.989999999999998
 31
0.0
  0
LINE
  5
12B
100
AcDbEntity
  8
0
  6
CENTER
 62
               2
100
AcDbLine
 10
-17.460000000000001
 20
11.49
 30
0.0
 11
19.23
 21
11.49
 31
0.0
  0
LINE
  5
12C
100
AcDbEntity
  8
0
  6
CENTER
 62
               2
100
AcDbLine
 10
0.0
 20
36.990000000000002
 30
0.0
 11
0.0
 21
-23.870000000000001
 31
0.0
  0
ENDBLK
  5
12D
100
AcDbEntity
  8
0
100
AcDbBlockEnd
  0
BLOCK
  5
12E
100
AcDbEntity
  8
0
100
AcDbBlockBegin
  2
MS_9
 70
               0
 10
0.0
 20
0.0
 30
0.0
  3
MS_9
  1

  0
CIRCLE
  5
12F
100
AcDbEntity
  8
0
  6
CONTINUOUS
 62
               7
100
AcDbCircle
 10
0.0
 20
0.0
 30
0.0
 40
4.5999994277954102
  0
CIRCLE
  5
130
100
AcDbEntity
  8
0
  6
CONTINUOUS
 62
               7
100
AcDbCircle
 10
0.0
 20
0.0
 30
0.0
 40
7.1499996185302734
  0
CIRCLE
  5
131
100
AcDbEntity
  8
0
  6
CONTINUOUS
 62
               7
100
AcDbCircle
 10
0.0
 20
0.0
 30
0.0
 40
5.0
  0
LINE
  5
132
100
AcDbEntity
  8
0
  6
CONTINUOUS
 62
               7
100
AcDbLine
 10
8.0
 20
5.0
 30
0.0
 11
9.4000000000000004
 21
6.5
 31
0.0
  0
LINE
  5
133
100
AcDbEntity
  8
0
  6
CONTINUOUS
 62
               7
100
AcDbLine
 10
8.0
 20
-5.0
 30
0.0
 11
9.4000000000000004
 21
-6.5
 31
0.0
  0
LINE
  5
134
100
AcDbEntity
  8
0
  6
CONTINUOUS
 62
               7
100
AcDbLine
 10
5.1100000000000003
 20
5.0
 30
0.0
 11
8.0
 21
5.0
 31
0.0
  0
LINE
  5
135
100
AcDbEntity
  8
0
  6
CONTINUOUS
 62
               7
100
AcDbLine
 10
5.1100000000000003
 20
-5.0
 30
0.0
 11
8.0
 21
-5.0
 31
0.0
  0
LINE
  5
136
100
AcDbEntity
  8
0
  6
CONTINUOUS
 62
               7
100
AcDbLine
 10
8.0
 20
5.0
 30
0.0
 11
8.0
 21
-5.0
 31
0.0
  0
LINE
  5
137
100
AcDbEntity
  8
0
  6
CONTINUOUS
 62
               7
100
AcDbLine
 10
9.4000000000000004
 20
6.5
 30
0.0
 11
9.4000000000000004
 21
-6.5
 31
0.0
  0
LINE
  5
138
100
AcDbEntity
  8
0
  6
CONTINUOUS
 62
               7
100
AcDbLine
 10
2.77
 20
6.5
 30
0.0
 11
20.699999999999999
 21
6.5
 31
0.0
  0
LINE
  5
139
100
AcDbEntity
  8
0
  6
CONTINUOUS
 62
               7
100
AcDbLine
 10
2.77
 20
-6.5
 30
0.0
 11
20.699999999999999
 21
-6.5
 31
0.0
  0
LINE
  5
13A
100
AcDbEntity
  8
0
  6
CONTINUOUS
 62
               7
100
AcDbLine
 10
1.5800000000000001
 20
2.75
 30
0.0
 11
3.1699999999999999
 21
0.0
 31
0.0
  0
LINE
  5
13B
100
AcDbEntity
  8
0
  6
CONTINUOUS
 62
               7
100
AcDbLine
 10
-3.1699999999999999
 20
0.0
 30
0.0
 11
-1.5800000000000001
 21
-2.75
 31
0.0
  0
LINE
  5
13C
100
AcDbEntity
  8
0
  6
CONTINUOUS
 62
               7
100
AcDbLine
 10
1.5800000000000001
 20
-2.75
 30
0.0
 11
3.1699999999999999
 21
0.0
 31
0.0
  0
LINE
  5
13D
100
AcDbEntity
  8
0
  6
CONTINUOUS
 62
               7
100
AcDbLine
 10
-3.1699999999999999
 20
0.0
 30
0.0
 11
-1.5800000000000001
 21
2.75
 31
0.0
  0
LINE
  5
13E
100
AcDbEntity
  8
0
  6
CONTINUOUS
 62
               7
100
AcDbLine
 10
-1.5800000000000001
 20
2.75
 30
0.0
 11
1.5800000000000001
 21
2.75
 31
0.0
  0
LINE
  5
13F
100
AcDbEntity
  8
0
  6
CONTINUOUS
 62
               7
100
AcDbLine
 10
-1.5800000000000001
 20
-2.75
 30
0.0
 11
1.5800000000000001
 21
-2.75
 31
0.0
  0
LINE
  5
140
100
AcDbEntity
  8
0
  6
CONTINUOUS
 62
               7
100
AcDbLine
 10
21.899999999999999
 20
5.9000000000000004
 30
0.0
 11
23.699999999999999
 21
5.9000000000000004
 31
0.0
  0
LINE
  5
141
100
AcDbEntity
  8
0
  6
CONTINUOUS
 62
               7
100
AcDbLine
 10
21.899999999999999
 20
-5.9000000000000004
 30
0.0
 11
23.699999999999999
 21
-5.9000000000000004
 31
0.0
  0
LINE
  5
142
100
AcDbEntity
  8
0
  6
CONTINUOUS
 62
               7
100
AcDbLine
 10
20.699999999999999
 20
-4.0499999999999998
 30
0.0
 11
21.899999999999999
 21
-4.0499999999999998
 31
0.0
  0
LINE
  5
143
100
AcDbEntity
  8
0
  6
CONTINUOUS
 62
               7
100
AcDbLine
 10
20.699999999999999
 20
4.0499999999999998
 30
0.0
 11
21.899999999999999
 21
4.0499999999999998
 31
0.0
  0
LINE
  5
144
100
AcDbEntity
  8
0
  6
CONTINUOUS
 62
               7
100
AcDbLine
 10
21.899999999999999
 20
5.9000000000000004
 30
0.0
 11
21.899999999999999
 21
-5.9000000000000004
 31
0.0
  0
LINE
  5
145
100
AcDbEntity
  8
0
  6
CONTINUOUS
 62
               7
100
AcDbLine
 10
23.699999999999999
 20
5.9000000000000004
 30
0.0
 11
23.699999999999999
 21
-5.9000000000000004
 31
0.0
  0
LINE
  5
146
100
AcDbEntity
  8
0
  6
CONTINUOUS
 62
               7
100
AcDbLine
 10
20.699999999999999
 20
6.5
 30
0.0
 11
20.699999999999999
 21
-6.5
 31
0.0
  0
LINE
  5
147
100
AcDbEntity
  8
0
  6
CENTER
 62
               2
100
AcDbLine
 10
-14.699999999999999
 20
0.0
 30
0.0
 11
34.5
 21
0.0
 31
0.0
  0
LINE
  5
148
100
AcDbEntity
  8
0
  6
CENTER
 62
               2
100
AcDbLine
 10
0.0
 20
18.0
 30
0.0
 11
0.0
 21
-16.0
 31
0.0
  0
ENDBLK
  5
149
100
AcDbEntity
  8
0
100
AcDbBlockEnd
  0
BLOCK
  5
14A
100
AcDbEntity
  8
0
100
AcDbBlockBegin
  2
MS_10
 70
               0
 10
0.0
 20
0.0
 30
0.0
  3
MS_10
  1

  0
LINE
  5
14B
100
AcDbEntity
  8
0
  6
CONTINUOUS
 62
               7
100
AcDbLine
 10
4.7000000000000002
 20
-3.9700000000000002
 30
0.0
 11
4.9500000000000002
 21
4.0300000000000002
 31
0.0
  0
LINE
  5
14C
100
AcDbEntity
  8
0
  6
CONTINUOUS
 62
               2
100
AcDbLine
 10
4.0999999999999996
 20
-3.9399999999999999
 30
0.0
 11
4.3499999999999996
 21
4.0300000000000002
 31
0.0
  0
LINE
  5
14D
100
AcDbEntity
  8
0
  6
CONTINUOUS
 62
               2
100
AcDbLine
 10
-4.0999999999999996
 20
-3.9399999999999999
 30
0.0
 11
-4.3499999999999996
 21
4.0300000000000002
 31
0.0
  0
LINE
  5
14E
100
AcDbEntity
  8
0
  6
CONTINUOUS
 62
               7
100
AcDbLine
 10
-4.7000000000000002
 20
-3.9700000000000002
 30
0.0
 11
-4.9500000000000002
 21
4.0300000000000002
 31
0.0
  0
LINE
  5
14F
100
AcDbEntity
  8
0
  6
CONTINUOUS
 62
               7
100
AcDbLine
 10
8.9499999999999993
 20
9.5299999999999994
 30
0.0
 11
11.0
 21
9.5299999999999994
 31
0.0
  0
LINE
  5
150
100
AcDbEntity
  8
0
  6
CONTINUOUS
 62
               7
100
AcDbLine
 10
-6.5
 20
21.16
 30
0.0
 11
6.5
 21
21.16
 31
0.0
  0
LINE
  5
151
100
AcDbEntity
  8
0
  6
CONTINUOUS
 62
               7
100
AcDbLine
 10
6.0
 20
23.030000000000001
 30
0.0
 11
6.5
 21
21.16
 31
0.0
  0
LINE
  5
152
100
AcDbEntity
  8
0
  6
CONTINUOUS
 62
               7
100
AcDbLine
 10
-6.5
 20
21.16
 30
0.0
 11
-6.0
 21
23.030000000000001
 31
0.0
  0
LINE
  5
153
100
AcDbEntity
  8
0
  6
CONTINUOUS
 62
               7
100
AcDbLine
 10
-6.5
 20
21.16
 30
0.0
 11
-6.5
 21
18.030000000000001
 31
0.0
  0
LINE
  5
154
100
AcDbEntity
  8
0
  6
CONTINUOUS
 62
               7
100
AcDbLine
 10
6.5
 20
21.16
 30
0.0
 11
6.5
 21
18.030000000000001
 31
0.0
  0
LINE
  5
155
100
AcDbEntity
  8
0
  6
CONTINUOUS
 62
               7
100
AcDbLine
 10
-6.0
 20
23.030000000000001
 30
0.0
 11
6.0
 21
23.030000000000001
 31
0.0
  0
LINE
  5
156
100
AcDbEntity
  8
0
  6
CONTINUOUS
 62
               7
100
AcDbLine
 10
24.699999999999999
 20
17.93
 30
0.0
 11
26.699999999999999
 21
17.93
 31
0.0
  0
LINE
  5
157
100
AcDbEntity
  8
0
  6
CONTINUOUS
 62
               7
100
AcDbLine
 10
23.699999999999999
 20
15.93
 30
0.0
 11
24.699999999999999
 21
15.93
 31
0.0
  0
LINE
  5
158
100
AcDbEntity
  8
0
  6
CONTINUOUS
 62
               7
100
AcDbLine
 10
24.699999999999999
 20
4.1299999999999999
 30
0.0
 11
26.699999999999999
 21
4.1299999999999999
 31
0.0
  0
LINE
  5
159
100
AcDbEntity
  8
0
  6
CONTINUOUS
 62
               7
100
AcDbLine
 10
23.699999999999999
 20
18.030000000000001
 30
0.0
 11
23.699999999999999
 21
4.0300000000000002
 31
0.0
  0
LINE
  5
15A
100
AcDbEntity
  8
0
  6
CONTINUOUS
 62
               7
100
AcDbLine
 10
11.0
 20
4.0300000000000002
 30
0.0
 11
23.699999999999999
 21
4.0300000000000002
 31
0.0
  0
LINE
  5
15B
100
AcDbEntity
  8
0
  6
CONTINUOUS
 62
               7
100
AcDbLine
 10
11.0
 20
18.030000000000001
 30
0.0
 11
23.699999999999999
 21
18.030000000000001
 31
0.0
  0
LINE
  5
15C
100
AcDbEntity
  8
0
  6
CONTINUOUS
 62
               7
100
AcDbLine
 10
10.0
 20
17.030000000000001
 30
0.0
 11
11.0
 21
18.030000000000001
 31
0.0
  0
LINE
  5
15D
100
AcDbEntity
  8
0
  6
CONTINUOUS
 62
               7
100
AcDbLine
 10
10.0
 20
5.0300000000000002
 30
0.0
 11
11.0
 21
4.0300000000000002
 31
0.0
  0
LINE
  5
15E
100
AcDbEntity
  8
0
  6
CONTINUOUS
 62
               7
100
AcDbLine
 10
8.9499999999999993
 20
17.030000000000001
 30
0.0
 11
10.0
 21
17.030000000000001
 31
0.0
  0
LINE
  5
15F
100
AcDbEntity
  8
0
  6
CONTINUOUS
 62
               7
100
AcDbLine
 10
8.9499999999999993
 20
5.0300000000000002
 30
0.0
 11
10.0
 21
5.0300000000000002
 31
0.0
  0
LINE
  5
160
100
AcDbEntity
  8
0
  6
CONTINUOUS
 62
               7
100
AcDbLine
 10
10.0
 20
17.030000000000001
 30
0.0
 11
10.0
 21
12.529999999999999
 31
0.0
  0
LINE
  5
161
100
AcDbEntity
  8
0
  6
CONTINUOUS
 62
               7
100
AcDbLine
 10
11.0
 20
18.030000000000001
 30
0.0
 11
11.0
 21
4.0300000000000002
 31
0.0
  0
LINE
  5
162
100
AcDbEntity
  8
0
  6
CONTINUOUS
 62
               7
100
AcDbLine
 10
-8.9499999999999993
 20
4.0300000000000002
 30
0.0
 11
8.9499999999999993
 21
4.0300000000000002
 31
0.0
  0
LINE
  5
163
100
AcDbEntity
  8
0
  6
CONTINUOUS
 62
               7
100
AcDbLine
 10
-8.9499999999999993
 20
18.030000000000001
 30
0.0
 11
8.9499999999999993
 21
18.030000000000001
 31
0.0
  0
LINE
  5
164
100
AcDbEntity
  8
0
  6
CONTINUOUS
 62
               7
100
AcDbLine
 10
-8.9499999999999993
 20
18.030000000000001
 30
0.0
 11
-8.9499999999999993
 21
4.0300000000000002
 31
0.0
  0
LINE
  5
165
100
AcDbEntity
  8
0
  6
CONTINUOUS
 62
               7
100
AcDbLine
 10
8.9499999999999993
 20
18.030000000000001
 30
0.0
 11
8.9499999999999993
 21
4.0300000000000002
 31
0.0
  0
LINE
  5
166
100
AcDbEntity
  8
0
  6
CONTINUOUS
 62
               7
100
AcDbLine
 10
23.699999999999999
 20
6.1299999999999999
 30
0.0
 11
24.699999999999999
 21
6.1299999999999999
 31
0.0
  0
LINE
  5
167
100
AcDbEntity
  8
0
  6
CONTINUOUS
 62
               7
100
AcDbLine
 10
24.699999999999999
 20
17.93
 30
0.0
 11
24.699999999999999
 21
4.1299999999999999
 31
0.0
  0
LINE
  5
168
100
AcDbEntity
  8
0
  6
CONTINUOUS
 62
               7
100
AcDbLine
 10
26.699999999999999
 20
17.93
 30
0.0
 11
26.699999999999999
 21
4.1299999999999999
 31
0.0
  0
LINE
  5
169
100
AcDbEntity
  8
0
  6
CONTINUOUS
 62
               7
100
AcDbLine
 10
-4.7000000000000002
 20
-3.9700000000000002
 30
0.0
 11
4.7000000000000002
 21
-3.9700000000000002
 31
0.0
  0
LINE
  5
16A
100
AcDbEntity
  8
0
  6
CENTER
 62
               2
100
AcDbLine
 10
-8.0
 20
0.0
 30
0.0
 11
8.0
 21
0.0
 31
0.0
  0
LINE
  5
16B
100
AcDbEntity
  8
0
  6
CENTER
 62
               2
100
AcDbLine
 10
0.0
 20
30.829999999999998
 30
0.0
 11
0.0
 21
-12.82
 31
0.0
  0
LINE
  5
16C
100
AcDbEntity
  8
0
  6
CENTER
 62
               2
100
AcDbLine
 10
-17.02
 20
11.029999999999999
 30
0.0
 11
34.799999999999997
 21
11.029999999999999
 31
0.0
  0
LINE
  5
16D
100
AcDbEntity
  8
0
  6
CONTINUOUS
 62
               7
100
AcDbLine
 10
8.9499999999999993
 20
12.529999999999999
 30
0.0
 11
11.0
 21
12.529999999999999
 31
0.0
  0
LINE
  5
16E
100
AcDbEntity
  8
0
  6
CONTINUOUS
 62
               7
100
AcDbLine
 10
10.0
 20
9.5299999999999994
 30
0.0
 11
10.0
 21
5.0300000000000002
 31
0.0
  0
ENDBLK
  5
16F
100
AcDbEntity
  8
0
100
AcDbBlockEnd
  0
BLOCK
  5
170
100
AcDbEntity
  8
0
100
AcDbBlockBegin
  2
MS_11
 70
               0
 10
0.0
 20
0.0
 30
0.0
  3
MS_11
  1

  0
CIRCLE
  5
171
100
AcDbEntity
  8
0
  6
CONTINUOUS
 62
               7
100
AcDbCircle
 10
0.0
 20
11.029998779296875
 30
0.0
 40
6.8999996185302734
  0
CIRCLE
  5
172
100
AcDbEntity
  8
0
  6
CONTINUOUS
 62
               7
100
AcDbCircle
 10
0.0
 20
11.029998779296875
 30
0.0
 40
4.0999994277954102
  0
LINE
  5
173
100
AcDbEntity
  8
0
  6
CONTINUOUS
 62
               7
100
AcDbLine
 10
4.7000000000000002
 20
-3.9700000000000002
 30
0.0
 11
4.9500000000000002
 21
4.0300000000000002
 31
0.0
  0
LINE
  5
174
100
AcDbEntity
  8
0
  6
CONTINUOUS
 62
               2
100
AcDbLine
 10
4.0999999999999996
 20
-3.9399999999999999
 30
0.0
 11
4.3499999999999996
 21
4.0300000000000002
 31
0.0
  0
LINE
  5
175
100
AcDbEntity
  8
0
  6
CONTINUOUS
 62
               2
100
AcDbLine
 10
-4.0999999999999996
 20
-3.9399999999999999
 30
0.0
 11
-4.3499999999999996
 21
4.0300000000000002
 31
0.0
  0
LINE
  5
176
100
AcDbEntity
  8
0
  6
CONTINUOUS
 62
               7
100
AcDbLine
 10
-4.7000000000000002
 20
-3.9700000000000002
 30
0.0
 11
-4.9500000000000002
 21
4.0300000000000002
 31
0.0
  0
LINE
  5
177
100
AcDbEntity
  8
0
  6
CONTINUOUS
 62
               7
100
AcDbLine
 10
8.9499999999999993
 20
18.030000000000001
 30
0.0
 11
8.9499999999999993
 21
4.0300000000000002
 31
0.0
  0
LINE
  5
178
100
AcDbEntity
  8
0
  6
CONTINUOUS
 62
               7
100
AcDbLine
 10
-8.9499999999999993
 20
18.030000000000001
 30
0.0
 11
-8.9499999999999993
 21
4.0300000000000002
 31
0.0
  0
LINE
  5
179
100
AcDbEntity
  8
0
  6
CONTINUOUS
 62
               7
100
AcDbLine
 10
-8.9499999999999993
 20
18.030000000000001
 30
0.0
 11
8.9499999999999993
 21
18.030000000000001
 31
0.0
  0
LINE
  5
17A
100
AcDbEntity
  8
0
  6
CONTINUOUS
 62
               7
100
AcDbLine
 10
-6.5
 20
21.16
 30
0.0
 11
6.5
 21
21.16
 31
0.0
  0
LINE
  5
17B
100
AcDbEntity
  8
0
  6
CONTINUOUS
 62
               7
100
AcDbLine
 10
6.0
 20
23.030000000000001
 30
0.0
 11
6.5
 21
21.16
 31
0.0
  0
LINE
  5
17C
100
AcDbEntity
  8
0
  6
CONTINUOUS
 62
               7
100
AcDbLine
 10
-6.5
 20
21.16
 30
0.0
 11
-6.0
 21
23.030000000000001
 31
0.0
  0
LINE
  5
17D
100
AcDbEntity
  8
0
  6
CONTINUOUS
 62
               7
100
AcDbLine
 10
-6.5
 20
21.16
 30
0.0
 11
-6.5
 21
18.030000000000001
 31
0.0
  0
LINE
  5
17E
100
AcDbEntity
  8
0
  6
CONTINUOUS
 62
               7
100
AcDbLine
 10
6.5
 20
21.16
 30
0.0
 11
6.5
 21
18.030000000000001
 31
0.0
  0
LINE
  5
17F
100
AcDbEntity
  8
0
  6
CONTINUOUS
 62
               7
100
AcDbLine
 10
-6.0
 20
23.030000000000001
 30
0.0
 11
6.0
 21
23.030000000000001
 31
0.0
  0
LINE
  5
180
100
AcDbEntity
  8
0
  6
CONTINUOUS
 62
               7
100
AcDbLine
 10
-8.9499999999999993
 20
4.0300000000000002
 30
0.0
 11
8.9499999999999993
 21
4.0300000000000002
 31
0.0
  0
LINE
  5
181
100
AcDbEntity
  8
0
  6
CONTINUOUS
 62
               7
100
AcDbLine
 10
-4.7000000000000002
 20
-3.9700000000000002
 30
0.0
 11
4.7000000000000002
 21
-3.9700000000000002
 31
0.0
  0
LINE
  5
182
100
AcDbEntity
  8
0
  6
CENTER
 62
               2
100
AcDbLine
 10
-17.899999999999999
 20
11.029999999999999
 30
0.0
 11
17.899999999999999
 21
11.029999999999999
 31
0.0
  0
LINE
  5
183
100
AcDbEntity
  8
0
  6
CENTER
 62
               2
100
AcDbLine
 10
0.0
 20
30.5
 30
0.0
 11
0.0
 21
-8.8399999999999999
 31
0.0
  0
LINE
  5
184
100
AcDbEntity
  8
0
  6
CENTER
 62
               2
100
AcDbLine
 10
-8.0
 20
0.0
 30
0.0
 11
8.0
 21
0.0
 31
0.0
  0
ENDBLK
  5
185
100
AcDbEntity
  8
0
100
AcDbBlockEnd
  0
BLOCK
  5
186
100
AcDbEntity
  8
0
100
AcDbBlockBegin
  2
MS_12
 70
               0
 10
0.0
 20
0.0
 30
0.0
  3
MS_12
  1

  0
CIRCLE
  5
187
100
AcDbEntity
  8
0
  6
CONTINUOUS
 62
               7
100
AcDbCircle
 10
0.0
 20
0.0
 30
0.0
 40
8.9499998092651367
  0
CIRCLE
  5
188
100
AcDbEntity
  8
0
  6
CONTINUOUS
 62
               7
100
AcDbCircle
 10
0.0
 20
0.0
 30
0.0
 40
6.5
  0
CIRCLE
  5
189
100
AcDbEntity
  8
0
  6
CONTINUOUS
 62
               7
100
AcDbCircle
 10
0.0
 20
0.0
 30
0.0
 40
6.0
  0
LINE
  5
18A
100
AcDbEntity
  8
0
  6
CONTINUOUS
 62
               7
100
AcDbLine
 10
6.6399999999999997
 20
6.0
 30
0.0
 11
10.0
 21
6.0
 31
0.0
  0
LINE
  5
18B
100
AcDbEntity
  8
0
  6
CONTINUOUS
 62
               7
100
AcDbLine
 10
6.6399999999999997
 20
-6.0
 30
0.0
 11
10.0
 21
-6.0
 31
0.0
  0
LINE
  5
18C
100
AcDbEntity
  8
0
  6
CONTINUOUS
 62
               7
100
AcDbLine
 10
10.0
 20
6.0
 30
0.0
 11
10.0
 21
-6.0
 31
0.0
  0
LINE
  5
18D
100
AcDbEntity
  8
0
  6
CONTINUOUS
 62
               7
100
AcDbLine
 10
11.0
 20
7.0
 30
0.0
 11
11.0
 21
-7.0
 31
0.0
  0
LINE
  5
18E
100
AcDbEntity
  8
0
  6
CONTINUOUS
 62
               7
100
AcDbLine
 10
5.5700000000000003
 20
-7.0
 30
0.0
 11
23.699999999999999
 21
-7.0
 31
0.0
  0
LINE
  5
18F
100
AcDbEntity
  8
0
  6
CONTINUOUS
 62
               7
100
AcDbLine
 10
5.5700000000000003
 20
7.0
 30
0.0
 11
23.699999999999999
 21
7.0
 31
0.0
  0
LINE
  5
190
100
AcDbEntity
  8
0
  6
CONTINUOUS
 62
               7
100
AcDbLine
 10
2.2999999999999998
 20
4.0
 30
0.0
 11
4.6100000000000003
 21
0.0
 31
0.0
  0
LINE
  5
191
100
AcDbEntity
  8
0
  6
CONTINUOUS
 62
               7
100
AcDbLine
 10
-4.6100000000000003
 20
0.0
 30
0.0
 11
-2.2999999999999998
 21
-4.0
 31
0.0
  0
LINE
  5
192
100
AcDbEntity
  8
0
  6
CONTINUOUS
 62
               7
100
AcDbLine
 10
2.2999999999999998
 20
-4.0
 30
0.0
 11
4.6100000000000003
 21
0.0
 31
0.0
  0
LINE
  5
193
100
AcDbEntity
  8
0
  6
CONTINUOUS
 62
               7
100
AcDbLine
 10
-4.6100000000000003
 20
0.0
 30
0.0
 11
-2.2999999999999998
 21
4.0
 31
0.0
  0
LINE
  5
194
100
AcDbEntity
  8
0
  6
CONTINUOUS
 62
               7
100
AcDbLine
 10
-2.2999999999999998
 20
4.0
 30
0.0
 11
2.2999999999999998
 21
4.0
 31
0.0
  0
LINE
  5
195
100
AcDbEntity
  8
0
  6
CONTINUOUS
 62
               7
100
AcDbLine
 10
-2.2999999999999998
 20
-4.0
 30
0.0
 11
2.2999999999999998
 21
-4.0
 31
0.0
  0
LINE
  5
196
100
AcDbEntity
  8
0
  6
CONTINUOUS
 62
               7
100
AcDbLine
 10
10.0
 20
-6.0
 30
0.0
 11
11.0
 21
-7.0
 31
0.0
  0
LINE
  5
197
100
AcDbEntity
  8
0
  6
CONTINUOUS
 62
               7
100
AcDbLine
 10
10.0
 20
6.0
 30
0.0
 11
11.0
 21
7.0
 31
0.0
  0
LINE
  5
198
100
AcDbEntity
  8
0
  6
CONTINUOUS
 62
               7
100
AcDbLine
 10
24.699999999999999
 20
6.9000000000000004
 30
0.0
 11
26.699999999999999
 21
6.9000000000000004
 31
0.0
  0
LINE
  5
199
100
AcDbEntity
  8
0
  6
CONTINUOUS
 62
               7
100
AcDbLine
 10
24.699999999999999
 20
-6.9000000000000004
 30
0.0
 11
26.699999999999999
 21
-6.9000000000000004
 31
0.0
  0
LINE
  5
19A
100
AcDbEntity
  8
0
  6
CONTINUOUS
 62
               7
100
AcDbLine
 10
23.699999999999999
 20
4.9000000000000004
 30
0.0
 11
24.699999999999999
 21
4.9000000000000004
 31
0.0
  0
LINE
  5
19B
100
AcDbEntity
  8
0
  6
CONTINUOUS
 62
               7
100
AcDbLine
 10
23.699999999999999
 20
-4.9000000000000004
 30
0.0
 11
24.699999999999999
 21
-4.9000000000000004
 31
0.0
  0
LINE
  5
19C
100
AcDbEntity
  8
0
  6
CONTINUOUS
 62
               7
100
AcDbLine
 10
24.699999999999999
 20
6.9000000000000004
 30
0.0
 11
24.699999999999999
 21
-6.9000000000000004
 31
0.0
  0
LINE
  5
19D
100
AcDbEntity
  8
0
  6
CONTINUOUS
 62
               7
100
AcDbLine
 10
26.699999999999999
 20
6.9000000000000004
 30
0.0
 11
26.699999999999999
 21
-6.9000000000000004
 31
0.0
  0
LINE
  5
19E
100
AcDbEntity
  8
0
  6
CONTINUOUS
 62
               7
100
AcDbLine
 10
23.699999999999999
 20
7.0
 30
0.0
 11
23.699999999999999
 21
-7.0
 31
0.0
  0
LINE
  5
19F
100
AcDbEntity
  8
0
  6
CENTER
 62
               2
100
AcDbLine
 10
0.0
 20
13.699999999999999
 30
0.0
 11
0.0
 21
-15.470000000000001
 31
0.0
  0
LINE
  5
1A0
100
AcDbEntity
  8
0
  6
CENTER
 62
               2
100
AcDbLine
 10
-17.460000000000001
 20
0.0
 30
0.0
 11
32.490000000000002
 21
0.0
 31
0.0
  0
ENDBLK
  5
1A1
100
AcDbEntity
  8
0
100
AcDbBlockEnd
  0
BLOCK
  5
1A2
100
AcDbEntity
  8
0
100
AcDbBlockBegin
  2
MS_13
 70
               0
 10
0.0
 20
0.0
 30
0.0
  3
MS_13
  1

  0
LINE
  5
1A3
100
AcDbEntity
  8
0
  6
CONTINUOUS
 62
               7
100
AcDbLine
 10
6.4000000000000004
 20
-6.0099999999999998
 30
0.0
 11
6.7400000000000002
 21
4.9900000000000002
 31
0.0
  0
LINE
  5
1A4
100
AcDbEntity
  8
0
  6
CONTINUOUS
 62
               2
100
AcDbLine
 10
5.5999999999999996
 20
-5.9800000000000004
 30
0.0
 11
5.9400000000000004
 21
4.9900000000000002
 31
0.0
  0
LINE
  5
1A5
100
AcDbEntity
  8
0
  6
CONTINUOUS
 62
               2
100
AcDbLine
 10
-5.5999999999999996
 20
-5.9800000000000004
 30
0.0
 11
-5.9400000000000004
 21
4.9900000000000002
 31
0.0
  0
LINE
  5
1A6
100
AcDbEntity
  8
0
  6
CONTINUOUS
 62
               7
100
AcDbLine
 10
-6.4000000000000004
 20
-6.0099999999999998
 30
0.0
 11
-6.7400000000000002
 21
4.9900000000000002
 31
0.0
  0
LINE
  5
1A7
100
AcDbEntity
  8
0
  6
CONTINUOUS
 62
               7
100
AcDbLine
 10
8.9499999999999993
 20
10.49
 30
0.0
 11
11.0
 21
10.49
 31
0.0
  0
LINE
  5
1A8
100
AcDbEntity
  8
0
  6
CENTER
 62
               2
100
AcDbLine
 10
-8.0
 20
0.0
 30
0.0
 11
8.0
 21
0.0
 31
0.0
  0
LINE
  5
1A9
100
AcDbEntity
  8
0
  6
CONTINUOUS
 62
               7
100
AcDbLine
 10
-6.4000000000000004
 20
-6.0099999999999998
 30
0.0
 11
6.4000000000000004
 21
-6.0099999999999998
 31
0.0
  0
LINE
  5
1AA
100
AcDbEntity
  8
0
  6
CONTINUOUS
 62
               7
100
AcDbLine
 10
-8.9499999999999993
 20
4.9900000000000002
 30
0.0
 11
8.9499999999999993
 21
4.9900000000000002
 31
0.0
  0
LINE
  5
1AB
100
AcDbEntity
  8
0
  6
CONTINUOUS
 62
               7
100
AcDbLine
 10
24.699999999999999
 20
18.890000000000001
 30
0.0
 11
26.699999999999999
 21
18.890000000000001
 31
0.0
  0
LINE
  5
1AC
100
AcDbEntity
  8
0
  6
CONTINUOUS
 62
               7
100
AcDbLine
 10
23.699999999999999
 20
16.890000000000001
 30
0.0
 11
24.699999999999999
 21
16.890000000000001
 31
0.0
  0
LINE
  5
1AD
100
AcDbEntity
  8
0
  6
CONTINUOUS
 62
               7
100
AcDbLine
 10
23.699999999999999
 20
18.989999999999998
 30
0.0
 11
23.699999999999999
 21
4.9900000000000002
 31
0.0
  0
LINE
  5
1AE
100
AcDbEntity
  8
0
  6
CONTINUOUS
 62
               7
100
AcDbLine
 10
-6.5
 20
22.120000000000001
 30
0.0
 11
6.5
 21
22.120000000000001
 31
0.0
  0
LINE
  5
1AF
100
AcDbEntity
  8
0
  6
CONTINUOUS
 62
               7
100
AcDbLine
 10
6.0
 20
23.989999999999998
 30
0.0
 11
6.5
 21
22.120000000000001
 31
0.0
  0
LINE
  5
1B0
100
AcDbEntity
  8
0
  6
CONTINUOUS
 62
               7
100
AcDbLine
 10
-6.5
 20
22.120000000000001
 30
0.0
 11
-6.0
 21
23.989999999999998
 31
0.0
  0
LINE
  5
1B1
100
AcDbEntity
  8
0
  6
CONTINUOUS
 62
               7
100
AcDbLine
 10
-6.5
 20
22.120000000000001
 30
0.0
 11
-6.5
 21
18.989999999999998
 31
0.0
  0
LINE
  5
1B2
100
AcDbEntity
  8
0
  6
CONTINUOUS
 62
               7
100
AcDbLine
 10
6.5
 20
22.120000000000001
 30
0.0
 11
6.5
 21
18.989999999999998
 31
0.0
  0
LINE
  5
1B3
100
AcDbEntity
  8
0
  6
CONTINUOUS
 62
               7
100
AcDbLine
 10
-6.0
 20
23.989999999999998
 30
0.0
 11
6.0
 21
23.989999999999998
 31
0.0
  0
LINE
  5
1B4
100
AcDbEntity
  8
0
  6
CONTINUOUS
 62
               7
100
AcDbLine
 10
11.0
 20
4.9900000000000002
 30
0.0
 11
23.699999999999999
 21
4.9900000000000002
 31
0.0
  0
LINE
  5
1B5
100
AcDbEntity
  8
0
  6
CONTINUOUS
 62
               7
100
AcDbLine
 10
11.0
 20
18.989999999999998
 30
0.0
 11
23.699999999999999
 21
18.989999999999998
 31
0.0
  0
LINE
  5
1B6
100
AcDbEntity
  8
0
  6
CONTINUOUS
 62
               7
100
AcDbLine
 10
10.0
 20
17.989999999999998
 30
0.0
 11
11.0
 21
18.989999999999998
 31
0.0
  0
LINE
  5
1B7
100
AcDbEntity
  8
0
  6
CONTINUOUS
 62
               7
100
AcDbLine
 10
10.0
 20
5.9900000000000002
 30
0.0
 11
11.0
 21
4.9900000000000002
 31
0.0
  0
LINE
  5
1B8
100
AcDbEntity
  8
0
  6
CONTINUOUS
 62
               7
100
AcDbLine
 10
8.9499999999999993
 20
17.989999999999998
 30
0.0
 11
10.0
 21
17.989999999999998
 31
0.0
  0
LINE
  5
1B9
100
AcDbEntity
  8
0
  6
CONTINUOUS
 62
               7
100
AcDbLine
 10
8.9499999999999993
 20
5.9900000000000002
 30
0.0
 11
10.0
 21
5.9900000000000002
 31
0.0
  0
LINE
  5
1BA
100
AcDbEntity
  8
0
  6
CONTINUOUS
 62
               7
100
AcDbLine
 10
10.0
 20
17.989999999999998
 30
0.0
 11
10.0
 21
13.49
 31
0.0
  0
LINE
  5
1BB
100
AcDbEntity
  8
0
  6
CONTINUOUS
 62
               7
100
AcDbLine
 10
11.0
 20
18.989999999999998
 30
0.0
 11
11.0
 21
4.9900000000000002
 31
0.0
  0
LINE
  5
1BC
100
AcDbEntity
  8
0
  6
CONTINUOUS
 62
               7
100
AcDbLine
 10
24.699999999999999
 20
5.0899999999999999
 30
0.0
 11
26.699999999999999
 21
5.0899999999999999
 31
0.0
  0
LINE
  5
1BD
100
AcDbEntity
  8
0
  6
CONTINUOUS
 62
               7
100
AcDbLine
 10
-8.9499999999999993
 20
18.989999999999998
 30
0.0
 11
8.9499999999999993
 21
18.989999999999998
 31
0.0
  0
LINE
  5
1BE
100
AcDbEntity
  8
0
  6
CONTINUOUS
 62
               7
100
AcDbLine
 10
-8.9499999999999993
 20
18.989999999999998
 30
0.0
 11
-8.9499999999999993
 21
4.9900000000000002
 31
0.0
  0
LINE
  5
1BF
100
AcDbEntity
  8
0
  6
CONTINUOUS
 62
               7
100
AcDbLine
 10
8.9499999999999993
 20
18.989999999999998
 30
0.0
 11
8.9499999999999993
 21
4.9900000000000002
 31
0.0
  0
LINE
  5
1C0
100
AcDbEntity
  8
0
  6
CONTINUOUS
 62
               7
100
AcDbLine
 10
23.699999999999999
 20
7.0899999999999999
 30
0.0
 11
24.699999999999999
 21
7.0899999999999999
 31
0.0
  0
LINE
  5
1C1
100
AcDbEntity
  8
0
  6
CONTINUOUS
 62
               7
100
AcDbLine
 10
26.699999999999999
 20
18.890000000000001
 30
0.0
 11
26.699999999999999
 21
5.0899999999999999
 31
0.0
  0
LINE
  5
1C2
100
AcDbEntity
  8
0
  6
CONTINUOUS
 62
               7
100
AcDbLine
 10
24.699999999999999
 20
18.890000000000001
 30
0.0
 11
24.699999999999999
 21
5.0899999999999999
 31
0.0
  0
LINE
  5
1C3
100
AcDbEntity
  8
0
  6
CENTER
 62
               2
100
AcDbLine
 10
0.0
 20
30.059999999999999
 30
0.0
 11
0.0
 21
-11.93
 31
0.0
  0
LINE
  5
1C4
100
AcDbEntity
  8
0
  6
CENTER
 62
               2
100
AcDbLine
 10
-15.01
 20
11.99
 30
0.0
 11
32.289999999999999
 21
11.99
 31
0.0
  0
LINE
  5
1C5
100
AcDbEntity
  8
0
  6
CONTINUOUS
 62
               7
100
AcDbLine
 10
8.9499999999999993
 20
13.49
 30
0.0
 11
11.0
 21
13.49
 31
0.0
  0
LINE
  5
1C6
100
AcDbEntity
  8
0
  6
CONTINUOUS
 62
               7
100
AcDbLine
 10
10.0
 20
10.49
 30
0.0
 11
10.0
 21
5.9900000000000002
 31
0.0
  0
ENDBLK
  5
1C7
100
AcDbEntity
  8
0
100
AcDbBlockEnd
  0
BLOCK
  5
1C8
100
AcDbEntity
  8
0
100
AcDbBlockBegin
  2
MS_14
 70
               0
 10
0.0
 20
0.0
 30
0.0
  3
MS_14
  1

  0
CIRCLE
  5
1C9
100
AcDbEntity
  8
0
  6
CONTINUOUS
 62
               7
100
AcDbCircle
 10
-0.0000038146972656
 20
11.989997863769531
 30
0.0
 40
4.0999994277954102
  0
CIRCLE
  5
1CA
100
AcDbEntity
  8
0
  6
CONTINUOUS
 62
               7
100
AcDbCircle
 10
-0.0000038146972656
 20
11.989997863769531
 30
0.0
 40
6.8999996185302734
  0
LINE
  5
1CB
100
AcDbEntity
  8
0
  6
CONTINUOUS
 62
               7
100
AcDbLine
 10
6.4000000000000004
 20
-6.0099999999999998
 30
0.0
 11
6.7400000000000002
 21
4.9900000000000002
 31
0.0
  0
LINE
  5
1CC
100
AcDbEntity
  8
0
  6
CONTINUOUS
 62
               2
100
AcDbLine
 10
5.5999999999999996
 20
-5.9800000000000004
 30
0.0
 11
5.9400000000000004
 21
4.9900000000000002
 31
0.0
  0
LINE
  5
1CD
100
AcDbEntity
  8
0
  6
CONTINUOUS
 62
               2
100
AcDbLine
 10
-5.5999999999999996
 20
-5.9800000000000004
 30
0.0
 11
-5.9400000000000004
 21
4.9900000000000002
 31
0.0
  0
LINE
  5
1CE
100
AcDbEntity
  8
0
  6
CONTINUOUS
 62
               7
100
AcDbLine
 10
-6.4000000000000004
 20
-6.0099999999999998
 30
0.0
 11
-6.7400000000000002
 21
4.9900000000000002
 31
0.0
  0
LINE
  5
1CF
100
AcDbEntity
  8
0
  6
CONTINUOUS
 62
               7
100
AcDbLine
 10
-6.4000000000000004
 20
-6.0099999999999998
 30
0.0
 11
6.4000000000000004
 21
-6.0099999999999998
 31
0.0
  0
LINE
  5
1D0
100
AcDbEntity
  8
0
  6
CONTINUOUS
 62
               7
100
AcDbLine
 10
-8.9499999999999993
 20
4.9900000000000002
 30
0.0
 11
8.9499999999999993
 21
4.9900000000000002
 31
0.0
  0
LINE
  5
1D1
100
AcDbEntity
  8
0
  6
CONTINUOUS
 62
               7
100
AcDbLine
 10
-8.9499999999999993
 20
18.989999999999998
 30
0.0
 11
8.9499999999999993
 21
18.989999999999998
 31
0.0
  0
LINE
  5
1D2
100
AcDbEntity
  8
0
  6
CONTINUOUS
 62
               7
100
AcDbLine
 10
-8.9499999999999993
 20
18.989999999999998
 30
0.0
 11
-8.9499999999999993
 21
4.9900000000000002
 31
0.0
  0
LINE
  5
1D3
100
AcDbEntity
  8
0
  6
CONTINUOUS
 62
               7
100
AcDbLine
 10
-6.5
 20
22.120000000000001
 30
0.0
 11
6.5
 21
22.120000000000001
 31
0.0
  0
LINE
  5
1D4
100
AcDbEntity
  8
0
  6
CONTINUOUS
 62
               7
100
AcDbLine
 10
6.0
 20
23.989999999999998
 30
0.0
 11
6.5
 21
22.120000000000001
 31
0.0
  0
LINE
  5
1D5
100
AcDbEntity
  8
0
  6
CONTINUOUS
 62
               7
100
AcDbLine
 10
-6.5
 20
22.120000000000001
 30
0.0
 11
-6.0
 21
23.989999999999998
 31
0.0
  0
LINE
  5
1D6
100
AcDbEntity
  8
0
  6
CONTINUOUS
 62
               7
100
AcDbLine
 10
-6.5
 20
22.120000000000001
 30
0.0
 11
-6.5
 21
18.989999999999998
 31
0.0
  0
LINE
  5
1D7
100
AcDbEntity
  8
0
  6
CONTINUOUS
 62
               7
100
AcDbLine
 10
6.5
 20
22.120000000000001
 30
0.0
 11
6.5
 21
18.989999999999998
 31
0.0
  0
LINE
  5
1D8
100
AcDbEntity
  8
0
  6
CONTINUOUS
 62
               7
100
AcDbLine
 10
-6.0
 20
23.989999999999998
 30
0.0
 11
6.0
 21
23.989999999999998
 31
0.0
  0
LINE
  5
1D9
100
AcDbEntity
  8
0
  6
CONTINUOUS
 62
               7
100
AcDbLine
 10
8.9499999999999993
 20
18.989999999999998
 30
0.0
 11
8.9499999999999993
 21
4.9900000000000002
 31
0.0
  0
LINE
  5
1DA
100
AcDbEntity
  8
0
  6
CENTER
 62
               2
100
AcDbLine
 10
-19.23
 20
11.99
 30
0.0
 11
16.0
 21
11.99
 31
0.0
  0
LINE
  5
1DB
100
AcDbEntity
  8
0
  6
CENTER
 62
               2
100
AcDbLine
 10
0.0
 20
33.600000000000001
 30
0.0
 11
0.0
 21
-12.41
 31
0.0
  0
LINE
  5
1DC
100
AcDbEntity
  8
0
  6
CENTER
 62
               2
100
AcDbLine
 10
-8.0
 20
0.0
 30
0.0
 11
8.0
 21
0.0
 31
0.0
  0
ENDBLK
  5
1DD
100
AcDbEntity
  8
0
100
AcDbBlockEnd
  0
BLOCK
  5
1DE
100
AcDbEntity
  8
0
100
AcDbBlockBegin
  2
MS_15
 70
               0
 10
0.0
 20
0.0
 30
0.0
  3
MS_15
  1

  0
CIRCLE
  5
1DF
100
AcDbEntity
  8
0
  6
CONTINUOUS
 62
               7
100
AcDbCircle
 10
0.0
 20
-0.0000019073486328
 30
0.0
 40
6.0
  0
CIRCLE
  5
1E0
100
AcDbEntity
  8
0
  6
CONTINUOUS
 62
               7
100
AcDbCircle
 10
0.0
 20
-0.0000019073486328
 30
0.0
 40
8.9499998092651367
  0
CIRCLE
  5
1E1
100
AcDbEntity
  8
0
  6
CONTINUOUS
 62
               7
100
AcDbCircle
 10
0.0
 20
-0.0000019073486328
 30
0.0
 40
6.5
  0
LINE
  5
1E2
100
AcDbEntity
  8
0
  6
CONTINUOUS
 62
               7
100
AcDbLine
 10
10.0
 20
6.0
 30
0.0
 11
11.0
 21
7.0
 31
0.0
  0
LINE
  5
1E3
100
AcDbEntity
  8
0
  6
CONTINUOUS
 62
               7
100
AcDbLine
 10
10.0
 20
-6.0
 30
0.0
 11
11.0
 21
-7.0
 31
0.0
  0
LINE
  5
1E4
100
AcDbEntity
  8
0
  6
CONTINUOUS
 62
               7
100
AcDbLine
 10
6.6399999999999997
 20
6.0
 30
0.0
 11
10.0
 21
6.0
 31
0.0
  0
LINE
  5
1E5
100
AcDbEntity
  8
0
  6
CONTINUOUS
 62
               7
100
AcDbLine
 10
6.6399999999999997
 20
-6.0
 30
0.0
 11
10.0
 21
-6.0
 31
0.0
  0
LINE
  5
1E6
100
AcDbEntity
  8
0
  6
CONTINUOUS
 62
               7
100
AcDbLine
 10
10.0
 20
6.0
 30
0.0
 11
10.0
 21
-6.0
 31
0.0
  0
LINE
  5
1E7
100
AcDbEntity
  8
0
  6
CONTINUOUS
 62
               7
100
AcDbLine
 10
11.0
 20
7.0
 30
0.0
 11
11.0
 21
-7.0
 31
0.0
  0
LINE
  5
1E8
100
AcDbEntity
  8
0
  6
CONTINUOUS
 62
               7
100
AcDbLine
 10
5.5700000000000003
 20
-7.0
 30
0.0
 11
23.699999999999999
 21
-7.0
 31
0.0
  0
LINE
  5
1E9
100
AcDbEntity
  8
0
  6
CONTINUOUS
 62
               7
100
AcDbLine
 10
5.5700000000000003
 20
7.0
 30
0.0
 11
23.699999999999999
 21
7.0
 31
0.0
  0
LINE
  5
1EA
100
AcDbEntity
  8
0
  6
CONTINUOUS
 62
               7
100
AcDbLine
 10
2.2999999999999998
 20
4.0
 30
0.0
 11
4.6100000000000003
 21
0.0
 31
0.0
  0
LINE
  5
1EB
100
AcDbEntity
  8
0
  6
CONTINUOUS
 62
               7
100
AcDbLine
 10
-4.6100000000000003
 20
0.0
 30
0.0
 11
-2.2999999999999998
 21
-4.0
 31
0.0
  0
LINE
  5
1EC
100
AcDbEntity
  8
0
  6
CONTINUOUS
 62
               7
100
AcDbLine
 10
2.2999999999999998
 20
-4.0
 30
0.0
 11
4.6100000000000003
 21
0.0
 31
0.0
  0
LINE
  5
1ED
100
AcDbEntity
  8
0
  6
CONTINUOUS
 62
               7
100
AcDbLine
 10
-4.6100000000000003
 20
0.0
 30
0.0
 11
-2.2999999999999998
 21
4.0
 31
0.0
  0
LINE
  5
1EE
100
AcDbEntity
  8
0
  6
CONTINUOUS
 62
               7
100
AcDbLine
 10
-2.2999999999999998
 20
4.0
 30
0.0
 11
2.2999999999999998
 21
4.0
 31
0.0
  0
LINE
  5
1EF
100
AcDbEntity
  8
0
  6
CONTINUOUS
 62
               7
100
AcDbLine
 10
-2.2999999999999998
 20
-4.0
 30
0.0
 11
2.2999999999999998
 21
-4.0
 31
0.0
  0
LINE
  5
1F0
100
AcDbEntity
  8
0
  6
CONTINUOUS
 62
               7
100
AcDbLine
 10
24.699999999999999
 20
6.9000000000000004
 30
0.0
 11
26.699999999999999
 21
6.9000000000000004
 31
0.0
  0
LINE
  5
1F1
100
AcDbEntity
  8
0
  6
CONTINUOUS
 62
               7
100
AcDbLine
 10
24.699999999999999
 20
-6.9000000000000004
 30
0.0
 11
26.699999999999999
 21
-6.9000000000000004
 31
0.0
  0
LINE
  5
1F2
100
AcDbEntity
  8
0
  6
CONTINUOUS
 62
               7
100
AcDbLine
 10
23.699999999999999
 20
4.9000000000000004
 30
0.0
 11
24.699999999999999
 21
4.9000000000000004
 31
0.0
  0
LINE
  5
1F3
100
AcDbEntity
  8
0
  6
CONTINUOUS
 62
               7
100
AcDbLine
 10
23.699999999999999
 20
-4.9000000000000004
 30
0.0
 11
24.699999999999999
 21
-4.9000000000000004
 31
0.0
  0
LINE
  5
1F4
100
AcDbEntity
  8
0
  6
CONTINUOUS
 62
               7
100
AcDbLine
 10
24.699999999999999
 20
6.9000000000000004
 30
0.0
 11
24.699999999999999
 21
-6.9000000000000004
 31
0.0
  0
LINE
  5
1F5
100
AcDbEntity
  8
0
  6
CONTINUOUS
 62
               7
100
AcDbLine
 10
26.699999999999999
 20
6.9000000000000004
 30
0.0
 11
26.699999999999999
 21
-6.9000000000000004
 31
0.0
  0
LINE
  5
1F6
100
AcDbEntity
  8
0
  6
CONTINUOUS
 62
               7
100
AcDbLine
 10
23.699999999999999
 20
7.0
 30
0.0
 11
23.699999999999999
 21
-7.0
 31
0.0
  0
LINE
  5
1F7
100
AcDbEntity
  8
0
  6
CENTER
 62
               2
100
AcDbLine
 10
0.0
 20
18.0
 30
0.0
 11
0.0
 21
-17.199999999999999
 31
0.0
  0
LINE
  5
1F8
100
AcDbEntity
  8
0
  6
CENTER
 62
               2
100
AcDbLine
 10
-19.800000000000001
 20
0.0
 30
0.0
 11
41.799999999999997
 21
0.0
 31
0.0
  0
ENDBLK
  5
1F9
100
AcDbEntity
  8
0
100
AcDbBlockEnd
  0
BLOCK
  5
1FA
100
AcDbEntity
  8
0
100
AcDbBlockBegin
  2
MS_16
 70
               0
 10
0.0
 20
0.0
 30
0.0
  3
MS_16
  1

  0
LINE
  5
1FB
100
AcDbEntity
  8
0
  6
CONTINUOUS
 62
               7
100
AcDbLine
 10
8.0999999999999996
 20
-6.3499999999999996
 30
0.0
 11
8.4700000000000006
 21
5.6500000000000004
 31
0.0
  0
LINE
  5
1FC
100
AcDbEntity
  8
0
  6
CONTINUOUS
 62
               2
100
AcDbLine
 10
7.2999999999999998
 20
-6.3200000000000003
 30
0.0
 11
7.6699999999999999
 21
5.6500000000000004
 31
0.0
  0
LINE
  5
1FD
100
AcDbEntity
  8
0
  6
CONTINUOUS
 62
               2
100
AcDbLine
 10
-7.2999999999999998
 20
-6.3200000000000003
 30
0.0
 11
-7.6699999999999999
 21
5.6500000000000004
 31
0.0
  0
LINE
  5
1FE
100
AcDbEntity
  8
0
  6
CONTINUOUS
 62
               7
100
AcDbLine
 10
-8.0999999999999996
 20
-6.3499999999999996
 30
0.0
 11
-8.4700000000000006
 21
5.6500000000000004
 31
0.0
  0
LINE
  5
1FF
100
AcDbEntity
  8
0
  6
CONTINUOUS
 62
               7
100
AcDbLine
 10
8.9499999999999993
 20
11.15
 30
0.0
 11
11.0
 21
11.15
 31
0.0
  0
LINE
  5
200
100
AcDbEntity
  8
0
  6
CONTINUOUS
 62
               7
100
AcDbLine
 10
10.0
 20
11.15
 30
0.0
 11
10.0
 21
6.6500000000000004
 31
0.0
  0
LINE
  5
201
100
AcDbEntity
  8
0
  6
CONTINUOUS
 62
               7
100
AcDbLine
 10
-8.0999999999999996
 20
-6.3499999999999996
 30
0.0
 11
8.0999999999999996
 21
-6.3499999999999996
 31
0.0
  0
LINE
  5
202
100
AcDbEntity
  8
0
  6
CONTINUOUS
 62
               7
100
AcDbLine
 10
23.699999999999999
 20
7.75
 30
0.0
 11
24.699999999999999
 21
7.75
 31
0.0
  0
LINE
  5
203
100
AcDbEntity
  8
0
  6
CONTINUOUS
 62
               7
100
AcDbLine
 10
24.699999999999999
 20
19.550000000000001
 30
0.0
 11
24.699999999999999
 21
5.75
 31
0.0
  0
LINE
  5
204
100
AcDbEntity
  8
0
  6
CONTINUOUS
 62
               7
100
AcDbLine
 10
26.699999999999999
 20
19.550000000000001
 30
0.0
 11
26.699999999999999
 21
5.75
 31
0.0
  0
LINE
  5
205
100
AcDbEntity
  8
0
  6
CONTINUOUS
 62
               7
100
AcDbLine
 10
23.699999999999999
 20
19.649999999999999
 30
0.0
 11
23.699999999999999
 21
5.6500000000000004
 31
0.0
  0
LINE
  5
206
100
AcDbEntity
  8
0
  6
CONTINUOUS
 62
               7
100
AcDbLine
 10
23.699999999999999
 20
17.550000000000001
 30
0.0
 11
24.699999999999999
 21
17.550000000000001
 31
0.0
  0
LINE
  5
207
100
AcDbEntity
  8
0
  6
CONTINUOUS
 62
               7
100
AcDbLine
 10
24.699999999999999
 20
5.75
 30
0.0
 11
26.699999999999999
 21
5.75
 31
0.0
  0
LINE
  5
208
100
AcDbEntity
  8
0
  6
CONTINUOUS
 62
               7
100
AcDbLine
 10
24.699999999999999
 20
19.550000000000001
 30
0.0
 11
26.699999999999999
 21
19.550000000000001
 31
0.0
  0
LINE
  5
209
100
AcDbEntity
  8
0
  6
CONTINUOUS
 62
               7
100
AcDbLine
 10
-6.5
 20
22.780000000000001
 30
0.0
 11
6.5
 21
22.780000000000001
 31
0.0
  0
LINE
  5
20A
100
AcDbEntity
  8
0
  6
CONTINUOUS
 62
               7
100
AcDbLine
 10
6.0
 20
24.649999999999999
 30
0.0
 11
6.5
 21
22.780000000000001
 31
0.0
  0
LINE
  5
20B
100
AcDbEntity
  8
0
  6
CONTINUOUS
 62
               7
100
AcDbLine
 10
-6.5
 20
22.780000000000001
 30
0.0
 11
-6.0
 21
24.649999999999999
 31
0.0
  0
LINE
  5
20C
100
AcDbEntity
  8
0
  6
CONTINUOUS
 62
               7
100
AcDbLine
 10
-6.5
 20
22.780000000000001
 30
0.0
 11
-6.5
 21
19.649999999999999
 31
0.0
  0
LINE
  5
20D
100
AcDbEntity
  8
0
  6
CONTINUOUS
 62
               7
100
AcDbLine
 10
6.5
 20
22.780000000000001
 30
0.0
 11
6.5
 21
19.649999999999999
 31
0.0
  0
LINE
  5
20E
100
AcDbEntity
  8
0
  6
CONTINUOUS
 62
               7
100
AcDbLine
 10
-6.0
 20
24.649999999999999
 30
0.0
 11
6.0
 21
24.649999999999999
 31
0.0
  0
LINE
  5
20F
100
AcDbEntity
  8
0
  6
CONTINUOUS
 62
               7
100
AcDbLine
 10
11.0
 20
5.6500000000000004
 30
0.0
 11
23.699999999999999
 21
5.6500000000000004
 31
0.0
  0
LINE
  5
210
100
AcDbEntity
  8
0
  6
CONTINUOUS
 62
               7
100
AcDbLine
 10
11.0
 20
19.649999999999999
 30
0.0
 11
23.699999999999999
 21
19.649999999999999
 31
0.0
  0
LINE
  5
211
100
AcDbEntity
  8
0
  6
CONTINUOUS
 62
               7
100
AcDbLine
 10
10.0
 20
18.649999999999999
 30
0.0
 11
11.0
 21
19.649999999999999
 31
0.0
  0
LINE
  5
212
100
AcDbEntity
  8
0
  6
CONTINUOUS
 62
               7
100
AcDbLine
 10
10.0
 20
6.6500000000000004
 30
0.0
 11
11.0
 21
5.6500000000000004
 31
0.0
  0
LINE
  5
213
100
AcDbEntity
  8
0
  6
CONTINUOUS
 62
               7
100
AcDbLine
 10
8.9499999999999993
 20
18.649999999999999
 30
0.0
 11
10.0
 21
18.649999999999999
 31
0.0
  0
LINE
  5
214
100
AcDbEntity
  8
0
  6
CONTINUOUS
 62
               7
100
AcDbLine
 10
8.9499999999999993
 20
6.6500000000000004
 30
0.0
 11
10.0
 21
6.6500000000000004
 31
0.0
  0
LINE
  5
215
100
AcDbEntity
  8
0
  6
CONTINUOUS
 62
               7
100
AcDbLine
 10
10.0
 20
18.649999999999999
 30
0.0
 11
10.0
 21
14.15
 31
0.0
  0
LINE
  5
216
100
AcDbEntity
  8
0
  6
CONTINUOUS
 62
               7
100
AcDbLine
 10
11.0
 20
19.649999999999999
 30
0.0
 11
11.0
 21
5.6500000000000004
 31
0.0
  0
LINE
  5
217
100
AcDbEntity
  8
0
  6
CONTINUOUS
 62
               7
100
AcDbLine
 10
-8.9499999999999993
 20
5.6500000000000004
 30
0.0
 11
8.9499999999999993
 21
5.6500000000000004
 31
0.0
  0
LINE
  5
218
100
AcDbEntity
  8
0
  6
CONTINUOUS
 62
               7
100
AcDbLine
 10
-8.9499999999999993
 20
19.649999999999999
 30
0.0
 11
8.9499999999999993
 21
19.649999999999999
 31
0.0
  0
LINE
  5
219
100
AcDbEntity
  8
0
  6
CONTINUOUS
 62
               7
100
AcDbLine
 10
-8.9499999999999993
 20
19.649999999999999
 30
0.0
 11
-8.9499999999999993
 21
5.6500000000000004
 31
0.0
  0
LINE
  5
21A
100
AcDbEntity
  8
0
  6
CONTINUOUS
 62
               7
100
AcDbLine
 10
8.9499999999999993
 20
19.649999999999999
 30
0.0
 11
8.9499999999999993
 21
5.6500000000000004
 31
0.0
  0
LINE
  5
21B
100
AcDbEntity
  8
0
  6
CENTER
 62
               2
100
AcDbLine
 10
0.0
 20
32.049999999999997
 30
0.0
 11
0.0
 21
-14.59
 31
0.0
  0
LINE
  5
21C
100
AcDbEntity
  8
0
  6
CENTER
 62
               2
100
AcDbLine
 10
-19.399999999999999
 20
12.65
 30
0.0
 11
34.5
 21
12.65
 31
0.0
  0
LINE
  5
21D
100
AcDbEntity
  8
0
  6
CONTINUOUS
 62
               7
100
AcDbLine
 10
8.9499999999999993
 20
14.15
 30
0.0
 11
11.0
 21
14.15
 31
0.0
  0
LINE
  5
21E
100
AcDbEntity
  8
0
  6
CENTER
 62
               2
100
AcDbLine
 10
-11.289999999999999
 20
0.0
 30
0.0
 11
11.460000000000001
 21
0.0
 31
0.0
  0
ENDBLK
  5
21F
100
AcDbEntity
  8
0
100
AcDbBlockEnd
  0
BLOCK
  5
220
100
AcDbEntity
  8
0
100
AcDbBlockBegin
  2
MS_17
 70
               0
 10
0.0
 20
0.0
 30
0.0
  3
MS_17
  1

  0
CIRCLE
  5
221
100
AcDbEntity
  8
0
  6
CONTINUOUS
 62
               7
100
AcDbCircle
 10
0.0
 20
12.650001525878906
 30
0.0
 40
6.8999996185302734
  0
CIRCLE
  5
222
100
AcDbEntity
  8
0
  6
CONTINUOUS
 62
               7
100
AcDbCircle
 10
0.0
 20
12.650001525878906
 30
0.0
 40
4.0999994277954102
  0
LINE
  5
223
100
AcDbEntity
  8
0
  6
CONTINUOUS
 62
               7
100
AcDbLine
 10
8.0999999999999996
 20
-6.3499999999999996
 30
0.0
 11
8.4700000000000006
 21
5.6500000000000004
 31
0.0
  0
LINE
  5
224
100
AcDbEntity
  8
0
  6
CONTINUOUS
 62
               2
100
AcDbLine
 10
7.2999999999999998
 20
-6.3200000000000003
 30
0.0
 11
7.6699999999999999
 21
5.6500000000000004
 31
0.0
  0
LINE
  5
225
100
AcDbEntity
  8
0
  6
CONTINUOUS
 62
               2
100
AcDbLine
 10
-7.2999999999999998
 20
-6.3200000000000003
 30
0.0
 11
-7.6699999999999999
 21
5.6500000000000004
 31
0.0
  0
LINE
  5
226
100
AcDbEntity
  8
0
  6
CONTINUOUS
 62
               7
100
AcDbLine
 10
-8.0999999999999996
 20
-6.3499999999999996
 30
0.0
 11
-8.4700000000000006
 21
5.6500000000000004
 31
0.0
  0
LINE
  5
227
100
AcDbEntity
  8
0
  6
CENTER
 62
               2
100
AcDbLine
 10
-11.289999999999999
 20
0.0
 30
0.0
 11
11.460000000000001
 21
0.0
 31
0.0
  0
LINE
  5
228
100
AcDbEntity
  8
0
  6
CONTINUOUS
 62
               7
100
AcDbLine
 10
-8.0999999999999996
 20
-6.3499999999999996
 30
0.0
 11
8.0999999999999996
 21
-6.3499999999999996
 31
0.0
  0
LINE
  5
229
100
AcDbEntity
  8
0
  6
CONTINUOUS
 62
               7
100
AcDbLine
 10
-8.9499999999999993
 20
5.6500000000000004
 30
0.0
 11
9.0
 21
5.6500000000000004
 31
0.0
  0
LINE
  5
22A
100
AcDbEntity
  8
0
  6
CONTINUOUS
 62
               7
100
AcDbLine
 10
-8.9499999999999993
 20
19.649999999999999
 30
0.0
 11
8.9499999999999993
 21
19.649999999999999
 31
0.0
  0
LINE
  5
22B
100
AcDbEntity
  8
0
  6
CONTINUOUS
 62
               7
100
AcDbLine
 10
-8.9499999999999993
 20
19.649999999999999
 30
0.0
 11
-8.9499999999999993
 21
5.6500000000000004
 31
0.0
  0
LINE
  5
22C
100
AcDbEntity
  8
0
  6
CONTINUOUS
 62
               7
100
AcDbLine
 10
8.9499999999999993
 20
19.649999999999999
 30
0.0
 11
8.9499999999999993
 21
5.6500000000000004
 31
0.0
  0
LINE
  5
22D
100
AcDbEntity
  8
0
  6
CONTINUOUS
 62
               7
100
AcDbLine
 10
-6.5
 20
22.780000000000001
 30
0.0
 11
6.5
 21
22.780000000000001
 31
0.0
  0
LINE
  5
22E
100
AcDbEntity
  8
0
  6
CONTINUOUS
 62
               7
100
AcDbLine
 10
6.0
 20
24.649999999999999
 30
0.0
 11
6.5
 21
22.780000000000001
 31
0.0
  0
LINE
  5
22F
100
AcDbEntity
  8
0
  6
CONTINUOUS
 62
               7
100
AcDbLine
 10
-6.5
 20
22.780000000000001
 30
0.0
 11
-6.0
 21
24.649999999999999
 31
0.0
  0
LINE
  5
230
100
AcDbEntity
  8
0
  6
CONTINUOUS
 62
               7
100
AcDbLine
 10
-6.5
 20
22.780000000000001
 30
0.0
 11
-6.5
 21
19.649999999999999
 31
0.0
  0
LINE
  5
231
100
AcDbEntity
  8
0
  6
CONTINUOUS
 62
               7
100
AcDbLine
 10
6.5
 20
22.780000000000001
 30
0.0
 11
6.5
 21
19.649999999999999
 31
0.0
  0
LINE
  5
232
100
AcDbEntity
  8
0
  6
CONTINUOUS
 62
               7
100
AcDbLine
 10
-6.0
 20
24.649999999999999
 30
0.0
 11
6.0
 21
24.649999999999999
 31
0.0
  0
LINE
  5
233
100
AcDbEntity
  8
0
  6
CENTER
 62
               2
100
AcDbLine
 10
-15.69
 20
12.65
 30
0.0
 11
16.399999999999999
 21
12.65
 31
0.0
  0
LINE
  5
234
100
AcDbEntity
  8
0
  6
CENTER
 62
               2
100
AcDbLine
 10
0.0
 20
31.829999999999998
 30
0.0
 11
0.0
 21
-11.35
 31
0.0
  0
ENDBLK
  5
235
100
AcDbEntity
  8
0
100
AcDbBlockEnd
  0
BLOCK
  5
236
100
AcDbEntity
  8
0
100
AcDbBlockBegin
  2
MS_18
 70
               0
 10
0.0
 20
0.0
 30
0.0
  3
MS_18
  1

  0
CIRCLE
  5
237
100
AcDbEntity
  8
0
  6
CONTINUOUS
 62
               7
100
AcDbCircle
 10
0.0
 20
-0.0000019073486328
 30
0.0
 40
6.0
  0
CIRCLE
  5
238
100
AcDbEntity
  8
0
  6
CONTINUOUS
 62
               7
100
AcDbCircle
 10
0.0
 20
-0.0000019073486328
 30
0.0
 40
6.5
  0
CIRCLE
  5
239
100
AcDbEntity
  8
0
  6
CONTINUOUS
 62
               7
100
AcDbCircle
 10
0.0
 20
-0.0000019073486328
 30
0.0
 40
8.9499998092651367
  0
LINE
  5
23A
100
AcDbEntity
  8
0
  6
CONTINUOUS
 62
               7
100
AcDbLine
 10
10.0
 20
6.0
 30
0.0
 11
11.0
 21
7.0
 31
0.0
  0
LINE
  5
23B
100
AcDbEntity
  8
0
  6
CONTINUOUS
 62
               7
100
AcDbLine
 10
10.0
 20
-6.0
 30
0.0
 11
11.0
 21
-7.0
 31
0.0
  0
LINE
  5
23C
100
AcDbEntity
  8
0
  6
CONTINUOUS
 62
               7
100
AcDbLine
 10
6.6399999999999997
 20
6.0
 30
0.0
 11
10.0
 21
6.0
 31
0.0
  0
LINE
  5
23D
100
AcDbEntity
  8
0
  6
CONTINUOUS
 62
               7
100
AcDbLine
 10
6.6399999999999997
 20
-6.0
 30
0.0
 11
10.0
 21
-6.0
 31
0.0
  0
LINE
  5
23E
100
AcDbEntity
  8
0
  6
CONTINUOUS
 62
               7
100
AcDbLine
 10
10.0
 20
6.0
 30
0.0
 11
10.0
 21
-6.0
 31
0.0
  0
LINE
  5
23F
100
AcDbEntity
  8
0
  6
CONTINUOUS
 62
               7
100
AcDbLine
 10
11.0
 20
7.0
 30
0.0
 11
11.0
 21
-7.0
 31
0.0
  0
LINE
  5
240
100
AcDbEntity
  8
0
  6
CONTINUOUS
 62
               7
100
AcDbLine
 10
5.5700000000000003
 20
-7.0
 30
0.0
 11
23.699999999999999
 21
-7.0
 31
0.0
  0
LINE
  5
241
100
AcDbEntity
  8
0
  6
CONTINUOUS
 62
               7
100
AcDbLine
 10
5.5700000000000003
 20
7.0
 30
0.0
 11
23.699999999999999
 21
7.0
 31
0.0
  0
LINE
  5
242
100
AcDbEntity
  8
0
  6
CONTINUOUS
 62
               7
100
AcDbLine
 10
2.2999999999999998
 20
4.0
 30
0.0
 11
4.6100000000000003
 21
0.0
 31
0.0
  0
LINE
  5
243
100
AcDbEntity
  8
0
  6
CONTINUOUS
 62
               7
100
AcDbLine
 10
-4.6100000000000003
 20
0.0
 30
0.0
 11
-2.2999999999999998
 21
-4.0
 31
0.0
  0
LINE
  5
244
100
AcDbEntity
  8
0
  6
CONTINUOUS
 62
               7
100
AcDbLine
 10
2.2999999999999998
 20
-4.0
 30
0.0
 11
4.6100000000000003
 21
0.0
 31
0.0
  0
LINE
  5
245
100
AcDbEntity
  8
0
  6
CONTINUOUS
 62
               7
100
AcDbLine
 10
-4.6100000000000003
 20
0.0
 30
0.0
 11
-2.2999999999999998
 21
4.0
 31
0.0
  0
LINE
  5
246
100
AcDbEntity
  8
0
  6
CONTINUOUS
 62
               7
100
AcDbLine
 10
-2.2999999999999998
 20
4.0
 30
0.0
 11
2.2999999999999998
 21
4.0
 31
0.0
  0
LINE
  5
247
100
AcDbEntity
  8
0
  6
CONTINUOUS
 62
               7
100
AcDbLine
 10
-2.2999999999999998
 20
-4.0
 30
0.0
 11
2.2999999999999998
 21
-4.0
 31
0.0
  0
LINE
  5
248
100
AcDbEntity
  8
0
  6
CONTINUOUS
 62
               7
100
AcDbLine
 10
24.699999999999999
 20
6.9000000000000004
 30
0.0
 11
26.699999999999999
 21
6.9000000000000004
 31
0.0
  0
LINE
  5
249
100
AcDbEntity
  8
0
  6
CONTINUOUS
 62
               7
100
AcDbLine
 10
24.699999999999999
 20
-6.9000000000000004
 30
0.0
 11
26.699999999999999
 21
-6.9000000000000004
 31
0.0
  0
LINE
  5
24A
100
AcDbEntity
  8
0
  6
CONTINUOUS
 62
               7
100
AcDbLine
 10
23.699999999999999
 20
4.9000000000000004
 30
0.0
 11
24.699999999999999
 21
4.9000000000000004
 31
0.0
  0
LINE
  5
24B
100
AcDbEntity
  8
0
  6
CONTINUOUS
 62
               7
100
AcDbLine
 10
23.699999999999999
 20
-4.9000000000000004
 30
0.0
 11
24.699999999999999
 21
-4.9000000000000004
 31
0.0
  0
LINE
  5
24C
100
AcDbEntity
  8
0
  6
CONTINUOUS
 62
               7
100
AcDbLine
 10
24.699999999999999
 20
6.9000000000000004
 30
0.0
 11
24.699999999999999
 21
-6.9000000000000004
 31
0.0
  0
LINE
  5
24D
100
AcDbEntity
  8
0
  6
CONTINUOUS
 62
               7
100
AcDbLine
 10
26.699999999999999
 20
6.9000000000000004
 30
0.0
 11
26.699999999999999
 21
-6.9000000000000004
 31
0.0
  0
LINE
  5
24E
100
AcDbEntity
  8
0
  6
CONTINUOUS
 62
               7
100
AcDbLine
 10
23.699999999999999
 20
7.0
 30
0.0
 11
23.699999999999999
 21
-7.0
 31
0.0
  0
LINE
  5
24F
100
AcDbEntity
  8
0
  6
CENTER
 62
               2
100
AcDbLine
 10
0.0
 20
13.26
 30
0.0
 11
0.0
 21
-15.91
 31
0.0
  0
LINE
  5
250
100
AcDbEntity
  8
0
  6
CENTER
 62
               2
100
AcDbLine
 10
-15.01
 20
0.0
 30
0.0
 11
35.390000000000001
 21
0.0
 31
0.0
  0
ENDBLK
  5
251
100
AcDbEntity
  8
0
100
AcDbBlockEnd
  0
ENDSEC
  0
SECTION
  2
ENTITIES
  0
INSERT
  5
252
100
AcDbEntity
  8
0
100
AcDbBlockReference
  2
MS_18
 10
93.399993896484375
 20
-20.399993896484375
 30
0.0
  0
INSERT
  5
253
100
AcDbEntity
  8
0
100
AcDbBlockReference
  2
MS_17
 10
159.80000305175781
 20
-76.050003051757812
 30
0.0
  0
INSERT
  5
254
100
AcDbEntity
  8
0
100
AcDbBlockReference
  2
MS_16
 10
93.399993896484375
 20
-76.050003051757812
 30
0.0
  0
INSERT
  5
255
100
AcDbEntity
  8
0
100
AcDbBlockReference
  2
MS_15
 10
-37.0
 20
-30.399993896484375
 30
0.0
  0
INSERT
  5
256
100
AcDbEntity
  8
0
100
AcDbBlockReference
  2
MS_14
 10
32.199996948242188
 20
-85.389999389648437
 30
0.0
  0
INSERT
  5
257
100
AcDbEntity
  8
0
100
AcDbBlockReference
  2
MS_13
 10
-37.0
 20
-85.389999389648437
 30
0.0
  0
INSERT
  5
258
100
AcDbEntity
  8
0
100
AcDbBlockReference
  2
MS_12
 10
-161.80000305175781
 20
-30.399993896484375
 30
0.0
  0
INSERT
  5
259
100
AcDbEntity
  8
0
100
AcDbBlockReference
  2
MS_11
 10
-102.19999694824219
 20
-84.42999267578125
 30
0.0
  0
INSERT
  5
25A
100
AcDbEntity
  8
0
100
AcDbBlockReference
  2
MS_10
 10
-161.80000305175781
 20
-84.42999267578125
 30
0.0
  0
INSERT
  5
25B
100
AcDbEntity
  8
0
100
AcDbBlockReference
  2
MS_9
 10
93.75
 20
92.5
 30
0.0
  0
INSERT
  5
25C
100
AcDbEntity
  8
0
100
AcDbBlockReference
  2
MS_8
 10
159.75
 20
41.009994506835938
 30
0.0
  0
INSERT
  5
25D
100
AcDbEntity
  8
0
100
AcDbBlockReference
  2
MS_7
 10
93.75
 20
41.009994506835938
 30
0.0
  0
INSERT
  5
25E
100
AcDbEntity
  8
0
100
AcDbBlockReference
  2
MS_6
 10
-37.25
 20
92.5
 30
0.0
  0
INSERT
  5
25F
100
AcDbEntity
  8
0
100
AcDbBlockReference
  2
MS_5
 10
31.75
 20
41.970001220703125
 30
0.0
  0
INSERT
  5
260
100
AcDbEntity
  8
0
100
AcDbBlockReference
  2
MS_4
 10
-37.25
 20
41.970001220703125
 30
0.0
  0
INSERT
  5
261
100
AcDbEntity
  8
0
100
AcDbBlockReference
  2
MS_3
 10
-162.75
 20
92.5
 30
0.0
  0
INSERT
  5
262
100
AcDbEntity
  8
0
100
AcDbBlockReference
  2
MS_2
 10
-100.25
 20
47.199996948242188
 30
0.0
  0
INSERT
  5
263
100
AcDbEntity
  8
0
100
AcDbBlockReference
  2
MS_1
 10
-162.75
 20
47.199996948242188
 30
0.0
  0
MTEXT
  5
264
100
AcDbEntity
  8
0
  6
CONTINUOUS
 62
               7
100
AcDbMText
 10
144.80000305175781
 20
-120.0
 30
0.0
 40
7.0
 41
0.0
 71
               2
 72
               1
  1
\T1.254;\W0.968;\A1;KOGANEI CORP.
  7
MX_NOTE_STANDARD
  0
MTEXT
  5
265
100
AcDbEntity
  8
0
  6
CONTINUOUS
 62
               7
100
AcDbMText
 10
-58.687544769717363
 20
-128.5
 30
0.0
 40
5.0
 41
0.0
 71
               4
 72
               1
  1
\W1.055;\A1;MODEL:CS-SLH8-02
  7
MX_NOTE_STANDARD
  0
MTEXT
  5
266
100
AcDbEntity
  8
0
  6
CONTINUOUS
 62
               7
100
AcDbMText
 10
-58.667789245521675
 20
4.5500030517578125
 30
0.0
 40
5.0
 41
0.0
 71
               4
 72
               1
  1
\W1.079;\A1;MODEL:CS-SLH6-01
  7
MX_NOTE_STANDARD
  0
MTEXT
  5
267
100
AcDbEntity
  8
0
  6
CONTINUOUS
 62
               7
100
AcDbMText
 10
-188.35112359610761
 20
-128.5
 30
0.0
 40
5.0
 41
0.0
 71
               4
 72
               1
  1
\W1.079;\A1;MODEL:CS-SLH8-01
  7
MX_NOTE_STANDARD
  0
MTEXT
  5
268
100
AcDbEntity
  8
0
  6
CONTINUOUS
 62
               7
100
AcDbMText
 10
-188.38043478317206
 20
4.5500030517578125
 30
0.0
 40
5.0
 41
0.0
 71
               4
 72
               1
  1
\W1.043;\A1;MODEL:CS-SLH4-M5
  7
MX_NOTE_STANDARD
  0
MTEXT
  5
269
100
AcDbEntity
  8
0
  6
CONTINUOUS
 62
               7
100
AcDbMText
 10
70.995789580868575
 20
-108.5
 30
0.0
 40
5.0
 41
0.0
 71
               4
 72
               1
  1
\W1.055;\A1;MODEL:CS-SLH8-03
  7
MX_NOTE_STANDARD
  0
MTEXT
  5
26A
100
AcDbEntity
  8
0
  6
CONTINUOUS
 62
               7
100
AcDbMText
 10
70.995789580868575
 20
4.5500030517578125
 30
0.0
 40
5.0
 41
0.0
 71
               4
 72
               1
  1
\W1.055;\A1;MODEL:CS-SLH6-02
  7
MX_NOTE_STANDARD
  0
MTEXT
  5
26B
100
AcDbEntity
  8
0
  6
CONTINUOUS
 62
               7
100
AcDbMText
 10
125.73030544161468
 20
125.10000610351562
 30
0.0
 40
5.8000001907348633
 41
0.0
 71
               4
 72
               1
  1
\W1.273;\A1;Ver.1.0
  7
MX_NOTE_STANDARD
  0
MTEXT
  5
26C
100
AcDbEntity
  8
0
  6
CONTINUOUS
 62
               7
100
AcDbMText
 10
-190.87523020545896
 20
125.10000610351562
 30
0.0
 40
5.8000001907348633
 41
0.0
 71
               4
 72
               1
  1
\W0.905;\A1;CS-QUICK FITTING,SLH
  7
MX_NOTE_STANDARD
  0
LINE
  5
26D
100
AcDbEntity
  8
0
  6
CONTINUOUS
 62
               7
100
AcDbLine
 10
-194.25
 20
-133.5
 30
0.0
 11
194.80000000000001
 21
-133.5
 31
0.0
  0
LINE
  5
26E
100
AcDbEntity
  8
0
  6
CONTINUOUS
 62
               7
100
AcDbLine
 10
-194.25
 20
132.59999999999999
 30
0.0
 11
-194.25
 21
-133.5
 31
0.0
  0
LINE
  5
26F
100
AcDbEntity
  8
0
  6
CONTINUOUS
 62
               7
100
AcDbLine
 10
194.80000000000001
 20
132.59999999999999
 30
0.0
 11
194.80000000000001
 21
-133.5
 31
0.0
  0
LINE
  5
270
100
AcDbEntity
  8
0
  6
CONTINUOUS
 62
               7
100
AcDbLine
 10
-194.25
 20
132.59999999999999
 30
0.0
 11
194.80000000000001
 21
132.59999999999999
 31
0.0
  0
LINE
  5
271
100
AcDbEntity
  8
0
  6
CONTINUOUS
 62
               7
100
AcDbLine
 10
65.109999999999999
 20
132.59999999999999
 30
0.0
 11
65.109999999999999
 21
-133.5
 31
0.0
  0
LINE
  5
272
100
AcDbEntity
  8
0
  6
CONTINUOUS
 62
               7
100
AcDbLine
 10
-64.560000000000002
 20
132.59999999999999
 30
0.0
 11
-64.560000000000002
 21
-133.5
 31
0.0
  0
LINE
  5
273
100
AcDbEntity
  8
0
  6
CONTINUOUS
 62
               7
100
AcDbLine
 10
-194.25
 20
-0.45
 30
0.0
 11
194.80000000000001
 21
-0.45
 31
0.0
  0
LINE
  5
274
100
AcDbEntity
  8
0
  6
CONTINUOUS
 62
               7
100
AcDbLine
 10
65.109999999999999
 20
-113.5
 30
0.0
 11
194.80000000000001
 21
-113.5
 31
0.0
  0
LINE
  5
275
100
AcDbEntity
  8
0
  6
CONTINUOUS
 62
               7
100
AcDbLine
 10
94.799999999999997
 20
-113.5
 30
0.0
 11
94.799999999999997
 21
-133.5
 31
0.0
  0
LINE
  5
276
100
AcDbEntity
  8
0
  6
CONTINUOUS
 62
               7
100
AcDbLine
 10
94.799999999999997
 20
117.59999999999999
 30
0.0
 11
194.80000000000001
 21
117.59999999999999
 31
0.0
  0
LINE
  5
277
100
AcDbEntity
  8
0
  6
CONTINUOUS
 62
               7
100
AcDbLine
 10
94.799999999999997
 20
132.59999999999999
 30
0.0
 11
94.799999999999997
 21
117.59999999999999
 31
0.0
  0
LINE
  5
278
100
AcDbEntity
  8
0
  6
CONTINUOUS
 62
               7
100
AcDbLine
 10
-194.25
 20
117.59999999999999
 30
0.0
 11
-94.25
 21
117.59999999999999
 31
0.0
  0
LINE
  5
279
100
AcDbEntity
  8
0
  6
CONTINUOUS
 62
               7
100
AcDbLine
 10
-94.25
 20
132.59999999999999
 30
0.0
 11
-94.25
 21
117.59999999999999
 31
0.0
  0
ENDSEC
  0
SECTION
  2
OBJECTS
  0
DICTIONARY
  5
19
100
AcDbDictionary
  3
ACAD_GROUP
350
1A
  3
ACAD_MLINESTYLE
350
1B
  0
DICTIONARY
  5
1A
102
{ACAD_REACTORS
330
19
102
}
100
AcDbDictionary
  0
DICTIONARY
  5
1B
102
{ACAD_REACTORS
330
19
102
}
100
AcDbDictionary
  3
STANDARD
350
1C
  0
MLINESTYLE
  5
1C
102
{ACAD_REACTORS
330
1B
102
}
100
AcDbMlineStyle
  2
Standard
 70
               0
  3

 62
               0
 51
90.0
 52
90.0
 71
               2
 49
0.5
 62
             256
  6
ByLayer
 49
-0.5
 62
             256
  6
ByLayer
  0
ENDSEC
  0
EOF
