  0
SECTION
  2
HEADER
  9
$ACADVER
  1
AC1012
  9
$DWGCODEPAGE
  3
dos932
  9
$INSBASE
 10
0.0
 20
0.0
 30
0.0
  9
$EXTMIN
 10
-370.87
 20
-254.55000000000001
 30
0.0
  9
$EXTMAX
 10
370.87
 20
254.55000000000001
 30
0.0
  9
$LIMMIN
 10
-370.87
 20
-254.55000000000001
  9
$LIMMAX
 10
370.87
 20
254.55000000000001
  9
$ORTHOMODE
 70
               0
  9
$REGENMODE
 70
               1
  9
$FILLMODE
 70
               1
  9
$QTEXTMODE
 70
               0
  9
$MIRRTEXT
 70
               1
  9
$DRAGMODE
 70
               2
  9
$LTSCALE
 40
1.0
  9
$OSMODE
 70
               0
  9
$ATTMODE
 70
               1
  9
$TEXTSIZE
 40
3.2000000476837158
  9
$TRACEWID
 40
0.05
  9
$TEXTSTYLE
  7
MX_NOTE_STANDARD
  9
$CLAYER
  8
0
  9
$CELTYPE
  6
CONTINUOUS
  9
$CECOLOR
 62
             256
  9
$CELTSCALE
 40
1.0
  9
$DELOBJ
 70
               1
  9
$DISPSILH
 70
               0
  9
$DIMSCALE
 40
1.0
  9
$DIMASZ
 40
2.5
  9
$DIMEXO
 40
1.5
  9
$DIMDLI
 40
3.75
  9
$DIMRND
 40
0.0
  9
$DIMDLE
 40
0.0
  9
$DIMEXE
 40
1.5
  9
$DIMTP
 40
0.0
  9
$DIMTM
 40
0.0
  9
$DIMTXT
 40
3.2000000476837158
  9
$DIMCEN
 40
2.5
  9
$DIMTSZ
 40
0.0
  9
$DIMTOL
 70
               0
  9
$DIMLIM
 70
               0
  9
$DIMTIH
 70
               0
  9
$DIMTOH
 70
               0
  9
$DIMSE1
 70
               0
  9
$DIMSE2
 70
               0
  9
$DIMTAD
 70
               1
  9
$DIMZIN
 70
               8
  9
$DIMBLK
  1

  9
$DIMASO
 70
               1
  9
$DIMSHO
 70
               1
  9
$DIMPOST
  1

  9
$DIMAPOST
  1

  9
$DIMALT
 70
               0
  9
$DIMALTD
 70
               4
  9
$DIMALTF
 40
0.0394
  9
$DIMLFAC
 40
1.0
  9
$DIMTOFL
 70
               1
  9
$DIMTVP
 40
0.0
  9
$DIMTIX
 70
               0
  9
$DIMSOXD
 70
               0
  9
$DIMSAH
 70
               0
  9
$DIMBLK1
  1

  9
$DIMBLK2
  1

  9
$DIMSTYLE
  2
MXDIMSTYLE
  9
$DIMCLRD
 70
               0
  9
$DIMCLRE
 70
               0
  9
$DIMCLRT
 70
               0
  9
$DIMTFAC
 40
1.0
  9
$DIMGAP
 40
1.0
  9
$DIMJUST
 70
               0
  9
$DIMSD1
 70
               0
  9
$DIMSD2
 70
               0
  9
$DIMTOLJ
 70
               1
  9
$DIMTZIN
 70
               0
  9
$DIMALTZ
 70
               0
  9
$DIMALTTZ
 70
               0
  9
$DIMFIT
 70
               3
  9
$DIMUPT
 70
               1
  9
$DIMUNIT
 70
               2
  9
$DIMDEC
 70
               4
  9
$DIMTDEC
 70
               4
  9
$DIMALTU
 70
               8
  9
$DIMALTTD
 70
               4
  9
$DIMTXSTY
  7
MX_NOTE_STANDARD
  9
$DIMAUNIT
 70
               0
  9
$LUNITS
 70
               2
  9
$LUPREC
 70
               4
  9
$SKETCHINC
 40
0.1
  9
$FILLETRAD
 40
0.0
  9
$AUNITS
 70
               0
  9
$AUPREC
 70
               0
  9
$MENU
  1
acad
  9
$ELEVATION
 40
0.0
  9
$PELEVATION
 40
0.0
  9
$THICKNESS
 40
0.0
  9
$LIMCHECK
 70
               0
  9
$BLIPMODE
 70
               1
  9
$CHAMFERA
 40
0.0
  9
$CHAMFERB
 40
0.0
  9
$CHAMFERC
 40
0.0
  9
$CHAMFERD
 40
0.0
  9
$SKPOLY
 70
               0
  9
$TDCREATE
 40
2452220.697708333
  9
$TDUPDATE
 40
2452220.697708333
  9
$TDINDWG
 40
0.0000000000
  9
$TDUSRTIMER
 40
0.0000000000
  9
$USRTIMER
 70
               1
  9
$ANGBASE
 50
0.0
  9
$ANGDIR
 70
               0
  9
$PDMODE
 70
               0
  9
$PDSIZE
 40
0.0
  9
$PLINEWID
 40
0.0
  9
$COORDS
 70
               1
  9
$SPLFRAME
 70
               0
  9
$SPLINETYPE
 70
               6
  9
$SPLINESEGS
 70
               8
  9
$ATTDIA
 70
               0
  9
$ATTREQ
 70
               1
  9
$HANDLING
 70
               1
  9
$HANDSEED
  5
525
  9
$SURFTAB1
 70
               6
  9
$SURFTAB2
 70
               6
  9
$SURFTYPE
 70
               6
  9
$SURFU
 70
               6
  9
$SURFV
 70
               6
  9
$UCSNAME
  2

  9
$UCSORG
 10
0.0
 20
0.0
 30
0.0
  9
$UCSXDIR
 10
1.0
 20
0.0
 30
0.0
  9
$UCSYDIR
 10
0.0
 20
1.0
 30
0.0
  9
$PUCSNAME
  2

  9
$PUCSORG
 10
0.0
 20
0.0
 30
0.0
  9
$PUCSXDIR
 10
1.0
 20
0.0
 30
0.0
  9
$PUCSYDIR
 10
0.0
 20
1.0
 30
0.0
  9
$USERI1
 70
               0
  9
$USERI2
 70
               0
  9
$USERI3
 70
               0
  9
$USERI4
 70
               0
  9
$USERI5
 70
               0
  9
$USERR1
 40
0.0
  9
$USERR2
 40
0.0
  9
$USERR3
 40
0.0
  9
$USERR4
 40
0.0
  9
$USERR5
 40
0.0
  9
$WORLDVIEW
 70
               1
  9
$SHADEDGE
 70
               3
  9
$SHADEDIF
 70
              70
  9
$TILEMODE
 70
               1
  9
$MAXACTVP
 70
              16
  9
$PINSBASE
 10
0.0
 20
0.0
 30
0.0
  9
$PLIMCHECK
 70
               0
  9
$PEXTMIN
 10
1.0000000000000000E+20
 20
1.0000000000000000E+20
 30
1.0000000000000000E+20
  9
$PEXTMAX
 10
-1.0000000000000000E+20
 20
-1.0000000000000000E+20
 30
-1.0000000000000000E+20
  9
$PLIMMIN
 10
0.0
 20
0.0
  9
$PLIMMAX
 10
12.0
 20
9.0
  9
$UNITMODE
 70
               0
  9
$VISRETAIN
 70
               0
  9
$PLINEGEN
 70
               1
  9
$PSLTSCALE
 70
               0
  9
$TREEDEPTH
 70
            3020
  9
$PICKSTYLE
 70
               1
  9
$CMLSTYLE
  2
Standard
  9
$CMLJUST
 70
               0
  9
$CMLSCALE
 40
1.0
  9
$SAVEIMAGES
 70
               0
  0
ENDSEC
  0
SECTION
  2
CLASSES
  0
CLASS
  1
LWPOLYLINE
  2
AcDbPolyline
  3
"AutoCAD"
 90
        0
280
               0
281
               1
  0
CLASS
  1
IMAGE
  2
AcDbRasterImage
  3
ISM
 90
      127
280
               0
281
               1
  0
CLASS
  1
OLE2FRAME
  2
AcDbOle2Frame
  3
""
 90
        0
280
               0
281
               1
  0
CLASS
  1
HATCH
  2
AcDbHatch
  3
"ACAD_SEDONA"
 90
        0
280
               0
281
               1
  0
CLASS
  1
DICTIONARYVAR
  2
AcDbDictionaryVar
  3
"AutoCAD"
 90
        0
280
               0
281
               0
  0
CLASS
  1
RASTERVARIABLES
  2
AcDbRasterVariables
  3
ISM
 90
        0
280
               0
281
               0
  0
CLASS
  1
IMAGEDEF
  2
AcDbRasterImageDef
  3
ISM
 90
        0
280
               0
281
               0
  0
CLASS
  1
IMAGEDEF_REACTOR
  2
AcDbRasterImageDefReactor
  3
ISM
 90
        1
280
               0
281
               0
  0
CLASS
  1
IDBUFFER
  2
AcDbIdBuffer
  3
"Acad"
 90
        0
280
               0
281
               0
  0
CLASS
  1
SPATIAL_FILTER
  2
AcDbSpatialFilter
  3
"Acad"
 90
        0
280
               0
281
               0
  0
CLASS
  1
XRECORD
  2
AcDbXrecord
  3
"<Built In>"
 90
        0
280
               0
281
               0
  0
CLASS
  1
SORTENTSTABLE
  2
AcDbSortentsTable
  3
"AutoCAD"
 90
        0
280
               0
281
               0
  0
CLASS
  1
LAYER_INDEX
  2
AcDbLayerIndex
  3
"Acad"
 90
        0
280
               0
281
               0
  0
CLASS
  1
SPATIAL_INDEX
  2
AcDbSpatialIndex
  3
"Acad"
 90
        0
280
               0
281
               0
  0
CLASS
  1
OBJECT_PTR
  2
CAseDLPNTableRecord
  3
"ASE-LPNTableRecord"
 90
        1
280
               0
281
               0
  0
CLASS
  1
LAYOUT
  2
AcDbLayout
  3
"AutoCAD 2000"
 90
        1
280
               0
281
               0
  0
CLASS
  1
PLOTSETTINGS
  2
AcDbPlotSettings
  3
"AutoCAD 2000"
 90
        1
280
               0
281
               0
  0
CLASS
  1
ACDBDICTIONARYWDFLT
  2
AcDbDictionaryWithDefault
  3
"AutoCAD 2000"
 90
        1
280
               0
281
               0
  0
CLASS
  1
ACDBPLACEHOLDER
  2
AcDbPlaceHolder
  3
"AutoCAD 2000"
 90
        1
280
               0
281
               0
  0
CLASS
  1
VBA_PROJECT
  2
AcDbVbaProject
  3
"acadvba"
 90
        1
280
               0
281
               0
  0
CLASS
  1
WIPEOUT
  2
AcDbWipeout
  3
WipeOut|AutoCAD Express Tool|expresstools@autodesk.com
 90
      127
280
               0
281
               1
  0
CLASS
  1
WIPEOUTVARIABLES
  2
AcDbWipeoutVariables
  3
WipeOut|AutoCAD Express Tool|expresstools@autodesk.com
 90
        0
280
               0
281
               0
  0
CLASS
  1
RTEXT
  2
RText
  3
RText|AutoCAD Express Tool|expresstools@autodesk.com
 90
        0
280
               0
281
               1
  0
CLASS
  1
ARCALIGNEDTEXT
  2
AcDbArcAlignedText
  3
ATEXT|AutoCAD Express Tool|expresstools@autodesk.com
 90
        0
280
               0
281
               1
  0
ENDSEC
  0
SECTION
  2
TABLES
  0
TABLE
  2
VPORT
  5
7
100
AcDbSymbolTable
 70
               1
  0
VPORT
  5
15
100
AcDbSymbolTableRecord
100
AcDbViewportTableRecord
  2
*ACTIVE
 70
               0
 10
0.0
 20
0.0
 11
1.0
 21
1.0
 12
0.0
 22
0.0
 13
0.0
 23
0.0
 14
1.0
 24
1.0
 15
0.0
 25
0.0
 16
0.0
 26
0.0
 36
1.0
 17
0.0
 27
0.0
 37
0.0
 40
514.19100000000003
 41
1.7320508075688772
 42
50.0
 43
0.0
 44
0.0
 50
0.0
 51
0.0
 71
               0
 72
             100
 73
               1
 74
               1
 75
               0
 76
               0
 77
               0
 78
               0
  0
ENDTAB
  0
TABLE
  2
LTYPE
  5
4
100
AcDbSymbolTable
 70
               4
  0
LTYPE
  5
11
100
AcDbSymbolTableRecord
100
AcDbLinetypeTableRecord
  2
BYBLOCK
 70
              64
  3

 72
              65
 73
               0
 40
0.0
  0
LTYPE
  5
12
100
AcDbSymbolTableRecord
100
AcDbLinetypeTableRecord
  2
BYLAYER
 70
              64
  3

 72
              65
 73
               0
 40
0.0
  0
LTYPE
  5
13
100
AcDbSymbolTableRecord
100
AcDbLinetypeTableRecord
  2
CONTINUOUS
 70
              64
  3
Solid line
 72
              65
 73
               0
 40
0.0
  0
LTYPE
  5
61
100
AcDbSymbolTableRecord
100
AcDbLinetypeTableRecord
  2
CENTER
 70
              64
  3
Center ____ _ ____ _ ____ _ ____ _ ____ _ ____
 72
              65
 73
               4
 40
50.800000000000004
 49
31.75
 74
               0
 49
-6.3499999999999996
 74
               0
 49
6.3499999999999996
 74
               0
 49
-6.3499999999999996
 74
               0
  0
ENDTAB
  0
TABLE
  2
LAYER
  5
2
100
AcDbSymbolTable
 70
               2
  0
LAYER
  5
14
100
AcDbSymbolTableRecord
100
AcDbLayerTableRecord
  2
0
 70
               0
 62
               7
  6
CONTINUOUS
  0
LAYER
  5
1D
100
AcDbSymbolTableRecord
100
AcDbLayerTableRecord
  2
DEFPOINTS
 70
               0
 62
               7
  6
CONTINUOUS
  0
ENDTAB
  0
TABLE
  2
STYLE
  5
3
100
AcDbSymbolTable
 70
               1
  0
STYLE
  5
17
100
AcDbSymbolTableRecord
100
AcDbTextStyleTableRecord
  2
MX_NOTE_STANDARD
 70
               0
 40
3.2000000476837158
 41
1.0
 50
0.0
 71
               0
 42
3.2000000476837158
  3
txt.shx
  4
extfont.shx
  0
ENDTAB
  0
TABLE
  2
VIEW
  5
5
100
AcDbSymbolTable
 70
               0
  0
ENDTAB
  0
TABLE
  2
UCS
  5
6
100
AcDbSymbolTable
 70
               0
  0
ENDTAB
  0
TABLE
  2
APPID
  5
8
100
AcDbSymbolTable
 70
               1
  0
APPID
  5
16
100
AcDbSymbolTableRecord
100
AcDbRegAppTableRecord
  2
ACAD
 70
               0
  0
ENDTAB
  0
TABLE
  2
DIMSTYLE
  5
9
100
AcDbSymbolTable
 70
               1
  0
DIMSTYLE
105
18
100
AcDbSymbolTableRecord
100
AcDbDimStyleTableRecord
  2
MXDIMSTYLE
 70
               0
  3

  4

  5

  6

  7

 40
1.0
 41
2.5
 42
1.5
 43
3.75
 44
1.5
 45
0.0
 46
0.0
 47
0.0
 48
0.0
 71
               0
 72
               0
 73
               0
 74
               0
 75
               0
 76
               0
 77
               1
 78
               8
140
3.2000000476837158
141
2.5
142
0.0
143
0.0394
144
1.0
145
0.0
146
1.0
147
1.0
170
               0
171
               4
172
               1
173
               0
174
               0
175
               0
176
               0
177
               0
178
               0
270
               2
271
               4
272
               4
273
               8
274
               4
275
               0
280
               0
281
               0
282
               0
283
               1
284
               0
285
               0
286
               0
287
               3
288
               1
340
17
  0
ENDTAB
  0
TABLE
  2
BLOCK_RECORD
  5
1
100
AcDbSymbolTable
 70
              32
  0
BLOCK_RECORD
  5
A
100
AcDbSymbolTableRecord
100
AcDbBlockTableRecord
  2
*MODEL_SPACE
  0
BLOCK_RECORD
  5
B
100
AcDbSymbolTableRecord
100
AcDbBlockTableRecord
  2
*PAPER_SPACE
  0
BLOCK_RECORD
  5
1E
100
AcDbSymbolTableRecord
100
AcDbBlockTableRecord
  2
MS_1
  0
BLOCK_RECORD
  5
1F
100
AcDbSymbolTableRecord
100
AcDbBlockTableRecord
  2
MS_2
  0
BLOCK_RECORD
  5
20
100
AcDbSymbolTableRecord
100
AcDbBlockTableRecord
  2
MS_3
  0
BLOCK_RECORD
  5
21
100
AcDbSymbolTableRecord
100
AcDbBlockTableRecord
  2
MS_4
  0
BLOCK_RECORD
  5
22
100
AcDbSymbolTableRecord
100
AcDbBlockTableRecord
  2
MS_5
  0
BLOCK_RECORD
  5
23
100
AcDbSymbolTableRecord
100
AcDbBlockTableRecord
  2
MS_6
  0
BLOCK_RECORD
  5
24
100
AcDbSymbolTableRecord
100
AcDbBlockTableRecord
  2
MS_7
  0
BLOCK_RECORD
  5
25
100
AcDbSymbolTableRecord
100
AcDbBlockTableRecord
  2
MS_8
  0
BLOCK_RECORD
  5
26
100
AcDbSymbolTableRecord
100
AcDbBlockTableRecord
  2
MS_9
  0
BLOCK_RECORD
  5
27
100
AcDbSymbolTableRecord
100
AcDbBlockTableRecord
  2
MS_10
  0
BLOCK_RECORD
  5
28
100
AcDbSymbolTableRecord
100
AcDbBlockTableRecord
  2
MS_11
  0
BLOCK_RECORD
  5
29
100
AcDbSymbolTableRecord
100
AcDbBlockTableRecord
  2
MS_12
  0
BLOCK_RECORD
  5
2A
100
AcDbSymbolTableRecord
100
AcDbBlockTableRecord
  2
MS_13
  0
BLOCK_RECORD
  5
2B
100
AcDbSymbolTableRecord
100
AcDbBlockTableRecord
  2
MS_14
  0
BLOCK_RECORD
  5
2C
100
AcDbSymbolTableRecord
100
AcDbBlockTableRecord
  2
MS_15
  0
BLOCK_RECORD
  5
2D
100
AcDbSymbolTableRecord
100
AcDbBlockTableRecord
  2
MS_16
  0
BLOCK_RECORD
  5
2E
100
AcDbSymbolTableRecord
100
AcDbBlockTableRecord
  2
MS_17
  0
BLOCK_RECORD
  5
2F
100
AcDbSymbolTableRecord
100
AcDbBlockTableRecord
  2
MS_18
  0
BLOCK_RECORD
  5
30
100
AcDbSymbolTableRecord
100
AcDbBlockTableRecord
  2
MS_19
  0
BLOCK_RECORD
  5
31
100
AcDbSymbolTableRecord
100
AcDbBlockTableRecord
  2
MS_20
  0
BLOCK_RECORD
  5
32
100
AcDbSymbolTableRecord
100
AcDbBlockTableRecord
  2
MS_21
  0
BLOCK_RECORD
  5
33
100
AcDbSymbolTableRecord
100
AcDbBlockTableRecord
  2
MS_22
  0
BLOCK_RECORD
  5
34
100
AcDbSymbolTableRecord
100
AcDbBlockTableRecord
  2
MS_23
  0
BLOCK_RECORD
  5
35
100
AcDbSymbolTableRecord
100
AcDbBlockTableRecord
  2
MS_24
  0
BLOCK_RECORD
  5
36
100
AcDbSymbolTableRecord
100
AcDbBlockTableRecord
  2
MS_25
  0
BLOCK_RECORD
  5
37
100
AcDbSymbolTableRecord
100
AcDbBlockTableRecord
  2
MS_26
  0
BLOCK_RECORD
  5
38
100
AcDbSymbolTableRecord
100
AcDbBlockTableRecord
  2
MS_27
  0
BLOCK_RECORD
  5
39
100
AcDbSymbolTableRecord
100
AcDbBlockTableRecord
  2
MS_28
  0
BLOCK_RECORD
  5
3A
100
AcDbSymbolTableRecord
100
AcDbBlockTableRecord
  2
MS_29
  0
BLOCK_RECORD
  5
3B
100
AcDbSymbolTableRecord
100
AcDbBlockTableRecord
  2
MS_30
  0
BLOCK_RECORD
  5
3C
100
AcDbSymbolTableRecord
100
AcDbBlockTableRecord
  2
MS_31
  0
BLOCK_RECORD
  5
3D
100
AcDbSymbolTableRecord
100
AcDbBlockTableRecord
  2
MS_32
  0
ENDTAB
  0
ENDSEC
  0
SECTION
  2
BLOCKS
  0
BLOCK
  5
D
100
AcDbEntity
  8
0
100
AcDbBlockBegin
  2
*MODEL_SPACE
 70
               0
 10
0.0
 20
0.0
 30
0.0
  3
*MODEL_SPACE
  1

  0
ENDBLK
  5
E
100
AcDbEntity
  8
0
100
AcDbBlockEnd
  0
BLOCK
  5
F
100
AcDbEntity
 67
               1
  8
0
100
AcDbBlockBegin
  2
*PAPER_SPACE
 70
               0
 10
0.0
 20
0.0
 30
0.0
  3
*PAPER_SPACE
  1

  0
ENDBLK
  5
10
100
AcDbEntity
 67
               1
  8
0
100
AcDbBlockEnd
  0
BLOCK
  5
3E
100
AcDbEntity
  8
0
100
AcDbBlockBegin
  2
MS_1
 70
               0
 10
0.0
 20
0.0
 30
0.0
  3
MS_1
  1

  0
ARC
  5
3F
100
AcDbEntity
  8
0
  6
CONTINUOUS
 62
               7
100
AcDbCircle
 10
0.0000045776397133
 20
31.099995422360287
 30
0.0
 40
3.5000045776427067
100
AcDbArc
 50
90.000074936883422
 51
179.99992506311597
  0
ARC
  5
40
100
AcDbEntity
  8
0
  6
CONTINUOUS
 62
               7
100
AcDbCircle
 10
0.0000045776388138
 20
31.099995422361189
 30
0.0
 40
5.0000045776409099
100
AcDbArc
 50
90.000052455828609
 51
179.99994754417082
  0
ARC
  5
41
100
AcDbEntity
  8
0
  6
CONTINUOUS
 62
               7
100
AcDbCircle
 10
0.0
 20
11.653420448303223
 30
0.0
 40
9.5576583046032422
100
AcDbArc
 50
252.46255417011642
 51
287.53744582988236
  0
ARC
  5
42
100
AcDbEntity
  8
0
  6
CONTINUOUS
 62
               7
100
AcDbCircle
 10
-4.3107478821951775
 20
4.6616905822350132
 30
0.0
 40
2.561762924853026
100
AcDbArc
 50
269.56940766469182
 51
303.68301133616677
  0
ARC
  5
43
100
AcDbEntity
  8
0
  6
CONTINUOUS
 62
               7
100
AcDbCircle
 10
-4.3242733759576852
 20
15.542378042320316
 30
0.0
 40
2.5576283687487136
100
AcDbArc
 50
55.890065949933714
 51
90.128287466093497
  0
ARC
  5
44
100
AcDbEntity
  8
0
  6
CONTINUOUS
 62
               7
100
AcDbCircle
 10
4.3107478821951775
 20
4.6616905822350132
 30
0.0
 40
2.561762924853026
100
AcDbArc
 50
236.31698866383203
 51
270.43059233530698
  0
ARC
  5
45
100
AcDbEntity
  8
0
  6
CONTINUOUS
 62
               7
100
AcDbCircle
 10
0.0
 20
8.5465774536132812
 30
0.0
 40
9.548125578251577
100
AcDbArc
 50
72.444476003825656
 51
107.55552399617396
  0
ARC
  5
46
100
AcDbEntity
  8
0
  6
CONTINUOUS
 62
               7
100
AcDbCircle
 10
4.3242733759576852
 20
15.542378042320316
 30
0.0
 40
2.5576283687487136
100
AcDbArc
 50
89.87171253390612
 51
124.10993405006589
  0
LINE
  5
47
100
AcDbEntity
  8
0
  6
CONTINUOUS
 62
               7
100
AcDbLine
 10
-4.0
 20
0.0
 30
0.0
 11
4.0
 21
0.0
 31
0.0
  0
LINE
  5
48
100
AcDbEntity
  8
0
  6
CONTINUOUS
 62
               7
100
AcDbLine
 10
2.8599999999999999
 20
34.600000000000001
 30
0.0
 11
2.8599999999999999
 21
28.23
 31
0.0
  0
LINE
  5
49
100
AcDbEntity
  8
0
  6
CONTINUOUS
 62
               7
100
AcDbLine
 10
4.3600000000000003
 20
36.100000000000001
 30
0.0
 11
2.8599999999999999
 21
34.600000000000001
 31
0.0
  0
LINE
  5
4A
100
AcDbEntity
  8
0
  6
CONTINUOUS
 62
               7
100
AcDbLine
 10
-3.5
 20
28.23
 30
0.0
 11
2.8599999999999999
 21
28.23
 31
0.0
  0
LINE
  5
4B
100
AcDbEntity
  8
0
  6
CONTINUOUS
 62
               7
100
AcDbLine
 10
-5.0
 20
26.73
 30
0.0
 11
-3.5
 21
28.23
 31
0.0
  0
LINE
  5
4C
100
AcDbEntity
  8
0
  6
CONTINUOUS
 62
               7
100
AcDbLine
 10
5.0
 20
26.100000000000001
 30
0.0
 11
13.0
 21
26.100000000000001
 31
0.0
  0
LINE
  5
4D
100
AcDbEntity
  8
0
  6
CONTINUOUS
 62
               7
100
AcDbLine
 10
4.3600000000000003
 20
36.100000000000001
 30
0.0
 11
4.3600000000000003
 21
26.73
 31
0.0
  0
LINE
  5
4E
100
AcDbEntity
  8
0
  6
CONTINUOUS
 62
               7
100
AcDbLine
 10
0.0
 20
36.100000000000001
 30
0.0
 11
13.0
 21
36.100000000000001
 31
0.0
  0
LINE
  5
4F
100
AcDbEntity
  8
0
  6
CONTINUOUS
 62
               7
100
AcDbLine
 10
13.0
 20
36.100000000000001
 30
0.0
 11
13.0
 21
26.100000000000001
 31
0.0
  0
LINE
  5
50
100
AcDbEntity
  8
0
  6
CONTINUOUS
 62
               7
100
AcDbLine
 10
13.0
 20
35.850000000000001
 30
0.0
 11
14.5
 21
35.850000000000001
 31
0.0
  0
LINE
  5
51
100
AcDbEntity
  8
0
  6
CONTINUOUS
 62
               7
100
AcDbLine
 10
13.0
 20
26.350000000000001
 30
0.0
 11
14.5
 21
26.350000000000001
 31
0.0
  0
LINE
  5
52
100
AcDbEntity
  8
0
  6
CONTINUOUS
 62
               7
100
AcDbLine
 10
14.5
 20
35.850000000000001
 30
0.0
 11
14.5
 21
26.350000000000001
 31
0.0
  0
LINE
  5
53
100
AcDbEntity
  8
0
  6
CONTINUOUS
 62
               7
100
AcDbLine
 10
14.5
 20
28.5
 30
0.0
 11
15.4
 21
28.5
 31
0.0
  0
LINE
  5
54
100
AcDbEntity
  8
0
  6
CONTINUOUS
 62
               7
100
AcDbLine
 10
14.5
 20
33.700000000000003
 30
0.0
 11
15.4
 21
33.700000000000003
 31
0.0
  0
LINE
  5
55
100
AcDbEntity
  8
0
  6
CONTINUOUS
 62
               7
100
AcDbLine
 10
15.4
 20
26.100000000000001
 30
0.0
 11
17.0
 21
26.100000000000001
 31
0.0
  0
LINE
  5
56
100
AcDbEntity
  8
0
  6
CONTINUOUS
 62
               7
100
AcDbLine
 10
15.4
 20
36.100000000000001
 30
0.0
 11
15.4
 21
26.100000000000001
 31
0.0
  0
LINE
  5
57
100
AcDbEntity
  8
0
  6
CONTINUOUS
 62
               7
100
AcDbLine
 10
17.0
 20
36.100000000000001
 30
0.0
 11
17.0
 21
26.100000000000001
 31
0.0
  0
LINE
  5
58
100
AcDbEntity
  8
0
  6
CONTINUOUS
 62
               7
100
AcDbLine
 10
15.4
 20
36.100000000000001
 30
0.0
 11
17.0
 21
36.100000000000001
 31
0.0
  0
LINE
  5
59
100
AcDbEntity
  8
0
  6
CONTINUOUS
 62
               7
100
AcDbLine
 10
-5.0
 20
26.73
 30
0.0
 11
4.3600000000000003
 21
26.73
 31
0.0
  0
LINE
  5
5A
100
AcDbEntity
  8
0
  6
CONTINUOUS
 62
               7
100
AcDbLine
 10
5.0
 20
21.949999999999999
 30
0.0
 11
9.1400000000000006
 21
26.100000000000001
 31
0.0
  0
LINE
  5
5B
100
AcDbEntity
  8
0
  6
CONTINUOUS
 62
               7
100
AcDbLine
 10
5.0
 20
26.100000000000001
 30
0.0
 11
2.8599999999999999
 21
28.23
 31
0.0
  0
LINE
  5
5C
100
AcDbEntity
  8
0
  6
CONTINUOUS
 62
               7
100
AcDbLine
 10
0.0
 20
34.600000000000001
 30
0.0
 11
2.8599999999999999
 21
34.600000000000001
 31
0.0
  0
LINE
  5
5D
100
AcDbEntity
  8
0
  6
CONTINUOUS
 62
               7
100
AcDbLine
 10
-3.5
 20
28.23
 30
0.0
 11
-3.5
 21
31.100000000000001
 31
0.0
  0
LINE
  5
5E
100
AcDbEntity
  8
0
  6
CONTINUOUS
 62
               7
100
AcDbLine
 10
-5.0
 20
18.100000000000001
 30
0.0
 11
-5.0
 21
31.100000000000001
 31
0.0
  0
LINE
  5
5F
100
AcDbEntity
  8
0
  6
CONTINUOUS
 62
               7
100
AcDbLine
 10
5.0
 20
18.100000000000001
 30
0.0
 11
5.0
 21
26.100000000000001
 31
0.0
  0
LINE
  5
60
100
AcDbEntity
  8
0
  6
CONTINUOUS
 62
               7
100
AcDbLine
 10
-5.0
 20
18.100000000000001
 30
0.0
 11
5.0
 21
18.100000000000001
 31
0.0
  0
LINE
  5
62
100
AcDbEntity
  8
0
  6
CENTER
 62
               2
100
AcDbLine
 10
-6.5899999999999999
 20
31.100000000000001
 30
0.0
 11
19.09
 21
31.100000000000001
 31
0.0
  0
LINE
  5
63
100
AcDbEntity
  8
0
  6
CONTINUOUS
 62
               7
100
AcDbLine
 10
-4.0
 20
0.6
 30
0.0
 11
4.0
 21
0.6
 31
0.0
  0
LINE
  5
64
100
AcDbEntity
  8
0
  6
CONTINUOUS
 62
               7
100
AcDbLine
 10
4.0
 20
0.0
 30
0.0
 11
4.0
 21
2.1000000000000001
 31
0.0
  0
LINE
  5
65
100
AcDbEntity
  8
0
  6
CONTINUOUS
 62
               7
100
AcDbLine
 10
-4.0
 20
0.0
 30
0.0
 11
-4.0
 21
2.1000000000000001
 31
0.0
  0
LINE
  5
66
100
AcDbEntity
  8
0
  6
CONTINUOUS
 62
               7
100
AcDbLine
 10
-2.5
 20
-3.3999999999999999
 30
0.0
 11
-2.5
 21
0.0
 31
0.0
  0
LINE
  5
67
100
AcDbEntity
  8
0
  6
CONTINUOUS
 62
               2
100
AcDbLine
 10
-2.0600000000000001
 20
-3.3999999999999999
 30
0.0
 11
-2.0600000000000001
 21
0.0
 31
0.0
  0
LINE
  5
68
100
AcDbEntity
  8
0
  6
CONTINUOUS
 62
               2
100
AcDbLine
 10
2.0600000000000001
 20
-3.3999999999999999
 30
0.0
 11
2.0600000000000001
 21
0.0
 31
0.0
  0
LINE
  5
69
100
AcDbEntity
  8
0
  6
CONTINUOUS
 62
               7
100
AcDbLine
 10
2.5
 20
-3.3999999999999999
 30
0.0
 11
2.5
 21
0.0
 31
0.0
  0
LINE
  5
6A
100
AcDbEntity
  8
0
  6
CONTINUOUS
 62
               7
100
AcDbLine
 10
-2.5
 20
-3.3999999999999999
 30
0.0
 11
2.5
 21
-3.3999999999999999
 31
0.0
  0
LINE
  5
6B
100
AcDbEntity
  8
0
  6
CONTINUOUS
 62
               7
100
AcDbLine
 10
-5.0
 20
2.1000000000000001
 30
0.0
 11
5.0
 21
2.1000000000000001
 31
0.0
  0
LINE
  5
6C
100
AcDbEntity
  8
0
  6
CONTINUOUS
 62
               7
100
AcDbLine
 10
-5.7699999999999996
 20
2.54
 30
0.0
 11
-5.7699999999999996
 21
17.649999999999999
 31
0.0
  0
LINE
  5
6D
100
AcDbEntity
  8
0
  6
CONTINUOUS
 62
               7
100
AcDbLine
 10
-5.7699999999999996
 20
2.54
 30
0.0
 11
-5.0
 21
2.1000000000000001
 31
0.0
  0
LINE
  5
6E
100
AcDbEntity
  8
0
  6
CONTINUOUS
 62
               7
100
AcDbLine
 10
-5.7699999999999996
 20
17.649999999999999
 30
0.0
 11
-5.0
 21
18.100000000000001
 31
0.0
  0
LINE
  5
6F
100
AcDbEntity
  8
0
  6
CONTINUOUS
 62
               7
100
AcDbLine
 10
5.7699999999999996
 20
2.54
 30
0.0
 11
5.0
 21
2.1000000000000001
 31
0.0
  0
LINE
  5
70
100
AcDbEntity
  8
0
  6
CONTINUOUS
 62
               7
100
AcDbLine
 10
-2.8799999999999999
 20
2.54
 30
0.0
 11
-2.8799999999999999
 21
17.649999999999999
 31
0.0
  0
LINE
  5
71
100
AcDbEntity
  8
0
  6
CONTINUOUS
 62
               7
100
AcDbLine
 10
5.7699999999999996
 20
17.649999999999999
 30
0.0
 11
5.0
 21
18.100000000000001
 31
0.0
  0
LINE
  5
72
100
AcDbEntity
  8
0
  6
CONTINUOUS
 62
               7
100
AcDbLine
 10
2.8799999999999999
 20
2.54
 30
0.0
 11
2.8799999999999999
 21
17.649999999999999
 31
0.0
  0
LINE
  5
73
100
AcDbEntity
  8
0
  6
CONTINUOUS
 62
               7
100
AcDbLine
 10
5.7699999999999996
 20
2.54
 30
0.0
 11
5.7699999999999996
 21
17.649999999999999
 31
0.0
  0
LINE
  5
74
100
AcDbEntity
  8
0
  6
CENTER
 62
               2
100
AcDbLine
 10
0.0
 20
-5.7199999999999998
 30
0.0
 11
0.0
 21
37.759999999999998
 31
0.0
  0
ENDBLK
  5
75
100
AcDbEntity
  8
0
100
AcDbBlockEnd
  0
BLOCK
  5
76
100
AcDbEntity
  8
0
100
AcDbBlockBegin
  2
MS_2
 70
               0
 10
0.0
 20
0.0
 30
0.0
  3
MS_2
  1

  0
ARC
  5
77
100
AcDbEntity
  8
0
  6
CONTINUOUS
 62
               7
100
AcDbCircle
 10
0.0026370273633201
 20
-0.0019663833331509
 30
0.0
 40
3.498034610641334
100
AcDbArc
 50
196.57753965494101
 51
269.95680701607921
  0
ARC
  5
78
100
AcDbEntity
  8
0
  6
CONTINUOUS
 62
               7
100
AcDbCircle
 10
0.0026370273633201
 20
0.0019663833331509
 30
0.0
 40
3.498034610641334
100
AcDbArc
 50
90.04319298391998
 51
163.4224603450582
  0
ARC
  5
79
100
AcDbEntity
  8
0
  6
CONTINUOUS
 62
               7
100
AcDbCircle
 10
0.0000000000000004
 20
0.0
 30
0.0
 40
4.9908816856343128
100
AcDbArc
 50
50.120935131324508
 51
309.87906486867467
  0
LINE
  5
7A
100
AcDbEntity
  8
0
  6
CONTINUOUS
 62
               7
100
AcDbLine
 10
2.8599999999999999
 20
-3.5
 30
0.0
 11
2.8599999999999999
 21
-1.0
 31
0.0
  0
LINE
  5
7B
100
AcDbEntity
  8
0
  6
CONTINUOUS
 62
               7
100
AcDbLine
 10
4.3600000000000003
 20
-5.0
 30
0.0
 11
2.8599999999999999
 21
-3.5
 31
0.0
  0
LINE
  5
7C
100
AcDbEntity
  8
0
  6
CONTINUOUS
 62
               7
100
AcDbLine
 10
2.8599999999999999
 20
3.5
 30
0.0
 11
2.8599999999999999
 21
1.0
 31
0.0
  0
LINE
  5
7D
100
AcDbEntity
  8
0
  6
CONTINUOUS
 62
               7
100
AcDbLine
 10
4.3600000000000003
 20
5.0
 30
0.0
 11
2.8599999999999999
 21
3.5
 31
0.0
  0
LINE
  5
7E
100
AcDbEntity
  8
0
  6
CONTINUOUS
 62
               7
100
AcDbLine
 10
-4.8899999999999997
 20
1.0
 30
0.0
 11
4.3600000000000003
 21
1.0
 31
0.0
  0
LINE
  5
7F
100
AcDbEntity
  8
0
  6
CONTINUOUS
 62
               7
100
AcDbLine
 10
4.3600000000000003
 20
-1.0
 30
0.0
 11
4.3600000000000003
 21
-5.0
 31
0.0
  0
LINE
  5
80
100
AcDbEntity
  8
0
  6
CONTINUOUS
 62
               7
100
AcDbLine
 10
-4.8899999999999997
 20
-1.0
 30
0.0
 11
4.3600000000000003
 21
-1.0
 31
0.0
  0
LINE
  5
81
100
AcDbEntity
  8
0
  6
CONTINUOUS
 62
               7
100
AcDbLine
 10
0.0
 20
-3.5
 30
0.0
 11
2.8599999999999999
 21
-3.5
 31
0.0
  0
LINE
  5
82
100
AcDbEntity
  8
0
  6
CONTINUOUS
 62
               7
100
AcDbLine
 10
0.0
 20
3.5
 30
0.0
 11
2.8599999999999999
 21
3.5
 31
0.0
  0
LINE
  5
83
100
AcDbEntity
  8
0
  6
CONTINUOUS
 62
               7
100
AcDbLine
 10
13.0
 20
-4.75
 30
0.0
 11
14.5
 21
-4.75
 31
0.0
  0
LINE
  5
84
100
AcDbEntity
  8
0
  6
CONTINUOUS
 62
               7
100
AcDbLine
 10
13.0
 20
4.75
 30
0.0
 11
14.5
 21
4.75
 31
0.0
  0
LINE
  5
85
100
AcDbEntity
  8
0
  6
CONTINUOUS
 62
               7
100
AcDbLine
 10
4.3600000000000003
 20
5.0
 30
0.0
 11
4.3600000000000003
 21
1.0
 31
0.0
  0
LINE
  5
86
100
AcDbEntity
  8
0
  6
CONTINUOUS
 62
               7
100
AcDbLine
 10
4.3600000000000003
 20
5.0
 30
0.0
 11
13.0
 21
5.0
 31
0.0
  0
LINE
  5
87
100
AcDbEntity
  8
0
  6
CONTINUOUS
 62
               7
100
AcDbLine
 10
4.3600000000000003
 20
-5.0
 30
0.0
 11
13.0
 21
-5.0
 31
0.0
  0
LINE
  5
88
100
AcDbEntity
  8
0
  6
CONTINUOUS
 62
               7
100
AcDbLine
 10
15.4
 20
5.0
 30
0.0
 11
17.0
 21
5.0
 31
0.0
  0
LINE
  5
89
100
AcDbEntity
  8
0
  6
CONTINUOUS
 62
               7
100
AcDbLine
 10
17.0
 20
5.0
 30
0.0
 11
17.0
 21
-5.0
 31
0.0
  0
LINE
  5
8A
100
AcDbEntity
  8
0
  6
CONTINUOUS
 62
               7
100
AcDbLine
 10
15.4
 20
-5.0
 30
0.0
 11
17.0
 21
-5.0
 31
0.0
  0
LINE
  5
8B
100
AcDbEntity
  8
0
  6
CONTINUOUS
 62
               7
100
AcDbLine
 10
15.4
 20
5.0
 30
0.0
 11
15.4
 21
-5.0
 31
0.0
  0
LINE
  5
8C
100
AcDbEntity
  8
0
  6
CONTINUOUS
 62
               7
100
AcDbLine
 10
14.5
 20
-2.6000000000000001
 30
0.0
 11
15.4
 21
-2.6000000000000001
 31
0.0
  0
LINE
  5
8D
100
AcDbEntity
  8
0
  6
CONTINUOUS
 62
               7
100
AcDbLine
 10
14.5
 20
2.6000000000000001
 30
0.0
 11
15.4
 21
2.6000000000000001
 31
0.0
  0
LINE
  5
8E
100
AcDbEntity
  8
0
  6
CONTINUOUS
 62
               7
100
AcDbLine
 10
14.5
 20
4.75
 30
0.0
 11
14.5
 21
-4.75
 31
0.0
  0
LINE
  5
8F
100
AcDbEntity
  8
0
  6
CONTINUOUS
 62
               7
100
AcDbLine
 10
-2.8799999999999999
 20
-5.0
 30
0.0
 11
2.8799999999999999
 21
-5.0
 31
0.0
  0
LINE
  5
90
100
AcDbEntity
  8
0
  6
CONTINUOUS
 62
               7
100
AcDbLine
 10
-5.7699999999999996
 20
0.0
 30
0.0
 11
-2.8799999999999999
 21
-5.0
 31
0.0
  0
LINE
  5
91
100
AcDbEntity
  8
0
  6
CONTINUOUS
 62
               7
100
AcDbLine
 10
-2.8799999999999999
 20
5.0
 30
0.0
 11
-5.7699999999999996
 21
0.0
 31
0.0
  0
LINE
  5
92
100
AcDbEntity
  8
0
  6
CONTINUOUS
 62
               7
100
AcDbLine
 10
2.8799999999999999
 20
5.0
 30
0.0
 11
-2.8799999999999999
 21
5.0
 31
0.0
  0
LINE
  5
93
100
AcDbEntity
  8
0
  6
CONTINUOUS
 62
               7
100
AcDbLine
 10
3.4199999999999999
 20
4.0599999999999996
 30
0.0
 11
2.8799999999999999
 21
5.0
 31
0.0
  0
LINE
  5
94
100
AcDbEntity
  8
0
  6
CONTINUOUS
 62
               7
100
AcDbLine
 10
2.8799999999999999
 20
-5.0
 30
0.0
 11
3.4199999999999999
 21
-4.0599999999999996
 31
0.0
  0
LINE
  5
95
100
AcDbEntity
  8
0
  6
CONTINUOUS
 62
               7
100
AcDbLine
 10
13.0
 20
5.0
 30
0.0
 11
13.0
 21
-5.0
 31
0.0
  0
LINE
  5
96
100
AcDbEntity
  8
0
  6
CENTER
 62
               2
100
AcDbLine
 10
-6.5
 20
0.0
 30
0.0
 11
19.140000000000001
 21
0.0
 31
0.0
  0
LINE
  5
97
100
AcDbEntity
  8
0
  6
CENTER
 62
               2
100
AcDbLine
 10
0.0
 20
-6.5
 30
0.0
 11
0.0
 21
6.5
 31
0.0
  0
ENDBLK
  5
98
100
AcDbEntity
  8
0
100
AcDbBlockEnd
  0
BLOCK
  5
99
100
AcDbEntity
  8
0
100
AcDbBlockBegin
  2
MS_3
 70
               0
 10
0.0
 20
0.0
 30
0.0
  3
MS_3
  1

  0
ARC
  5
9A
100
AcDbEntity
  8
0
  6
CONTINUOUS
 62
               7
100
AcDbCircle
 10
-0.0019619994147262
 20
31.097359701055773
 30
0.0
 40
3.4980389970263532
100
AcDbArc
 50
106.57759318732641
 51
179.95675348369434
  0
ARC
  5
9B
100
AcDbEntity
  8
0
  6
CONTINUOUS
 62
               7
100
AcDbCircle
 10
0.0019619994147262
 20
31.097359701055773
 30
0.0
 40
3.4980389970263532
100
AcDbArc
 50
0.0432465163052684
 51
73.422406812673188
  0
ARC
  5
9C
100
AcDbEntity
  8
0
  6
CONTINUOUS
 62
               7
100
AcDbCircle
 10
0.0
 20
31.099990844726562
 30
0.0
 40
4.9972933897489291
100
AcDbArc
 50
320.0330305187673
 51
219.96696948123147
  0
ARC
  5
9D
100
AcDbEntity
  8
0
  6
CONTINUOUS
 62
               7
100
AcDbCircle
 10
-2.5
 20
10.87908935546875
 30
0.0
 40
7.2177026092951877
100
AcDbArc
 50
69.734515103686277
 51
110.26548489631334
  0
ARC
  5
9E
100
AcDbEntity
  8
0
  6
CONTINUOUS
 62
               7
100
AcDbCircle
 10
2.5
 20
10.87908935546875
 30
0.0
 40
7.2177026092951877
100
AcDbArc
 50
69.734515103686277
 51
110.26548489631334
  0
ARC
  5
9F
100
AcDbEntity
  8
0
  6
CONTINUOUS
 62
               7
100
AcDbCircle
 10
-2.5
 20
9.3209075927734375
 30
0.0
 40
7.227081553554827
100
AcDbArc
 50
249.76196673527841
 51
290.23803326472034
  0
ARC
  5
A0
100
AcDbEntity
  8
0
  6
CONTINUOUS
 62
               7
100
AcDbCircle
 10
2.5
 20
9.3209075927734375
 30
0.0
 40
7.227081553554827
100
AcDbArc
 50
249.76196673527841
 51
290.23803326472034
  0
LINE
  5
A1
100
AcDbEntity
  8
0
  6
CONTINUOUS
 62
               7
100
AcDbLine
 10
-4.0
 20
0.0
 30
0.0
 11
4.0
 21
0.0
 31
0.0
  0
LINE
  5
A2
100
AcDbEntity
  8
0
  6
CONTINUOUS
 62
               7
100
AcDbLine
 10
3.5
 20
28.23
 30
0.0
 11
1.0
 21
28.23
 31
0.0
  0
LINE
  5
A3
100
AcDbEntity
  8
0
  6
CONTINUOUS
 62
               7
100
AcDbLine
 10
5.0
 20
26.73
 30
0.0
 11
3.5
 21
28.23
 31
0.0
  0
LINE
  5
A4
100
AcDbEntity
  8
0
  6
CONTINUOUS
 62
               7
100
AcDbLine
 10
3.5
 20
28.23
 30
0.0
 11
3.5
 21
31.100000000000001
 31
0.0
  0
LINE
  5
A5
100
AcDbEntity
  8
0
  6
CONTINUOUS
 62
               7
100
AcDbLine
 10
-3.5
 20
28.23
 30
0.0
 11
-3.5
 21
31.100000000000001
 31
0.0
  0
LINE
  5
A6
100
AcDbEntity
  8
0
  6
CONTINUOUS
 62
               7
100
AcDbLine
 10
-3.5
 20
28.23
 30
0.0
 11
-1.0
 21
28.23
 31
0.0
  0
LINE
  5
A7
100
AcDbEntity
  8
0
  6
CONTINUOUS
 62
               7
100
AcDbLine
 10
-5.0
 20
26.73
 30
0.0
 11
-3.5
 21
28.23
 31
0.0
  0
LINE
  5
A8
100
AcDbEntity
  8
0
  6
CONTINUOUS
 62
               7
100
AcDbLine
 10
1.0
 20
26.73
 30
0.0
 11
5.0
 21
26.73
 31
0.0
  0
LINE
  5
A9
100
AcDbEntity
  8
0
  6
CONTINUOUS
 62
               7
100
AcDbLine
 10
-1.0
 20
26.73
 30
0.0
 11
-1.0
 21
35.990000000000002
 31
0.0
  0
LINE
  5
AA
100
AcDbEntity
  8
0
  6
CONTINUOUS
 62
               7
100
AcDbLine
 10
1.0
 20
26.73
 30
0.0
 11
1.0
 21
35.990000000000002
 31
0.0
  0
LINE
  5
AB
100
AcDbEntity
  8
0
  6
CENTER
 62
               2
100
AcDbLine
 10
-7.0
 20
31.100000000000001
 30
0.0
 11
7.0
 21
31.100000000000001
 31
0.0
  0
LINE
  5
AC
100
AcDbEntity
  8
0
  6
CONTINUOUS
 62
               7
100
AcDbLine
 10
-5.0
 20
26.73
 30
0.0
 11
-1.0
 21
26.73
 31
0.0
  0
LINE
  5
AD
100
AcDbEntity
  8
0
  6
CONTINUOUS
 62
               7
100
AcDbLine
 10
-4.0
 20
0.0
 30
0.0
 11
-4.0
 21
2.1000000000000001
 31
0.0
  0
LINE
  5
AE
100
AcDbEntity
  8
0
  6
CONTINUOUS
 62
               7
100
AcDbLine
 10
4.0
 20
0.0
 30
0.0
 11
4.0
 21
2.1000000000000001
 31
0.0
  0
LINE
  5
AF
100
AcDbEntity
  8
0
  6
CONTINUOUS
 62
               7
100
AcDbLine
 10
-4.0
 20
0.6
 30
0.0
 11
4.0
 21
0.6
 31
0.0
  0
LINE
  5
B0
100
AcDbEntity
  8
0
  6
CONTINUOUS
 62
               2
100
AcDbLine
 10
-2.0600000000000001
 20
-3.3999999999999999
 30
0.0
 11
-2.0600000000000001
 21
0.0
 31
0.0
  0
LINE
  5
B1
100
AcDbEntity
  8
0
  6
CONTINUOUS
 62
               2
100
AcDbLine
 10
2.0600000000000001
 20
-3.3999999999999999
 30
0.0
 11
2.0600000000000001
 21
0.0
 31
0.0
  0
LINE
  5
B2
100
AcDbEntity
  8
0
  6
CONTINUOUS
 62
               7
100
AcDbLine
 10
-2.5
 20
-3.3999999999999999
 30
0.0
 11
-2.5
 21
0.0
 31
0.0
  0
LINE
  5
B3
100
AcDbEntity
  8
0
  6
CONTINUOUS
 62
               7
100
AcDbLine
 10
2.5
 20
-3.3999999999999999
 30
0.0
 11
2.5
 21
0.0
 31
0.0
  0
LINE
  5
B4
100
AcDbEntity
  8
0
  6
CONTINUOUS
 62
               7
100
AcDbLine
 10
-2.5
 20
-3.3999999999999999
 30
0.0
 11
2.5
 21
-3.3999999999999999
 31
0.0
  0
LINE
  5
B5
100
AcDbEntity
  8
0
  6
CONTINUOUS
 62
               7
100
AcDbLine
 10
-5.0
 20
2.1000000000000001
 30
0.0
 11
5.0
 21
2.1000000000000001
 31
0.0
  0
LINE
  5
B6
100
AcDbEntity
  8
0
  6
CONTINUOUS
 62
               7
100
AcDbLine
 10
-5.0
 20
2.1000000000000001
 30
0.0
 11
-5.0
 21
26.73
 31
0.0
  0
LINE
  5
B7
100
AcDbEntity
  8
0
  6
CONTINUOUS
 62
               7
100
AcDbLine
 10
0.0
 20
2.54
 30
0.0
 11
0.0
 21
17.649999999999999
 31
0.0
  0
LINE
  5
B8
100
AcDbEntity
  8
0
  6
CONTINUOUS
 62
               7
100
AcDbLine
 10
5.0
 20
2.1000000000000001
 30
0.0
 11
5.0
 21
26.73
 31
0.0
  0
LINE
  5
B9
100
AcDbEntity
  8
0
  6
CENTER
 62
               2
100
AcDbLine
 10
0.0
 20
-5.5899999999999999
 30
0.0
 11
0.0
 21
37.659999999999997
 31
0.0
  0
LINE
  5
BA
100
AcDbEntity
  8
0
  6
CONTINUOUS
 62
               7
100
AcDbLine
 10
-5.0
 20
18.100000000000001
 30
0.0
 11
5.0
 21
18.100000000000001
 31
0.0
  0
ENDBLK
  5
BB
100
AcDbEntity
  8
0
100
AcDbBlockEnd
  0
BLOCK
  5
BC
100
AcDbEntity
  8
0
100
AcDbBlockBegin
  2
MS_4
 70
               0
 10
0.0
 20
0.0
 30
0.0
  3
MS_4
  1

  0
CIRCLE
  5
BD
100
AcDbEntity
  8
0
  6
CONTINUOUS
 62
               7
100
AcDbCircle
 10
0.0
 20
31.099990844726562
 30
0.0
 40
2.0
  0
CIRCLE
  5
BE
100
AcDbEntity
  8
0
  6
CONTINUOUS
 62
               7
100
AcDbCircle
 10
0.0
 20
31.099990844726562
 30
0.0
 40
5.0
  0
ARC
  5
BF
100
AcDbEntity
  8
0
  6
CONTINUOUS
 62
               7
100
AcDbCircle
 10
2.5
 20
10.87908935546875
 30
0.0
 40
7.2177026092951877
100
AcDbArc
 50
69.734515103686277
 51
110.26548489631334
  0
ARC
  5
C0
100
AcDbEntity
  8
0
  6
CONTINUOUS
 62
               7
100
AcDbCircle
 10
-2.5
 20
10.87908935546875
 30
0.0
 40
7.2177026092951877
100
AcDbArc
 50
69.734515103686277
 51
110.26548489631334
  0
ARC
  5
C1
100
AcDbEntity
  8
0
  6
CONTINUOUS
 62
               7
100
AcDbCircle
 10
2.5
 20
9.3209075927734375
 30
0.0
 40
7.227081553554827
100
AcDbArc
 50
249.76196673527841
 51
290.23803326472034
  0
ARC
  5
C2
100
AcDbEntity
  8
0
  6
CONTINUOUS
 62
               7
100
AcDbCircle
 10
-2.5
 20
9.3209075927734375
 30
0.0
 40
7.227081553554827
100
AcDbArc
 50
249.76196673527841
 51
290.23803326472034
  0
LINE
  5
C3
100
AcDbEntity
  8
0
  6
CONTINUOUS
 62
               7
100
AcDbLine
 10
4.0
 20
0.0
 30
0.0
 11
-4.0
 21
0.0
 31
0.0
  0
LINE
  5
C4
100
AcDbEntity
  8
0
  6
CONTINUOUS
 62
               7
100
AcDbLine
 10
-5.0
 20
26.73
 30
0.0
 11
-3.8300000000000001
 21
27.890000000000001
 31
0.0
  0
LINE
  5
C5
100
AcDbEntity
  8
0
  6
CONTINUOUS
 62
               7
100
AcDbLine
 10
5.0
 20
26.73
 30
0.0
 11
3.8300000000000001
 21
27.890000000000001
 31
0.0
  0
LINE
  5
C6
100
AcDbEntity
  8
0
  6
CONTINUOUS
 62
               7
100
AcDbLine
 10
-1.0
 20
21.949999999999999
 30
0.0
 11
1.0
 21
21.949999999999999
 31
0.0
  0
LINE
  5
C7
100
AcDbEntity
  8
0
  6
CONTINUOUS
 62
               7
100
AcDbLine
 10
-1.0
 20
21.949999999999999
 30
0.0
 11
-1.0
 21
26.199999999999999
 31
0.0
  0
LINE
  5
C8
100
AcDbEntity
  8
0
  6
CONTINUOUS
 62
               7
100
AcDbLine
 10
1.0
 20
21.949999999999999
 30
0.0
 11
1.0
 21
26.199999999999999
 31
0.0
  0
LINE
  5
C9
100
AcDbEntity
  8
0
  6
CONTINUOUS
 62
               7
100
AcDbLine
 10
-2.4300000000000002
 20
26.73
 30
0.0
 11
-5.0
 21
26.73
 31
0.0
  0
LINE
  5
CA
100
AcDbEntity
  8
0
  6
CENTER
 62
               2
100
AcDbLine
 10
7.0
 20
31.100000000000001
 30
0.0
 11
-7.0
 21
31.100000000000001
 31
0.0
  0
LINE
  5
CB
100
AcDbEntity
  8
0
  6
CONTINUOUS
 62
               7
100
AcDbLine
 10
5.0
 20
26.73
 30
0.0
 11
2.4300000000000002
 21
26.73
 31
0.0
  0
LINE
  5
CC
100
AcDbEntity
  8
0
  6
CONTINUOUS
 62
               7
100
AcDbLine
 10
4.0
 20
0.0
 30
0.0
 11
4.0
 21
2.1000000000000001
 31
0.0
  0
LINE
  5
CD
100
AcDbEntity
  8
0
  6
CONTINUOUS
 62
               7
100
AcDbLine
 10
-4.0
 20
0.0
 30
0.0
 11
-4.0
 21
2.1000000000000001
 31
0.0
  0
LINE
  5
CE
100
AcDbEntity
  8
0
  6
CONTINUOUS
 62
               7
100
AcDbLine
 10
4.0
 20
0.6
 30
0.0
 11
-4.0
 21
0.6
 31
0.0
  0
LINE
  5
CF
100
AcDbEntity
  8
0
  6
CONTINUOUS
 62
               2
100
AcDbLine
 10
2.0600000000000001
 20
-3.3999999999999999
 30
0.0
 11
2.0600000000000001
 21
0.0
 31
0.0
  0
LINE
  5
D0
100
AcDbEntity
  8
0
  6
CONTINUOUS
 62
               2
100
AcDbLine
 10
-2.0600000000000001
 20
-3.3999999999999999
 30
0.0
 11
-2.0600000000000001
 21
0.0
 31
0.0
  0
LINE
  5
D1
100
AcDbEntity
  8
0
  6
CONTINUOUS
 62
               7
100
AcDbLine
 10
2.5
 20
-3.3999999999999999
 30
0.0
 11
2.5
 21
0.0
 31
0.0
  0
LINE
  5
D2
100
AcDbEntity
  8
0
  6
CONTINUOUS
 62
               7
100
AcDbLine
 10
-2.5
 20
-3.3999999999999999
 30
0.0
 11
-2.5
 21
0.0
 31
0.0
  0
LINE
  5
D3
100
AcDbEntity
  8
0
  6
CONTINUOUS
 62
               7
100
AcDbLine
 10
2.5
 20
-3.3999999999999999
 30
0.0
 11
-2.5
 21
-3.3999999999999999
 31
0.0
  0
LINE
  5
D4
100
AcDbEntity
  8
0
  6
CONTINUOUS
 62
               7
100
AcDbLine
 10
5.0
 20
2.1000000000000001
 30
0.0
 11
-5.0
 21
2.1000000000000001
 31
0.0
  0
LINE
  5
D5
100
AcDbEntity
  8
0
  6
CONTINUOUS
 62
               7
100
AcDbLine
 10
5.0
 20
2.1000000000000001
 30
0.0
 11
5.0
 21
26.73
 31
0.0
  0
LINE
  5
D6
100
AcDbEntity
  8
0
  6
CONTINUOUS
 62
               7
100
AcDbLine
 10
0.0
 20
2.54
 30
0.0
 11
0.0
 21
17.640000000000001
 31
0.0
  0
LINE
  5
D7
100
AcDbEntity
  8
0
  6
CONTINUOUS
 62
               7
100
AcDbLine
 10
-5.0
 20
2.1000000000000001
 30
0.0
 11
-5.0
 21
26.73
 31
0.0
  0
LINE
  5
D8
100
AcDbEntity
  8
0
  6
CENTER
 62
               2
100
AcDbLine
 10
0.0
 20
-5.8600000000000003
 30
0.0
 11
0.0
 21
38.890000000000001
 31
0.0
  0
LINE
  5
D9
100
AcDbEntity
  8
0
  6
CONTINUOUS
 62
               7
100
AcDbLine
 10
5.0
 20
18.100000000000001
 30
0.0
 11
-5.0
 21
18.100000000000001
 31
0.0
  0
ENDBLK
  5
DA
100
AcDbEntity
  8
0
100
AcDbBlockEnd
  0
BLOCK
  5
DB
100
AcDbEntity
  8
0
100
AcDbBlockBegin
  2
MS_5
 70
               0
 10
0.0
 20
0.0
 30
0.0
  3
MS_5
  1

  0
ARC
  5
DC
100
AcDbEntity
  8
0
  6
CONTINUOUS
 62
               7
100
AcDbCircle
 10
0.0000000000000002
 20
33.0
 30
0.0
 40
3.5
100
AcDbArc
 50
89.999999999999815
 51
179.9999999999996
  0
ARC
  5
DD
100
AcDbEntity
  8
0
  6
CONTINUOUS
 62
               7
100
AcDbCircle
 10
-0.0000000000000004
 20
33.0
 30
0.0
 40
5.0
100
AcDbArc
 50
89.999999999999801
 51
179.9999999999996
  0
ARC
  5
DE
100
AcDbEntity
  8
0
  6
CONTINUOUS
 62
               7
100
AcDbCircle
 10
0.0
 20
13.553421020507813
 30
0.0
 40
9.5576588502118884
100
AcDbArc
 50
252.46255520374243
 51
287.53744479625635
  0
ARC
  5
DF
100
AcDbEntity
  8
0
  6
CONTINUOUS
 62
               7
100
AcDbCircle
 10
-4.3107479586656616
 20
6.5616908383222157
 30
0.0
 40
2.5617631803583087
100
AcDbArc
 50
269.56940941800787
 51
303.68300958285079
  0
ARC
  5
E0
100
AcDbEntity
  8
0
  6
CONTINUOUS
 62
               7
100
AcDbCircle
 10
-4.3242749984267483
 20
17.44237273242156
 30
0.0
 40
2.5576336750019095
100
AcDbArc
 50
55.890102562522344
 51
90.128250853504866
  0
ARC
  5
E1
100
AcDbEntity
  8
0
  6
CONTINUOUS
 62
               7
100
AcDbCircle
 10
4.3107480387151904
 20
6.561691106395056
 30
0.0
 40
2.5617634478219951
100
AcDbArc
 50
236.31699225252405
 51
270.43058874661494
  0
ARC
  5
E2
100
AcDbEntity
  8
0
  6
CONTINUOUS
 62
               7
100
AcDbCircle
 10
0.0
 20
10.446578979492187
 30
0.0
 40
9.5481241234403473
100
AcDbArc
 50
72.444473241982493
 51
107.55552675801711
  0
ARC
  5
E3
100
AcDbEntity
  8
0
  6
CONTINUOUS
 62
               7
100
AcDbCircle
 10
4.3242750804720211
 20
17.442372463909759
 30
0.0
 40
2.5576339433293911
100
AcDbArc
 50
89.871750997921879
 51
124.10989558605011
  0
LINE
  5
E4
100
AcDbEntity
  8
0
  6
CONTINUOUS
 62
               7
100
AcDbLine
 10
2.8599999999999999
 20
36.5
 30
0.0
 11
2.8599999999999999
 21
30.129999999999999
 31
0.0
  0
LINE
  5
E5
100
AcDbEntity
  8
0
  6
CONTINUOUS
 62
               7
100
AcDbLine
 10
4.3600000000000003
 20
38.0
 30
0.0
 11
2.8599999999999999
 21
36.5
 31
0.0
  0
LINE
  5
E6
100
AcDbEntity
  8
0
  6
CONTINUOUS
 62
               7
100
AcDbLine
 10
-3.5
 20
30.129999999999999
 30
0.0
 11
2.8599999999999999
 21
30.129999999999999
 31
0.0
  0
LINE
  5
E7
100
AcDbEntity
  8
0
  6
CONTINUOUS
 62
               7
100
AcDbLine
 10
-5.0
 20
28.629999999999999
 30
0.0
 11
-3.5
 21
30.129999999999999
 31
0.0
  0
LINE
  5
E8
100
AcDbEntity
  8
0
  6
CONTINUOUS
 62
               7
100
AcDbLine
 10
5.0
 20
28.0
 30
0.0
 11
13.0
 21
28.0
 31
0.0
  0
LINE
  5
E9
100
AcDbEntity
  8
0
  6
CONTINUOUS
 62
               7
100
AcDbLine
 10
4.3600000000000003
 20
38.0
 30
0.0
 11
4.3600000000000003
 21
28.629999999999999
 31
0.0
  0
LINE
  5
EA
100
AcDbEntity
  8
0
  6
CONTINUOUS
 62
               7
100
AcDbLine
 10
0.0
 20
38.0
 30
0.0
 11
13.0
 21
38.0
 31
0.0
  0
LINE
  5
EB
100
AcDbEntity
  8
0
  6
CONTINUOUS
 62
               7
100
AcDbLine
 10
13.0
 20
38.0
 30
0.0
 11
13.0
 21
28.0
 31
0.0
  0
LINE
  5
EC
100
AcDbEntity
  8
0
  6
CONTINUOUS
 62
               7
100
AcDbLine
 10
13.0
 20
37.75
 30
0.0
 11
14.5
 21
37.75
 31
0.0
  0
LINE
  5
ED
100
AcDbEntity
  8
0
  6
CONTINUOUS
 62
               7
100
AcDbLine
 10
13.0
 20
28.25
 30
0.0
 11
14.5
 21
28.25
 31
0.0
  0
LINE
  5
EE
100
AcDbEntity
  8
0
  6
CONTINUOUS
 62
               7
100
AcDbLine
 10
14.5
 20
37.75
 30
0.0
 11
14.5
 21
28.25
 31
0.0
  0
LINE
  5
EF
100
AcDbEntity
  8
0
  6
CONTINUOUS
 62
               7
100
AcDbLine
 10
14.5
 20
30.399999999999999
 30
0.0
 11
15.4
 21
30.399999999999999
 31
0.0
  0
LINE
  5
F0
100
AcDbEntity
  8
0
  6
CONTINUOUS
 62
               7
100
AcDbLine
 10
14.5
 20
35.600000000000001
 30
0.0
 11
15.4
 21
35.600000000000001
 31
0.0
  0
LINE
  5
F1
100
AcDbEntity
  8
0
  6
CONTINUOUS
 62
               7
100
AcDbLine
 10
15.4
 20
28.0
 30
0.0
 11
17.0
 21
28.0
 31
0.0
  0
LINE
  5
F2
100
AcDbEntity
  8
0
  6
CONTINUOUS
 62
               7
100
AcDbLine
 10
15.4
 20
38.0
 30
0.0
 11
15.4
 21
28.0
 31
0.0
  0
LINE
  5
F3
100
AcDbEntity
  8
0
  6
CONTINUOUS
 62
               7
100
AcDbLine
 10
17.0
 20
38.0
 30
0.0
 11
17.0
 21
28.0
 31
0.0
  0
LINE
  5
F4
100
AcDbEntity
  8
0
  6
CONTINUOUS
 62
               7
100
AcDbLine
 10
15.4
 20
38.0
 30
0.0
 11
17.0
 21
38.0
 31
0.0
  0
LINE
  5
F5
100
AcDbEntity
  8
0
  6
CONTINUOUS
 62
               7
100
AcDbLine
 10
-5.0
 20
28.629999999999999
 30
0.0
 11
4.3600000000000003
 21
28.629999999999999
 31
0.0
  0
LINE
  5
F6
100
AcDbEntity
  8
0
  6
CONTINUOUS
 62
               7
100
AcDbLine
 10
5.0
 20
23.850000000000001
 30
0.0
 11
9.1400000000000006
 21
28.0
 31
0.0
  0
LINE
  5
F7
100
AcDbEntity
  8
0
  6
CONTINUOUS
 62
               7
100
AcDbLine
 10
5.0
 20
28.0
 30
0.0
 11
2.8599999999999999
 21
30.129999999999999
 31
0.0
  0
LINE
  5
F8
100
AcDbEntity
  8
0
  6
CONTINUOUS
 62
               7
100
AcDbLine
 10
0.0
 20
36.5
 30
0.0
 11
2.8599999999999999
 21
36.5
 31
0.0
  0
LINE
  5
F9
100
AcDbEntity
  8
0
  6
CONTINUOUS
 62
               7
100
AcDbLine
 10
-3.5
 20
30.129999999999999
 30
0.0
 11
-3.5
 21
33.0
 31
0.0
  0
LINE
  5
FA
100
AcDbEntity
  8
0
  6
CENTER
 62
               2
100
AcDbLine
 10
-6.5899999999999999
 20
33.0
 30
0.0
 11
19.09
 21
33.0
 31
0.0
  0
LINE
  5
FB
100
AcDbEntity
  8
0
  6
CONTINUOUS
 62
               7
100
AcDbLine
 10
-5.0
 20
20.0
 30
0.0
 11
-5.0
 21
33.0
 31
0.0
  0
LINE
  5
FC
100
AcDbEntity
  8
0
  6
CONTINUOUS
 62
               7
100
AcDbLine
 10
5.0
 20
20.0
 30
0.0
 11
5.0
 21
28.0
 31
0.0
  0
LINE
  5
FD
100
AcDbEntity
  8
0
  6
CONTINUOUS
 62
               7
100
AcDbLine
 10
-5.0
 20
20.0
 30
0.0
 11
5.0
 21
20.0
 31
0.0
  0
LINE
  5
FE
100
AcDbEntity
  8
0
  6
CENTER
 62
               2
100
AcDbLine
 10
0.0
 20
-6.4699999999999998
 30
0.0
 11
0.0
 21
39.659999999999997
 31
0.0
  0
LINE
  5
FF
100
AcDbEntity
  8
0
  6
CONTINUOUS
 62
               7
100
AcDbLine
 10
4.7300000000000004
 20
-4.0
 30
0.0
 11
4.9900000000000002
 21
4.0
 31
0.0
  0
LINE
  5
100
100
AcDbEntity
  8
0
  6
CONTINUOUS
 62
               2
100
AcDbLine
 10
4.1500000000000004
 20
-4.0
 30
0.0
 11
4.4000000000000004
 21
4.0
 31
0.0
  0
LINE
  5
101
100
AcDbEntity
  8
0
  6
CONTINUOUS
 62
               7
100
AcDbLine
 10
-4.7300000000000004
 20
-4.0
 30
0.0
 11
4.7300000000000004
 21
-4.0
 31
0.0
  0
LINE
  5
102
100
AcDbEntity
  8
0
  6
CONTINUOUS
 62
               2
100
AcDbLine
 10
-4.1500000000000004
 20
-4.0
 30
0.0
 11
-4.4000000000000004
 21
4.0
 31
0.0
  0
LINE
  5
103
100
AcDbEntity
  8
0
  6
CONTINUOUS
 62
               7
100
AcDbLine
 10
-4.7300000000000004
 20
-4.0
 30
0.0
 11
-4.9900000000000002
 21
4.0
 31
0.0
  0
LINE
  5
104
100
AcDbEntity
  8
0
  6
CONTINUOUS
 62
               7
100
AcDbLine
 10
-5.0
 20
4.0
 30
0.0
 11
5.0
 21
4.0
 31
0.0
  0
LINE
  5
105
100
AcDbEntity
  8
0
  6
CONTINUOUS
 62
               7
100
AcDbLine
 10
-5.7699999999999996
 20
4.4400000000000004
 30
0.0
 11
-5.7699999999999996
 21
19.550000000000001
 31
0.0
  0
LINE
  5
106
100
AcDbEntity
  8
0
  6
CONTINUOUS
 62
               7
100
AcDbLine
 10
-5.7699999999999996
 20
4.4400000000000004
 30
0.0
 11
-5.0
 21
4.0
 31
0.0
  0
LINE
  5
107
100
AcDbEntity
  8
0
  6
CONTINUOUS
 62
               7
100
AcDbLine
 10
-5.7699999999999996
 20
19.550000000000001
 30
0.0
 11
-5.0
 21
20.0
 31
0.0
  0
LINE
  5
108
100
AcDbEntity
  8
0
  6
CONTINUOUS
 62
               7
100
AcDbLine
 10
5.7699999999999996
 20
4.4400000000000004
 30
0.0
 11
5.0
 21
4.0
 31
0.0
  0
LINE
  5
109
100
AcDbEntity
  8
0
  6
CONTINUOUS
 62
               7
100
AcDbLine
 10
-2.8799999999999999
 20
4.4400000000000004
 30
0.0
 11
-2.8799999999999999
 21
19.550000000000001
 31
0.0
  0
LINE
  5
10A
100
AcDbEntity
  8
0
  6
CONTINUOUS
 62
               7
100
AcDbLine
 10
5.7699999999999996
 20
19.550000000000001
 30
0.0
 11
5.0
 21
20.0
 31
0.0
  0
LINE
  5
10B
100
AcDbEntity
  8
0
  6
CONTINUOUS
 62
               7
100
AcDbLine
 10
2.8799999999999999
 20
4.4400000000000004
 30
0.0
 11
2.8799999999999999
 21
19.550000000000001
 31
0.0
  0
LINE
  5
10C
100
AcDbEntity
  8
0
  6
CONTINUOUS
 62
               7
100
AcDbLine
 10
5.7699999999999996
 20
4.4400000000000004
 30
0.0
 11
5.7699999999999996
 21
19.550000000000001
 31
0.0
  0
ENDBLK
  5
10D
100
AcDbEntity
  8
0
100
AcDbBlockEnd
  0
BLOCK
  5
10E
100
AcDbEntity
  8
0
100
AcDbBlockBegin
  2
MS_6
 70
               0
 10
0.0
 20
0.0
 30
0.0
  3
MS_6
  1

  0
ARC
  5
10F
100
AcDbEntity
  8
0
  6
CONTINUOUS
 62
               7
100
AcDbCircle
 10
0.0026370273633201
 20
-0.0019663833331509
 30
0.0
 40
3.498034610641334
100
AcDbArc
 50
196.57753965494101
 51
269.95680701607921
  0
ARC
  5
110
100
AcDbEntity
  8
0
  6
CONTINUOUS
 62
               7
100
AcDbCircle
 10
0.0026370273633201
 20
0.0019663833331509
 30
0.0
 40
3.498034610641334
100
AcDbArc
 50
90.04319298391998
 51
163.4224603450582
  0
ARC
  5
111
100
AcDbEntity
  8
0
  6
CONTINUOUS
 62
               7
100
AcDbCircle
 10
0.0000000000000004
 20
0.0
 30
0.0
 40
4.9908816856343128
100
AcDbArc
 50
50.120935131324508
 51
309.87906486867467
  0
LINE
  5
112
100
AcDbEntity
  8
0
  6
CONTINUOUS
 62
               7
100
AcDbLine
 10
2.8599999999999999
 20
-3.5
 30
0.0
 11
2.8599999999999999
 21
-1.0
 31
0.0
  0
LINE
  5
113
100
AcDbEntity
  8
0
  6
CONTINUOUS
 62
               7
100
AcDbLine
 10
4.3600000000000003
 20
-5.0
 30
0.0
 11
2.8599999999999999
 21
-3.5
 31
0.0
  0
LINE
  5
114
100
AcDbEntity
  8
0
  6
CONTINUOUS
 62
               7
100
AcDbLine
 10
2.8599999999999999
 20
3.5
 30
0.0
 11
2.8599999999999999
 21
1.0
 31
0.0
  0
LINE
  5
115
100
AcDbEntity
  8
0
  6
CONTINUOUS
 62
               7
100
AcDbLine
 10
4.3600000000000003
 20
5.0
 30
0.0
 11
2.8599999999999999
 21
3.5
 31
0.0
  0
LINE
  5
116
100
AcDbEntity
  8
0
  6
CONTINUOUS
 62
               7
100
AcDbLine
 10
-4.8899999999999997
 20
1.0
 30
0.0
 11
4.3600000000000003
 21
1.0
 31
0.0
  0
LINE
  5
117
100
AcDbEntity
  8
0
  6
CONTINUOUS
 62
               7
100
AcDbLine
 10
4.3600000000000003
 20
-1.0
 30
0.0
 11
4.3600000000000003
 21
-5.0
 31
0.0
  0
LINE
  5
118
100
AcDbEntity
  8
0
  6
CONTINUOUS
 62
               7
100
AcDbLine
 10
-4.8899999999999997
 20
-1.0
 30
0.0
 11
4.3600000000000003
 21
-1.0
 31
0.0
  0
LINE
  5
119
100
AcDbEntity
  8
0
  6
CONTINUOUS
 62
               7
100
AcDbLine
 10
0.0
 20
-3.5
 30
0.0
 11
2.8599999999999999
 21
-3.5
 31
0.0
  0
LINE
  5
11A
100
AcDbEntity
  8
0
  6
CONTINUOUS
 62
               7
100
AcDbLine
 10
0.0
 20
3.5
 30
0.0
 11
2.8599999999999999
 21
3.5
 31
0.0
  0
LINE
  5
11B
100
AcDbEntity
  8
0
  6
CONTINUOUS
 62
               7
100
AcDbLine
 10
13.0
 20
-4.75
 30
0.0
 11
14.5
 21
-4.75
 31
0.0
  0
LINE
  5
11C
100
AcDbEntity
  8
0
  6
CONTINUOUS
 62
               7
100
AcDbLine
 10
13.0
 20
4.75
 30
0.0
 11
14.5
 21
4.75
 31
0.0
  0
LINE
  5
11D
100
AcDbEntity
  8
0
  6
CONTINUOUS
 62
               7
100
AcDbLine
 10
4.3600000000000003
 20
5.0
 30
0.0
 11
4.3600000000000003
 21
1.0
 31
0.0
  0
LINE
  5
11E
100
AcDbEntity
  8
0
  6
CONTINUOUS
 62
               7
100
AcDbLine
 10
4.3600000000000003
 20
5.0
 30
0.0
 11
13.0
 21
5.0
 31
0.0
  0
LINE
  5
11F
100
AcDbEntity
  8
0
  6
CONTINUOUS
 62
               7
100
AcDbLine
 10
4.3600000000000003
 20
-5.0
 30
0.0
 11
13.0
 21
-5.0
 31
0.0
  0
LINE
  5
120
100
AcDbEntity
  8
0
  6
CONTINUOUS
 62
               7
100
AcDbLine
 10
15.4
 20
5.0
 30
0.0
 11
17.0
 21
5.0
 31
0.0
  0
LINE
  5
121
100
AcDbEntity
  8
0
  6
CONTINUOUS
 62
               7
100
AcDbLine
 10
17.0
 20
5.0
 30
0.0
 11
17.0
 21
-5.0
 31
0.0
  0
LINE
  5
122
100
AcDbEntity
  8
0
  6
CONTINUOUS
 62
               7
100
AcDbLine
 10
15.4
 20
-5.0
 30
0.0
 11
17.0
 21
-5.0
 31
0.0
  0
LINE
  5
123
100
AcDbEntity
  8
0
  6
CONTINUOUS
 62
               7
100
AcDbLine
 10
15.4
 20
5.0
 30
0.0
 11
15.4
 21
-5.0
 31
0.0
  0
LINE
  5
124
100
AcDbEntity
  8
0
  6
CONTINUOUS
 62
               7
100
AcDbLine
 10
14.5
 20
-2.6000000000000001
 30
0.0
 11
15.4
 21
-2.6000000000000001
 31
0.0
  0
LINE
  5
125
100
AcDbEntity
  8
0
  6
CONTINUOUS
 62
               7
100
AcDbLine
 10
14.5
 20
2.6000000000000001
 30
0.0
 11
15.4
 21
2.6000000000000001
 31
0.0
  0
LINE
  5
126
100
AcDbEntity
  8
0
  6
CONTINUOUS
 62
               7
100
AcDbLine
 10
14.5
 20
4.75
 30
0.0
 11
14.5
 21
-4.75
 31
0.0
  0
LINE
  5
127
100
AcDbEntity
  8
0
  6
CONTINUOUS
 62
               7
100
AcDbLine
 10
-2.8799999999999999
 20
-5.0
 30
0.0
 11
2.8799999999999999
 21
-5.0
 31
0.0
  0
LINE
  5
128
100
AcDbEntity
  8
0
  6
CONTINUOUS
 62
               7
100
AcDbLine
 10
-5.7699999999999996
 20
0.0
 30
0.0
 11
-2.8799999999999999
 21
-5.0
 31
0.0
  0
LINE
  5
129
100
AcDbEntity
  8
0
  6
CONTINUOUS
 62
               7
100
AcDbLine
 10
-2.8799999999999999
 20
5.0
 30
0.0
 11
-5.7699999999999996
 21
0.0
 31
0.0
  0
LINE
  5
12A
100
AcDbEntity
  8
0
  6
CONTINUOUS
 62
               7
100
AcDbLine
 10
2.8799999999999999
 20
5.0
 30
0.0
 11
-2.8799999999999999
 21
5.0
 31
0.0
  0
LINE
  5
12B
100
AcDbEntity
  8
0
  6
CONTINUOUS
 62
               7
100
AcDbLine
 10
3.4199999999999999
 20
4.0599999999999996
 30
0.0
 11
2.8799999999999999
 21
5.0
 31
0.0
  0
LINE
  5
12C
100
AcDbEntity
  8
0
  6
CONTINUOUS
 62
               7
100
AcDbLine
 10
2.8799999999999999
 20
-5.0
 30
0.0
 11
3.4199999999999999
 21
-4.0599999999999996
 31
0.0
  0
LINE
  5
12D
100
AcDbEntity
  8
0
  6
CONTINUOUS
 62
               7
100
AcDbLine
 10
13.0
 20
5.0
 30
0.0
 11
13.0
 21
-5.0
 31
0.0
  0
LINE
  5
12E
100
AcDbEntity
  8
0
  6
CENTER
 62
               2
100
AcDbLine
 10
-6.5
 20
0.0
 30
0.0
 11
19.140000000000001
 21
0.0
 31
0.0
  0
LINE
  5
12F
100
AcDbEntity
  8
0
  6
CENTER
 62
               2
100
AcDbLine
 10
0.0
 20
-6.5
 30
0.0
 11
0.0
 21
6.5
 31
0.0
  0
ENDBLK
  5
130
100
AcDbEntity
  8
0
100
AcDbBlockEnd
  0
BLOCK
  5
131
100
AcDbEntity
  8
0
100
AcDbBlockBegin
  2
MS_7
 70
               0
 10
0.0
 20
0.0
 30
0.0
  3
MS_7
  1

  0
ARC
  5
132
100
AcDbEntity
  8
0
  6
CONTINUOUS
 62
               7
100
AcDbCircle
 10
-0.0019663833331509
 20
32.99736297263668
 30
0.0
 40
3.4980346106413345
100
AcDbArc
 50
106.57753965494121
 51
179.95680701607941
  0
ARC
  5
133
100
AcDbEntity
  8
0
  6
CONTINUOUS
 62
               7
100
AcDbCircle
 10
0.0019663833331509
 20
32.99736297263668
 30
0.0
 40
3.4980346106413345
100
AcDbArc
 50
0.0431929839201857
 51
73.422460345058397
  0
ARC
  5
134
100
AcDbEntity
  8
0
  6
CONTINUOUS
 62
               7
100
AcDbCircle
 10
0.0
 20
33.0
 30
0.0
 40
4.9972992706060744
100
AcDbArc
 50
320.03295006942091
 51
219.96704993057782
  0
ARC
  5
135
100
AcDbEntity
  8
0
  6
CONTINUOUS
 62
               7
100
AcDbCircle
 10
-2.5
 20
12.779090881347656
 30
0.0
 40
7.2177011778716267
100
AcDbArc
 50
69.734510908175622
 51
110.26548909182399
  0
ARC
  5
136
100
AcDbEntity
  8
0
  6
CONTINUOUS
 62
               7
100
AcDbCircle
 10
2.5
 20
12.779090881347656
 30
0.0
 40
7.2177011778716267
100
AcDbArc
 50
69.734510908175622
 51
110.26548909182399
  0
ARC
  5
137
100
AcDbEntity
  8
0
  6
CONTINUOUS
 62
               7
100
AcDbCircle
 10
-2.5
 20
11.220909118652344
 30
0.0
 40
7.2270829852314895
100
AcDbArc
 50
249.76197091990505
 51
290.23802908009372
  0
ARC
  5
138
100
AcDbEntity
  8
0
  6
CONTINUOUS
 62
               7
100
AcDbCircle
 10
2.5
 20
11.220909118652344
 30
0.0
 40
7.2270829852314895
100
AcDbArc
 50
249.76197091990505
 51
290.23802908009372
  0
LINE
  5
139
100
AcDbEntity
  8
0
  6
CONTINUOUS
 62
               7
100
AcDbLine
 10
3.5
 20
30.129999999999999
 30
0.0
 11
1.0
 21
30.129999999999999
 31
0.0
  0
LINE
  5
13A
100
AcDbEntity
  8
0
  6
CONTINUOUS
 62
               7
100
AcDbLine
 10
5.0
 20
28.629999999999999
 30
0.0
 11
3.5
 21
30.129999999999999
 31
0.0
  0
LINE
  5
13B
100
AcDbEntity
  8
0
  6
CONTINUOUS
 62
               7
100
AcDbLine
 10
3.5
 20
30.129999999999999
 30
0.0
 11
3.5
 21
33.0
 31
0.0
  0
LINE
  5
13C
100
AcDbEntity
  8
0
  6
CONTINUOUS
 62
               7
100
AcDbLine
 10
-3.5
 20
30.129999999999999
 30
0.0
 11
-3.5
 21
33.0
 31
0.0
  0
LINE
  5
13D
100
AcDbEntity
  8
0
  6
CONTINUOUS
 62
               7
100
AcDbLine
 10
-3.5
 20
30.129999999999999
 30
0.0
 11
-1.0
 21
30.129999999999999
 31
0.0
  0
LINE
  5
13E
100
AcDbEntity
  8
0
  6
CONTINUOUS
 62
               7
100
AcDbLine
 10
-5.0
 20
28.629999999999999
 30
0.0
 11
-3.5
 21
30.129999999999999
 31
0.0
  0
LINE
  5
13F
100
AcDbEntity
  8
0
  6
CONTINUOUS
 62
               7
100
AcDbLine
 10
1.0
 20
28.629999999999999
 30
0.0
 11
5.0
 21
28.629999999999999
 31
0.0
  0
LINE
  5
140
100
AcDbEntity
  8
0
  6
CONTINUOUS
 62
               7
100
AcDbLine
 10
-1.0
 20
28.629999999999999
 30
0.0
 11
-1.0
 21
37.890000000000001
 31
0.0
  0
LINE
  5
141
100
AcDbEntity
  8
0
  6
CONTINUOUS
 62
               7
100
AcDbLine
 10
1.0
 20
28.629999999999999
 30
0.0
 11
1.0
 21
37.890000000000001
 31
0.0
  0
LINE
  5
142
100
AcDbEntity
  8
0
  6
CENTER
 62
               2
100
AcDbLine
 10
-7.0
 20
33.0
 30
0.0
 11
7.0
 21
33.0
 31
0.0
  0
LINE
  5
143
100
AcDbEntity
  8
0
  6
CONTINUOUS
 62
               7
100
AcDbLine
 10
-5.0
 20
28.629999999999999
 30
0.0
 11
-1.0
 21
28.629999999999999
 31
0.0
  0
LINE
  5
144
100
AcDbEntity
  8
0
  6
CENTER
 62
               2
100
AcDbLine
 10
0.0
 20
-6.4699999999999998
 30
0.0
 11
0.0
 21
39.560000000000002
 31
0.0
  0
LINE
  5
145
100
AcDbEntity
  8
0
  6
CONTINUOUS
 62
               7
100
AcDbLine
 10
4.7300000000000004
 20
-4.0
 30
0.0
 11
4.9900000000000002
 21
4.0
 31
0.0
  0
LINE
  5
146
100
AcDbEntity
  8
0
  6
CONTINUOUS
 62
               2
100
AcDbLine
 10
4.1500000000000004
 20
-4.0
 30
0.0
 11
4.4000000000000004
 21
4.0
 31
0.0
  0
LINE
  5
147
100
AcDbEntity
  8
0
  6
CONTINUOUS
 62
               7
100
AcDbLine
 10
-4.7300000000000004
 20
-4.0
 30
0.0
 11
4.7300000000000004
 21
-4.0
 31
0.0
  0
LINE
  5
148
100
AcDbEntity
  8
0
  6
CONTINUOUS
 62
               2
100
AcDbLine
 10
-4.1500000000000004
 20
-4.0
 30
0.0
 11
-4.4000000000000004
 21
4.0
 31
0.0
  0
LINE
  5
149
100
AcDbEntity
  8
0
  6
CONTINUOUS
 62
               7
100
AcDbLine
 10
-4.7300000000000004
 20
-4.0
 30
0.0
 11
-4.9900000000000002
 21
4.0
 31
0.0
  0
LINE
  5
14A
100
AcDbEntity
  8
0
  6
CONTINUOUS
 62
               7
100
AcDbLine
 10
-5.0
 20
4.0
 30
0.0
 11
5.0
 21
4.0
 31
0.0
  0
LINE
  5
14B
100
AcDbEntity
  8
0
  6
CONTINUOUS
 62
               7
100
AcDbLine
 10
-5.0
 20
4.0
 30
0.0
 11
-5.0
 21
28.629999999999999
 31
0.0
  0
LINE
  5
14C
100
AcDbEntity
  8
0
  6
CONTINUOUS
 62
               7
100
AcDbLine
 10
0.0
 20
4.4400000000000004
 30
0.0
 11
0.0
 21
19.550000000000001
 31
0.0
  0
LINE
  5
14D
100
AcDbEntity
  8
0
  6
CONTINUOUS
 62
               7
100
AcDbLine
 10
5.0
 20
4.0
 30
0.0
 11
5.0
 21
28.629999999999999
 31
0.0
  0
LINE
  5
14E
100
AcDbEntity
  8
0
  6
CONTINUOUS
 62
               7
100
AcDbLine
 10
-5.0
 20
20.0
 30
0.0
 11
5.0
 21
20.0
 31
0.0
  0
ENDBLK
  5
14F
100
AcDbEntity
  8
0
100
AcDbBlockEnd
  0
BLOCK
  5
150
100
AcDbEntity
  8
0
100
AcDbBlockBegin
  2
MS_8
 70
               0
 10
0.0
 20
0.0
 30
0.0
  3
MS_8
  1

  0
CIRCLE
  5
151
100
AcDbEntity
  8
0
  6
CONTINUOUS
 62
               7
100
AcDbCircle
 10
0.0000038146972656
 20
33.0
 30
0.0
 40
2.0
  0
CIRCLE
  5
152
100
AcDbEntity
  8
0
  6
CONTINUOUS
 62
               7
100
AcDbCircle
 10
0.0000038146972656
 20
33.0
 30
0.0
 40
5.0
  0
ARC
  5
153
100
AcDbEntity
  8
0
  6
CONTINUOUS
 62
               7
100
AcDbCircle
 10
2.5
 20
12.779090881346711
 30
0.0
 40
7.217701177872514
100
AcDbArc
 50
69.734510908178208
 51
110.26548909182139
  0
ARC
  5
154
100
AcDbEntity
  8
0
  6
CONTINUOUS
 62
               7
100
AcDbCircle
 10
-2.5
 20
12.779090881346711
 30
0.0
 40
7.217701177872514
100
AcDbArc
 50
69.734510908178208
 51
110.26548909182139
  0
ARC
  5
155
100
AcDbEntity
  8
0
  6
CONTINUOUS
 62
               7
100
AcDbCircle
 10
2.5
 20
11.220909118653289
 30
0.0
 40
7.2270829852323768
100
AcDbArc
 50
249.76197091990764
 51
290.23802908009117
  0
ARC
  5
156
100
AcDbEntity
  8
0
  6
CONTINUOUS
 62
               7
100
AcDbCircle
 10
-2.5
 20
11.220909118653289
 30
0.0
 40
7.2270829852323768
100
AcDbArc
 50
249.76197091990764
 51
290.23802908009117
  0
LINE
  5
157
100
AcDbEntity
  8
0
  6
CONTINUOUS
 62
               7
100
AcDbLine
 10
-5.0
 20
28.629999999999999
 30
0.0
 11
-3.8300000000000001
 21
29.789999999999999
 31
0.0
  0
LINE
  5
158
100
AcDbEntity
  8
0
  6
CONTINUOUS
 62
               7
100
AcDbLine
 10
5.0
 20
28.629999999999999
 30
0.0
 11
3.8300000000000001
 21
29.789999999999999
 31
0.0
  0
LINE
  5
159
100
AcDbEntity
  8
0
  6
CONTINUOUS
 62
               7
100
AcDbLine
 10
-1.0
 20
23.850000000000001
 30
0.0
 11
1.0
 21
23.850000000000001
 31
0.0
  0
LINE
  5
15A
100
AcDbEntity
  8
0
  6
CONTINUOUS
 62
               7
100
AcDbLine
 10
-1.0
 20
23.850000000000001
 30
0.0
 11
-1.0
 21
28.100000000000001
 31
0.0
  0
LINE
  5
15B
100
AcDbEntity
  8
0
  6
CONTINUOUS
 62
               7
100
AcDbLine
 10
1.0
 20
23.850000000000001
 30
0.0
 11
1.0
 21
28.100000000000001
 31
0.0
  0
LINE
  5
15C
100
AcDbEntity
  8
0
  6
CONTINUOUS
 62
               7
100
AcDbLine
 10
-2.4300000000000002
 20
28.629999999999999
 30
0.0
 11
-5.0
 21
28.629999999999999
 31
0.0
  0
LINE
  5
15D
100
AcDbEntity
  8
0
  6
CENTER
 62
               2
100
AcDbLine
 10
7.0
 20
33.0
 30
0.0
 11
-7.0
 21
33.0
 31
0.0
  0
LINE
  5
15E
100
AcDbEntity
  8
0
  6
CONTINUOUS
 62
               7
100
AcDbLine
 10
5.0
 20
28.629999999999999
 30
0.0
 11
2.4300000000000002
 21
28.629999999999999
 31
0.0
  0
LINE
  5
15F
100
AcDbEntity
  8
0
  6
CENTER
 62
               2
100
AcDbLine
 10
0.0
 20
-6.54
 30
0.0
 11
0.0
 21
40.789999999999999
 31
0.0
  0
LINE
  5
160
100
AcDbEntity
  8
0
  6
CONTINUOUS
 62
               7
100
AcDbLine
 10
5.0
 20
4.0
 30
0.0
 11
-5.0
 21
4.0
 31
0.0
  0
LINE
  5
161
100
AcDbEntity
  8
0
  6
CONTINUOUS
 62
               7
100
AcDbLine
 10
5.0
 20
4.0
 30
0.0
 11
5.0
 21
28.629999999999999
 31
0.0
  0
LINE
  5
162
100
AcDbEntity
  8
0
  6
CONTINUOUS
 62
               7
100
AcDbLine
 10
0.0
 20
4.4400000000000004
 30
0.0
 11
0.0
 21
19.550000000000001
 31
0.0
  0
LINE
  5
163
100
AcDbEntity
  8
0
  6
CONTINUOUS
 62
               7
100
AcDbLine
 10
-5.0
 20
4.0
 30
0.0
 11
-5.0
 21
28.629999999999999
 31
0.0
  0
LINE
  5
164
100
AcDbEntity
  8
0
  6
CONTINUOUS
 62
               7
100
AcDbLine
 10
5.0
 20
20.0
 30
0.0
 11
-5.0
 21
20.0
 31
0.0
  0
LINE
  5
165
100
AcDbEntity
  8
0
  6
CONTINUOUS
 62
               7
100
AcDbLine
 10
-4.7300000000000004
 20
-4.0
 30
0.0
 11
4.7300000000000004
 21
-4.0
 31
0.0
  0
LINE
  5
166
100
AcDbEntity
  8
0
  6
CONTINUOUS
 62
               7
100
AcDbLine
 10
4.7300000000000004
 20
-4.0
 30
0.0
 11
4.9900000000000002
 21
4.0
 31
0.0
  0
LINE
  5
167
100
AcDbEntity
  8
0
  6
CONTINUOUS
 62
               2
100
AcDbLine
 10
4.1500000000000004
 20
-4.0
 30
0.0
 11
4.4000000000000004
 21
4.0
 31
0.0
  0
LINE
  5
168
100
AcDbEntity
  8
0
  6
CONTINUOUS
 62
               7
100
AcDbLine
 10
-4.7300000000000004
 20
-4.0
 30
0.0
 11
-4.9900000000000002
 21
4.0
 31
0.0
  0
LINE
  5
169
100
AcDbEntity
  8
0
  6
CONTINUOUS
 62
               2
100
AcDbLine
 10
-4.1500000000000004
 20
-4.0
 30
0.0
 11
-4.4000000000000004
 21
4.0
 31
0.0
  0
ENDBLK
  5
16A
100
AcDbEntity
  8
0
100
AcDbBlockEnd
  0
BLOCK
  5
16B
100
AcDbEntity
  8
0
100
AcDbBlockBegin
  2
MS_9
 70
               0
 10
0.0
 20
0.0
 30
0.0
  3
MS_9
  1

  0
ARC
  5
16C
100
AcDbEntity
  8
0
  6
CONTINUOUS
 62
               7
100
AcDbCircle
 10
0.25
 20
34.25
 30
0.0
 40
6.25
100
AcDbArc
 50
89.999999999999801
 51
179.9999999999996
  0
ARC
  5
16D
100
AcDbEntity
  8
0
  6
CONTINUOUS
 62
               7
100
AcDbCircle
 10
0.0
 20
34.25
 30
0.0
 40
4.5
100
AcDbArc
 50
89.999999999999801
 51
179.9999999999996
  0
ARC
  5
16E
100
AcDbEntity
  8
0
  6
CONTINUOUS
 62
               7
100
AcDbCircle
 10
-5.1978838489041825
 20
19.933538780362522
 30
0.0
 40
3.06647135427907
100
AcDbArc
 50
55.47697683014227
 51
89.85269330315694
  0
ARC
  5
16F
100
AcDbEntity
  8
0
  6
CONTINUOUS
 62
               7
100
AcDbCircle
 10
0.0
 20
11.535830497736251
 30
0.0
 40
11.459017379958432
100
AcDbArc
 50
72.425501450989245
 51
107.57449854901037
  0
ARC
  5
170
100
AcDbEntity
  8
0
  6
CONTINUOUS
 62
               7
100
AcDbCircle
 10
5.1978838489041825
 20
19.933538780362522
 30
0.0
 40
3.06647135427907
100
AcDbArc
 50
90.147306696842676
 51
124.52302316985732
  0
ARC
  5
171
100
AcDbEntity
  8
0
  6
CONTINUOUS
 62
               7
100
AcDbCircle
 10
0.0
 20
15.464169502263744
 30
0.0
 40
11.468551028976353
100
AcDbArc
 50
252.44058636388471
 51
287.55941363611407
  0
ARC
  5
172
100
AcDbEntity
  8
0
  6
CONTINUOUS
 62
               7
100
AcDbCircle
 10
-5.1845128587882723
 20
7.0705797088749245
 30
0.0
 40
3.0705846116453284
100
AcDbArc
 50
269.89761226602849
 51
304.16815672173146
  0
ARC
  5
173
100
AcDbEntity
  8
0
  6
CONTINUOUS
 62
               7
100
AcDbCircle
 10
5.1845128587882723
 20
7.0705797088749245
 30
0.0
 40
3.0705846116453284
100
AcDbArc
 50
235.83184327826734
 51
270.10238773397026
  0
LINE
  5
174
100
AcDbEntity
  8
0
  6
CONTINUOUS
 62
               7
100
AcDbLine
 10
4.25
 20
38.75
 30
0.0
 11
4.25
 21
30.0
 31
0.0
  0
LINE
  5
175
100
AcDbEntity
  8
0
  6
CONTINUOUS
 62
               7
100
AcDbLine
 10
6.0
 20
40.5
 30
0.0
 11
4.25
 21
38.75
 31
0.0
  0
LINE
  5
176
100
AcDbEntity
  8
0
  6
CONTINUOUS
 62
               7
100
AcDbLine
 10
-4.5
 20
31.5
 30
0.0
 11
2.75
 21
31.5
 31
0.0
  0
LINE
  5
177
100
AcDbEntity
  8
0
  6
CONTINUOUS
 62
               7
100
AcDbLine
 10
-6.0
 20
30.0
 30
0.0
 11
-4.5
 21
31.5
 31
0.0
  0
LINE
  5
178
100
AcDbEntity
  8
0
  6
CONTINUOUS
 62
               7
100
AcDbLine
 10
6.0
 20
26.210000000000001
 30
0.0
 11
7.7800000000000002
 21
28.0
 31
0.0
  0
LINE
  5
179
100
AcDbEntity
  8
0
  6
CONTINUOUS
 62
               7
100
AcDbLine
 10
4.25
 20
30.0
 30
0.0
 11
2.75
 21
31.5
 31
0.0
  0
LINE
  5
17A
100
AcDbEntity
  8
0
  6
CONTINUOUS
 62
               7
100
AcDbLine
 10
4.25
 20
34.25
 30
0.0
 11
6.0
 21
28.0
 31
0.0
  0
LINE
  5
17B
100
AcDbEntity
  8
0
  6
CONTINUOUS
 62
               7
100
AcDbLine
 10
6.0
 20
23.0
 30
0.0
 11
6.0
 21
40.5
 31
0.0
  0
LINE
  5
17C
100
AcDbEntity
  8
0
  6
CONTINUOUS
 62
               7
100
AcDbLine
 10
12.0
 20
40.5
 30
0.0
 11
12.0
 21
28.0
 31
0.0
  0
LINE
  5
17D
100
AcDbEntity
  8
0
  6
CONTINUOUS
 62
               7
100
AcDbLine
 10
6.0
 20
28.0
 30
0.0
 11
15.0
 21
28.0
 31
0.0
  0
LINE
  5
17E
100
AcDbEntity
  8
0
  6
CONTINUOUS
 62
               7
100
AcDbLine
 10
0.25
 20
40.5
 30
0.0
 11
15.0
 21
40.5
 31
0.0
  0
LINE
  5
17F
100
AcDbEntity
  8
0
  6
CONTINUOUS
 62
               7
100
AcDbLine
 10
15.0
 20
40.5
 30
0.0
 11
15.0
 21
28.0
 31
0.0
  0
LINE
  5
180
100
AcDbEntity
  8
0
  6
CONTINUOUS
 62
               7
100
AcDbLine
 10
15.0
 20
40.0
 30
0.0
 11
17.0
 21
40.0
 31
0.0
  0
LINE
  5
181
100
AcDbEntity
  8
0
  6
CONTINUOUS
 62
               7
100
AcDbLine
 10
15.0
 20
28.5
 30
0.0
 11
17.0
 21
28.5
 31
0.0
  0
LINE
  5
182
100
AcDbEntity
  8
0
  6
CONTINUOUS
 62
               7
100
AcDbLine
 10
17.0
 20
40.0
 30
0.0
 11
17.0
 21
28.5
 31
0.0
  0
LINE
  5
183
100
AcDbEntity
  8
0
  6
CONTINUOUS
 62
               7
100
AcDbLine
 10
17.0
 20
29.949999999999999
 30
0.0
 11
18.199999999999999
 21
29.949999999999999
 31
0.0
  0
LINE
  5
184
100
AcDbEntity
  8
0
  6
CONTINUOUS
 62
               7
100
AcDbLine
 10
17.0
 20
38.549999999999997
 30
0.0
 11
18.199999999999999
 21
38.549999999999997
 31
0.0
  0
LINE
  5
185
100
AcDbEntity
  8
0
  6
CONTINUOUS
 62
               7
100
AcDbLine
 10
18.199999999999999
 20
28.350000000000001
 30
0.0
 11
20.0
 21
28.350000000000001
 31
0.0
  0
LINE
  5
186
100
AcDbEntity
  8
0
  6
CONTINUOUS
 62
               7
100
AcDbLine
 10
18.199999999999999
 20
40.149999999999999
 30
0.0
 11
18.199999999999999
 21
28.350000000000001
 31
0.0
  0
LINE
  5
187
100
AcDbEntity
  8
0
  6
CONTINUOUS
 62
               7
100
AcDbLine
 10
20.0
 20
40.149999999999999
 30
0.0
 11
20.0
 21
28.350000000000001
 31
0.0
  0
LINE
  5
188
100
AcDbEntity
  8
0
  6
CONTINUOUS
 62
               7
100
AcDbLine
 10
18.199999999999999
 20
40.149999999999999
 30
0.0
 11
20.0
 21
40.149999999999999
 31
0.0
  0
LINE
  5
189
100
AcDbEntity
  8
0
  6
CONTINUOUS
 62
               7
100
AcDbLine
 10
-6.0
 20
30.0
 30
0.0
 11
4.25
 21
30.0
 31
0.0
  0
LINE
  5
18A
100
AcDbEntity
  8
0
  6
CONTINUOUS
 62
               7
100
AcDbLine
 10
0.0
 20
38.75
 30
0.0
 11
4.25
 21
38.75
 31
0.0
  0
LINE
  5
18B
100
AcDbEntity
  8
0
  6
CONTINUOUS
 62
               7
100
AcDbLine
 10
-4.5
 20
31.5
 30
0.0
 11
-4.5
 21
34.25
 31
0.0
  0
LINE
  5
18C
100
AcDbEntity
  8
0
  6
CONTINUOUS
 62
               7
100
AcDbLine
 10
-6.0
 20
23.0
 30
0.0
 11
-6.0
 21
34.25
 31
0.0
  0
LINE
  5
18D
100
AcDbEntity
  8
0
  6
CENTER
 62
               2
100
AcDbLine
 10
-9.5500000000000007
 20
34.25
 30
0.0
 11
22.699999999999999
 21
34.25
 31
0.0
  0
LINE
  5
18E
100
AcDbEntity
  8
0
  6
CONTINUOUS
 62
               7
100
AcDbLine
 10
4.7300000000000004
 20
-4.0
 30
0.0
 11
4.9900000000000002
 21
4.0
 31
0.0
  0
LINE
  5
18F
100
AcDbEntity
  8
0
  6
CONTINUOUS
 62
               2
100
AcDbLine
 10
4.1500000000000004
 20
-4.0
 30
0.0
 11
4.4000000000000004
 21
4.0
 31
0.0
  0
LINE
  5
190
100
AcDbEntity
  8
0
  6
CONTINUOUS
 62
               7
100
AcDbLine
 10
-4.7300000000000004
 20
-4.0
 30
0.0
 11
4.7300000000000004
 21
-4.0
 31
0.0
  0
LINE
  5
191
100
AcDbEntity
  8
0
  6
CONTINUOUS
 62
               2
100
AcDbLine
 10
-4.1500000000000004
 20
-4.0
 30
0.0
 11
-4.4000000000000004
 21
4.0
 31
0.0
  0
LINE
  5
192
100
AcDbEntity
  8
0
  6
CONTINUOUS
 62
               7
100
AcDbLine
 10
-4.7300000000000004
 20
-4.0
 30
0.0
 11
-4.9900000000000002
 21
4.0
 31
0.0
  0
LINE
  5
193
100
AcDbEntity
  8
0
  6
CONTINUOUS
 62
               7
100
AcDbLine
 10
6.0
 20
4.0
 30
0.0
 11
6.9199999999999999
 21
4.5300000000000002
 31
0.0
  0
LINE
  5
194
100
AcDbEntity
  8
0
  6
CONTINUOUS
 62
               7
100
AcDbLine
 10
-6.0
 20
4.0
 30
0.0
 11
-6.9199999999999999
 21
4.5300000000000002
 31
0.0
  0
LINE
  5
195
100
AcDbEntity
  8
0
  6
CONTINUOUS
 62
               7
100
AcDbLine
 10
-6.0
 20
23.0
 30
0.0
 11
-6.9199999999999999
 21
22.460000000000001
 31
0.0
  0
LINE
  5
196
100
AcDbEntity
  8
0
  6
CONTINUOUS
 62
               7
100
AcDbLine
 10
6.0
 20
23.0
 30
0.0
 11
6.9199999999999999
 21
22.460000000000001
 31
0.0
  0
LINE
  5
197
100
AcDbEntity
  8
0
  6
CONTINUOUS
 62
               7
100
AcDbLine
 10
6.9199999999999999
 20
22.460000000000001
 30
0.0
 11
6.9199999999999999
 21
4.5300000000000002
 31
0.0
  0
LINE
  5
198
100
AcDbEntity
  8
0
  6
CONTINUOUS
 62
               7
100
AcDbLine
 10
3.46
 20
22.460000000000001
 30
0.0
 11
3.46
 21
4.5300000000000002
 31
0.0
  0
LINE
  5
199
100
AcDbEntity
  8
0
  6
CONTINUOUS
 62
               7
100
AcDbLine
 10
-3.46
 20
22.460000000000001
 30
0.0
 11
-3.46
 21
4.5300000000000002
 31
0.0
  0
LINE
  5
19A
100
AcDbEntity
  8
0
  6
CONTINUOUS
 62
               7
100
AcDbLine
 10
-6.9199999999999999
 20
22.460000000000001
 30
0.0
 11
-6.9199999999999999
 21
4.5300000000000002
 31
0.0
  0
LINE
  5
19B
100
AcDbEntity
  8
0
  6
CONTINUOUS
 62
               7
100
AcDbLine
 10
-6.0
 20
4.0
 30
0.0
 11
6.0
 21
4.0
 31
0.0
  0
LINE
  5
19C
100
AcDbEntity
  8
0
  6
CONTINUOUS
 62
               7
100
AcDbLine
 10
-6.0
 20
23.0
 30
0.0
 11
6.0
 21
23.0
 31
0.0
  0
LINE
  5
19D
100
AcDbEntity
  8
0
  6
CENTER
 62
               2
100
AcDbLine
 10
0.0
 20
-7.0800000000000001
 30
0.0
 11
0.0
 21
42.630000000000003
 31
0.0
  0
ENDBLK
  5
19E
100
AcDbEntity
  8
0
100
AcDbBlockEnd
  0
BLOCK
  5
19F
100
AcDbEntity
  8
0
100
AcDbBlockBegin
  2
MS_10
 70
               0
 10
0.0
 20
0.0
 30
0.0
  3
MS_10
  1

  0
ARC
  5
1A0
100
AcDbEntity
  8
0
  6
CONTINUOUS
 62
               7
100
AcDbCircle
 10
-0.0000000000000004
 20
0.0
 30
0.0
 40
5.994297289924817
100
AcDbArc
 50
48.652222780306225
 51
311.34777721969294
  0
ARC
  5
1A1
100
AcDbEntity
  8
0
  6
CONTINUOUS
 62
               7
100
AcDbCircle
 10
0.0018554182414317
 20
-0.0013952594452351
 30
0.0
 40
4.4986051231819246
100
AcDbArc
 50
196.11425922267185
 51
269.97636875552058
  0
ARC
  5
1A2
100
AcDbEntity
  8
0
  6
CONTINUOUS
 62
               7
100
AcDbCircle
 10
0.0018554182414317
 20
0.0013952594452351
 30
0.0
 40
4.4986051231819246
100
AcDbArc
 50
90.023631244478636
 51
163.88574077732733
  0
LINE
  5
1A3
100
AcDbEntity
  8
0
  6
CONTINUOUS
 62
               7
100
AcDbLine
 10
4.25
 20
-4.5
 30
0.0
 11
4.25
 21
-1.25
 31
0.0
  0
LINE
  5
1A4
100
AcDbEntity
  8
0
  6
CONTINUOUS
 62
               7
100
AcDbLine
 10
6.0
 20
-6.25
 30
0.0
 11
4.25
 21
-4.5
 31
0.0
  0
LINE
  5
1A5
100
AcDbEntity
  8
0
  6
CONTINUOUS
 62
               7
100
AcDbLine
 10
4.25
 20
4.5
 30
0.0
 11
4.25
 21
1.25
 31
0.0
  0
LINE
  5
1A6
100
AcDbEntity
  8
0
  6
CONTINUOUS
 62
               7
100
AcDbLine
 10
6.0
 20
6.25
 30
0.0
 11
4.25
 21
4.5
 31
0.0
  0
LINE
  5
1A7
100
AcDbEntity
  8
0
  6
CONTINUOUS
 62
               7
100
AcDbLine
 10
-5.7599999999999998
 20
-1.25
 30
0.0
 11
6.0
 21
-1.25
 31
0.0
  0
LINE
  5
1A8
100
AcDbEntity
  8
0
  6
CONTINUOUS
 62
               7
100
AcDbLine
 10
6.0
 20
-1.25
 30
0.0
 11
6.0
 21
-6.25
 31
0.0
  0
LINE
  5
1A9
100
AcDbEntity
  8
0
  6
CONTINUOUS
 62
               7
100
AcDbLine
 10
-5.7599999999999998
 20
1.25
 30
0.0
 11
6.0
 21
1.25
 31
0.0
  0
LINE
  5
1AA
100
AcDbEntity
  8
0
  6
CONTINUOUS
 62
               7
100
AcDbLine
 10
0.0
 20
-4.5
 30
0.0
 11
4.25
 21
-4.5
 31
0.0
  0
LINE
  5
1AB
100
AcDbEntity
  8
0
  6
CONTINUOUS
 62
               7
100
AcDbLine
 10
0.0
 20
4.5
 30
0.0
 11
4.25
 21
4.5
 31
0.0
  0
LINE
  5
1AC
100
AcDbEntity
  8
0
  6
CONTINUOUS
 62
               7
100
AcDbLine
 10
6.0
 20
1.25
 30
0.0
 11
6.0
 21
6.25
 31
0.0
  0
LINE
  5
1AD
100
AcDbEntity
  8
0
  6
CONTINUOUS
 62
               7
100
AcDbLine
 10
15.0
 20
-5.75
 30
0.0
 11
17.0
 21
-5.75
 31
0.0
  0
LINE
  5
1AE
100
AcDbEntity
  8
0
  6
CONTINUOUS
 62
               7
100
AcDbLine
 10
17.0
 20
5.75
 30
0.0
 11
17.0
 21
-5.75
 31
0.0
  0
LINE
  5
1AF
100
AcDbEntity
  8
0
  6
CONTINUOUS
 62
               7
100
AcDbLine
 10
15.0
 20
5.75
 30
0.0
 11
17.0
 21
5.75
 31
0.0
  0
LINE
  5
1B0
100
AcDbEntity
  8
0
  6
CONTINUOUS
 62
               7
100
AcDbLine
 10
12.0
 20
6.25
 30
0.0
 11
12.0
 21
-6.25
 31
0.0
  0
LINE
  5
1B1
100
AcDbEntity
  8
0
  6
CONTINUOUS
 62
               7
100
AcDbLine
 10
15.0
 20
6.25
 30
0.0
 11
15.0
 21
-6.25
 31
0.0
  0
LINE
  5
1B2
100
AcDbEntity
  8
0
  6
CONTINUOUS
 62
               7
100
AcDbLine
 10
6.0
 20
6.25
 30
0.0
 11
15.0
 21
6.25
 31
0.0
  0
LINE
  5
1B3
100
AcDbEntity
  8
0
  6
CONTINUOUS
 62
               7
100
AcDbLine
 10
6.0
 20
-6.25
 30
0.0
 11
15.0
 21
-6.25
 31
0.0
  0
LINE
  5
1B4
100
AcDbEntity
  8
0
  6
CENTER
 62
               2
100
AcDbLine
 10
0.0
 20
8.5
 30
0.0
 11
0.0
 21
-8.5
 31
0.0
  0
LINE
  5
1B5
100
AcDbEntity
  8
0
  6
CENTER
 62
               2
100
AcDbLine
 10
-8.5
 20
0.0
 30
0.0
 11
22.82
 21
0.0
 31
0.0
  0
LINE
  5
1B6
100
AcDbEntity
  8
0
  6
CONTINUOUS
 62
               7
100
AcDbLine
 10
17.0
 20
4.2999999999999998
 30
0.0
 11
18.199999999999999
 21
4.2999999999999998
 31
0.0
  0
LINE
  5
1B7
100
AcDbEntity
  8
0
  6
CONTINUOUS
 62
               7
100
AcDbLine
 10
17.0
 20
-4.2999999999999998
 30
0.0
 11
18.199999999999999
 21
-4.2999999999999998
 31
0.0
  0
LINE
  5
1B8
100
AcDbEntity
  8
0
  6
CONTINUOUS
 62
               7
100
AcDbLine
 10
18.199999999999999
 20
5.9000000000000004
 30
0.0
 11
20.0
 21
5.9000000000000004
 31
0.0
  0
LINE
  5
1B9
100
AcDbEntity
  8
0
  6
CONTINUOUS
 62
               7
100
AcDbLine
 10
18.199999999999999
 20
-5.9000000000000004
 30
0.0
 11
20.0
 21
-5.9000000000000004
 31
0.0
  0
LINE
  5
1BA
100
AcDbEntity
  8
0
  6
CONTINUOUS
 62
               7
100
AcDbLine
 10
18.199999999999999
 20
5.9000000000000004
 30
0.0
 11
18.199999999999999
 21
-5.9000000000000004
 31
0.0
  0
LINE
  5
1BB
100
AcDbEntity
  8
0
  6
CONTINUOUS
 62
               7
100
AcDbLine
 10
20.0
 20
5.9000000000000004
 30
0.0
 11
20.0
 21
-5.9000000000000004
 31
0.0
  0
LINE
  5
1BC
100
AcDbEntity
  8
0
  6
CONTINUOUS
 62
               7
100
AcDbLine
 10
-6.9199999999999999
 20
0.0
 30
0.0
 11
-3.46
 21
-6.0
 31
0.0
  0
LINE
  5
1BD
100
AcDbEntity
  8
0
  6
CONTINUOUS
 62
               7
100
AcDbLine
 10
-3.46
 20
6.0
 30
0.0
 11
-6.9199999999999999
 21
0.0
 31
0.0
  0
LINE
  5
1BE
100
AcDbEntity
  8
0
  6
CONTINUOUS
 62
               7
100
AcDbLine
 10
3.46
 20
6.0
 30
0.0
 11
-3.46
 21
6.0
 31
0.0
  0
LINE
  5
1BF
100
AcDbEntity
  8
0
  6
CONTINUOUS
 62
               7
100
AcDbLine
 10
4.2999999999999998
 20
4.5499999999999998
 30
0.0
 11
3.46
 21
6.0
 31
0.0
  0
LINE
  5
1C0
100
AcDbEntity
  8
0
  6
CONTINUOUS
 62
               7
100
AcDbLine
 10
3.46
 20
-6.0
 30
0.0
 11
4.2999999999999998
 21
-4.5499999999999998
 31
0.0
  0
LINE
  5
1C1
100
AcDbEntity
  8
0
  6
CONTINUOUS
 62
               7
100
AcDbLine
 10
-3.46
 20
-6.0
 30
0.0
 11
3.46
 21
-6.0
 31
0.0
  0
ENDBLK
  5
1C2
100
AcDbEntity
  8
0
100
AcDbBlockEnd
  0
BLOCK
  5
1C3
100
AcDbEntity
  8
0
100
AcDbBlockBegin
  2
MS_11
 70
               0
 10
0.0
 20
0.0
 30
0.0
  3
MS_11
  1

  0
ARC
  5
1C4
100
AcDbEntity
  8
0
  6
CONTINUOUS
 62
               7
100
AcDbCircle
 10
-0.0013952594452351
 20
34.248144581758567
 30
0.0
 40
4.4986051231819246
100
AcDbArc
 50
106.11425922267208
 51
179.97636875552075
  0
ARC
  5
1C5
100
AcDbEntity
  8
0
  6
CONTINUOUS
 62
               7
100
AcDbCircle
 10
0.0013952594452351
 20
34.248144581758567
 30
0.0
 40
4.4986051231819246
100
AcDbArc
 50
0.023631244478847
 51
73.885740777327541
  0
ARC
  5
1C6
100
AcDbEntity
  8
0
  6
CONTINUOUS
 62
               7
100
AcDbCircle
 10
0.0
 20
34.25
 30
0.0
 40
6.245926672640338
100
AcDbArc
 50
326.3608168118966
 51
213.63918318810221
  0
ARC
  5
1C7
100
AcDbEntity
  8
0
  6
CONTINUOUS
 62
               7
100
AcDbCircle
 10
-3.0
 20
12.665054321289063
 30
0.0
 40
8.6705887233984189
100
AcDbArc
 50
249.75731547436098
 51
290.24268452563774
  0
ARC
  5
1C8
100
AcDbEntity
  8
0
  6
CONTINUOUS
 62
               7
100
AcDbCircle
 10
-3.0
 20
14.334945678710937
 30
0.0
 40
8.6612070592901826
100
AcDbArc
 50
69.734426997612971
 51
110.26557300238665
  0
ARC
  5
1C9
100
AcDbEntity
  8
0
  6
CONTINUOUS
 62
               7
100
AcDbCircle
 10
3.0
 20
12.665054321289063
 30
0.0
 40
8.6705887233984189
100
AcDbArc
 50
249.75731547436098
 51
290.24268452563774
  0
ARC
  5
1CA
100
AcDbEntity
  8
0
  6
CONTINUOUS
 62
               7
100
AcDbCircle
 10
3.0
 20
14.334945678710937
 30
0.0
 40
8.6612070592901826
100
AcDbArc
 50
69.734426997612971
 51
110.26557300238665
  0
LINE
  5
1CB
100
AcDbEntity
  8
0
  6
CONTINUOUS
 62
               7
100
AcDbLine
 10
6.0
 20
30.0
 30
0.0
 11
4.5
 21
31.5
 31
0.0
  0
LINE
  5
1CC
100
AcDbEntity
  8
0
  6
CONTINUOUS
 62
               7
100
AcDbLine
 10
4.5
 20
31.5
 30
0.0
 11
1.25
 21
31.5
 31
0.0
  0
LINE
  5
1CD
100
AcDbEntity
  8
0
  6
CONTINUOUS
 62
               7
100
AcDbLine
 10
-4.5
 20
31.5
 30
0.0
 11
-1.25
 21
31.5
 31
0.0
  0
LINE
  5
1CE
100
AcDbEntity
  8
0
  6
CONTINUOUS
 62
               7
100
AcDbLine
 10
-6.0
 20
30.0
 30
0.0
 11
-4.5
 21
31.5
 31
0.0
  0
LINE
  5
1CF
100
AcDbEntity
  8
0
  6
CONTINUOUS
 62
               7
100
AcDbLine
 10
-1.25
 20
30.0
 30
0.0
 11
-6.0
 21
30.0
 31
0.0
  0
LINE
  5
1D0
100
AcDbEntity
  8
0
  6
CONTINUOUS
 62
               7
100
AcDbLine
 10
-1.25
 20
30.0
 30
0.0
 11
-1.25
 21
40.369999999999997
 31
0.0
  0
LINE
  5
1D1
100
AcDbEntity
  8
0
  6
CONTINUOUS
 62
               7
100
AcDbLine
 10
1.25
 20
30.0
 30
0.0
 11
1.25
 21
40.369999999999997
 31
0.0
  0
LINE
  5
1D2
100
AcDbEntity
  8
0
  6
CONTINUOUS
 62
               7
100
AcDbLine
 10
-4.5
 20
31.5
 30
0.0
 11
-4.5
 21
34.25
 31
0.0
  0
LINE
  5
1D3
100
AcDbEntity
  8
0
  6
CONTINUOUS
 62
               7
100
AcDbLine
 10
4.5
 20
31.5
 30
0.0
 11
4.5
 21
34.25
 31
0.0
  0
LINE
  5
1D4
100
AcDbEntity
  8
0
  6
CENTER
 62
               2
100
AcDbLine
 10
-7.5
 20
34.25
 30
0.0
 11
7.5
 21
34.25
 31
0.0
  0
LINE
  5
1D5
100
AcDbEntity
  8
0
  6
CONTINUOUS
 62
               7
100
AcDbLine
 10
1.25
 20
30.0
 30
0.0
 11
6.0
 21
30.0
 31
0.0
  0
LINE
  5
1D6
100
AcDbEntity
  8
0
  6
CONTINUOUS
 62
               7
100
AcDbLine
 10
-6.0
 20
4.0
 30
0.0
 11
6.0
 21
4.0
 31
0.0
  0
LINE
  5
1D7
100
AcDbEntity
  8
0
  6
CONTINUOUS
 62
               7
100
AcDbLine
 10
4.7300000000000004
 20
-4.0
 30
0.0
 11
4.9900000000000002
 21
4.0
 31
0.0
  0
LINE
  5
1D8
100
AcDbEntity
  8
0
  6
CONTINUOUS
 62
               2
100
AcDbLine
 10
4.1500000000000004
 20
-4.0
 30
0.0
 11
4.4000000000000004
 21
4.0
 31
0.0
  0
LINE
  5
1D9
100
AcDbEntity
  8
0
  6
CONTINUOUS
 62
               7
100
AcDbLine
 10
-4.7300000000000004
 20
-4.0
 30
0.0
 11
4.7300000000000004
 21
-4.0
 31
0.0
  0
LINE
  5
1DA
100
AcDbEntity
  8
0
  6
CONTINUOUS
 62
               2
100
AcDbLine
 10
-4.1500000000000004
 20
-4.0
 30
0.0
 11
-4.4000000000000004
 21
4.0
 31
0.0
  0
LINE
  5
1DB
100
AcDbEntity
  8
0
  6
CONTINUOUS
 62
               7
100
AcDbLine
 10
-4.7300000000000004
 20
-4.0
 30
0.0
 11
-4.9900000000000002
 21
4.0
 31
0.0
  0
LINE
  5
1DC
100
AcDbEntity
  8
0
  6
CONTINUOUS
 62
               7
100
AcDbLine
 10
0.0
 20
4.5300000000000002
 30
0.0
 11
0.0
 21
22.460000000000001
 31
0.0
  0
LINE
  5
1DD
100
AcDbEntity
  8
0
  6
CONTINUOUS
 62
               7
100
AcDbLine
 10
6.0
 20
30.0
 30
0.0
 11
6.0
 21
4.0
 31
0.0
  0
LINE
  5
1DE
100
AcDbEntity
  8
0
  6
CONTINUOUS
 62
               7
100
AcDbLine
 10
-6.0
 20
30.0
 30
0.0
 11
-6.0
 21
4.0
 31
0.0
  0
LINE
  5
1DF
100
AcDbEntity
  8
0
  6
CONTINUOUS
 62
               7
100
AcDbLine
 10
-6.0
 20
4.0
 30
0.0
 11
6.0
 21
4.0
 31
0.0
  0
LINE
  5
1E0
100
AcDbEntity
  8
0
  6
CONTINUOUS
 62
               7
100
AcDbLine
 10
-6.0
 20
23.0
 30
0.0
 11
6.0
 21
23.0
 31
0.0
  0
LINE
  5
1E1
100
AcDbEntity
  8
0
  6
CENTER
 62
               2
100
AcDbLine
 10
0.0
 20
-7.0800000000000001
 30
0.0
 11
0.0
 21
42.630000000000003
 31
0.0
  0
ENDBLK
  5
1E2
100
AcDbEntity
  8
0
100
AcDbBlockEnd
  0
BLOCK
  5
1E3
100
AcDbEntity
  8
0
100
AcDbBlockBegin
  2
MS_12
 70
               0
 10
0.0
 20
0.0
 30
0.0
  3
MS_12
  1

  0
CIRCLE
  5
1E4
100
AcDbEntity
  8
0
  6
CONTINUOUS
 62
               7
100
AcDbCircle
 10
0.0
 20
34.25
 30
0.0
 40
3.0
  0
CIRCLE
  5
1E5
100
AcDbEntity
  8
0
  6
CONTINUOUS
 62
               7
100
AcDbCircle
 10
0.0
 20
34.25
 30
0.0
 40
5.8999996185302734
  0
CIRCLE
  5
1E6
100
AcDbEntity
  8
0
  6
CONTINUOUS
 62
               7
100
AcDbCircle
 10
0.0
 20
34.25
 30
0.0
 40
6.25
  0
ARC
  5
1E7
100
AcDbEntity
  8
0
  6
CONTINUOUS
 62
               7
100
AcDbCircle
 10
-3.0
 20
12.665054321289063
 30
0.0
 40
8.6705887233984189
100
AcDbArc
 50
249.75731547436098
 51
290.24268452563774
  0
ARC
  5
1E8
100
AcDbEntity
  8
0
  6
CONTINUOUS
 62
               7
100
AcDbCircle
 10
-3.0
 20
14.334945678710937
 30
0.0
 40
8.6612070592901826
100
AcDbArc
 50
69.734426997612971
 51
110.26557300238665
  0
ARC
  5
1E9
100
AcDbEntity
  8
0
  6
CONTINUOUS
 62
               7
100
AcDbCircle
 10
3.0
 20
12.665054321289063
 30
0.0
 40
8.6705887233984189
100
AcDbArc
 50
249.75731547436098
 51
290.24268452563774
  0
ARC
  5
1EA
100
AcDbEntity
  8
0
  6
CONTINUOUS
 62
               7
100
AcDbCircle
 10
3.0
 20
14.334945678710937
 30
0.0
 40
8.6612070592901826
100
AcDbArc
 50
69.734426997612971
 51
110.26557300238665
  0
LINE
  5
1EB
100
AcDbEntity
  8
0
  6
CONTINUOUS
 62
               7
100
AcDbLine
 10
1.25
 20
26.210000000000001
 30
0.0
 11
1.25
 21
28.120000000000001
 31
0.0
  0
LINE
  5
1EC
100
AcDbEntity
  8
0
  6
CONTINUOUS
 62
               7
100
AcDbLine
 10
-1.25
 20
26.210000000000001
 30
0.0
 11
1.25
 21
26.210000000000001
 31
0.0
  0
LINE
  5
1ED
100
AcDbEntity
  8
0
  6
CONTINUOUS
 62
               7
100
AcDbLine
 10
-1.25
 20
26.210000000000001
 30
0.0
 11
-1.25
 21
28.120000000000001
 31
0.0
  0
LINE
  5
1EE
100
AcDbEntity
  8
0
  6
CONTINUOUS
 62
               7
100
AcDbLine
 10
6.0
 20
30.0
 30
0.0
 11
5.2000000000000002
 21
30.789999999999999
 31
0.0
  0
LINE
  5
1EF
100
AcDbEntity
  8
0
  6
CONTINUOUS
 62
               7
100
AcDbLine
 10
-6.0
 20
30.0
 30
0.0
 11
-5.2000000000000002
 21
30.789999999999999
 31
0.0
  0
LINE
  5
1F0
100
AcDbEntity
  8
0
  6
CONTINUOUS
 62
               7
100
AcDbLine
 10
-4.5800000000000001
 20
30.0
 30
0.0
 11
-6.0
 21
30.0
 31
0.0
  0
LINE
  5
1F1
100
AcDbEntity
  8
0
  6
CENTER
 62
               2
100
AcDbLine
 10
-7.5
 20
34.25
 30
0.0
 11
7.5
 21
34.25
 31
0.0
  0
LINE
  5
1F2
100
AcDbEntity
  8
0
  6
CONTINUOUS
 62
               7
100
AcDbLine
 10
4.5800000000000001
 20
30.0
 30
0.0
 11
6.0
 21
30.0
 31
0.0
  0
LINE
  5
1F3
100
AcDbEntity
  8
0
  6
CONTINUOUS
 62
               7
100
AcDbLine
 10
0.0
 20
4.5300000000000002
 30
0.0
 11
0.0
 21
22.460000000000001
 31
0.0
  0
LINE
  5
1F4
100
AcDbEntity
  8
0
  6
CONTINUOUS
 62
               7
100
AcDbLine
 10
6.0
 20
30.0
 30
0.0
 11
6.0
 21
4.0
 31
0.0
  0
LINE
  5
1F5
100
AcDbEntity
  8
0
  6
CONTINUOUS
 62
               7
100
AcDbLine
 10
-6.0
 20
30.0
 30
0.0
 11
-6.0
 21
4.0
 31
0.0
  0
LINE
  5
1F6
100
AcDbEntity
  8
0
  6
CONTINUOUS
 62
               7
100
AcDbLine
 10
-6.0
 20
4.0
 30
0.0
 11
6.0
 21
4.0
 31
0.0
  0
LINE
  5
1F7
100
AcDbEntity
  8
0
  6
CONTINUOUS
 62
               7
100
AcDbLine
 10
-6.0
 20
23.0
 30
0.0
 11
6.0
 21
23.0
 31
0.0
  0
LINE
  5
1F8
100
AcDbEntity
  8
0
  6
CENTER
 62
               2
100
AcDbLine
 10
0.0
 20
-7.2400000000000002
 30
0.0
 11
0.0
 21
42.630000000000003
 31
0.0
  0
LINE
  5
1F9
100
AcDbEntity
  8
0
  6
CONTINUOUS
 62
               7
100
AcDbLine
 10
-6.0
 20
4.0
 30
0.0
 11
6.0
 21
4.0
 31
0.0
  0
LINE
  5
1FA
100
AcDbEntity
  8
0
  6
CONTINUOUS
 62
               7
100
AcDbLine
 10
-4.7300000000000004
 20
-4.0
 30
0.0
 11
4.7300000000000004
 21
-4.0
 31
0.0
  0
LINE
  5
1FB
100
AcDbEntity
  8
0
  6
CONTINUOUS
 62
               7
100
AcDbLine
 10
4.7300000000000004
 20
-4.0
 30
0.0
 11
4.9900000000000002
 21
4.0
 31
0.0
  0
LINE
  5
1FC
100
AcDbEntity
  8
0
  6
CONTINUOUS
 62
               2
100
AcDbLine
 10
4.1500000000000004
 20
-4.0
 30
0.0
 11
4.4000000000000004
 21
4.0
 31
0.0
  0
LINE
  5
1FD
100
AcDbEntity
  8
0
  6
CONTINUOUS
 62
               7
100
AcDbLine
 10
-4.7300000000000004
 20
-4.0
 30
0.0
 11
-4.9900000000000002
 21
4.0
 31
0.0
  0
LINE
  5
1FE
100
AcDbEntity
  8
0
  6
CONTINUOUS
 62
               2
100
AcDbLine
 10
-4.1500000000000004
 20
-4.0
 30
0.0
 11
-4.4000000000000004
 21
4.0
 31
0.0
  0
ENDBLK
  5
1FF
100
AcDbEntity
  8
0
100
AcDbBlockEnd
  0
BLOCK
  5
200
100
AcDbEntity
  8
0
100
AcDbBlockBegin
  2
MS_13
 70
               0
 10
0.0
 20
0.0
 30
0.0
  3
MS_13
  1

  0
ARC
  5
201
100
AcDbEntity
  8
0
  6
CONTINUOUS
 62
               7
100
AcDbCircle
 10
0.25
 20
35.25
 30
0.0
 40
6.25
100
AcDbArc
 50
89.999999999999801
 51
179.9999999999996
  0
ARC
  5
202
100
AcDbEntity
  8
0
  6
CONTINUOUS
 62
               7
100
AcDbCircle
 10
0.0
 20
35.25
 30
0.0
 40
4.5
100
AcDbArc
 50
89.999999999999801
 51
179.9999999999996
  0
ARC
  5
203
100
AcDbEntity
  8
0
  6
CONTINUOUS
 62
               7
100
AcDbCircle
 10
6.0454073717525532
 20
20.42228909401549
 30
0.0
 40
3.5734734545060194
100
AcDbArc
 50
55.294395590930144
 51
124.13832409755385
  0
ARC
  5
204
100
AcDbEntity
  8
0
  6
CONTINUOUS
 62
               7
100
AcDbCircle
 10
6.0538781922925216
 20
8.5806999168240203
 30
0.0
 40
3.5807051499492601
100
AcDbArc
 50
235.77632899347643
 51
270.09795665959962
  0
ARC
  5
205
100
AcDbEntity
  8
0
  6
CONTINUOUS
 62
               7
100
AcDbCircle
 10
0.0
 20
18.374755859374996
 30
0.0
 40
13.379289855304759
100
AcDbArc
 50
252.42468319299462
 51
287.57531680700413
  0
ARC
  5
206
100
AcDbEntity
  8
0
  6
CONTINUOUS
 62
               7
100
AcDbCircle
 10
-6.0538781922925216
 20
8.5806999168240203
 30
0.0
 40
3.5807051499492601
100
AcDbArc
 50
269.90204334039919
 51
304.22367100652235
  0
ARC
  5
207
100
AcDbEntity
  8
0
  6
CONTINUOUS
 62
               7
100
AcDbCircle
 10
-6.0454073717525532
 20
20.42228909401549
 30
0.0
 40
3.5734734545060194
100
AcDbArc
 50
55.861675902445739
 51
124.70560440906947
  0
ARC
  5
208
100
AcDbEntity
  8
0
  6
CONTINUOUS
 62
               7
100
AcDbCircle
 10
0.0099999999999998
 20
10.625640803598833
 30
0.0
 40
13.369378868402787
100
AcDbArc
 50
72.411229123273117
 51
107.5887708767265
  0
LINE
  5
209
100
AcDbEntity
  8
0
  6
CONTINUOUS
 62
               7
100
AcDbLine
 10
4.25
 20
39.75
 30
0.0
 11
4.25
 21
31.0
 31
0.0
  0
LINE
  5
20A
100
AcDbEntity
  8
0
  6
CONTINUOUS
 62
               7
100
AcDbLine
 10
6.0
 20
41.5
 30
0.0
 11
4.25
 21
39.75
 31
0.0
  0
LINE
  5
20B
100
AcDbEntity
  8
0
  6
CONTINUOUS
 62
               7
100
AcDbLine
 10
-4.5
 20
32.5
 30
0.0
 11
2.75
 21
32.5
 31
0.0
  0
LINE
  5
20C
100
AcDbEntity
  8
0
  6
CONTINUOUS
 62
               7
100
AcDbLine
 10
-6.0
 20
31.0
 30
0.0
 11
-4.5
 21
32.5
 31
0.0
  0
LINE
  5
20D
100
AcDbEntity
  8
0
  6
CONTINUOUS
 62
               7
100
AcDbLine
 10
6.0
 20
27.210000000000001
 30
0.0
 11
7.7800000000000002
 21
29.0
 31
0.0
  0
LINE
  5
20E
100
AcDbEntity
  8
0
  6
CONTINUOUS
 62
               7
100
AcDbLine
 10
4.25
 20
31.0
 30
0.0
 11
2.75
 21
32.5
 31
0.0
  0
LINE
  5
20F
100
AcDbEntity
  8
0
  6
CONTINUOUS
 62
               7
100
AcDbLine
 10
4.25
 20
35.25
 30
0.0
 11
6.0
 21
29.0
 31
0.0
  0
LINE
  5
210
100
AcDbEntity
  8
0
  6
CONTINUOUS
 62
               7
100
AcDbLine
 10
6.0
 20
24.0
 30
0.0
 11
6.0
 21
41.5
 31
0.0
  0
LINE
  5
211
100
AcDbEntity
  8
0
  6
CONTINUOUS
 62
               7
100
AcDbLine
 10
12.0
 20
41.5
 30
0.0
 11
12.0
 21
29.0
 31
0.0
  0
LINE
  5
212
100
AcDbEntity
  8
0
  6
CONTINUOUS
 62
               7
100
AcDbLine
 10
6.0
 20
29.0
 30
0.0
 11
15.0
 21
29.0
 31
0.0
  0
LINE
  5
213
100
AcDbEntity
  8
0
  6
CONTINUOUS
 62
               7
100
AcDbLine
 10
0.25
 20
41.5
 30
0.0
 11
15.0
 21
41.5
 31
0.0
  0
LINE
  5
214
100
AcDbEntity
  8
0
  6
CONTINUOUS
 62
               7
100
AcDbLine
 10
15.0
 20
41.5
 30
0.0
 11
15.0
 21
29.0
 31
0.0
  0
LINE
  5
215
100
AcDbEntity
  8
0
  6
CONTINUOUS
 62
               7
100
AcDbLine
 10
15.0
 20
41.0
 30
0.0
 11
17.0
 21
41.0
 31
0.0
  0
LINE
  5
216
100
AcDbEntity
  8
0
  6
CONTINUOUS
 62
               7
100
AcDbLine
 10
15.0
 20
29.5
 30
0.0
 11
17.0
 21
29.5
 31
0.0
  0
LINE
  5
217
100
AcDbEntity
  8
0
  6
CONTINUOUS
 62
               7
100
AcDbLine
 10
17.0
 20
41.0
 30
0.0
 11
17.0
 21
29.5
 31
0.0
  0
LINE
  5
218
100
AcDbEntity
  8
0
  6
CONTINUOUS
 62
               7
100
AcDbLine
 10
17.0
 20
30.949999999999999
 30
0.0
 11
18.199999999999999
 21
30.949999999999999
 31
0.0
  0
LINE
  5
219
100
AcDbEntity
  8
0
  6
CONTINUOUS
 62
               7
100
AcDbLine
 10
17.0
 20
39.549999999999997
 30
0.0
 11
18.199999999999999
 21
39.549999999999997
 31
0.0
  0
LINE
  5
21A
100
AcDbEntity
  8
0
  6
CONTINUOUS
 62
               7
100
AcDbLine
 10
18.199999999999999
 20
29.350000000000001
 30
0.0
 11
20.0
 21
29.350000000000001
 31
0.0
  0
LINE
  5
21B
100
AcDbEntity
  8
0
  6
CONTINUOUS
 62
               7
100
AcDbLine
 10
18.199999999999999
 20
41.149999999999999
 30
0.0
 11
18.199999999999999
 21
29.350000000000001
 31
0.0
  0
LINE
  5
21C
100
AcDbEntity
  8
0
  6
CONTINUOUS
 62
               7
100
AcDbLine
 10
20.0
 20
41.149999999999999
 30
0.0
 11
20.0
 21
29.350000000000001
 31
0.0
  0
LINE
  5
21D
100
AcDbEntity
  8
0
  6
CONTINUOUS
 62
               7
100
AcDbLine
 10
18.199999999999999
 20
41.149999999999999
 30
0.0
 11
20.0
 21
41.149999999999999
 31
0.0
  0
LINE
  5
21E
100
AcDbEntity
  8
0
  6
CONTINUOUS
 62
               7
100
AcDbLine
 10
-6.0
 20
31.0
 30
0.0
 11
4.25
 21
31.0
 31
0.0
  0
LINE
  5
21F
100
AcDbEntity
  8
0
  6
CONTINUOUS
 62
               7
100
AcDbLine
 10
0.0
 20
39.75
 30
0.0
 11
4.25
 21
39.75
 31
0.0
  0
LINE
  5
220
100
AcDbEntity
  8
0
  6
CONTINUOUS
 62
               7
100
AcDbLine
 10
-4.5
 20
32.5
 30
0.0
 11
-4.5
 21
35.25
 31
0.0
  0
LINE
  5
221
100
AcDbEntity
  8
0
  6
CONTINUOUS
 62
               7
100
AcDbLine
 10
-6.0
 20
24.0
 30
0.0
 11
-6.0
 21
35.25
 31
0.0
  0
LINE
  5
222
100
AcDbEntity
  8
0
  6
CENTER
 62
               2
100
AcDbLine
 10
-9.5500000000000007
 20
35.25
 30
0.0
 11
22.699999999999999
 21
35.25
 31
0.0
  0
LINE
  5
223
100
AcDbEntity
  8
0
  6
CENTER
 62
               2
100
AcDbLine
 10
0.0
 20
-8.5899999999999999
 30
0.0
 11
0.0
 21
43.479999999999997
 31
0.0
  0
LINE
  5
224
100
AcDbEntity
  8
0
  6
CONTINUOUS
 62
               7
100
AcDbLine
 10
-6.0499999999999998
 20
24.0
 30
0.0
 11
6.0499999999999998
 21
24.0
 31
0.0
  0
LINE
  5
225
100
AcDbEntity
  8
0
  6
CONTINUOUS
 62
               7
100
AcDbLine
 10
8.0800000000000001
 20
5.6200000000000001
 30
0.0
 11
7.0
 21
5.0
 31
0.0
  0
LINE
  5
226
100
AcDbEntity
  8
0
  6
CONTINUOUS
 62
               7
100
AcDbLine
 10
-8.0800000000000001
 20
5.6200000000000001
 30
0.0
 11
-7.0
 21
5.0
 31
0.0
  0
LINE
  5
227
100
AcDbEntity
  8
0
  6
CONTINUOUS
 62
               7
100
AcDbLine
 10
-6.3899999999999997
 20
-6.0
 30
0.0
 11
6.3899999999999997
 21
-6.0
 31
0.0
  0
LINE
  5
228
100
AcDbEntity
  8
0
  6
CONTINUOUS
 62
               7
100
AcDbLine
 10
6.3899999999999997
 20
-6.0
 30
0.0
 11
6.7300000000000004
 21
5.0
 31
0.0
  0
LINE
  5
229
100
AcDbEntity
  8
0
  6
CONTINUOUS
 62
               2
100
AcDbLine
 10
5.5300000000000002
 20
-6.0
 30
0.0
 11
5.8700000000000001
 21
5.0
 31
0.0
  0
LINE
  5
22A
100
AcDbEntity
  8
0
  6
CONTINUOUS
 62
               2
100
AcDbLine
 10
-5.5300000000000002
 20
-6.0
 30
0.0
 11
-5.8700000000000001
 21
5.0
 31
0.0
  0
LINE
  5
22B
100
AcDbEntity
  8
0
  6
CONTINUOUS
 62
               7
100
AcDbLine
 10
-6.3899999999999997
 20
-6.0
 30
0.0
 11
-6.7300000000000004
 21
5.0
 31
0.0
  0
LINE
  5
22C
100
AcDbEntity
  8
0
  6
CONTINUOUS
 62
               7
100
AcDbLine
 10
8.0800000000000001
 20
5.6200000000000001
 30
0.0
 11
8.0800000000000001
 21
23.359999999999999
 31
0.0
  0
LINE
  5
22D
100
AcDbEntity
  8
0
  6
CONTINUOUS
 62
               7
100
AcDbLine
 10
4.04
 20
5.6200000000000001
 30
0.0
 11
4.04
 21
23.379999999999999
 31
0.0
  0
LINE
  5
22E
100
AcDbEntity
  8
0
  6
CONTINUOUS
 62
               7
100
AcDbLine
 10
-4.04
 20
5.6200000000000001
 30
0.0
 11
-4.04
 21
23.370000000000001
 31
0.0
  0
LINE
  5
22F
100
AcDbEntity
  8
0
  6
CONTINUOUS
 62
               7
100
AcDbLine
 10
-8.0800000000000001
 20
5.6200000000000001
 30
0.0
 11
-8.0800000000000001
 21
23.359999999999999
 31
0.0
  0
LINE
  5
230
100
AcDbEntity
  8
0
  6
CONTINUOUS
 62
               7
100
AcDbLine
 10
-7.0
 20
5.0
 30
0.0
 11
7.0
 21
5.0
 31
0.0
  0
ENDBLK
  5
231
100
AcDbEntity
  8
0
100
AcDbBlockEnd
  0
BLOCK
  5
232
100
AcDbEntity
  8
0
100
AcDbBlockBegin
  2
MS_14
 70
               0
 10
0.0
 20
0.0
 30
0.0
  3
MS_14
  1

  0
ARC
  5
233
100
AcDbEntity
  8
0
  6
CONTINUOUS
 62
               7
100
AcDbCircle
 10
-0.0000000000000004
 20
0.0
 30
0.0
 40
5.994297289924817
100
AcDbArc
 50
48.652222780306225
 51
311.34777721969294
  0
ARC
  5
234
100
AcDbEntity
  8
0
  6
CONTINUOUS
 62
               7
100
AcDbCircle
 10
0.0018554182414317
 20
-0.0013952594452351
 30
0.0
 40
4.4986051231819246
100
AcDbArc
 50
196.11425922267185
 51
269.97636875552058
  0
ARC
  5
235
100
AcDbEntity
  8
0
  6
CONTINUOUS
 62
               7
100
AcDbCircle
 10
0.0018554182414317
 20
0.0013952594452351
 30
0.0
 40
4.4986051231819246
100
AcDbArc
 50
90.023631244478636
 51
163.88574077732733
  0
LINE
  5
236
100
AcDbEntity
  8
0
  6
CONTINUOUS
 62
               7
100
AcDbLine
 10
4.25
 20
-4.5
 30
0.0
 11
4.25
 21
-1.25
 31
0.0
  0
LINE
  5
237
100
AcDbEntity
  8
0
  6
CONTINUOUS
 62
               7
100
AcDbLine
 10
6.0
 20
-6.25
 30
0.0
 11
4.25
 21
-4.5
 31
0.0
  0
LINE
  5
238
100
AcDbEntity
  8
0
  6
CONTINUOUS
 62
               7
100
AcDbLine
 10
4.25
 20
4.5
 30
0.0
 11
4.25
 21
1.25
 31
0.0
  0
LINE
  5
239
100
AcDbEntity
  8
0
  6
CONTINUOUS
 62
               7
100
AcDbLine
 10
6.0
 20
6.25
 30
0.0
 11
4.25
 21
4.5
 31
0.0
  0
LINE
  5
23A
100
AcDbEntity
  8
0
  6
CONTINUOUS
 62
               7
100
AcDbLine
 10
-5.7599999999999998
 20
-1.25
 30
0.0
 11
6.0
 21
-1.25
 31
0.0
  0
LINE
  5
23B
100
AcDbEntity
  8
0
  6
CONTINUOUS
 62
               7
100
AcDbLine
 10
6.0
 20
-1.25
 30
0.0
 11
6.0
 21
-6.25
 31
0.0
  0
LINE
  5
23C
100
AcDbEntity
  8
0
  6
CONTINUOUS
 62
               7
100
AcDbLine
 10
-5.7599999999999998
 20
1.25
 30
0.0
 11
6.0
 21
1.25
 31
0.0
  0
LINE
  5
23D
100
AcDbEntity
  8
0
  6
CONTINUOUS
 62
               7
100
AcDbLine
 10
0.0
 20
-4.5
 30
0.0
 11
4.25
 21
-4.5
 31
0.0
  0
LINE
  5
23E
100
AcDbEntity
  8
0
  6
CONTINUOUS
 62
               7
100
AcDbLine
 10
0.0
 20
4.5
 30
0.0
 11
4.25
 21
4.5
 31
0.0
  0
LINE
  5
23F
100
AcDbEntity
  8
0
  6
CONTINUOUS
 62
               7
100
AcDbLine
 10
6.0
 20
1.25
 30
0.0
 11
6.0
 21
6.25
 31
0.0
  0
LINE
  5
240
100
AcDbEntity
  8
0
  6
CONTINUOUS
 62
               7
100
AcDbLine
 10
15.0
 20
-5.75
 30
0.0
 11
17.0
 21
-5.75
 31
0.0
  0
LINE
  5
241
100
AcDbEntity
  8
0
  6
CONTINUOUS
 62
               7
100
AcDbLine
 10
17.0
 20
5.75
 30
0.0
 11
17.0
 21
-5.75
 31
0.0
  0
LINE
  5
242
100
AcDbEntity
  8
0
  6
CONTINUOUS
 62
               7
100
AcDbLine
 10
15.0
 20
5.75
 30
0.0
 11
17.0
 21
5.75
 31
0.0
  0
LINE
  5
243
100
AcDbEntity
  8
0
  6
CONTINUOUS
 62
               7
100
AcDbLine
 10
12.0
 20
6.25
 30
0.0
 11
12.0
 21
-6.25
 31
0.0
  0
LINE
  5
244
100
AcDbEntity
  8
0
  6
CONTINUOUS
 62
               7
100
AcDbLine
 10
15.0
 20
6.25
 30
0.0
 11
15.0
 21
-6.25
 31
0.0
  0
LINE
  5
245
100
AcDbEntity
  8
0
  6
CONTINUOUS
 62
               7
100
AcDbLine
 10
6.0
 20
6.25
 30
0.0
 11
15.0
 21
6.25
 31
0.0
  0
LINE
  5
246
100
AcDbEntity
  8
0
  6
CONTINUOUS
 62
               7
100
AcDbLine
 10
6.0
 20
-6.25
 30
0.0
 11
15.0
 21
-6.25
 31
0.0
  0
LINE
  5
247
100
AcDbEntity
  8
0
  6
CENTER
 62
               2
100
AcDbLine
 10
0.0
 20
9.0600000000000005
 30
0.0
 11
0.0
 21
-8.9000000000000004
 31
0.0
  0
LINE
  5
248
100
AcDbEntity
  8
0
  6
CENTER
 62
               2
100
AcDbLine
 10
-9.6799999999999997
 20
0.0
 30
0.0
 11
22.82
 21
0.0
 31
0.0
  0
LINE
  5
249
100
AcDbEntity
  8
0
  6
CONTINUOUS
 62
               7
100
AcDbLine
 10
17.0
 20
4.2999999999999998
 30
0.0
 11
18.199999999999999
 21
4.2999999999999998
 31
0.0
  0
LINE
  5
24A
100
AcDbEntity
  8
0
  6
CONTINUOUS
 62
               7
100
AcDbLine
 10
17.0
 20
-4.2999999999999998
 30
0.0
 11
18.199999999999999
 21
-4.2999999999999998
 31
0.0
  0
LINE
  5
24B
100
AcDbEntity
  8
0
  6
CONTINUOUS
 62
               7
100
AcDbLine
 10
18.199999999999999
 20
5.9000000000000004
 30
0.0
 11
20.0
 21
5.9000000000000004
 31
0.0
  0
LINE
  5
24C
100
AcDbEntity
  8
0
  6
CONTINUOUS
 62
               7
100
AcDbLine
 10
18.199999999999999
 20
-5.9000000000000004
 30
0.0
 11
20.0
 21
-5.9000000000000004
 31
0.0
  0
LINE
  5
24D
100
AcDbEntity
  8
0
  6
CONTINUOUS
 62
               7
100
AcDbLine
 10
18.199999999999999
 20
5.9000000000000004
 30
0.0
 11
18.199999999999999
 21
-5.9000000000000004
 31
0.0
  0
LINE
  5
24E
100
AcDbEntity
  8
0
  6
CONTINUOUS
 62
               7
100
AcDbLine
 10
20.0
 20
5.9000000000000004
 30
0.0
 11
20.0
 21
-5.9000000000000004
 31
0.0
  0
LINE
  5
24F
100
AcDbEntity
  8
0
  6
CONTINUOUS
 62
               7
100
AcDbLine
 10
-4.04
 20
-7.0
 30
0.0
 11
4.04
 21
-7.0
 31
0.0
  0
LINE
  5
250
100
AcDbEntity
  8
0
  6
CONTINUOUS
 62
               7
100
AcDbLine
 10
-8.0800000000000001
 20
0.0
 30
0.0
 11
-4.04
 21
-7.0
 31
0.0
  0
LINE
  5
251
100
AcDbEntity
  8
0
  6
CONTINUOUS
 62
               7
100
AcDbLine
 10
-4.04
 20
7.0
 30
0.0
 11
-8.0800000000000001
 21
0.0
 31
0.0
  0
LINE
  5
252
100
AcDbEntity
  8
0
  6
CONTINUOUS
 62
               7
100
AcDbLine
 10
4.04
 20
7.0
 30
0.0
 11
-4.04
 21
7.0
 31
0.0
  0
LINE
  5
253
100
AcDbEntity
  8
0
  6
CONTINUOUS
 62
               7
100
AcDbLine
 10
5.0300000000000002
 20
5.2800000000000002
 30
0.0
 11
4.04
 21
7.0
 31
0.0
  0
LINE
  5
254
100
AcDbEntity
  8
0
  6
CONTINUOUS
 62
               7
100
AcDbLine
 10
4.04
 20
-7.0
 30
0.0
 11
5.0300000000000002
 21
-5.2800000000000002
 31
0.0
  0
ENDBLK
  5
255
100
AcDbEntity
  8
0
100
AcDbBlockEnd
  0
BLOCK
  5
256
100
AcDbEntity
  8
0
100
AcDbBlockBegin
  2
MS_15
 70
               0
 10
0.0
 20
0.0
 30
0.0
  3
MS_15
  1

  0
ARC
  5
257
100
AcDbEntity
  8
0
  6
CONTINUOUS
 62
               7
100
AcDbCircle
 10
-0.0013952594452351
 20
35.248144581758567
 30
0.0
 40
4.4986051231819246
100
AcDbArc
 50
106.11425922267208
 51
179.97636875552075
  0
ARC
  5
258
100
AcDbEntity
  8
0
  6
CONTINUOUS
 62
               7
100
AcDbCircle
 10
0.0013952594452351
 20
35.248144581758567
 30
0.0
 40
4.4986051231819246
100
AcDbArc
 50
0.023631244478847
 51
73.885740777327541
  0
ARC
  5
259
100
AcDbEntity
  8
0
  6
CONTINUOUS
 62
               7
100
AcDbCircle
 10
0.0
 20
35.25
 30
0.0
 40
6.245926672640338
100
AcDbArc
 50
326.3608168118966
 51
213.63918318810221
  0
ARC
  5
25A
100
AcDbEntity
  8
0
  6
CONTINUOUS
 62
               7
100
AcDbCircle
 10
3.5
 20
13.890800476074219
 30
0.0
 40
10.104712940722006
100
AcDbArc
 50
69.73436706108923
 51
110.26563293891037
  0
ARC
  5
25B
100
AcDbEntity
  8
0
  6
CONTINUOUS
 62
               7
100
AcDbCircle
 10
-3.5
 20
13.890800476074219
 30
0.0
 40
10.104712940722006
100
AcDbArc
 50
69.73436706108923
 51
110.26563293891037
  0
ARC
  5
25C
100
AcDbEntity
  8
0
  6
CONTINUOUS
 62
               7
100
AcDbCircle
 10
3.5
 20
15.109199523925781
 30
0.0
 40
10.11409450246898
100
AcDbArc
 50
249.75398889962375
 51
290.24601110037503
  0
ARC
  5
25D
100
AcDbEntity
  8
0
  6
CONTINUOUS
 62
               7
100
AcDbCircle
 10
-3.5
 20
15.109199523925781
 30
0.0
 40
10.11409450246898
100
AcDbArc
 50
249.75398889962375
 51
290.24601110037503
  0
LINE
  5
25E
100
AcDbEntity
  8
0
  6
CONTINUOUS
 62
               7
100
AcDbLine
 10
6.0
 20
31.0
 30
0.0
 11
4.5
 21
32.5
 31
0.0
  0
LINE
  5
25F
100
AcDbEntity
  8
0
  6
CONTINUOUS
 62
               7
100
AcDbLine
 10
4.5
 20
32.5
 30
0.0
 11
1.25
 21
32.5
 31
0.0
  0
LINE
  5
260
100
AcDbEntity
  8
0
  6
CONTINUOUS
 62
               7
100
AcDbLine
 10
-4.5
 20
32.5
 30
0.0
 11
-1.25
 21
32.5
 31
0.0
  0
LINE
  5
261
100
AcDbEntity
  8
0
  6
CONTINUOUS
 62
               7
100
AcDbLine
 10
-6.0
 20
31.0
 30
0.0
 11
-4.5
 21
32.5
 31
0.0
  0
LINE
  5
262
100
AcDbEntity
  8
0
  6
CONTINUOUS
 62
               7
100
AcDbLine
 10
-1.25
 20
31.0
 30
0.0
 11
-6.0
 21
31.0
 31
0.0
  0
LINE
  5
263
100
AcDbEntity
  8
0
  6
CONTINUOUS
 62
               7
100
AcDbLine
 10
-1.25
 20
31.0
 30
0.0
 11
-1.25
 21
41.369999999999997
 31
0.0
  0
LINE
  5
264
100
AcDbEntity
  8
0
  6
CONTINUOUS
 62
               7
100
AcDbLine
 10
1.25
 20
31.0
 30
0.0
 11
1.25
 21
41.369999999999997
 31
0.0
  0
LINE
  5
265
100
AcDbEntity
  8
0
  6
CONTINUOUS
 62
               7
100
AcDbLine
 10
-4.5
 20
32.5
 30
0.0
 11
-4.5
 21
35.25
 31
0.0
  0
LINE
  5
266
100
AcDbEntity
  8
0
  6
CONTINUOUS
 62
               7
100
AcDbLine
 10
4.5
 20
32.5
 30
0.0
 11
4.5
 21
35.25
 31
0.0
  0
LINE
  5
267
100
AcDbEntity
  8
0
  6
CENTER
 62
               2
100
AcDbLine
 10
-7.5
 20
35.25
 30
0.0
 11
7.5
 21
35.25
 31
0.0
  0
LINE
  5
268
100
AcDbEntity
  8
0
  6
CONTINUOUS
 62
               7
100
AcDbLine
 10
1.25
 20
31.0
 30
0.0
 11
6.0
 21
31.0
 31
0.0
  0
LINE
  5
269
100
AcDbEntity
  8
0
  6
CONTINUOUS
 62
               7
100
AcDbLine
 10
6.0
 20
31.0
 30
0.0
 11
6.0
 21
24.0
 31
0.0
  0
LINE
  5
26A
100
AcDbEntity
  8
0
  6
CONTINUOUS
 62
               7
100
AcDbLine
 10
-6.0
 20
31.0
 30
0.0
 11
-6.0
 21
24.0
 31
0.0
  0
LINE
  5
26B
100
AcDbEntity
  8
0
  6
CENTER
 62
               2
100
AcDbLine
 10
0.0
 20
-8.1199999999999992
 30
0.0
 11
0.0
 21
43.479999999999997
 31
0.0
  0
LINE
  5
26C
100
AcDbEntity
  8
0
  6
CONTINUOUS
 62
               7
100
AcDbLine
 10
-7.0
 20
24.0
 30
0.0
 11
7.0
 21
24.0
 31
0.0
  0
LINE
  5
26D
100
AcDbEntity
  8
0
  6
CONTINUOUS
 62
               7
100
AcDbLine
 10
-6.3899999999999997
 20
-6.0
 30
0.0
 11
6.3899999999999997
 21
-6.0
 31
0.0
  0
LINE
  5
26E
100
AcDbEntity
  8
0
  6
CONTINUOUS
 62
               7
100
AcDbLine
 10
6.3899999999999997
 20
-6.0
 30
0.0
 11
6.7300000000000004
 21
5.0
 31
0.0
  0
LINE
  5
26F
100
AcDbEntity
  8
0
  6
CONTINUOUS
 62
               2
100
AcDbLine
 10
5.5300000000000002
 20
-6.0
 30
0.0
 11
5.8700000000000001
 21
5.0
 31
0.0
  0
LINE
  5
270
100
AcDbEntity
  8
0
  6
CONTINUOUS
 62
               2
100
AcDbLine
 10
-5.5300000000000002
 20
-6.0
 30
0.0
 11
-5.8700000000000001
 21
5.0
 31
0.0
  0
LINE
  5
271
100
AcDbEntity
  8
0
  6
CONTINUOUS
 62
               7
100
AcDbLine
 10
-6.3899999999999997
 20
-6.0
 30
0.0
 11
-6.7300000000000004
 21
5.0
 31
0.0
  0
LINE
  5
272
100
AcDbEntity
  8
0
  6
CONTINUOUS
 62
               7
100
AcDbLine
 10
-7.0
 20
5.0
 30
0.0
 11
-7.0
 21
24.0
 31
0.0
  0
LINE
  5
273
100
AcDbEntity
  8
0
  6
CONTINUOUS
 62
               7
100
AcDbLine
 10
0.0
 20
5.6200000000000001
 30
0.0
 11
0.0
 21
23.370000000000001
 31
0.0
  0
LINE
  5
274
100
AcDbEntity
  8
0
  6
CONTINUOUS
 62
               7
100
AcDbLine
 10
7.0
 20
5.0
 30
0.0
 11
7.0
 21
24.0
 31
0.0
  0
LINE
  5
275
100
AcDbEntity
  8
0
  6
CONTINUOUS
 62
               7
100
AcDbLine
 10
-7.0
 20
5.0
 30
0.0
 11
7.0
 21
5.0
 31
0.0
  0
ENDBLK
  5
276
100
AcDbEntity
  8
0
100
AcDbBlockEnd
  0
BLOCK
  5
277
100
AcDbEntity
  8
0
100
AcDbBlockBegin
  2
MS_16
 70
               0
 10
0.0
 20
0.0
 30
0.0
  3
MS_16
  1

  0
CIRCLE
  5
278
100
AcDbEntity
  8
0
  6
CONTINUOUS
 62
               7
100
AcDbCircle
 10
0.0
 20
35.25
 30
0.0
 40
3.0
  0
CIRCLE
  5
279
100
AcDbEntity
  8
0
  6
CONTINUOUS
 62
               7
100
AcDbCircle
 10
0.0
 20
35.25
 30
0.0
 40
5.8999996185302734
  0
CIRCLE
  5
27A
100
AcDbEntity
  8
0
  6
CONTINUOUS
 62
               7
100
AcDbCircle
 10
0.0
 20
35.25
 30
0.0
 40
6.25
  0
ARC
  5
27B
100
AcDbEntity
  8
0
  6
CONTINUOUS
 62
               7
100
AcDbCircle
 10
3.5
 20
13.890800476074219
 30
0.0
 40
10.104712940722006
100
AcDbArc
 50
69.73436706108923
 51
110.26563293891037
  0
ARC
  5
27C
100
AcDbEntity
  8
0
  6
CONTINUOUS
 62
               7
100
AcDbCircle
 10
-3.5
 20
13.890800476073542
 30
0.0
 40
10.10471294072264
100
AcDbArc
 50
69.734367061090566
 51
110.26563293890904
  0
ARC
  5
27D
100
AcDbEntity
  8
0
  6
CONTINUOUS
 62
               7
100
AcDbCircle
 10
3.5
 20
15.109199523925781
 30
0.0
 40
10.11409450246898
100
AcDbArc
 50
249.75398889962375
 51
290.24601110037503
  0
ARC
  5
27E
100
AcDbEntity
  8
0
  6
CONTINUOUS
 62
               7
100
AcDbCircle
 10
-3.5
 20
15.109199523926456
 30
0.0
 40
10.114094502469614
100
AcDbArc
 50
249.75398889962506
 51
290.24601110037372
  0
LINE
  5
27F
100
AcDbEntity
  8
0
  6
CONTINUOUS
 62
               7
100
AcDbLine
 10
1.25
 20
27.210000000000001
 30
0.0
 11
1.25
 21
29.120000000000001
 31
0.0
  0
LINE
  5
280
100
AcDbEntity
  8
0
  6
CONTINUOUS
 62
               7
100
AcDbLine
 10
-1.25
 20
27.210000000000001
 30
0.0
 11
1.25
 21
27.210000000000001
 31
0.0
  0
LINE
  5
281
100
AcDbEntity
  8
0
  6
CONTINUOUS
 62
               7
100
AcDbLine
 10
-1.25
 20
27.210000000000001
 30
0.0
 11
-1.25
 21
29.120000000000001
 31
0.0
  0
LINE
  5
282
100
AcDbEntity
  8
0
  6
CONTINUOUS
 62
               7
100
AcDbLine
 10
6.0
 20
31.0
 30
0.0
 11
5.2000000000000002
 21
31.789999999999999
 31
0.0
  0
LINE
  5
283
100
AcDbEntity
  8
0
  6
CONTINUOUS
 62
               7
100
AcDbLine
 10
-6.0
 20
31.0
 30
0.0
 11
-5.2000000000000002
 21
31.789999999999999
 31
0.0
  0
LINE
  5
284
100
AcDbEntity
  8
0
  6
CONTINUOUS
 62
               7
100
AcDbLine
 10
-4.5800000000000001
 20
31.0
 30
0.0
 11
-6.0
 21
31.0
 31
0.0
  0
LINE
  5
285
100
AcDbEntity
  8
0
  6
CENTER
 62
               2
100
AcDbLine
 10
-7.5
 20
35.25
 30
0.0
 11
7.5
 21
35.25
 31
0.0
  0
LINE
  5
286
100
AcDbEntity
  8
0
  6
CONTINUOUS
 62
               7
100
AcDbLine
 10
4.5800000000000001
 20
31.0
 30
0.0
 11
6.0
 21
31.0
 31
0.0
  0
LINE
  5
287
100
AcDbEntity
  8
0
  6
CONTINUOUS
 62
               7
100
AcDbLine
 10
6.0
 20
31.0
 30
0.0
 11
6.0
 21
24.0
 31
0.0
  0
LINE
  5
288
100
AcDbEntity
  8
0
  6
CONTINUOUS
 62
               7
100
AcDbLine
 10
-6.0
 20
31.0
 30
0.0
 11
-6.0
 21
24.0
 31
0.0
  0
LINE
  5
289
100
AcDbEntity
  8
0
  6
CENTER
 62
               2
100
AcDbLine
 10
0.0
 20
-8.3499999999999996
 30
0.0
 11
0.0
 21
43.670000000000002
 31
0.0
  0
LINE
  5
28A
100
AcDbEntity
  8
0
  6
CONTINUOUS
 62
               7
100
AcDbLine
 10
-6.3899999999999997
 20
-6.0
 30
0.0
 11
6.3899999999999997
 21
-6.0
 31
0.0
  0
LINE
  5
28B
100
AcDbEntity
  8
0
  6
CONTINUOUS
 62
               7
100
AcDbLine
 10
6.3899999999999997
 20
-6.0
 30
0.0
 11
6.7300000000000004
 21
5.0
 31
0.0
  0
LINE
  5
28C
100
AcDbEntity
  8
0
  6
CONTINUOUS
 62
               2
100
AcDbLine
 10
5.5300000000000002
 20
-6.0
 30
0.0
 11
5.8700000000000001
 21
5.0
 31
0.0
  0
LINE
  5
28D
100
AcDbEntity
  8
0
  6
CONTINUOUS
 62
               2
100
AcDbLine
 10
-5.5300000000000002
 20
-6.0
 30
0.0
 11
-5.8700000000000001
 21
5.0
 31
0.0
  0
LINE
  5
28E
100
AcDbEntity
  8
0
  6
CONTINUOUS
 62
               7
100
AcDbLine
 10
-6.3899999999999997
 20
-6.0
 30
0.0
 11
-6.7300000000000004
 21
5.0
 31
0.0
  0
LINE
  5
28F
100
AcDbEntity
  8
0
  6
CONTINUOUS
 62
               7
100
AcDbLine
 10
-7.0
 20
5.0
 30
0.0
 11
-7.0
 21
24.0
 31
0.0
  0
LINE
  5
290
100
AcDbEntity
  8
0
  6
CONTINUOUS
 62
               7
100
AcDbLine
 10
0.0
 20
5.6200000000000001
 30
0.0
 11
0.0
 21
23.370000000000001
 31
0.0
  0
LINE
  5
291
100
AcDbEntity
  8
0
  6
CONTINUOUS
 62
               7
100
AcDbLine
 10
7.0
 20
5.0
 30
0.0
 11
7.0
 21
24.0
 31
0.0
  0
LINE
  5
292
100
AcDbEntity
  8
0
  6
CONTINUOUS
 62
               7
100
AcDbLine
 10
-7.0
 20
5.0
 30
0.0
 11
7.0
 21
5.0
 31
0.0
  0
LINE
  5
293
100
AcDbEntity
  8
0
  6
CONTINUOUS
 62
               7
100
AcDbLine
 10
-7.0
 20
24.0
 30
0.0
 11
7.0
 21
24.0
 31
0.0
  0
ENDBLK
  5
294
100
AcDbEntity
  8
0
100
AcDbBlockEnd
  0
BLOCK
  5
295
100
AcDbEntity
  8
0
100
AcDbBlockBegin
  2
MS_17
 70
               0
 10
0.0
 20
0.0
 30
0.0
  3
MS_17
  1

  0
ARC
  5
296
100
AcDbEntity
  8
0
  6
CONTINUOUS
 62
               7
100
AcDbCircle
 10
0.2500000000000004
 20
39.75
 30
0.0
 40
7.25
100
AcDbArc
 50
89.999999999999815
 51
179.9999999999996
  0
ARC
  5
297
100
AcDbEntity
  8
0
  6
CONTINUOUS
 62
               7
100
AcDbCircle
 10
0.0000000000000004
 20
39.75
 30
0.0
 40
5.5
100
AcDbArc
 50
89.999999999999815
 51
179.9999999999996
  0
ARC
  5
298
100
AcDbEntity
  8
0
  6
CONTINUOUS
 62
               7
100
AcDbCircle
 10
6.0672274055327726
 20
21.42341371559333
 30
0.0
 40
3.5765935868080767
100
AcDbArc
 50
90.115780590003169
 51
124.52765546183561
  0
ARC
  5
299
100
AcDbEntity
  8
0
  6
CONTINUOUS
 62
               7
100
AcDbCircle
 10
0.0
 20
11.625243186950684
 30
0.0
 40
13.369757896976557
100
AcDbArc
 50
72.411744036186732
 51
107.58825596381288
  0
ARC
  5
29A
100
AcDbEntity
  8
0
  6
CONTINUOUS
 62
               7
100
AcDbCircle
 10
-6.0672274055327726
 20
21.42341371559333
 30
0.0
 40
3.5765935868080767
100
AcDbArc
 50
55.472344538163995
 51
89.884219409996433
  0
ARC
  5
29B
100
AcDbEntity
  8
0
  6
CONTINUOUS
 62
               7
100
AcDbCircle
 10
6.0538784596121502
 20
7.5807007877686203
 30
0.0
 40
3.5807060204355698
100
AcDbArc
 50
235.7763332947452
 51
270.09795235833087
  0
ARC
  5
29C
100
AcDbEntity
  8
0
  6
CONTINUOUS
 62
               7
100
AcDbCircle
 10
0.0
 20
17.374755859374996
 30
0.0
 40
13.379289855304759
100
AcDbArc
 50
252.42468319299462
 51
287.57531680700413
  0
ARC
  5
29D
100
AcDbEntity
  8
0
  6
CONTINUOUS
 62
               7
100
AcDbCircle
 10
-6.0538784596121502
 20
7.5807007877686203
 30
0.0
 40
3.5807060204355698
100
AcDbArc
 50
269.90204764166788
 51
304.22366670525361
  0
LINE
  5
29E
100
AcDbEntity
  8
0
  6
CONTINUOUS
 62
               7
100
AcDbLine
 10
5.25
 20
45.25
 30
0.0
 11
5.25
 21
34.25
 31
0.0
  0
LINE
  5
29F
100
AcDbEntity
  8
0
  6
CONTINUOUS
 62
               7
100
AcDbLine
 10
5.25
 20
45.25
 30
0.0
 11
7.0
 21
47.0
 31
0.0
  0
LINE
  5
2A0
100
AcDbEntity
  8
0
  6
CONTINUOUS
 62
               7
100
AcDbLine
 10
-5.5
 20
35.75
 30
0.0
 11
3.75
 21
35.75
 31
0.0
  0
LINE
  5
2A1
100
AcDbEntity
  8
0
  6
CONTINUOUS
 62
               7
100
AcDbLine
 10
-7.0
 20
34.25
 30
0.0
 11
-5.5
 21
35.75
 31
0.0
  0
LINE
  5
2A2
100
AcDbEntity
  8
0
  6
CONTINUOUS
 62
               7
100
AcDbLine
 10
7.0
 20
30.59
 30
0.0
 11
8.9100000000000001
 21
32.5
 31
0.0
  0
LINE
  5
2A3
100
AcDbEntity
  8
0
  6
CONTINUOUS
 62
               7
100
AcDbLine
 10
5.25
 20
34.25
 30
0.0
 11
3.75
 21
35.75
 31
0.0
  0
LINE
  5
2A4
100
AcDbEntity
  8
0
  6
CONTINUOUS
 62
               7
100
AcDbLine
 10
7.0
 20
32.5
 30
0.0
 11
5.25
 21
39.75
 31
0.0
  0
LINE
  5
2A5
100
AcDbEntity
  8
0
  6
CONTINUOUS
 62
               7
100
AcDbLine
 10
0.0
 20
45.25
 30
0.0
 11
5.25
 21
45.25
 31
0.0
  0
LINE
  5
2A6
100
AcDbEntity
  8
0
  6
CONTINUOUS
 62
               7
100
AcDbLine
 10
7.0
 20
25.0
 30
0.0
 11
7.0
 21
47.0
 31
0.0
  0
LINE
  5
2A7
100
AcDbEntity
  8
0
  6
CONTINUOUS
 62
               7
100
AcDbLine
 10
0.25
 20
47.0
 30
0.0
 11
17.5
 21
47.0
 31
0.0
  0
LINE
  5
2A8
100
AcDbEntity
  8
0
  6
CONTINUOUS
 62
               7
100
AcDbLine
 10
7.0
 20
32.5
 30
0.0
 11
17.5
 21
32.5
 31
0.0
  0
LINE
  5
2A9
100
AcDbEntity
  8
0
  6
CONTINUOUS
 62
               7
100
AcDbLine
 10
14.0
 20
47.0
 30
0.0
 11
14.0
 21
32.5
 31
0.0
  0
LINE
  5
2AA
100
AcDbEntity
  8
0
  6
CONTINUOUS
 62
               7
100
AcDbLine
 10
17.5
 20
46.75
 30
0.0
 11
20.0
 21
46.75
 31
0.0
  0
LINE
  5
2AB
100
AcDbEntity
  8
0
  6
CONTINUOUS
 62
               7
100
AcDbLine
 10
17.5
 20
32.75
 30
0.0
 11
20.0
 21
32.75
 31
0.0
  0
LINE
  5
2AC
100
AcDbEntity
  8
0
  6
CONTINUOUS
 62
               7
100
AcDbLine
 10
20.5
 20
32.850000000000001
 30
0.0
 11
22.5
 21
32.850000000000001
 31
0.0
  0
LINE
  5
2AD
100
AcDbEntity
  8
0
  6
CONTINUOUS
 62
               7
100
AcDbLine
 10
20.0
 20
35.0
 30
0.0
 11
20.5
 21
35.0
 31
0.0
  0
LINE
  5
2AE
100
AcDbEntity
  8
0
  6
CONTINUOUS
 62
               7
100
AcDbLine
 10
20.0
 20
44.5
 30
0.0
 11
20.5
 21
44.5
 31
0.0
  0
LINE
  5
2AF
100
AcDbEntity
  8
0
  6
CONTINUOUS
 62
               7
100
AcDbLine
 10
20.0
 20
46.75
 30
0.0
 11
20.0
 21
32.75
 31
0.0
  0
LINE
  5
2B0
100
AcDbEntity
  8
0
  6
CONTINUOUS
 62
               7
100
AcDbLine
 10
22.5
 20
46.649999999999999
 30
0.0
 11
22.5
 21
32.850000000000001
 31
0.0
  0
LINE
  5
2B1
100
AcDbEntity
  8
0
  6
CONTINUOUS
 62
               7
100
AcDbLine
 10
20.5
 20
46.649999999999999
 30
0.0
 11
20.5
 21
32.850000000000001
 31
0.0
  0
LINE
  5
2B2
100
AcDbEntity
  8
0
  6
CONTINUOUS
 62
               7
100
AcDbLine
 10
20.5
 20
46.649999999999999
 30
0.0
 11
22.5
 21
46.649999999999999
 31
0.0
  0
LINE
  5
2B3
100
AcDbEntity
  8
0
  6
CONTINUOUS
 62
               7
100
AcDbLine
 10
17.5
 20
47.0
 30
0.0
 11
17.5
 21
32.5
 31
0.0
  0
LINE
  5
2B4
100
AcDbEntity
  8
0
  6
CONTINUOUS
 62
               7
100
AcDbLine
 10
-6.9000000000000004
 20
34.25
 30
0.0
 11
5.25
 21
34.25
 31
0.0
  0
LINE
  5
2B5
100
AcDbEntity
  8
0
  6
CONTINUOUS
 62
               7
100
AcDbLine
 10
-5.5
 20
35.75
 30
0.0
 11
-5.5
 21
39.75
 31
0.0
  0
LINE
  5
2B6
100
AcDbEntity
  8
0
  6
CONTINUOUS
 62
               7
100
AcDbLine
 10
-7.0
 20
25.0
 30
0.0
 11
-7.0
 21
39.75
 31
0.0
  0
LINE
  5
2B7
100
AcDbEntity
  8
0
  6
CENTER
 62
               2
100
AcDbLine
 10
-9.6400000000000006
 20
39.75
 30
0.0
 11
25.739999999999998
 21
39.75
 31
0.0
  0
LINE
  5
2B8
100
AcDbEntity
  8
0
  6
CONTINUOUS
 62
               7
100
AcDbLine
 10
8.0800000000000001
 20
24.370000000000001
 30
0.0
 11
7.0
 21
25.0
 31
0.0
  0
LINE
  5
2B9
100
AcDbEntity
  8
0
  6
CONTINUOUS
 62
               7
100
AcDbLine
 10
-8.0800000000000001
 20
24.370000000000001
 30
0.0
 11
-7.0
 21
25.0
 31
0.0
  0
LINE
  5
2BA
100
AcDbEntity
  8
0
  6
CONTINUOUS
 62
               7
100
AcDbLine
 10
-7.0
 20
25.0
 30
0.0
 11
7.0
 21
25.0
 31
0.0
  0
LINE
  5
2BB
100
AcDbEntity
  8
0
  6
CONTINUOUS
 62
               7
100
AcDbLine
 10
8.0800000000000001
 20
4.6200000000000001
 30
0.0
 11
7.0
 21
4.0
 31
0.0
  0
LINE
  5
2BC
100
AcDbEntity
  8
0
  6
CONTINUOUS
 62
               7
100
AcDbLine
 10
-8.0800000000000001
 20
4.6200000000000001
 30
0.0
 11
-7.0
 21
4.0
 31
0.0
  0
LINE
  5
2BD
100
AcDbEntity
  8
0
  6
CONTINUOUS
 62
               7
100
AcDbLine
 10
8.0800000000000001
 20
4.6200000000000001
 30
0.0
 11
8.0800000000000001
 21
24.370000000000001
 31
0.0
  0
LINE
  5
2BE
100
AcDbEntity
  8
0
  6
CONTINUOUS
 62
               7
100
AcDbLine
 10
4.04
 20
4.6200000000000001
 30
0.0
 11
4.04
 21
24.370000000000001
 31
0.0
  0
LINE
  5
2BF
100
AcDbEntity
  8
0
  6
CONTINUOUS
 62
               7
100
AcDbLine
 10
-4.04
 20
4.6200000000000001
 30
0.0
 11
-4.04
 21
24.370000000000001
 31
0.0
  0
LINE
  5
2C0
100
AcDbEntity
  8
0
  6
CONTINUOUS
 62
               7
100
AcDbLine
 10
-8.0800000000000001
 20
4.6200000000000001
 30
0.0
 11
-8.0800000000000001
 21
24.370000000000001
 31
0.0
  0
LINE
  5
2C1
100
AcDbEntity
  8
0
  6
CONTINUOUS
 62
               7
100
AcDbLine
 10
-7.0
 20
4.0
 30
0.0
 11
7.0
 21
4.0
 31
0.0
  0
LINE
  5
2C2
100
AcDbEntity
  8
0
  6
CONTINUOUS
 62
               7
100
AcDbLine
 10
-4.7300000000000004
 20
-4.0
 30
0.0
 11
4.7300000000000004
 21
-4.0
 31
0.0
  0
LINE
  5
2C3
100
AcDbEntity
  8
0
  6
CONTINUOUS
 62
               7
100
AcDbLine
 10
4.7300000000000004
 20
-4.0
 30
0.0
 11
4.9900000000000002
 21
4.0
 31
0.0
  0
LINE
  5
2C4
100
AcDbEntity
  8
0
  6
CONTINUOUS
 62
               2
100
AcDbLine
 10
4.1500000000000004
 20
-4.0
 30
0.0
 11
4.4000000000000004
 21
4.0
 31
0.0
  0
LINE
  5
2C5
100
AcDbEntity
  8
0
  6
CONTINUOUS
 62
               7
100
AcDbLine
 10
-4.7300000000000004
 20
-4.0
 30
0.0
 11
-4.9900000000000002
 21
4.0
 31
0.0
  0
LINE
  5
2C6
100
AcDbEntity
  8
0
  6
CONTINUOUS
 62
               2
100
AcDbLine
 10
-4.1500000000000004
 20
-4.0
 30
0.0
 11
-4.4000000000000004
 21
4.0
 31
0.0
  0
LINE
  5
2C7
100
AcDbEntity
  8
0
  6
CENTER
 62
               2
100
AcDbLine
 10
0.0
 20
-5.8200000000000003
 30
0.0
 11
0.0
 21
50.689999999999998
 31
0.0
  0
ENDBLK
  5
2C8
100
AcDbEntity
  8
0
100
AcDbBlockEnd
  0
BLOCK
  5
2C9
100
AcDbEntity
  8
0
100
AcDbBlockBegin
  2
MS_18
 70
               0
 10
0.0
 20
0.0
 30
0.0
  3
MS_18
  1

  0
ARC
  5
2CA
100
AcDbEntity
  8
0
  6
CONTINUOUS
 62
               7
100
AcDbCircle
 10
0.0009562151976801
 20
0.0007229054010685
 30
0.0
 40
5.4992771777323579
100
AcDbArc
 50
90.009962599381282
 51
164.17907353534466
  0
ARC
  5
2CB
100
AcDbEntity
  8
0
  6
CONTINUOUS
 62
               7
100
AcDbCircle
 10
0.0009562151976801
 20
-0.0007229054010685
 30
0.0
 40
5.4992771777323579
100
AcDbArc
 50
195.82092646465455
 51
269.99003740061789
  0
ARC
  5
2CC
100
AcDbEntity
  8
0
  6
CONTINUOUS
 62
               7
100
AcDbCircle
 10
0.0
 20
0.0
 30
0.0
 40
6.9999214281304614
100
AcDbArc
 50
51.787606186306029
 51
308.21239381369315
  0
LINE
  5
2CD
100
AcDbEntity
  8
0
  6
CONTINUOUS
 62
               7
100
AcDbLine
 10
5.25
 20
-5.5
 30
0.0
 11
7.0
 21
-7.25
 31
0.0
  0
LINE
  5
2CE
100
AcDbEntity
  8
0
  6
CONTINUOUS
 62
               7
100
AcDbLine
 10
5.25
 20
-5.5
 30
0.0
 11
5.25
 21
-1.5
 31
0.0
  0
LINE
  5
2CF
100
AcDbEntity
  8
0
  6
CONTINUOUS
 62
               7
100
AcDbLine
 10
5.25
 20
5.5
 30
0.0
 11
5.25
 21
1.5
 31
0.0
  0
LINE
  5
2D0
100
AcDbEntity
  8
0
  6
CONTINUOUS
 62
               7
100
AcDbLine
 10
5.25
 20
5.5
 30
0.0
 11
7.0
 21
7.25
 31
0.0
  0
LINE
  5
2D1
100
AcDbEntity
  8
0
  6
CONTINUOUS
 62
               7
100
AcDbLine
 10
7.0
 20
7.25
 30
0.0
 11
7.0
 21
1.5
 31
0.0
  0
LINE
  5
2D2
100
AcDbEntity
  8
0
  6
CONTINUOUS
 62
               7
100
AcDbLine
 10
-6.8300000000000001
 20
1.5
 30
0.0
 11
7.0
 21
1.5
 31
0.0
  0
LINE
  5
2D3
100
AcDbEntity
  8
0
  6
CONTINUOUS
 62
               7
100
AcDbLine
 10
-6.8300000000000001
 20
-1.5
 30
0.0
 11
7.0
 21
-1.5
 31
0.0
  0
LINE
  5
2D4
100
AcDbEntity
  8
0
  6
CONTINUOUS
 62
               7
100
AcDbLine
 10
0.0
 20
-5.5
 30
0.0
 11
5.25
 21
-5.5
 31
0.0
  0
LINE
  5
2D5
100
AcDbEntity
  8
0
  6
CONTINUOUS
 62
               7
100
AcDbLine
 10
0.0
 20
5.5
 30
0.0
 11
5.25
 21
5.5
 31
0.0
  0
LINE
  5
2D6
100
AcDbEntity
  8
0
  6
CONTINUOUS
 62
               7
100
AcDbLine
 10
7.0
 20
-7.25
 30
0.0
 11
7.0
 21
-1.5
 31
0.0
  0
LINE
  5
2D7
100
AcDbEntity
  8
0
  6
CONTINUOUS
 62
               7
100
AcDbLine
 10
7.0
 20
7.25
 30
0.0
 11
17.5
 21
7.25
 31
0.0
  0
LINE
  5
2D8
100
AcDbEntity
  8
0
  6
CONTINUOUS
 62
               7
100
AcDbLine
 10
7.0
 20
-7.25
 30
0.0
 11
17.5
 21
-7.25
 31
0.0
  0
LINE
  5
2D9
100
AcDbEntity
  8
0
  6
CONTINUOUS
 62
               7
100
AcDbLine
 10
14.0
 20
7.25
 30
0.0
 11
14.0
 21
-7.25
 31
0.0
  0
LINE
  5
2DA
100
AcDbEntity
  8
0
  6
CONTINUOUS
 62
               7
100
AcDbLine
 10
17.5
 20
7.0
 30
0.0
 11
20.0
 21
7.0
 31
0.0
  0
LINE
  5
2DB
100
AcDbEntity
  8
0
  6
CONTINUOUS
 62
               7
100
AcDbLine
 10
17.5
 20
-7.0
 30
0.0
 11
20.0
 21
-7.0
 31
0.0
  0
LINE
  5
2DC
100
AcDbEntity
  8
0
  6
CONTINUOUS
 62
               7
100
AcDbLine
 10
20.5
 20
-6.9000000000000004
 30
0.0
 11
22.5
 21
-6.9000000000000004
 31
0.0
  0
LINE
  5
2DD
100
AcDbEntity
  8
0
  6
CONTINUOUS
 62
               7
100
AcDbLine
 10
20.0
 20
-4.75
 30
0.0
 11
20.5
 21
-4.75
 31
0.0
  0
LINE
  5
2DE
100
AcDbEntity
  8
0
  6
CONTINUOUS
 62
               7
100
AcDbLine
 10
20.0
 20
4.75
 30
0.0
 11
20.5
 21
4.75
 31
0.0
  0
LINE
  5
2DF
100
AcDbEntity
  8
0
  6
CONTINUOUS
 62
               7
100
AcDbLine
 10
20.0
 20
7.0
 30
0.0
 11
20.0
 21
-7.0
 31
0.0
  0
LINE
  5
2E0
100
AcDbEntity
  8
0
  6
CONTINUOUS
 62
               7
100
AcDbLine
 10
22.5
 20
6.9000000000000004
 30
0.0
 11
22.5
 21
-6.9000000000000004
 31
0.0
  0
LINE
  5
2E1
100
AcDbEntity
  8
0
  6
CONTINUOUS
 62
               7
100
AcDbLine
 10
20.5
 20
6.9000000000000004
 30
0.0
 11
20.5
 21
-6.9000000000000004
 31
0.0
  0
LINE
  5
2E2
100
AcDbEntity
  8
0
  6
CONTINUOUS
 62
               7
100
AcDbLine
 10
20.5
 20
6.9000000000000004
 30
0.0
 11
22.5
 21
6.9000000000000004
 31
0.0
  0
LINE
  5
2E3
100
AcDbEntity
  8
0
  6
CONTINUOUS
 62
               7
100
AcDbLine
 10
17.5
 20
7.25
 30
0.0
 11
17.5
 21
-7.25
 31
0.0
  0
LINE
  5
2E4
100
AcDbEntity
  8
0
  6
CENTER
 62
               2
100
AcDbLine
 10
-9.0
 20
0.0
 30
0.0
 11
25.789999999999999
 21
0.0
 31
0.0
  0
LINE
  5
2E5
100
AcDbEntity
  8
0
  6
CENTER
 62
               2
100
AcDbLine
 10
0.0
 20
-9.0
 30
0.0
 11
0.0
 21
9.0
 31
0.0
  0
LINE
  5
2E6
100
AcDbEntity
  8
0
  6
CONTINUOUS
 62
               7
100
AcDbLine
 10
-4.04
 20
-7.0
 30
0.0
 11
4.04
 21
-7.0
 31
0.0
  0
LINE
  5
2E7
100
AcDbEntity
  8
0
  6
CONTINUOUS
 62
               7
100
AcDbLine
 10
-8.0800000000000001
 20
0.0
 30
0.0
 11
-4.04
 21
-7.0
 31
0.0
  0
LINE
  5
2E8
100
AcDbEntity
  8
0
  6
CONTINUOUS
 62
               7
100
AcDbLine
 10
-4.04
 20
7.0
 30
0.0
 11
-8.0800000000000001
 21
0.0
 31
0.0
  0
LINE
  5
2E9
100
AcDbEntity
  8
0
  6
CONTINUOUS
 62
               7
100
AcDbLine
 10
4.04
 20
7.0
 30
0.0
 11
-4.04
 21
7.0
 31
0.0
  0
LINE
  5
2EA
100
AcDbEntity
  8
0
  6
CONTINUOUS
 62
               7
100
AcDbLine
 10
4.9000000000000004
 20
5.5
 30
0.0
 11
4.04
 21
7.0
 31
0.0
  0
LINE
  5
2EB
100
AcDbEntity
  8
0
  6
CONTINUOUS
 62
               7
100
AcDbLine
 10
4.04
 20
-7.0
 30
0.0
 11
4.9000000000000004
 21
-5.5
 31
0.0
  0
ENDBLK
  5
2EC
100
AcDbEntity
  8
0
100
AcDbBlockEnd
  0
BLOCK
  5
2ED
100
AcDbEntity
  8
0
100
AcDbBlockBegin
  2
MS_19
 70
               0
 10
0.0
 20
0.0
 30
0.0
  3
MS_19
  1

  0
ARC
  5
2EE
100
AcDbEntity
  8
0
  6
CONTINUOUS
 62
               7
100
AcDbCircle
 10
-0.0007229054010685
 20
39.749043784802318
 30
0.0
 40
5.4992771777323579
100
AcDbArc
 50
105.82092646465473
 51
179.99003740061812
  0
ARC
  5
2EF
100
AcDbEntity
  8
0
  6
CONTINUOUS
 62
               7
100
AcDbCircle
 10
0.0007229054010685
 20
39.749043784802318
 30
0.0
 40
5.4992771777323579
100
AcDbArc
 50
0.0099625993814936
 51
74.17907353534487
  0
ARC
  5
2F0
100
AcDbEntity
  8
0
  6
CONTINUOUS
 62
               7
100
AcDbCircle
 10
0.0
 20
39.75
 30
0.0
 40
7.2540540389495298
100
AcDbArc
 50
323.35125948938668
 51
216.6487405106121
  0
ARC
  5
2F1
100
AcDbEntity
  8
0
  6
CONTINUOUS
 62
               7
100
AcDbCircle
 10
-3.5
 20
14.890800476074219
 30
0.0
 40
10.104712940722006
100
AcDbArc
 50
69.73436706108923
 51
110.26563293891037
  0
ARC
  5
2F2
100
AcDbEntity
  8
0
  6
CONTINUOUS
 62
               7
100
AcDbCircle
 10
3.5
 20
14.890800476074219
 30
0.0
 40
10.104712940722006
100
AcDbArc
 50
69.73436706108923
 51
110.26563293891037
  0
ARC
  5
2F3
100
AcDbEntity
  8
0
  6
CONTINUOUS
 62
               7
100
AcDbCircle
 10
3.5
 20
14.109199523925781
 30
0.0
 40
10.11409450246898
100
AcDbArc
 50
249.75398889962375
 51
290.24601110037503
  0
ARC
  5
2F4
100
AcDbEntity
  8
0
  6
CONTINUOUS
 62
               7
100
AcDbCircle
 10
-3.5
 20
14.109199523925781
 30
0.0
 40
10.11409450246898
100
AcDbArc
 50
249.75398889962375
 51
290.24601110037503
  0
LINE
  5
2F5
100
AcDbEntity
  8
0
  6
CONTINUOUS
 62
               7
100
AcDbLine
 10
-7.0
 20
34.25
 30
0.0
 11
-5.5
 21
35.75
 31
0.0
  0
LINE
  5
2F6
100
AcDbEntity
  8
0
  6
CONTINUOUS
 62
               7
100
AcDbLine
 10
7.0
 20
34.25
 30
0.0
 11
5.5
 21
35.75
 31
0.0
  0
LINE
  5
2F7
100
AcDbEntity
  8
0
  6
CONTINUOUS
 62
               7
100
AcDbLine
 10
5.5
 20
35.75
 30
0.0
 11
1.5
 21
35.75
 31
0.0
  0
LINE
  5
2F8
100
AcDbEntity
  8
0
  6
CONTINUOUS
 62
               7
100
AcDbLine
 10
-5.5
 20
35.75
 30
0.0
 11
-1.5
 21
35.75
 31
0.0
  0
LINE
  5
2F9
100
AcDbEntity
  8
0
  6
CONTINUOUS
 62
               7
100
AcDbLine
 10
-1.5
 20
34.25
 30
0.0
 11
-7.0
 21
34.25
 31
0.0
  0
LINE
  5
2FA
100
AcDbEntity
  8
0
  6
CONTINUOUS
 62
               7
100
AcDbLine
 10
-1.5
 20
34.25
 30
0.0
 11
-1.5
 21
46.840000000000003
 31
0.0
  0
LINE
  5
2FB
100
AcDbEntity
  8
0
  6
CONTINUOUS
 62
               7
100
AcDbLine
 10
1.5
 20
34.25
 30
0.0
 11
1.5
 21
46.840000000000003
 31
0.0
  0
LINE
  5
2FC
100
AcDbEntity
  8
0
  6
CONTINUOUS
 62
               7
100
AcDbLine
 10
-5.5
 20
35.75
 30
0.0
 11
-5.5
 21
39.75
 31
0.0
  0
LINE
  5
2FD
100
AcDbEntity
  8
0
  6
CONTINUOUS
 62
               7
100
AcDbLine
 10
5.5
 20
35.75
 30
0.0
 11
5.5
 21
39.75
 31
0.0
  0
LINE
  5
2FE
100
AcDbEntity
  8
0
  6
CENTER
 62
               2
100
AcDbLine
 10
-9.0
 20
39.75
 30
0.0
 11
9.0
 21
39.75
 31
0.0
  0
LINE
  5
2FF
100
AcDbEntity
  8
0
  6
CONTINUOUS
 62
               7
100
AcDbLine
 10
1.5
 20
34.25
 30
0.0
 11
7.0
 21
34.25
 31
0.0
  0
LINE
  5
300
100
AcDbEntity
  8
0
  6
CONTINUOUS
 62
               7
100
AcDbLine
 10
7.0
 20
4.0
 30
0.0
 11
7.0
 21
34.25
 31
0.0
  0
LINE
  5
301
100
AcDbEntity
  8
0
  6
CONTINUOUS
 62
               7
100
AcDbLine
 10
-7.0
 20
25.0
 30
0.0
 11
7.0
 21
25.0
 31
0.0
  0
LINE
  5
302
100
AcDbEntity
  8
0
  6
CONTINUOUS
 62
               7
100
AcDbLine
 10
-7.0
 20
4.0
 30
0.0
 11
-7.0
 21
34.25
 31
0.0
  0
LINE
  5
303
100
AcDbEntity
  8
0
  6
CONTINUOUS
 62
               7
100
AcDbLine
 10
0.0
 20
4.6200000000000001
 30
0.0
 11
0.0
 21
24.370000000000001
 31
0.0
  0
LINE
  5
304
100
AcDbEntity
  8
0
  6
CONTINUOUS
 62
               7
100
AcDbLine
 10
-7.0
 20
4.0
 30
0.0
 11
7.0
 21
4.0
 31
0.0
  0
LINE
  5
305
100
AcDbEntity
  8
0
  6
CONTINUOUS
 62
               7
100
AcDbLine
 10
-4.7300000000000004
 20
-4.0
 30
0.0
 11
4.7300000000000004
 21
-4.0
 31
0.0
  0
LINE
  5
306
100
AcDbEntity
  8
0
  6
CONTINUOUS
 62
               2
100
AcDbLine
 10
-4.1500000000000004
 20
-4.0
 30
0.0
 11
-4.4000000000000004
 21
4.0
 31
0.0
  0
LINE
  5
307
100
AcDbEntity
  8
0
  6
CONTINUOUS
 62
               7
100
AcDbLine
 10
-4.7300000000000004
 20
-4.0
 30
0.0
 11
-4.9900000000000002
 21
4.0
 31
0.0
  0
LINE
  5
308
100
AcDbEntity
  8
0
  6
CONTINUOUS
 62
               7
100
AcDbLine
 10
4.7300000000000004
 20
-4.0
 30
0.0
 11
4.9900000000000002
 21
4.0
 31
0.0
  0
LINE
  5
309
100
AcDbEntity
  8
0
  6
CONTINUOUS
 62
               2
100
AcDbLine
 10
4.1500000000000004
 20
-4.0
 30
0.0
 11
4.4000000000000004
 21
4.0
 31
0.0
  0
LINE
  5
30A
100
AcDbEntity
  8
0
  6
CENTER
 62
               2
100
AcDbLine
 10
0.0
 20
-5.8200000000000003
 30
0.0
 11
0.0
 21
50.359999999999999
 31
0.0
  0
ENDBLK
  5
30B
100
AcDbEntity
  8
0
100
AcDbBlockEnd
  0
BLOCK
  5
30C
100
AcDbEntity
  8
0
100
AcDbBlockBegin
  2
MS_20
 70
               0
 10
0.0
 20
0.0
 30
0.0
  3
MS_20
  1

  0
CIRCLE
  5
30D
100
AcDbEntity
  8
0
  6
CONTINUOUS
 62
               7
100
AcDbCircle
 10
0.0
 20
39.75
 30
0.0
 40
4.0
  0
CIRCLE
  5
30E
100
AcDbEntity
  8
0
  6
CONTINUOUS
 62
               7
100
AcDbCircle
 10
0.0
 20
39.75
 30
0.0
 40
6.8999996185302734
  0
CIRCLE
  5
30F
100
AcDbEntity
  8
0
  6
CONTINUOUS
 62
               7
100
AcDbCircle
 10
0.0
 20
39.75
 30
0.0
 40
7.25
  0
ARC
  5
310
100
AcDbEntity
  8
0
  6
CONTINUOUS
 62
               7
100
AcDbCircle
 10
3.5
 20
14.890800476074219
 30
0.0
 40
10.104712940722006
100
AcDbArc
 50
69.73436706108923
 51
110.26563293891037
  0
ARC
  5
311
100
AcDbEntity
  8
0
  6
CONTINUOUS
 62
               7
100
AcDbCircle
 10
-3.5
 20
14.890800476074219
 30
0.0
 40
10.104712940722006
100
AcDbArc
 50
69.73436706108923
 51
110.26563293891037
  0
ARC
  5
312
100
AcDbEntity
  8
0
  6
CONTINUOUS
 62
               7
100
AcDbCircle
 10
-3.5
 20
14.109199523925781
 30
0.0
 40
10.11409450246898
100
AcDbArc
 50
249.75398889962375
 51
290.24601110037503
  0
ARC
  5
313
100
AcDbEntity
  8
0
  6
CONTINUOUS
 62
               7
100
AcDbCircle
 10
3.5
 20
14.109199523925781
 30
0.0
 40
10.11409450246898
100
AcDbArc
 50
249.75398889962375
 51
290.24601110037503
  0
LINE
  5
314
100
AcDbEntity
  8
0
  6
CONTINUOUS
 62
               7
100
AcDbLine
 10
1.5
 20
30.59
 30
0.0
 11
1.5
 21
32.649999999999999
 31
0.0
  0
LINE
  5
315
100
AcDbEntity
  8
0
  6
CONTINUOUS
 62
               7
100
AcDbLine
 10
-1.5
 20
30.59
 30
0.0
 11
-1.5
 21
32.649999999999999
 31
0.0
  0
LINE
  5
316
100
AcDbEntity
  8
0
  6
CONTINUOUS
 62
               7
100
AcDbLine
 10
-1.5
 20
30.59
 30
0.0
 11
1.5
 21
30.59
 31
0.0
  0
LINE
  5
317
100
AcDbEntity
  8
0
  6
CONTINUOUS
 62
               7
100
AcDbLine
 10
5.5
 20
34.25
 30
0.0
 11
5.5
 21
35.020000000000003
 31
0.0
  0
LINE
  5
318
100
AcDbEntity
  8
0
  6
CONTINUOUS
 62
               7
100
AcDbLine
 10
-5.5
 20
34.25
 30
0.0
 11
-5.5
 21
35.020000000000003
 31
0.0
  0
LINE
  5
319
100
AcDbEntity
  8
0
  6
CONTINUOUS
 62
               7
100
AcDbLine
 10
7.0
 20
34.25
 30
0.0
 11
5.8200000000000003
 21
35.420000000000002
 31
0.0
  0
LINE
  5
31A
100
AcDbEntity
  8
0
  6
CONTINUOUS
 62
               7
100
AcDbLine
 10
-7.0
 20
34.25
 30
0.0
 11
-5.8200000000000003
 21
35.420000000000002
 31
0.0
  0
LINE
  5
31B
100
AcDbEntity
  8
0
  6
CONTINUOUS
 62
               7
100
AcDbLine
 10
5.5
 20
34.25
 30
0.0
 11
7.0
 21
34.25
 31
0.0
  0
LINE
  5
31C
100
AcDbEntity
  8
0
  6
CENTER
 62
               2
100
AcDbLine
 10
9.0
 20
39.75
 30
0.0
 11
-9.0
 21
39.75
 31
0.0
  0
LINE
  5
31D
100
AcDbEntity
  8
0
  6
CONTINUOUS
 62
               7
100
AcDbLine
 10
-5.5
 20
34.25
 30
0.0
 11
-7.0
 21
34.25
 31
0.0
  0
LINE
  5
31E
100
AcDbEntity
  8
0
  6
CONTINUOUS
 62
               7
100
AcDbLine
 10
-7.0
 20
4.0
 30
0.0
 11
-7.0
 21
34.25
 31
0.0
  0
LINE
  5
31F
100
AcDbEntity
  8
0
  6
CONTINUOUS
 62
               7
100
AcDbLine
 10
7.0
 20
25.0
 30
0.0
 11
-7.0
 21
25.0
 31
0.0
  0
LINE
  5
320
100
AcDbEntity
  8
0
  6
CONTINUOUS
 62
               7
100
AcDbLine
 10
7.0
 20
4.0
 30
0.0
 11
7.0
 21
34.25
 31
0.0
  0
LINE
  5
321
100
AcDbEntity
  8
0
  6
CONTINUOUS
 62
               7
100
AcDbLine
 10
0.0
 20
4.6200000000000001
 30
0.0
 11
0.0
 21
24.370000000000001
 31
0.0
  0
LINE
  5
322
100
AcDbEntity
  8
0
  6
CONTINUOUS
 62
               7
100
AcDbLine
 10
7.0
 20
4.0
 30
0.0
 11
-7.0
 21
4.0
 31
0.0
  0
LINE
  5
323
100
AcDbEntity
  8
0
  6
CONTINUOUS
 62
               7
100
AcDbLine
 10
4.7300000000000004
 20
-4.0
 30
0.0
 11
-4.7300000000000004
 21
-4.0
 31
0.0
  0
LINE
  5
324
100
AcDbEntity
  8
0
  6
CONTINUOUS
 62
               2
100
AcDbLine
 10
4.1500000000000004
 20
-4.0
 30
0.0
 11
4.4000000000000004
 21
4.0
 31
0.0
  0
LINE
  5
325
100
AcDbEntity
  8
0
  6
CONTINUOUS
 62
               7
100
AcDbLine
 10
4.7300000000000004
 20
-4.0
 30
0.0
 11
4.9900000000000002
 21
4.0
 31
0.0
  0
LINE
  5
326
100
AcDbEntity
  8
0
  6
CONTINUOUS
 62
               7
100
AcDbLine
 10
-4.7300000000000004
 20
-4.0
 30
0.0
 11
-4.9900000000000002
 21
4.0
 31
0.0
  0
LINE
  5
327
100
AcDbEntity
  8
0
  6
CONTINUOUS
 62
               2
100
AcDbLine
 10
-4.1500000000000004
 20
-4.0
 30
0.0
 11
-4.4000000000000004
 21
4.0
 31
0.0
  0
LINE
  5
328
100
AcDbEntity
  8
0
  6
CENTER
 62
               2
100
AcDbLine
 10
0.0
 20
-5.8200000000000003
 30
0.0
 11
0.0
 21
50.859999999999999
 31
0.0
  0
ENDBLK
  5
329
100
AcDbEntity
  8
0
100
AcDbBlockEnd
  0
BLOCK
  5
32A
100
AcDbEntity
  8
0
100
AcDbBlockBegin
  2
MS_21
 70
               0
 10
0.0
 20
0.0
 30
0.0
  3
MS_21
  1

  0
ARC
  5
32B
100
AcDbEntity
  8
0
  6
CONTINUOUS
 62
               7
100
AcDbCircle
 10
0.2500000000000004
 20
40.75
 30
0.0
 40
7.25
100
AcDbArc
 50
89.999999999999815
 51
179.9999999999996
  0
ARC
  5
32C
100
AcDbEntity
  8
0
  6
CONTINUOUS
 62
               7
100
AcDbCircle
 10
0.0000000000000004
 20
40.75
 30
0.0
 40
5.5
100
AcDbArc
 50
89.999999999999815
 51
179.9999999999996
  0
ARC
  5
32D
100
AcDbEntity
  8
0
  6
CONTINUOUS
 62
               7
100
AcDbCircle
 10
6.0672230665654636
 20
22.423427627837718
 30
0.0
 40
3.5765796658267188
100
AcDbArc
 50
90.115711531499528
 51
124.52772452033925
  0
ARC
  5
32E
100
AcDbEntity
  8
0
  6
CONTINUOUS
 62
               7
100
AcDbCircle
 10
0.0
 20
12.625244140625
 30
0.0
 40
13.369756987884013
100
AcDbArc
 50
72.41174280121497
 51
107.58825719878465
  0
ARC
  5
32F
100
AcDbEntity
  8
0
  6
CONTINUOUS
 62
               7
100
AcDbCircle
 10
-6.0672230665654636
 20
22.423427627837718
 30
0.0
 40
3.5765796658267188
100
AcDbArc
 50
55.472275479660347
 51
89.884288468500088
  0
ARC
  5
330
100
AcDbEntity
  8
0
  6
CONTINUOUS
 62
               7
100
AcDbCircle
 10
6.0538781922925216
 20
8.5806999168240203
 30
0.0
 40
3.5807051499492601
100
AcDbArc
 50
235.77632899347643
 51
270.09795665959962
  0
ARC
  5
331
100
AcDbEntity
  8
0
  6
CONTINUOUS
 62
               7
100
AcDbCircle
 10
0.0
 20
18.374755859374996
 30
0.0
 40
13.379289855304759
100
AcDbArc
 50
252.42468319299462
 51
287.57531680700413
  0
ARC
  5
332
100
AcDbEntity
  8
0
  6
CONTINUOUS
 62
               7
100
AcDbCircle
 10
-6.0538781922925216
 20
8.5806999168240203
 30
0.0
 40
3.5807051499492601
100
AcDbArc
 50
269.90204334039919
 51
304.22367100652235
  0
LINE
  5
333
100
AcDbEntity
  8
0
  6
CONTINUOUS
 62
               7
100
AcDbLine
 10
5.25
 20
46.25
 30
0.0
 11
5.25
 21
35.25
 31
0.0
  0
LINE
  5
334
100
AcDbEntity
  8
0
  6
CONTINUOUS
 62
               7
100
AcDbLine
 10
5.25
 20
46.25
 30
0.0
 11
7.0
 21
48.0
 31
0.0
  0
LINE
  5
335
100
AcDbEntity
  8
0
  6
CONTINUOUS
 62
               7
100
AcDbLine
 10
-5.5
 20
36.75
 30
0.0
 11
3.75
 21
36.75
 31
0.0
  0
LINE
  5
336
100
AcDbEntity
  8
0
  6
CONTINUOUS
 62
               7
100
AcDbLine
 10
-7.0
 20
35.25
 30
0.0
 11
-5.5
 21
36.75
 31
0.0
  0
LINE
  5
337
100
AcDbEntity
  8
0
  6
CONTINUOUS
 62
               7
100
AcDbLine
 10
7.0
 20
31.59
 30
0.0
 11
8.9100000000000001
 21
33.5
 31
0.0
  0
LINE
  5
338
100
AcDbEntity
  8
0
  6
CONTINUOUS
 62
               7
100
AcDbLine
 10
5.25
 20
35.25
 30
0.0
 11
3.75
 21
36.75
 31
0.0
  0
LINE
  5
339
100
AcDbEntity
  8
0
  6
CONTINUOUS
 62
               7
100
AcDbLine
 10
7.0
 20
33.5
 30
0.0
 11
5.25
 21
40.75
 31
0.0
  0
LINE
  5
33A
100
AcDbEntity
  8
0
  6
CONTINUOUS
 62
               7
100
AcDbLine
 10
0.0
 20
46.25
 30
0.0
 11
5.25
 21
46.25
 31
0.0
  0
LINE
  5
33B
100
AcDbEntity
  8
0
  6
CONTINUOUS
 62
               7
100
AcDbLine
 10
7.0
 20
26.0
 30
0.0
 11
7.0
 21
48.0
 31
0.0
  0
LINE
  5
33C
100
AcDbEntity
  8
0
  6
CONTINUOUS
 62
               7
100
AcDbLine
 10
0.25
 20
48.0
 30
0.0
 11
17.5
 21
48.0
 31
0.0
  0
LINE
  5
33D
100
AcDbEntity
  8
0
  6
CONTINUOUS
 62
               7
100
AcDbLine
 10
7.0
 20
33.5
 30
0.0
 11
17.5
 21
33.5
 31
0.0
  0
LINE
  5
33E
100
AcDbEntity
  8
0
  6
CONTINUOUS
 62
               7
100
AcDbLine
 10
14.0
 20
48.0
 30
0.0
 11
14.0
 21
33.5
 31
0.0
  0
LINE
  5
33F
100
AcDbEntity
  8
0
  6
CONTINUOUS
 62
               7
100
AcDbLine
 10
17.5
 20
47.75
 30
0.0
 11
20.0
 21
47.75
 31
0.0
  0
LINE
  5
340
100
AcDbEntity
  8
0
  6
CONTINUOUS
 62
               7
100
AcDbLine
 10
17.5
 20
33.75
 30
0.0
 11
20.0
 21
33.75
 31
0.0
  0
LINE
  5
341
100
AcDbEntity
  8
0
  6
CONTINUOUS
 62
               7
100
AcDbLine
 10
20.5
 20
33.850000000000001
 30
0.0
 11
22.5
 21
33.850000000000001
 31
0.0
  0
LINE
  5
342
100
AcDbEntity
  8
0
  6
CONTINUOUS
 62
               7
100
AcDbLine
 10
20.0
 20
36.0
 30
0.0
 11
20.5
 21
36.0
 31
0.0
  0
LINE
  5
343
100
AcDbEntity
  8
0
  6
CONTINUOUS
 62
               7
100
AcDbLine
 10
20.0
 20
45.5
 30
0.0
 11
20.5
 21
45.5
 31
0.0
  0
LINE
  5
344
100
AcDbEntity
  8
0
  6
CONTINUOUS
 62
               7
100
AcDbLine
 10
20.0
 20
47.75
 30
0.0
 11
20.0
 21
33.75
 31
0.0
  0
LINE
  5
345
100
AcDbEntity
  8
0
  6
CONTINUOUS
 62
               7
100
AcDbLine
 10
22.5
 20
47.649999999999999
 30
0.0
 11
22.5
 21
33.850000000000001
 31
0.0
  0
LINE
  5
346
100
AcDbEntity
  8
0
  6
CONTINUOUS
 62
               7
100
AcDbLine
 10
20.5
 20
47.649999999999999
 30
0.0
 11
20.5
 21
33.850000000000001
 31
0.0
  0
LINE
  5
347
100
AcDbEntity
  8
0
  6
CONTINUOUS
 62
               7
100
AcDbLine
 10
20.5
 20
47.649999999999999
 30
0.0
 11
22.5
 21
47.649999999999999
 31
0.0
  0
LINE
  5
348
100
AcDbEntity
  8
0
  6
CONTINUOUS
 62
               7
100
AcDbLine
 10
17.5
 20
48.0
 30
0.0
 11
17.5
 21
33.5
 31
0.0
  0
LINE
  5
349
100
AcDbEntity
  8
0
  6
CONTINUOUS
 62
               7
100
AcDbLine
 10
-6.9000000000000004
 20
35.25
 30
0.0
 11
5.25
 21
35.25
 31
0.0
  0
LINE
  5
34A
100
AcDbEntity
  8
0
  6
CONTINUOUS
 62
               7
100
AcDbLine
 10
-5.5
 20
36.75
 30
0.0
 11
-5.5
 21
40.75
 31
0.0
  0
LINE
  5
34B
100
AcDbEntity
  8
0
  6
CONTINUOUS
 62
               7
100
AcDbLine
 10
-7.0
 20
26.0
 30
0.0
 11
-7.0
 21
40.75
 31
0.0
  0
LINE
  5
34C
100
AcDbEntity
  8
0
  6
CENTER
 62
               2
100
AcDbLine
 10
-9.6400000000000006
 20
40.75
 30
0.0
 11
25.739999999999998
 21
40.75
 31
0.0
  0
LINE
  5
34D
100
AcDbEntity
  8
0
  6
CONTINUOUS
 62
               7
100
AcDbLine
 10
-7.0
 20
5.0
 30
0.0
 11
7.0
 21
5.0
 31
0.0
  0
LINE
  5
34E
100
AcDbEntity
  8
0
  6
CONTINUOUS
 62
               2
100
AcDbLine
 10
5.5300000000000002
 20
-6.0
 30
0.0
 11
5.8700000000000001
 21
5.0
 31
0.0
  0
LINE
  5
34F
100
AcDbEntity
  8
0
  6
CONTINUOUS
 62
               7
100
AcDbLine
 10
6.3899999999999997
 20
-6.0
 30
0.0
 11
6.7300000000000004
 21
5.0
 31
0.0
  0
LINE
  5
350
100
AcDbEntity
  8
0
  6
CONTINUOUS
 62
               7
100
AcDbLine
 10
-6.3899999999999997
 20
-6.0
 30
0.0
 11
6.3899999999999997
 21
-6.0
 31
0.0
  0
LINE
  5
351
100
AcDbEntity
  8
0
  6
CONTINUOUS
 62
               2
100
AcDbLine
 10
-5.5300000000000002
 20
-6.0
 30
0.0
 11
-5.8700000000000001
 21
5.0
 31
0.0
  0
LINE
  5
352
100
AcDbEntity
  8
0
  6
CONTINUOUS
 62
               7
100
AcDbLine
 10
-6.3899999999999997
 20
-6.0
 30
0.0
 11
-6.7300000000000004
 21
5.0
 31
0.0
  0
LINE
  5
353
100
AcDbEntity
  8
0
  6
CONTINUOUS
 62
               7
100
AcDbLine
 10
8.0800000000000001
 20
25.370000000000001
 30
0.0
 11
7.0
 21
26.0
 31
0.0
  0
LINE
  5
354
100
AcDbEntity
  8
0
  6
CONTINUOUS
 62
               7
100
AcDbLine
 10
-8.0800000000000001
 20
25.370000000000001
 30
0.0
 11
-7.0
 21
26.0
 31
0.0
  0
LINE
  5
355
100
AcDbEntity
  8
0
  6
CONTINUOUS
 62
               7
100
AcDbLine
 10
-7.0
 20
26.0
 30
0.0
 11
7.0
 21
26.0
 31
0.0
  0
LINE
  5
356
100
AcDbEntity
  8
0
  6
CONTINUOUS
 62
               7
100
AcDbLine
 10
8.0800000000000001
 20
5.6200000000000001
 30
0.0
 11
7.0
 21
5.0
 31
0.0
  0
LINE
  5
357
100
AcDbEntity
  8
0
  6
CONTINUOUS
 62
               7
100
AcDbLine
 10
-8.0800000000000001
 20
5.6200000000000001
 30
0.0
 11
-7.0
 21
5.0
 31
0.0
  0
LINE
  5
358
100
AcDbEntity
  8
0
  6
CONTINUOUS
 62
               7
100
AcDbLine
 10
8.0800000000000001
 20
5.6200000000000001
 30
0.0
 11
8.0800000000000001
 21
25.370000000000001
 31
0.0
  0
LINE
  5
359
100
AcDbEntity
  8
0
  6
CONTINUOUS
 62
               7
100
AcDbLine
 10
4.04
 20
5.6200000000000001
 30
0.0
 11
4.04
 21
25.370000000000001
 31
0.0
  0
LINE
  5
35A
100
AcDbEntity
  8
0
  6
CONTINUOUS
 62
               7
100
AcDbLine
 10
-4.04
 20
5.6200000000000001
 30
0.0
 11
-4.04
 21
25.370000000000001
 31
0.0
  0
LINE
  5
35B
100
AcDbEntity
  8
0
  6
CONTINUOUS
 62
               7
100
AcDbLine
 10
-8.0800000000000001
 20
5.6200000000000001
 30
0.0
 11
-8.0800000000000001
 21
25.370000000000001
 31
0.0
  0
LINE
  5
35C
100
AcDbEntity
  8
0
  6
CENTER
 62
               2
100
AcDbLine
 10
0.0
 20
-12.35
 30
0.0
 11
0.0
 21
51.189999999999998
 31
0.0
  0
ENDBLK
  5
35D
100
AcDbEntity
  8
0
100
AcDbBlockEnd
  0
BLOCK
  5
35E
100
AcDbEntity
  8
0
100
AcDbBlockBegin
  2
MS_22
 70
               0
 10
0.0
 20
0.0
 30
0.0
  3
MS_22
  1

  0
ARC
  5
35F
100
AcDbEntity
  8
0
  6
CONTINUOUS
 62
               7
100
AcDbCircle
 10
0.0009562151976801
 20
0.0007229054010685
 30
0.0
 40
5.4992771777323579
100
AcDbArc
 50
90.009962599381282
 51
164.17907353534466
  0
ARC
  5
360
100
AcDbEntity
  8
0
  6
CONTINUOUS
 62
               7
100
AcDbCircle
 10
0.0009562151976801
 20
-0.0007229054010685
 30
0.0
 40
5.4992771777323579
100
AcDbArc
 50
195.82092646465455
 51
269.99003740061789
  0
ARC
  5
361
100
AcDbEntity
  8
0
  6
CONTINUOUS
 62
               7
100
AcDbCircle
 10
0.0
 20
0.0
 30
0.0
 40
6.9999214281304614
100
AcDbArc
 50
51.787606186306029
 51
308.21239381369315
  0
LINE
  5
362
100
AcDbEntity
  8
0
  6
CONTINUOUS
 62
               7
100
AcDbLine
 10
5.25
 20
-5.5
 30
0.0
 11
7.0
 21
-7.25
 31
0.0
  0
LINE
  5
363
100
AcDbEntity
  8
0
  6
CONTINUOUS
 62
               7
100
AcDbLine
 10
5.25
 20
-5.5
 30
0.0
 11
5.25
 21
-1.5
 31
0.0
  0
LINE
  5
364
100
AcDbEntity
  8
0
  6
CONTINUOUS
 62
               7
100
AcDbLine
 10
5.25
 20
5.5
 30
0.0
 11
5.25
 21
1.5
 31
0.0
  0
LINE
  5
365
100
AcDbEntity
  8
0
  6
CONTINUOUS
 62
               7
100
AcDbLine
 10
5.25
 20
5.5
 30
0.0
 11
7.0
 21
7.25
 31
0.0
  0
LINE
  5
366
100
AcDbEntity
  8
0
  6
CONTINUOUS
 62
               7
100
AcDbLine
 10
7.0
 20
7.25
 30
0.0
 11
7.0
 21
1.5
 31
0.0
  0
LINE
  5
367
100
AcDbEntity
  8
0
  6
CONTINUOUS
 62
               7
100
AcDbLine
 10
-6.8300000000000001
 20
1.5
 30
0.0
 11
7.0
 21
1.5
 31
0.0
  0
LINE
  5
368
100
AcDbEntity
  8
0
  6
CONTINUOUS
 62
               7
100
AcDbLine
 10
-6.8300000000000001
 20
-1.5
 30
0.0
 11
7.0
 21
-1.5
 31
0.0
  0
LINE
  5
369
100
AcDbEntity
  8
0
  6
CONTINUOUS
 62
               7
100
AcDbLine
 10
0.0
 20
-5.5
 30
0.0
 11
5.25
 21
-5.5
 31
0.0
  0
LINE
  5
36A
100
AcDbEntity
  8
0
  6
CONTINUOUS
 62
               7
100
AcDbLine
 10
0.0
 20
5.5
 30
0.0
 11
5.25
 21
5.5
 31
0.0
  0
LINE
  5
36B
100
AcDbEntity
  8
0
  6
CONTINUOUS
 62
               7
100
AcDbLine
 10
7.0
 20
-7.25
 30
0.0
 11
7.0
 21
-1.5
 31
0.0
  0
LINE
  5
36C
100
AcDbEntity
  8
0
  6
CONTINUOUS
 62
               7
100
AcDbLine
 10
7.0
 20
7.25
 30
0.0
 11
17.5
 21
7.25
 31
0.0
  0
LINE
  5
36D
100
AcDbEntity
  8
0
  6
CONTINUOUS
 62
               7
100
AcDbLine
 10
7.0
 20
-7.25
 30
0.0
 11
17.5
 21
-7.25
 31
0.0
  0
LINE
  5
36E
100
AcDbEntity
  8
0
  6
CONTINUOUS
 62
               7
100
AcDbLine
 10
14.0
 20
7.25
 30
0.0
 11
14.0
 21
-7.25
 31
0.0
  0
LINE
  5
36F
100
AcDbEntity
  8
0
  6
CONTINUOUS
 62
               7
100
AcDbLine
 10
17.5
 20
7.0
 30
0.0
 11
20.0
 21
7.0
 31
0.0
  0
LINE
  5
370
100
AcDbEntity
  8
0
  6
CONTINUOUS
 62
               7
100
AcDbLine
 10
17.5
 20
-7.0
 30
0.0
 11
20.0
 21
-7.0
 31
0.0
  0
LINE
  5
371
100
AcDbEntity
  8
0
  6
CONTINUOUS
 62
               7
100
AcDbLine
 10
20.5
 20
-6.9000000000000004
 30
0.0
 11
22.5
 21
-6.9000000000000004
 31
0.0
  0
LINE
  5
372
100
AcDbEntity
  8
0
  6
CONTINUOUS
 62
               7
100
AcDbLine
 10
20.0
 20
-4.75
 30
0.0
 11
20.5
 21
-4.75
 31
0.0
  0
LINE
  5
373
100
AcDbEntity
  8
0
  6
CONTINUOUS
 62
               7
100
AcDbLine
 10
20.0
 20
4.75
 30
0.0
 11
20.5
 21
4.75
 31
0.0
  0
LINE
  5
374
100
AcDbEntity
  8
0
  6
CONTINUOUS
 62
               7
100
AcDbLine
 10
20.0
 20
7.0
 30
0.0
 11
20.0
 21
-7.0
 31
0.0
  0
LINE
  5
375
100
AcDbEntity
  8
0
  6
CONTINUOUS
 62
               7
100
AcDbLine
 10
22.5
 20
6.9000000000000004
 30
0.0
 11
22.5
 21
-6.9000000000000004
 31
0.0
  0
LINE
  5
376
100
AcDbEntity
  8
0
  6
CONTINUOUS
 62
               7
100
AcDbLine
 10
20.5
 20
6.9000000000000004
 30
0.0
 11
20.5
 21
-6.9000000000000004
 31
0.0
  0
LINE
  5
377
100
AcDbEntity
  8
0
  6
CONTINUOUS
 62
               7
100
AcDbLine
 10
20.5
 20
6.9000000000000004
 30
0.0
 11
22.5
 21
6.9000000000000004
 31
0.0
  0
LINE
  5
378
100
AcDbEntity
  8
0
  6
CONTINUOUS
 62
               7
100
AcDbLine
 10
17.5
 20
7.25
 30
0.0
 11
17.5
 21
-7.25
 31
0.0
  0
LINE
  5
379
100
AcDbEntity
  8
0
  6
CENTER
 62
               2
100
AcDbLine
 10
-9.0
 20
0.0
 30
0.0
 11
25.789999999999999
 21
0.0
 31
0.0
  0
LINE
  5
37A
100
AcDbEntity
  8
0
  6
CENTER
 62
               2
100
AcDbLine
 10
0.0
 20
-9.0
 30
0.0
 11
0.0
 21
9.0
 31
0.0
  0
LINE
  5
37B
100
AcDbEntity
  8
0
  6
CONTINUOUS
 62
               7
100
AcDbLine
 10
-4.04
 20
-7.0
 30
0.0
 11
4.04
 21
-7.0
 31
0.0
  0
LINE
  5
37C
100
AcDbEntity
  8
0
  6
CONTINUOUS
 62
               7
100
AcDbLine
 10
-8.0800000000000001
 20
0.0
 30
0.0
 11
-4.04
 21
-7.0
 31
0.0
  0
LINE
  5
37D
100
AcDbEntity
  8
0
  6
CONTINUOUS
 62
               7
100
AcDbLine
 10
-4.04
 20
7.0
 30
0.0
 11
-8.0800000000000001
 21
0.0
 31
0.0
  0
LINE
  5
37E
100
AcDbEntity
  8
0
  6
CONTINUOUS
 62
               7
100
AcDbLine
 10
4.04
 20
7.0
 30
0.0
 11
-4.04
 21
7.0
 31
0.0
  0
LINE
  5
37F
100
AcDbEntity
  8
0
  6
CONTINUOUS
 62
               7
100
AcDbLine
 10
4.9000000000000004
 20
5.5
 30
0.0
 11
4.04
 21
7.0
 31
0.0
  0
LINE
  5
380
100
AcDbEntity
  8
0
  6
CONTINUOUS
 62
               7
100
AcDbLine
 10
4.04
 20
-7.0
 30
0.0
 11
4.9000000000000004
 21
-5.5
 31
0.0
  0
ENDBLK
  5
381
100
AcDbEntity
  8
0
100
AcDbBlockEnd
  0
BLOCK
  5
382
100
AcDbEntity
  8
0
100
AcDbBlockBegin
  2
MS_23
 70
               0
 10
0.0
 20
0.0
 30
0.0
  3
MS_23
  1

  0
ARC
  5
383
100
AcDbEntity
  8
0
  6
CONTINUOUS
 62
               7
100
AcDbCircle
 10
-0.0007229054010685
 20
40.749043784802318
 30
0.0
 40
5.4992771777323579
100
AcDbArc
 50
105.82092646465473
 51
179.99003740061812
  0
ARC
  5
384
100
AcDbEntity
  8
0
  6
CONTINUOUS
 62
               7
100
AcDbCircle
 10
0.0007229054010685
 20
40.749043784802318
 30
0.0
 40
5.4992771777323579
100
AcDbArc
 50
0.0099625993814936
 51
74.17907353534487
  0
ARC
  5
385
100
AcDbEntity
  8
0
  6
CONTINUOUS
 62
               7
100
AcDbCircle
 10
0.0
 20
40.75
 30
0.0
 40
7.2540540389495298
100
AcDbArc
 50
323.35125948938668
 51
216.6487405106121
  0
ARC
  5
386
100
AcDbEntity
  8
0
  6
CONTINUOUS
 62
               7
100
AcDbCircle
 10
-3.5
 20
15.890800476074219
 30
0.0
 40
10.104712940722006
100
AcDbArc
 50
69.73436706108923
 51
110.26563293891037
  0
ARC
  5
387
100
AcDbEntity
  8
0
  6
CONTINUOUS
 62
               7
100
AcDbCircle
 10
3.5
 20
15.890800476074219
 30
0.0
 40
10.104712940722006
100
AcDbArc
 50
69.73436706108923
 51
110.26563293891037
  0
ARC
  5
388
100
AcDbEntity
  8
0
  6
CONTINUOUS
 62
               7
100
AcDbCircle
 10
3.5
 20
15.109199523925781
 30
0.0
 40
10.11409450246898
100
AcDbArc
 50
249.75398889962375
 51
290.24601110037503
  0
ARC
  5
389
100
AcDbEntity
  8
0
  6
CONTINUOUS
 62
               7
100
AcDbCircle
 10
-3.5
 20
15.109199523925781
 30
0.0
 40
10.11409450246898
100
AcDbArc
 50
249.75398889962375
 51
290.24601110037503
  0
LINE
  5
38A
100
AcDbEntity
  8
0
  6
CONTINUOUS
 62
               7
100
AcDbLine
 10
-7.0
 20
35.25
 30
0.0
 11
-5.5
 21
36.75
 31
0.0
  0
LINE
  5
38B
100
AcDbEntity
  8
0
  6
CONTINUOUS
 62
               7
100
AcDbLine
 10
7.0
 20
35.25
 30
0.0
 11
5.5
 21
36.75
 31
0.0
  0
LINE
  5
38C
100
AcDbEntity
  8
0
  6
CONTINUOUS
 62
               7
100
AcDbLine
 10
5.5
 20
36.75
 30
0.0
 11
1.5
 21
36.75
 31
0.0
  0
LINE
  5
38D
100
AcDbEntity
  8
0
  6
CONTINUOUS
 62
               7
100
AcDbLine
 10
-5.5
 20
36.75
 30
0.0
 11
-1.5
 21
36.75
 31
0.0
  0
LINE
  5
38E
100
AcDbEntity
  8
0
  6
CONTINUOUS
 62
               7
100
AcDbLine
 10
-1.5
 20
35.25
 30
0.0
 11
-7.0
 21
35.25
 31
0.0
  0
LINE
  5
38F
100
AcDbEntity
  8
0
  6
CONTINUOUS
 62
               7
100
AcDbLine
 10
-1.5
 20
35.25
 30
0.0
 11
-1.5
 21
47.840000000000003
 31
0.0
  0
LINE
  5
390
100
AcDbEntity
  8
0
  6
CONTINUOUS
 62
               7
100
AcDbLine
 10
1.5
 20
35.25
 30
0.0
 11
1.5
 21
47.840000000000003
 31
0.0
  0
LINE
  5
391
100
AcDbEntity
  8
0
  6
CONTINUOUS
 62
               7
100
AcDbLine
 10
-5.5
 20
36.75
 30
0.0
 11
-5.5
 21
40.75
 31
0.0
  0
LINE
  5
392
100
AcDbEntity
  8
0
  6
CONTINUOUS
 62
               7
100
AcDbLine
 10
5.5
 20
36.75
 30
0.0
 11
5.5
 21
40.75
 31
0.0
  0
LINE
  5
393
100
AcDbEntity
  8
0
  6
CENTER
 62
               2
100
AcDbLine
 10
-9.0
 20
40.75
 30
0.0
 11
9.0
 21
40.75
 31
0.0
  0
LINE
  5
394
100
AcDbEntity
  8
0
  6
CONTINUOUS
 62
               7
100
AcDbLine
 10
1.5
 20
35.25
 30
0.0
 11
7.0
 21
35.25
 31
0.0
  0
LINE
  5
395
100
AcDbEntity
  8
0
  6
CONTINUOUS
 62
               7
100
AcDbLine
 10
-7.0
 20
5.0
 30
0.0
 11
7.0
 21
5.0
 31
0.0
  0
LINE
  5
396
100
AcDbEntity
  8
0
  6
CONTINUOUS
 62
               2
100
AcDbLine
 10
5.5300000000000002
 20
-6.0
 30
0.0
 11
5.8700000000000001
 21
5.0
 31
0.0
  0
LINE
  5
397
100
AcDbEntity
  8
0
  6
CONTINUOUS
 62
               7
100
AcDbLine
 10
6.3899999999999997
 20
-6.0
 30
0.0
 11
6.7300000000000004
 21
5.0
 31
0.0
  0
LINE
  5
398
100
AcDbEntity
  8
0
  6
CONTINUOUS
 62
               7
100
AcDbLine
 10
-6.3899999999999997
 20
-6.0
 30
0.0
 11
6.3899999999999997
 21
-6.0
 31
0.0
  0
LINE
  5
399
100
AcDbEntity
  8
0
  6
CONTINUOUS
 62
               2
100
AcDbLine
 10
-5.5300000000000002
 20
-6.0
 30
0.0
 11
-5.8700000000000001
 21
5.0
 31
0.0
  0
LINE
  5
39A
100
AcDbEntity
  8
0
  6
CONTINUOUS
 62
               7
100
AcDbLine
 10
-6.3899999999999997
 20
-6.0
 30
0.0
 11
-6.7300000000000004
 21
5.0
 31
0.0
  0
LINE
  5
39B
100
AcDbEntity
  8
0
  6
CONTINUOUS
 62
               7
100
AcDbLine
 10
7.0
 20
5.0
 30
0.0
 11
7.0
 21
35.25
 31
0.0
  0
LINE
  5
39C
100
AcDbEntity
  8
0
  6
CONTINUOUS
 62
               7
100
AcDbLine
 10
-7.0
 20
26.0
 30
0.0
 11
7.0
 21
26.0
 31
0.0
  0
LINE
  5
39D
100
AcDbEntity
  8
0
  6
CONTINUOUS
 62
               7
100
AcDbLine
 10
-7.0
 20
5.0
 30
0.0
 11
-7.0
 21
35.25
 31
0.0
  0
LINE
  5
39E
100
AcDbEntity
  8
0
  6
CONTINUOUS
 62
               7
100
AcDbLine
 10
0.0
 20
5.6200000000000001
 30
0.0
 11
0.0
 21
25.370000000000001
 31
0.0
  0
LINE
  5
39F
100
AcDbEntity
  8
0
  6
CENTER
 62
               2
100
AcDbLine
 10
0.0
 20
-12.35
 30
0.0
 11
0.0
 21
51.020000000000003
 31
0.0
  0
ENDBLK
  5
3A0
100
AcDbEntity
  8
0
100
AcDbBlockEnd
  0
BLOCK
  5
3A1
100
AcDbEntity
  8
0
100
AcDbBlockBegin
  2
MS_24
 70
               0
 10
0.0
 20
0.0
 30
0.0
  3
MS_24
  1

  0
CIRCLE
  5
3A2
100
AcDbEntity
  8
0
  6
CONTINUOUS
 62
               7
100
AcDbCircle
 10
-0.0000038146972656
 20
40.75
 30
0.0
 40
4.0
  0
CIRCLE
  5
3A3
100
AcDbEntity
  8
0
  6
CONTINUOUS
 62
               7
100
AcDbCircle
 10
-0.0000038146972656
 20
40.75
 30
0.0
 40
6.8999996185302734
  0
CIRCLE
  5
3A4
100
AcDbEntity
  8
0
  6
CONTINUOUS
 62
               7
100
AcDbCircle
 10
-0.0000038146972656
 20
40.75
 30
0.0
 40
7.25
  0
ARC
  5
3A5
100
AcDbEntity
  8
0
  6
CONTINUOUS
 62
               7
100
AcDbCircle
 10
3.5
 20
15.890800476074219
 30
0.0
 40
10.104712940722006
100
AcDbArc
 50
69.73436706108923
 51
110.26563293891037
  0
ARC
  5
3A6
100
AcDbEntity
  8
0
  6
CONTINUOUS
 62
               7
100
AcDbCircle
 10
-3.5
 20
15.890800476074219
 30
0.0
 40
10.104712940722006
100
AcDbArc
 50
69.73436706108923
 51
110.26563293891037
  0
ARC
  5
3A7
100
AcDbEntity
  8
0
  6
CONTINUOUS
 62
               7
100
AcDbCircle
 10
-3.5
 20
15.109199523925781
 30
0.0
 40
10.11409450246898
100
AcDbArc
 50
249.75398889962375
 51
290.24601110037503
  0
ARC
  5
3A8
100
AcDbEntity
  8
0
  6
CONTINUOUS
 62
               7
100
AcDbCircle
 10
3.5
 20
15.109199523925781
 30
0.0
 40
10.11409450246898
100
AcDbArc
 50
249.75398889962375
 51
290.24601110037503
  0
LINE
  5
3A9
100
AcDbEntity
  8
0
  6
CONTINUOUS
 62
               7
100
AcDbLine
 10
1.5
 20
31.59
 30
0.0
 11
1.5
 21
33.649999999999999
 31
0.0
  0
LINE
  5
3AA
100
AcDbEntity
  8
0
  6
CONTINUOUS
 62
               7
100
AcDbLine
 10
-1.5
 20
31.59
 30
0.0
 11
-1.5
 21
33.649999999999999
 31
0.0
  0
LINE
  5
3AB
100
AcDbEntity
  8
0
  6
CONTINUOUS
 62
               7
100
AcDbLine
 10
-1.5
 20
31.59
 30
0.0
 11
1.5
 21
31.59
 31
0.0
  0
LINE
  5
3AC
100
AcDbEntity
  8
0
  6
CONTINUOUS
 62
               7
100
AcDbLine
 10
5.5
 20
35.25
 30
0.0
 11
5.5
 21
36.020000000000003
 31
0.0
  0
LINE
  5
3AD
100
AcDbEntity
  8
0
  6
CONTINUOUS
 62
               7
100
AcDbLine
 10
-5.5
 20
35.25
 30
0.0
 11
-5.5
 21
36.020000000000003
 31
0.0
  0
LINE
  5
3AE
100
AcDbEntity
  8
0
  6
CONTINUOUS
 62
               7
100
AcDbLine
 10
7.0
 20
35.25
 30
0.0
 11
5.8200000000000003
 21
36.420000000000002
 31
0.0
  0
LINE
  5
3AF
100
AcDbEntity
  8
0
  6
CONTINUOUS
 62
               7
100
AcDbLine
 10
-7.0
 20
35.25
 30
0.0
 11
-5.8200000000000003
 21
36.420000000000002
 31
0.0
  0
LINE
  5
3B0
100
AcDbEntity
  8
0
  6
CONTINUOUS
 62
               7
100
AcDbLine
 10
5.5
 20
35.25
 30
0.0
 11
7.0
 21
35.25
 31
0.0
  0
LINE
  5
3B1
100
AcDbEntity
  8
0
  6
CENTER
 62
               2
100
AcDbLine
 10
9.0
 20
40.75
 30
0.0
 11
-9.0
 21
40.75
 31
0.0
  0
LINE
  5
3B2
100
AcDbEntity
  8
0
  6
CONTINUOUS
 62
               7
100
AcDbLine
 10
-5.5
 20
35.25
 30
0.0
 11
-7.0
 21
35.25
 31
0.0
  0
LINE
  5
3B3
100
AcDbEntity
  8
0
  6
CONTINUOUS
 62
               7
100
AcDbLine
 10
-7.0
 20
5.0
 30
0.0
 11
-7.0
 21
35.25
 31
0.0
  0
LINE
  5
3B4
100
AcDbEntity
  8
0
  6
CONTINUOUS
 62
               7
100
AcDbLine
 10
7.0
 20
26.0
 30
0.0
 11
-7.0
 21
26.0
 31
0.0
  0
LINE
  5
3B5
100
AcDbEntity
  8
0
  6
CONTINUOUS
 62
               7
100
AcDbLine
 10
7.0
 20
5.0
 30
0.0
 11
7.0
 21
35.25
 31
0.0
  0
LINE
  5
3B6
100
AcDbEntity
  8
0
  6
CONTINUOUS
 62
               7
100
AcDbLine
 10
0.0
 20
5.6200000000000001
 30
0.0
 11
0.0
 21
25.370000000000001
 31
0.0
  0
LINE
  5
3B7
100
AcDbEntity
  8
0
  6
CONTINUOUS
 62
               7
100
AcDbLine
 10
7.0
 20
5.0
 30
0.0
 11
-7.0
 21
5.0
 31
0.0
  0
LINE
  5
3B8
100
AcDbEntity
  8
0
  6
CENTER
 62
               2
100
AcDbLine
 10
0.0
 20
-12.35
 30
0.0
 11
0.0
 21
51.020000000000003
 31
0.0
  0
LINE
  5
3B9
100
AcDbEntity
  8
0
  6
CONTINUOUS
 62
               7
100
AcDbLine
 10
-6.3899999999999997
 20
-6.0
 30
0.0
 11
6.3899999999999997
 21
-6.0
 31
0.0
  0
LINE
  5
3BA
100
AcDbEntity
  8
0
  6
CONTINUOUS
 62
               7
100
AcDbLine
 10
6.3899999999999997
 20
-6.0
 30
0.0
 11
6.7300000000000004
 21
5.0
 31
0.0
  0
LINE
  5
3BB
100
AcDbEntity
  8
0
  6
CONTINUOUS
 62
               2
100
AcDbLine
 10
5.5300000000000002
 20
-6.0
 30
0.0
 11
5.8700000000000001
 21
5.0
 31
0.0
  0
LINE
  5
3BC
100
AcDbEntity
  8
0
  6
CONTINUOUS
 62
               2
100
AcDbLine
 10
-5.5300000000000002
 20
-6.0
 30
0.0
 11
-5.8700000000000001
 21
5.0
 31
0.0
  0
LINE
  5
3BD
100
AcDbEntity
  8
0
  6
CONTINUOUS
 62
               7
100
AcDbLine
 10
-6.3899999999999997
 20
-6.0
 30
0.0
 11
-6.7300000000000004
 21
5.0
 31
0.0
  0
ENDBLK
  5
3BE
100
AcDbEntity
  8
0
100
AcDbBlockEnd
  0
BLOCK
  5
3BF
100
AcDbEntity
  8
0
100
AcDbBlockBegin
  2
MS_25
 70
               0
 10
0.0
 20
0.0
 30
0.0
  3
MS_25
  1

  0
ARC
  5
3C0
100
AcDbEntity
  8
0
  6
CONTINUOUS
 62
               7
100
AcDbCircle
 10
0.25
 20
48.75
 30
0.0
 40
8.75
100
AcDbArc
 50
89.999999999999801
 51
179.9999999999996
  0
ARC
  5
3C1
100
AcDbEntity
  8
0
  6
CONTINUOUS
 62
               7
100
AcDbCircle
 10
0.0
 20
48.75
 30
0.0
 40
6.25
100
AcDbArc
 50
89.999999999999801
 51
179.9999999999996
  0
ARC
  5
3C2
100
AcDbEntity
  8
0
  6
CONTINUOUS
 62
               7
100
AcDbCircle
 10
7.3554803140061145
 20
25.153313720453902
 30
0.0
 40
4.3466886293310409
100
AcDbArc
 50
89.940423848837213
 51
124.39592102152638
  0
ARC
  5
3C3
100
AcDbEntity
  8
0
  6
CONTINUOUS
 62
               7
100
AcDbCircle
 10
0.0
 20
13.259110450740785
 30
0.0
 40
16.237855192000055
100
AcDbArc
 50
72.436416595768293
 51
107.56358340423132
  0
ARC
  5
3C4
100
AcDbEntity
  8
0
  6
CONTINUOUS
 62
               7
100
AcDbCircle
 10
-7.3554803140061145
 20
25.153313720453902
 30
0.0
 40
4.3466886293310409
100
AcDbArc
 50
55.604078978473218
 51
90.059576151162403
  0
ARC
  5
3C5
100
AcDbEntity
  8
0
  6
CONTINUOUS
 62
               7
100
AcDbCircle
 10
-7.3421233126797336
 20
9.3507644655895259
 30
0.0
 40
4.3508011918480083
100
AcDbArc
 50
269.7645809192407
 51
304.14604518480837
  0
ARC
  5
3C6
100
AcDbEntity
  8
0
  6
CONTINUOUS
 62
               7
100
AcDbCircle
 10
0.0
 20
21.240875244144469
 30
0.0
 40
16.24737565976881
100
AcDbArc
 50
252.44704297034946
 51
287.55295702964935
  0
ARC
  5
3C7
100
AcDbEntity
  8
0
  6
CONTINUOUS
 62
               7
100
AcDbCircle
 10
7.3421233126797336
 20
9.3507644655895259
 30
0.0
 40
4.3508011918480083
100
AcDbArc
 50
235.85395481519041
 51
270.23541908075805
  0
LINE
  5
3C8
100
AcDbEntity
  8
0
  6
CONTINUOUS
 62
               7
100
AcDbLine
 10
6.0
 20
55.0
 30
0.0
 11
6.0
 21
39.5
 31
0.0
  0
LINE
  5
3C9
100
AcDbEntity
  8
0
  6
CONTINUOUS
 62
               7
100
AcDbLine
 10
8.5
 20
57.5
 30
0.0
 11
6.0
 21
55.0
 31
0.0
  0
LINE
  5
3CA
100
AcDbEntity
  8
0
  6
CONTINUOUS
 62
               7
100
AcDbLine
 10
-6.25
 20
41.75
 30
0.0
 11
3.75
 21
41.75
 31
0.0
  0
LINE
  5
3CB
100
AcDbEntity
  8
0
  6
CONTINUOUS
 62
               7
100
AcDbLine
 10
-8.5
 20
39.5
 30
0.0
 11
-6.25
 21
41.75
 31
0.0
  0
LINE
  5
3CC
100
AcDbEntity
  8
0
  6
CONTINUOUS
 62
               7
100
AcDbLine
 10
6.0
 20
39.5
 30
0.0
 11
3.75
 21
41.75
 31
0.0
  0
LINE
  5
3CD
100
AcDbEntity
  8
0
  6
CONTINUOUS
 62
               7
100
AcDbLine
 10
6.0
 20
48.75
 30
0.0
 11
8.5
 21
40.0
 31
0.0
  0
LINE
  5
3CE
100
AcDbEntity
  8
0
  6
CONTINUOUS
 62
               7
100
AcDbLine
 10
0.0
 20
55.0
 30
0.0
 11
6.0
 21
55.0
 31
0.0
  0
LINE
  5
3CF
100
AcDbEntity
  8
0
  6
CONTINUOUS
 62
               7
100
AcDbLine
 10
8.5
 20
29.5
 30
0.0
 11
8.5
 21
57.5
 31
0.0
  0
LINE
  5
3D0
100
AcDbEntity
  8
0
  6
CONTINUOUS
 62
               7
100
AcDbLine
 10
8.5
 20
40.0
 30
0.0
 11
20.5
 21
40.0
 31
0.0
  0
LINE
  5
3D1
100
AcDbEntity
  8
0
  6
CONTINUOUS
 62
               7
100
AcDbLine
 10
18.5
 20
57.5
 30
0.0
 11
18.5
 21
40.0
 31
0.0
  0
LINE
  5
3D2
100
AcDbEntity
  8
0
  6
CONTINUOUS
 62
               7
100
AcDbLine
 10
0.25
 20
57.5
 30
0.0
 11
20.5
 21
57.5
 31
0.0
  0
LINE
  5
3D3
100
AcDbEntity
  8
0
  6
CONTINUOUS
 62
               7
100
AcDbLine
 10
20.5
 20
57.5
 30
0.0
 11
20.5
 21
40.0
 31
0.0
  0
LINE
  5
3D4
100
AcDbEntity
  8
0
  6
CONTINUOUS
 62
               7
100
AcDbLine
 10
20.5
 20
57.25
 30
0.0
 11
22.5
 21
57.25
 31
0.0
  0
LINE
  5
3D5
100
AcDbEntity
  8
0
  6
CONTINUOUS
 62
               7
100
AcDbLine
 10
20.5
 20
40.25
 30
0.0
 11
22.5
 21
40.25
 31
0.0
  0
LINE
  5
3D6
100
AcDbEntity
  8
0
  6
CONTINUOUS
 62
               7
100
AcDbLine
 10
22.5
 20
57.25
 30
0.0
 11
22.5
 21
40.25
 31
0.0
  0
LINE
  5
3D7
100
AcDbEntity
  8
0
  6
CONTINUOUS
 62
               7
100
AcDbLine
 10
23.300000000000001
 20
40.350000000000001
 30
0.0
 11
25.5
 21
40.350000000000001
 31
0.0
  0
LINE
  5
3D8
100
AcDbEntity
  8
0
  6
CONTINUOUS
 62
               7
100
AcDbLine
 10
23.300000000000001
 20
57.149999999999999
 30
0.0
 11
23.300000000000001
 21
40.350000000000001
 31
0.0
  0
LINE
  5
3D9
100
AcDbEntity
  8
0
  6
CONTINUOUS
 62
               7
100
AcDbLine
 10
22.5
 20
54.75
 30
0.0
 11
23.300000000000001
 21
54.75
 31
0.0
  0
LINE
  5
3DA
100
AcDbEntity
  8
0
  6
CONTINUOUS
 62
               7
100
AcDbLine
 10
22.5
 20
42.75
 30
0.0
 11
23.300000000000001
 21
42.75
 31
0.0
  0
LINE
  5
3DB
100
AcDbEntity
  8
0
  6
CONTINUOUS
 62
               7
100
AcDbLine
 10
25.5
 20
57.149999999999999
 30
0.0
 11
25.5
 21
40.350000000000001
 31
0.0
  0
LINE
  5
3DC
100
AcDbEntity
  8
0
  6
CONTINUOUS
 62
               7
100
AcDbLine
 10
23.300000000000001
 20
57.149999999999999
 30
0.0
 11
25.5
 21
57.149999999999999
 31
0.0
  0
LINE
  5
3DD
100
AcDbEntity
  8
0
  6
CONTINUOUS
 62
               7
100
AcDbLine
 10
-8.5
 20
39.5
 30
0.0
 11
6.0
 21
39.5
 31
0.0
  0
LINE
  5
3DE
100
AcDbEntity
  8
0
  6
CONTINUOUS
 62
               7
100
AcDbLine
 10
8.5
 20
35.43
 30
0.0
 11
13.06
 21
40.0
 31
0.0
  0
LINE
  5
3DF
100
AcDbEntity
  8
0
  6
CONTINUOUS
 62
               7
100
AcDbLine
 10
-6.25
 20
41.75
 30
0.0
 11
-6.25
 21
48.75
 31
0.0
  0
LINE
  5
3E0
100
AcDbEntity
  8
0
  6
CONTINUOUS
 62
               7
100
AcDbLine
 10
-8.5
 20
29.5
 30
0.0
 11
-9.8100000000000005
 21
28.739999999999998
 31
0.0
  0
LINE
  5
3E1
100
AcDbEntity
  8
0
  6
CONTINUOUS
 62
               7
100
AcDbLine
 10
-8.5
 20
29.5
 30
0.0
 11
-8.5
 21
48.75
 31
0.0
  0
LINE
  5
3E2
100
AcDbEntity
  8
0
  6
CONTINUOUS
 62
               7
100
AcDbLine
 10
-8.5
 20
29.5
 30
0.0
 11
8.5
 21
29.5
 31
0.0
  0
LINE
  5
3E3
100
AcDbEntity
  8
0
  6
CENTER
 62
               2
100
AcDbLine
 10
-12.44
 20
48.75
 30
0.0
 11
29.109999999999999
 21
48.75
 31
0.0
  0
LINE
  5
3E4
100
AcDbEntity
  8
0
  6
CONTINUOUS
 62
               7
100
AcDbLine
 10
8.5
 20
29.5
 30
0.0
 11
9.8100000000000005
 21
28.739999999999998
 31
0.0
  0
LINE
  5
3E5
100
AcDbEntity
  8
0
  6
CONTINUOUS
 62
               7
100
AcDbLine
 10
4.9000000000000004
 20
28.739999999999998
 30
0.0
 11
4.9000000000000004
 21
5.75
 31
0.0
  0
LINE
  5
3E6
100
AcDbEntity
  8
0
  6
CONTINUOUS
 62
               7
100
AcDbLine
 10
-9.8100000000000005
 20
28.739999999999998
 30
0.0
 11
-9.8100000000000005
 21
5.75
 31
0.0
  0
LINE
  5
3E7
100
AcDbEntity
  8
0
  6
CONTINUOUS
 62
               7
100
AcDbLine
 10
-8.5
 20
5.0
 30
0.0
 11
-9.8100000000000005
 21
5.75
 31
0.0
  0
LINE
  5
3E8
100
AcDbEntity
  8
0
  6
CONTINUOUS
 62
               7
100
AcDbLine
 10
8.5
 20
5.0
 30
0.0
 11
9.8100000000000005
 21
5.75
 31
0.0
  0
LINE
  5
3E9
100
AcDbEntity
  8
0
  6
CONTINUOUS
 62
               7
100
AcDbLine
 10
9.8100000000000005
 20
28.739999999999998
 30
0.0
 11
9.8100000000000005
 21
5.75
 31
0.0
  0
LINE
  5
3EA
100
AcDbEntity
  8
0
  6
CONTINUOUS
 62
               7
100
AcDbLine
 10
-4.9000000000000004
 20
28.739999999999998
 30
0.0
 11
-4.9000000000000004
 21
5.75
 31
0.0
  0
LINE
  5
3EB
100
AcDbEntity
  8
0
  6
CONTINUOUS
 62
               7
100
AcDbLine
 10
-8.5
 20
5.0
 30
0.0
 11
8.5
 21
5.0
 31
0.0
  0
LINE
  5
3EC
100
AcDbEntity
  8
0
  6
CONTINUOUS
 62
               7
100
AcDbLine
 10
-6.3899999999999997
 20
-6.0
 30
0.0
 11
6.3899999999999997
 21
-6.0
 31
0.0
  0
LINE
  5
3ED
100
AcDbEntity
  8
0
  6
CONTINUOUS
 62
               7
100
AcDbLine
 10
6.3899999999999997
 20
-6.0
 30
0.0
 11
6.7300000000000004
 21
5.0
 31
0.0
  0
LINE
  5
3EE
100
AcDbEntity
  8
0
  6
CONTINUOUS
 62
               2
100
AcDbLine
 10
5.5300000000000002
 20
-6.0
 30
0.0
 11
5.8700000000000001
 21
5.0
 31
0.0
  0
LINE
  5
3EF
100
AcDbEntity
  8
0
  6
CONTINUOUS
 62
               2
100
AcDbLine
 10
-5.5300000000000002
 20
-6.0
 30
0.0
 11
-5.8700000000000001
 21
5.0
 31
0.0
  0
LINE
  5
3F0
100
AcDbEntity
  8
0
  6
CONTINUOUS
 62
               7
100
AcDbLine
 10
-6.3899999999999997
 20
-6.0
 30
0.0
 11
-6.7300000000000004
 21
5.0
 31
0.0
  0
LINE
  5
3F1
100
AcDbEntity
  8
0
  6
CENTER
 62
               2
100
AcDbLine
 10
0.0
 20
-9.5299999999999994
 30
0.0
 11
0.0
 21
61.619999999999997
 31
0.0
  0
ENDBLK
  5
3F2
100
AcDbEntity
  8
0
100
AcDbBlockEnd
  0
BLOCK
  5
3F3
100
AcDbEntity
  8
0
100
AcDbBlockBegin
  2
MS_26
 70
               0
 10
0.0
 20
0.0
 30
0.0
  3
MS_26
  1

  0
ARC
  5
3F4
100
AcDbEntity
  8
0
  6
CONTINUOUS
 62
               7
100
AcDbCircle
 10
0.0022345325207578
 20
-0.0018249321945927
 30
0.0
 40
6.2481754673729109
100
AcDbArc
 50
191.52329484813066
 51
269.97950933260029
  0
ARC
  5
3F5
100
AcDbEntity
  8
0
  6
CONTINUOUS
 62
               7
100
AcDbCircle
 10
0.0022345325207578
 20
0.0018249321945927
 30
0.0
 40
6.2481754673729109
100
AcDbArc
 50
90.020490667398917
 51
168.47670515186854
  0
ARC
  5
3F6
100
AcDbEntity
  8
0
  6
CONTINUOUS
 62
               7
100
AcDbCircle
 10
0.0000000000000009
 20
0.0
 30
0.0
 40
8.4994176271083415
100
AcDbArc
 50
47.336333871075006
 51
312.66366612892421
  0
LINE
  5
3F7
100
AcDbEntity
  8
0
  6
CONTINUOUS
 62
               7
100
AcDbLine
 10
8.5
 20
-8.75
 30
0.0
 11
6.0
 21
-6.25
 31
0.0
  0
LINE
  5
3F8
100
AcDbEntity
  8
0
  6
CONTINUOUS
 62
               7
100
AcDbLine
 10
6.0
 20
-6.25
 30
0.0
 11
6.0
 21
-1.25
 31
0.0
  0
LINE
  5
3F9
100
AcDbEntity
  8
0
  6
CONTINUOUS
 62
               7
100
AcDbLine
 10
6.0
 20
6.25
 30
0.0
 11
6.0
 21
1.25
 31
0.0
  0
LINE
  5
3FA
100
AcDbEntity
  8
0
  6
CONTINUOUS
 62
               7
100
AcDbLine
 10
8.5
 20
8.75
 30
0.0
 11
6.0
 21
6.25
 31
0.0
  0
LINE
  5
3FB
100
AcDbEntity
  8
0
  6
CONTINUOUS
 62
               7
100
AcDbLine
 10
8.5
 20
-1.25
 30
0.0
 11
8.5
 21
-8.75
 31
0.0
  0
LINE
  5
3FC
100
AcDbEntity
  8
0
  6
CONTINUOUS
 62
               7
100
AcDbLine
 10
-8.4000000000000004
 20
-1.25
 30
0.0
 11
8.5
 21
-1.25
 31
0.0
  0
LINE
  5
3FD
100
AcDbEntity
  8
0
  6
CONTINUOUS
 62
               7
100
AcDbLine
 10
-8.4000000000000004
 20
1.25
 30
0.0
 11
8.5
 21
1.25
 31
0.0
  0
LINE
  5
3FE
100
AcDbEntity
  8
0
  6
CONTINUOUS
 62
               7
100
AcDbLine
 10
0.0
 20
-6.25
 30
0.0
 11
6.0
 21
-6.25
 31
0.0
  0
LINE
  5
3FF
100
AcDbEntity
  8
0
  6
CONTINUOUS
 62
               7
100
AcDbLine
 10
18.5
 20
8.75
 30
0.0
 11
18.5
 21
-8.75
 31
0.0
  0
LINE
  5
400
100
AcDbEntity
  8
0
  6
CONTINUOUS
 62
               7
100
AcDbLine
 10
0.0
 20
6.25
 30
0.0
 11
6.0
 21
6.25
 31
0.0
  0
LINE
  5
401
100
AcDbEntity
  8
0
  6
CONTINUOUS
 62
               7
100
AcDbLine
 10
8.5
 20
1.25
 30
0.0
 11
8.5
 21
8.75
 31
0.0
  0
LINE
  5
402
100
AcDbEntity
  8
0
  6
CONTINUOUS
 62
               7
100
AcDbLine
 10
8.5
 20
-8.75
 30
0.0
 11
20.5
 21
-8.75
 31
0.0
  0
LINE
  5
403
100
AcDbEntity
  8
0
  6
CONTINUOUS
 62
               7
100
AcDbLine
 10
20.5
 20
-8.5
 30
0.0
 11
22.5
 21
-8.5
 31
0.0
  0
LINE
  5
404
100
AcDbEntity
  8
0
  6
CONTINUOUS
 62
               7
100
AcDbLine
 10
8.5
 20
8.75
 30
0.0
 11
20.5
 21
8.75
 31
0.0
  0
LINE
  5
405
100
AcDbEntity
  8
0
  6
CONTINUOUS
 62
               7
100
AcDbLine
 10
20.5
 20
8.5
 30
0.0
 11
22.5
 21
8.5
 31
0.0
  0
LINE
  5
406
100
AcDbEntity
  8
0
  6
CONTINUOUS
 62
               7
100
AcDbLine
 10
22.5
 20
8.5
 30
0.0
 11
22.5
 21
-8.5
 31
0.0
  0
LINE
  5
407
100
AcDbEntity
  8
0
  6
CONTINUOUS
 62
               7
100
AcDbLine
 10
22.5
 20
6.0
 30
0.0
 11
23.300000000000001
 21
6.0
 31
0.0
  0
LINE
  5
408
100
AcDbEntity
  8
0
  6
CONTINUOUS
 62
               7
100
AcDbLine
 10
22.5
 20
-6.0
 30
0.0
 11
23.300000000000001
 21
-6.0
 31
0.0
  0
LINE
  5
409
100
AcDbEntity
  8
0
  6
CONTINUOUS
 62
               7
100
AcDbLine
 10
23.300000000000001
 20
8.4000000000000004
 30
0.0
 11
23.300000000000001
 21
-8.4000000000000004
 31
0.0
  0
LINE
  5
40A
100
AcDbEntity
  8
0
  6
CONTINUOUS
 62
               7
100
AcDbLine
 10
23.300000000000001
 20
-8.4000000000000004
 30
0.0
 11
25.5
 21
-8.4000000000000004
 31
0.0
  0
LINE
  5
40B
100
AcDbEntity
  8
0
  6
CONTINUOUS
 62
               7
100
AcDbLine
 10
23.300000000000001
 20
8.4000000000000004
 30
0.0
 11
25.5
 21
8.4000000000000004
 31
0.0
  0
LINE
  5
40C
100
AcDbEntity
  8
0
  6
CONTINUOUS
 62
               7
100
AcDbLine
 10
25.5
 20
8.4000000000000004
 30
0.0
 11
25.5
 21
-8.4000000000000004
 31
0.0
  0
LINE
  5
40D
100
AcDbEntity
  8
0
  6
CONTINUOUS
 62
               7
100
AcDbLine
 10
20.5
 20
8.75
 30
0.0
 11
20.5
 21
-8.75
 31
0.0
  0
LINE
  5
40E
100
AcDbEntity
  8
0
  6
CENTER
 62
               2
100
AcDbLine
 10
0.0
 20
11.0
 30
0.0
 11
0.0
 21
-11.0
 31
0.0
  0
LINE
  5
40F
100
AcDbEntity
  8
0
  6
CENTER
 62
               2
100
AcDbLine
 10
-11.0
 20
0.0
 30
0.0
 11
29.34
 21
0.0
 31
0.0
  0
LINE
  5
410
100
AcDbEntity
  8
0
  6
CONTINUOUS
 62
               7
100
AcDbLine
 10
-9.8100000000000005
 20
0.0
 30
0.0
 11
-4.9000000000000004
 21
-8.5
 31
0.0
  0
LINE
  5
411
100
AcDbEntity
  8
0
  6
CONTINUOUS
 62
               7
100
AcDbLine
 10
-4.9000000000000004
 20
8.5
 30
0.0
 11
-9.8100000000000005
 21
0.0
 31
0.0
  0
LINE
  5
412
100
AcDbEntity
  8
0
  6
CONTINUOUS
 62
               7
100
AcDbLine
 10
4.9000000000000004
 20
8.5
 30
0.0
 11
-4.9000000000000004
 21
8.5
 31
0.0
  0
LINE
  5
413
100
AcDbEntity
  8
0
  6
CONTINUOUS
 62
               7
100
AcDbLine
 10
6.1299999999999999
 20
6.3799999999999999
 30
0.0
 11
4.9000000000000004
 21
8.5
 31
0.0
  0
LINE
  5
414
100
AcDbEntity
  8
0
  6
CONTINUOUS
 62
               7
100
AcDbLine
 10
4.9000000000000004
 20
-8.5
 30
0.0
 11
6.1299999999999999
 21
-6.3799999999999999
 31
0.0
  0
LINE
  5
415
100
AcDbEntity
  8
0
  6
CONTINUOUS
 62
               7
100
AcDbLine
 10
-4.9000000000000004
 20
-8.5
 30
0.0
 11
4.9000000000000004
 21
-8.5
 31
0.0
  0
ENDBLK
  5
416
100
AcDbEntity
  8
0
100
AcDbBlockEnd
  0
BLOCK
  5
417
100
AcDbEntity
  8
0
100
AcDbBlockBegin
  2
MS_27
 70
               0
 10
0.0
 20
0.0
 30
0.0
  3
MS_27
  1

  0
ARC
  5
418
100
AcDbEntity
  8
0
  6
CONTINUOUS
 62
               7
100
AcDbCircle
 10
-0.0018249321945936
 20
48.74776546747924
 30
0.0
 40
6.24817546737291
100
AcDbArc
 50
101.52329484813086
 51
179.97950933260049
  0
ARC
  5
419
100
AcDbEntity
  8
0
  6
CONTINUOUS
 62
               7
100
AcDbCircle
 10
0.0018249321945936
 20
48.74776546747924
 30
0.0
 40
6.24817546737291
100
AcDbArc
 50
0.0204906673991371
 51
78.476705151868742
  0
ARC
  5
41A
100
AcDbEntity
  8
0
  6
CONTINUOUS
 62
               7
100
AcDbCircle
 10
0.0
 20
48.75
 30
0.0
 40
8.7543931828539669
100
AcDbArc
 50
315.55535365299295
 51
224.44464634700583
  0
ARC
  5
41B
100
AcDbEntity
  8
0
  6
CONTINUOUS
 62
               7
100
AcDbCircle
 10
4.25
 20
17.2244873046875
 30
0.0
 40
12.274751836021098
100
AcDbArc
 50
69.742541769224985
 51
110.25745823077463
  0
ARC
  5
41C
100
AcDbEntity
  8
0
  6
CONTINUOUS
 62
               7
100
AcDbCircle
 10
-4.25
 20
17.2244873046875
 30
0.0
 40
12.274751836021098
100
AcDbArc
 50
69.742541769224985
 51
110.25745823077463
  0
ARC
  5
41D
100
AcDbEntity
  8
0
  6
CONTINUOUS
 62
               7
100
AcDbCircle
 10
-4.25
 20
17.275497436523438
 30
0.0
 40
12.28411947024728
100
AcDbArc
 50
249.758666468699
 51
290.2413335312998
  0
ARC
  5
41E
100
AcDbEntity
  8
0
  6
CONTINUOUS
 62
               7
100
AcDbCircle
 10
4.25
 20
17.275497436523438
 30
0.0
 40
12.28411947024728
100
AcDbArc
 50
249.758666468699
 51
290.2413335312998
  0
LINE
  5
41F
100
AcDbEntity
  8
0
  6
CONTINUOUS
 62
               7
100
AcDbLine
 10
-8.5
 20
39.5
 30
0.0
 11
-6.25
 21
41.75
 31
0.0
  0
LINE
  5
420
100
AcDbEntity
  8
0
  6
CONTINUOUS
 62
               7
100
AcDbLine
 10
6.25
 20
41.75
 30
0.0
 11
6.25
 21
48.75
 31
0.0
  0
LINE
  5
421
100
AcDbEntity
  8
0
  6
CONTINUOUS
 62
               7
100
AcDbLine
 10
8.5
 20
39.5
 30
0.0
 11
6.25
 21
41.75
 31
0.0
  0
LINE
  5
422
100
AcDbEntity
  8
0
  6
CONTINUOUS
 62
               7
100
AcDbLine
 10
6.25
 20
41.75
 30
0.0
 11
1.25
 21
41.75
 31
0.0
  0
LINE
  5
423
100
AcDbEntity
  8
0
  6
CONTINUOUS
 62
               7
100
AcDbLine
 10
-6.25
 20
41.75
 30
0.0
 11
-1.25
 21
41.75
 31
0.0
  0
LINE
  5
424
100
AcDbEntity
  8
0
  6
CONTINUOUS
 62
               7
100
AcDbLine
 10
-1.25
 20
39.5
 30
0.0
 11
-8.5
 21
39.5
 31
0.0
  0
LINE
  5
425
100
AcDbEntity
  8
0
  6
CONTINUOUS
 62
               7
100
AcDbLine
 10
-1.25
 20
39.5
 30
0.0
 11
-1.25
 21
57.409999999999997
 31
0.0
  0
LINE
  5
426
100
AcDbEntity
  8
0
  6
CONTINUOUS
 62
               7
100
AcDbLine
 10
1.25
 20
39.5
 30
0.0
 11
1.25
 21
57.409999999999997
 31
0.0
  0
LINE
  5
427
100
AcDbEntity
  8
0
  6
CENTER
 62
               2
100
AcDbLine
 10
-11.0
 20
48.75
 30
0.0
 11
11.0
 21
48.75
 31
0.0
  0
LINE
  5
428
100
AcDbEntity
  8
0
  6
CONTINUOUS
 62
               7
100
AcDbLine
 10
-6.25
 20
41.75
 30
0.0
 11
-6.25
 21
48.75
 31
0.0
  0
LINE
  5
429
100
AcDbEntity
  8
0
  6
CONTINUOUS
 62
               7
100
AcDbLine
 10
1.25
 20
39.5
 30
0.0
 11
8.5
 21
39.5
 31
0.0
  0
LINE
  5
42A
100
AcDbEntity
  8
0
  6
CONTINUOUS
 62
               7
100
AcDbLine
 10
-8.5
 20
29.5
 30
0.0
 11
8.5
 21
29.5
 31
0.0
  0
LINE
  5
42B
100
AcDbEntity
  8
0
  6
CONTINUOUS
 62
               7
100
AcDbLine
 10
0.0
 20
28.739999999999998
 30
0.0
 11
0.0
 21
5.75
 31
0.0
  0
LINE
  5
42C
100
AcDbEntity
  8
0
  6
CONTINUOUS
 62
               7
100
AcDbLine
 10
-8.5
 20
39.5
 30
0.0
 11
-8.5
 21
5.0
 31
0.0
  0
LINE
  5
42D
100
AcDbEntity
  8
0
  6
CONTINUOUS
 62
               7
100
AcDbLine
 10
8.5
 20
39.5
 30
0.0
 11
8.5
 21
5.0
 31
0.0
  0
LINE
  5
42E
100
AcDbEntity
  8
0
  6
CONTINUOUS
 62
               7
100
AcDbLine
 10
-8.5
 20
5.0
 30
0.0
 11
8.5
 21
5.0
 31
0.0
  0
LINE
  5
42F
100
AcDbEntity
  8
0
  6
CONTINUOUS
 62
               7
100
AcDbLine
 10
-6.3899999999999997
 20
-6.0
 30
0.0
 11
6.3899999999999997
 21
-6.0
 31
0.0
  0
LINE
  5
430
100
AcDbEntity
  8
0
  6
CONTINUOUS
 62
               7
100
AcDbLine
 10
6.3899999999999997
 20
-6.0
 30
0.0
 11
6.7300000000000004
 21
5.0
 31
0.0
  0
LINE
  5
431
100
AcDbEntity
  8
0
  6
CONTINUOUS
 62
               2
100
AcDbLine
 10
5.5300000000000002
 20
-6.0
 30
0.0
 11
5.8700000000000001
 21
5.0
 31
0.0
  0
LINE
  5
432
100
AcDbEntity
  8
0
  6
CONTINUOUS
 62
               2
100
AcDbLine
 10
-5.5300000000000002
 20
-6.0
 30
0.0
 11
-5.8700000000000001
 21
5.0
 31
0.0
  0
LINE
  5
433
100
AcDbEntity
  8
0
  6
CONTINUOUS
 62
               7
100
AcDbLine
 10
-6.3899999999999997
 20
-6.0
 30
0.0
 11
-6.7300000000000004
 21
5.0
 31
0.0
  0
LINE
  5
434
100
AcDbEntity
  8
0
  6
CENTER
 62
               2
100
AcDbLine
 10
0.0
 20
-9.4000000000000004
 30
0.0
 11
0.0
 21
61.840000000000003
 31
0.0
  0
ENDBLK
  5
435
100
AcDbEntity
  8
0
100
AcDbBlockEnd
  0
BLOCK
  5
436
100
AcDbEntity
  8
0
100
AcDbBlockBegin
  2
MS_28
 70
               0
 10
0.0
 20
0.0
 30
0.0
  3
MS_28
  1

  0
CIRCLE
  5
437
100
AcDbEntity
  8
0
  6
CONTINUOUS
 62
               7
100
AcDbCircle
 10
0.0
 20
48.75
 30
0.0
 40
8.3999996185302734
  0
CIRCLE
  5
438
100
AcDbEntity
  8
0
  6
CONTINUOUS
 62
               7
100
AcDbCircle
 10
0.0
 20
48.75
 30
0.0
 40
8.75
  0
ARC
  5
439
100
AcDbEntity
  8
0
  6
CONTINUOUS
 62
               7
100
AcDbCircle
 10
-4.25
 20
17.2244873046875
 30
0.0
 40
12.274751836021098
100
AcDbArc
 50
69.742541769224985
 51
110.25745823077463
  0
ARC
  5
43A
100
AcDbEntity
  8
0
  6
CONTINUOUS
 62
               7
100
AcDbCircle
 10
4.25
 20
17.2244873046875
 30
0.0
 40
12.274751836021098
100
AcDbArc
 50
69.742541769224985
 51
110.25745823077463
  0
ARC
  5
43B
100
AcDbEntity
  8
0
  6
CONTINUOUS
 62
               7
100
AcDbCircle
 10
4.25
 20
17.275497436523438
 30
0.0
 40
12.28411947024728
100
AcDbArc
 50
249.758666468699
 51
290.2413335312998
  0
ARC
  5
43C
100
AcDbEntity
  8
0
  6
CONTINUOUS
 62
               7
100
AcDbCircle
 10
-4.25
 20
17.275497436523438
 30
0.0
 40
12.28411947024728
100
AcDbArc
 50
249.758666468699
 51
290.2413335312998
  0
CIRCLE
  5
43D
100
AcDbEntity
  8
0
  6
CONTINUOUS
 62
               7
100
AcDbCircle
 10
0.0
 20
48.75
 30
0.0
 40
5.0
  0
LINE
  5
43E
100
AcDbEntity
  8
0
  6
CONTINUOUS
 62
               7
100
AcDbLine
 10
8.5
 20
39.5
 30
0.0
 11
6.25
 21
41.75
 31
0.0
  0
LINE
  5
43F
100
AcDbEntity
  8
0
  6
CONTINUOUS
 62
               7
100
AcDbLine
 10
-8.5
 20
39.5
 30
0.0
 11
-6.25
 21
41.75
 31
0.0
  0
LINE
  5
440
100
AcDbEntity
  8
0
  6
CONTINUOUS
 62
               7
100
AcDbLine
 10
-1.25
 20
35.43
 30
0.0
 11
1.25
 21
35.43
 31
0.0
  0
LINE
  5
441
100
AcDbEntity
  8
0
  6
CONTINUOUS
 62
               7
100
AcDbLine
 10
-1.25
 20
35.43
 30
0.0
 11
-1.25
 21
40.090000000000003
 31
0.0
  0
LINE
  5
442
100
AcDbEntity
  8
0
  6
CONTINUOUS
 62
               7
100
AcDbLine
 10
1.25
 20
35.43
 30
0.0
 11
1.25
 21
40.090000000000003
 31
0.0
  0
LINE
  5
443
100
AcDbEntity
  8
0
  6
CONTINUOUS
 62
               7
100
AcDbLine
 10
6.25
 20
39.5
 30
0.0
 11
8.5
 21
39.5
 31
0.0
  0
LINE
  5
444
100
AcDbEntity
  8
0
  6
CENTER
 62
               2
100
AcDbLine
 10
11.0
 20
48.75
 30
0.0
 11
-11.0
 21
48.75
 31
0.0
  0
LINE
  5
445
100
AcDbEntity
  8
0
  6
CONTINUOUS
 62
               7
100
AcDbLine
 10
6.25
 20
39.5
 30
0.0
 11
6.25
 21
42.619999999999997
 31
0.0
  0
LINE
  5
446
100
AcDbEntity
  8
0
  6
CONTINUOUS
 62
               7
100
AcDbLine
 10
-6.25
 20
39.5
 30
0.0
 11
-6.25
 21
42.619999999999997
 31
0.0
  0
LINE
  5
447
100
AcDbEntity
  8
0
  6
CONTINUOUS
 62
               7
100
AcDbLine
 10
-6.25
 20
39.5
 30
0.0
 11
-8.5
 21
39.5
 31
0.0
  0
LINE
  5
448
100
AcDbEntity
  8
0
  6
CONTINUOUS
 62
               7
100
AcDbLine
 10
8.5
 20
29.5
 30
0.0
 11
-8.5
 21
29.5
 31
0.0
  0
LINE
  5
449
100
AcDbEntity
  8
0
  6
CONTINUOUS
 62
               7
100
AcDbLine
 10
0.0
 20
28.739999999999998
 30
0.0
 11
0.0
 21
5.75
 31
0.0
  0
LINE
  5
44A
100
AcDbEntity
  8
0
  6
CONTINUOUS
 62
               7
100
AcDbLine
 10
8.5
 20
39.5
 30
0.0
 11
8.5
 21
5.0
 31
0.0
  0
LINE
  5
44B
100
AcDbEntity
  8
0
  6
CONTINUOUS
 62
               7
100
AcDbLine
 10
-8.5
 20
39.5
 30
0.0
 11
-8.5
 21
5.0
 31
0.0
  0
LINE
  5
44C
100
AcDbEntity
  8
0
  6
CONTINUOUS
 62
               7
100
AcDbLine
 10
8.5
 20
5.0
 30
0.0
 11
-8.5
 21
5.0
 31
0.0
  0
LINE
  5
44D
100
AcDbEntity
  8
0
  6
CONTINUOUS
 62
               7
100
AcDbLine
 10
6.3899999999999997
 20
-6.0
 30
0.0
 11
-6.3899999999999997
 21
-6.0
 31
0.0
  0
LINE
  5
44E
100
AcDbEntity
  8
0
  6
CONTINUOUS
 62
               7
100
AcDbLine
 10
-6.3899999999999997
 20
-6.0
 30
0.0
 11
-6.7300000000000004
 21
5.0
 31
0.0
  0
LINE
  5
44F
100
AcDbEntity
  8
0
  6
CONTINUOUS
 62
               2
100
AcDbLine
 10
-5.5300000000000002
 20
-6.0
 30
0.0
 11
-5.8700000000000001
 21
5.0
 31
0.0
  0
LINE
  5
450
100
AcDbEntity
  8
0
  6
CONTINUOUS
 62
               2
100
AcDbLine
 10
5.5300000000000002
 20
-6.0
 30
0.0
 11
5.8700000000000001
 21
5.0
 31
0.0
  0
LINE
  5
451
100
AcDbEntity
  8
0
  6
CONTINUOUS
 62
               7
100
AcDbLine
 10
6.3899999999999997
 20
-6.0
 30
0.0
 11
6.7300000000000004
 21
5.0
 31
0.0
  0
LINE
  5
452
100
AcDbEntity
  8
0
  6
CENTER
 62
               2
100
AcDbLine
 10
0.0
 20
-9.4000000000000004
 30
0.0
 11
0.0
 21
61.619999999999997
 31
0.0
  0
ENDBLK
  5
453
100
AcDbEntity
  8
0
100
AcDbBlockEnd
  0
BLOCK
  5
454
100
AcDbEntity
  8
0
100
AcDbBlockBegin
  2
MS_29
 70
               0
 10
0.0
 20
0.0
 30
0.0
  3
MS_29
  1

  0
ARC
  5
455
100
AcDbEntity
  8
0
  6
CONTINUOUS
 62
               7
100
AcDbCircle
 10
0.25
 20
49.25
 30
0.0
 40
8.75
100
AcDbArc
 50
89.999999999999801
 51
179.9999999999996
  0
ARC
  5
456
100
AcDbEntity
  8
0
  6
CONTINUOUS
 62
               7
100
AcDbCircle
 10
0.0
 20
49.25
 30
0.0
 40
6.25
100
AcDbArc
 50
89.999999999999801
 51
179.9999999999996
  0
ARC
  5
457
100
AcDbEntity
  8
0
  6
CONTINUOUS
 62
               7
100
AcDbCircle
 10
7.3554803140061145
 20
25.653313720453902
 30
0.0
 40
4.3466886293310409
100
AcDbArc
 50
89.940423848837213
 51
124.39592102152638
  0
ARC
  5
458
100
AcDbEntity
  8
0
  6
CONTINUOUS
 62
               7
100
AcDbCircle
 10
0.0
 20
13.759109497066467
 30
0.0
 40
16.237856101216614
100
AcDbArc
 50
72.436417611225082
 51
107.56358238877453
  0
ARC
  5
459
100
AcDbEntity
  8
0
  6
CONTINUOUS
 62
               7
100
AcDbCircle
 10
-7.3554803140061145
 20
25.653313720453902
 30
0.0
 40
4.3466886293310409
100
AcDbArc
 50
55.604078978473218
 51
90.059576151162403
  0
ARC
  5
45A
100
AcDbEntity
  8
0
  6
CONTINUOUS
 62
               7
100
AcDbCircle
 10
-7.3421246410245011
 20
9.8507688225603598
 30
0.0
 40
4.3508055433243342
100
AcDbArc
 50
269.76459864782379
 51
304.14602745622534
  0
ARC
  5
45B
100
AcDbEntity
  8
0
  6
CONTINUOUS
 62
               7
100
AcDbCircle
 10
0.0
 20
21.740875244144469
 30
0.0
 40
16.24737565976881
100
AcDbArc
 50
252.44704297034946
 51
287.55295702964935
  0
ARC
  5
45C
100
AcDbEntity
  8
0
  6
CONTINUOUS
 62
               7
100
AcDbCircle
 10
7.3421246410245011
 20
9.8507688225603598
 30
0.0
 40
4.3508055433243342
100
AcDbArc
 50
235.85397254377347
 51
270.2354013521749
  0
LINE
  5
45D
100
AcDbEntity
  8
0
  6
CONTINUOUS
 62
               7
100
AcDbLine
 10
6.0
 20
55.5
 30
0.0
 11
6.0
 21
40.0
 31
0.0
  0
LINE
  5
45E
100
AcDbEntity
  8
0
  6
CONTINUOUS
 62
               7
100
AcDbLine
 10
8.5
 20
58.0
 30
0.0
 11
6.0
 21
55.5
 31
0.0
  0
LINE
  5
45F
100
AcDbEntity
  8
0
  6
CONTINUOUS
 62
               7
100
AcDbLine
 10
-6.25
 20
42.25
 30
0.0
 11
3.75
 21
42.25
 31
0.0
  0
LINE
  5
460
100
AcDbEntity
  8
0
  6
CONTINUOUS
 62
               7
100
AcDbLine
 10
-8.5
 20
40.0
 30
0.0
 11
-6.25
 21
42.25
 31
0.0
  0
LINE
  5
461
100
AcDbEntity
  8
0
  6
CONTINUOUS
 62
               7
100
AcDbLine
 10
6.0
 20
40.0
 30
0.0
 11
3.75
 21
42.25
 31
0.0
  0
LINE
  5
462
100
AcDbEntity
  8
0
  6
CONTINUOUS
 62
               7
100
AcDbLine
 10
6.0
 20
49.25
 30
0.0
 11
8.5
 21
40.5
 31
0.0
  0
LINE
  5
463
100
AcDbEntity
  8
0
  6
CONTINUOUS
 62
               7
100
AcDbLine
 10
0.0
 20
55.5
 30
0.0
 11
6.0
 21
55.5
 31
0.0
  0
LINE
  5
464
100
AcDbEntity
  8
0
  6
CONTINUOUS
 62
               7
100
AcDbLine
 10
8.5
 20
30.0
 30
0.0
 11
8.5
 21
58.0
 31
0.0
  0
LINE
  5
465
100
AcDbEntity
  8
0
  6
CONTINUOUS
 62
               7
100
AcDbLine
 10
8.5
 20
40.5
 30
0.0
 11
20.5
 21
40.5
 31
0.0
  0
LINE
  5
466
100
AcDbEntity
  8
0
  6
CONTINUOUS
 62
               7
100
AcDbLine
 10
18.5
 20
58.0
 30
0.0
 11
18.5
 21
40.5
 31
0.0
  0
LINE
  5
467
100
AcDbEntity
  8
0
  6
CONTINUOUS
 62
               7
100
AcDbLine
 10
0.25
 20
58.0
 30
0.0
 11
20.5
 21
58.0
 31
0.0
  0
LINE
  5
468
100
AcDbEntity
  8
0
  6
CONTINUOUS
 62
               7
100
AcDbLine
 10
20.5
 20
58.0
 30
0.0
 11
20.5
 21
40.5
 31
0.0
  0
LINE
  5
469
100
AcDbEntity
  8
0
  6
CONTINUOUS
 62
               7
100
AcDbLine
 10
20.5
 20
57.75
 30
0.0
 11
22.5
 21
57.75
 31
0.0
  0
LINE
  5
46A
100
AcDbEntity
  8
0
  6
CONTINUOUS
 62
               7
100
AcDbLine
 10
20.5
 20
40.75
 30
0.0
 11
22.5
 21
40.75
 31
0.0
  0
LINE
  5
46B
100
AcDbEntity
  8
0
  6
CONTINUOUS
 62
               7
100
AcDbLine
 10
22.5
 20
57.75
 30
0.0
 11
22.5
 21
40.75
 31
0.0
  0
LINE
  5
46C
100
AcDbEntity
  8
0
  6
CONTINUOUS
 62
               7
100
AcDbLine
 10
23.300000000000001
 20
40.850000000000001
 30
0.0
 11
25.5
 21
40.850000000000001
 31
0.0
  0
LINE
  5
46D
100
AcDbEntity
  8
0
  6
CONTINUOUS
 62
               7
100
AcDbLine
 10
23.300000000000001
 20
57.649999999999999
 30
0.0
 11
23.300000000000001
 21
40.850000000000001
 31
0.0
  0
LINE
  5
46E
100
AcDbEntity
  8
0
  6
CONTINUOUS
 62
               7
100
AcDbLine
 10
22.5
 20
55.25
 30
0.0
 11
23.300000000000001
 21
55.25
 31
0.0
  0
LINE
  5
46F
100
AcDbEntity
  8
0
  6
CONTINUOUS
 62
               7
100
AcDbLine
 10
22.5
 20
43.25
 30
0.0
 11
23.300000000000001
 21
43.25
 31
0.0
  0
LINE
  5
470
100
AcDbEntity
  8
0
  6
CONTINUOUS
 62
               7
100
AcDbLine
 10
25.5
 20
57.649999999999999
 30
0.0
 11
25.5
 21
40.850000000000001
 31
0.0
  0
LINE
  5
471
100
AcDbEntity
  8
0
  6
CONTINUOUS
 62
               7
100
AcDbLine
 10
23.300000000000001
 20
57.649999999999999
 30
0.0
 11
25.5
 21
57.649999999999999
 31
0.0
  0
LINE
  5
472
100
AcDbEntity
  8
0
  6
CONTINUOUS
 62
               7
100
AcDbLine
 10
-8.5
 20
40.0
 30
0.0
 11
6.0
 21
40.0
 31
0.0
  0
LINE
  5
473
100
AcDbEntity
  8
0
  6
CONTINUOUS
 62
               7
100
AcDbLine
 10
8.5
 20
35.93
 30
0.0
 11
13.06
 21
40.5
 31
0.0
  0
LINE
  5
474
100
AcDbEntity
  8
0
  6
CONTINUOUS
 62
               7
100
AcDbLine
 10
-6.25
 20
42.25
 30
0.0
 11
-6.25
 21
49.25
 31
0.0
  0
LINE
  5
475
100
AcDbEntity
  8
0
  6
CONTINUOUS
 62
               7
100
AcDbLine
 10
-8.5
 20
30.0
 30
0.0
 11
-8.5
 21
49.25
 31
0.0
  0
LINE
  5
476
100
AcDbEntity
  8
0
  6
CENTER
 62
               2
100
AcDbLine
 10
-12.44
 20
49.25
 30
0.0
 11
29.109999999999999
 21
49.25
 31
0.0
  0
LINE
  5
477
100
AcDbEntity
  8
0
  6
CONTINUOUS
 62
               7
100
AcDbLine
 10
8.1199999999999992
 20
-6.5
 30
0.0
 11
8.5
 21
5.5
 31
0.0
  0
LINE
  5
478
100
AcDbEntity
  8
0
  6
CONTINUOUS
 62
               2
100
AcDbLine
 10
7.2699999999999996
 20
-6.5
 30
0.0
 11
7.6399999999999997
 21
5.5
 31
0.0
  0
LINE
  5
479
100
AcDbEntity
  8
0
  6
CONTINUOUS
 62
               7
100
AcDbLine
 10
-8.1199999999999992
 20
-6.5
 30
0.0
 11
8.1199999999999992
 21
-6.5
 31
0.0
  0
LINE
  5
47A
100
AcDbEntity
  8
0
  6
CONTINUOUS
 62
               2
100
AcDbLine
 10
-7.2699999999999996
 20
-6.5
 30
0.0
 11
-7.6399999999999997
 21
5.5
 31
0.0
  0
LINE
  5
47B
100
AcDbEntity
  8
0
  6
CONTINUOUS
 62
               7
100
AcDbLine
 10
-8.1199999999999992
 20
-6.5
 30
0.0
 11
-8.5
 21
5.5
 31
0.0
  0
LINE
  5
47C
100
AcDbEntity
  8
0
  6
CONTINUOUS
 62
               7
100
AcDbLine
 10
-8.5
 20
30.0
 30
0.0
 11
-9.8100000000000005
 21
29.239999999999998
 31
0.0
  0
LINE
  5
47D
100
AcDbEntity
  8
0
  6
CONTINUOUS
 62
               7
100
AcDbLine
 10
-8.5
 20
30.0
 30
0.0
 11
8.5
 21
30.0
 31
0.0
  0
LINE
  5
47E
100
AcDbEntity
  8
0
  6
CONTINUOUS
 62
               7
100
AcDbLine
 10
8.5
 20
30.0
 30
0.0
 11
9.8100000000000005
 21
29.239999999999998
 31
0.0
  0
LINE
  5
47F
100
AcDbEntity
  8
0
  6
CONTINUOUS
 62
               7
100
AcDbLine
 10
4.9000000000000004
 20
29.239999999999998
 30
0.0
 11
4.9000000000000004
 21
6.25
 31
0.0
  0
LINE
  5
480
100
AcDbEntity
  8
0
  6
CONTINUOUS
 62
               7
100
AcDbLine
 10
-9.8100000000000005
 20
29.239999999999998
 30
0.0
 11
-9.8100000000000005
 21
6.25
 31
0.0
  0
LINE
  5
481
100
AcDbEntity
  8
0
  6
CONTINUOUS
 62
               7
100
AcDbLine
 10
-8.5
 20
5.5
 30
0.0
 11
-9.8100000000000005
 21
6.25
 31
0.0
  0
LINE
  5
482
100
AcDbEntity
  8
0
  6
CONTINUOUS
 62
               7
100
AcDbLine
 10
8.5
 20
5.5
 30
0.0
 11
9.8100000000000005
 21
6.25
 31
0.0
  0
LINE
  5
483
100
AcDbEntity
  8
0
  6
CONTINUOUS
 62
               7
100
AcDbLine
 10
9.8100000000000005
 20
29.239999999999998
 30
0.0
 11
9.8100000000000005
 21
6.25
 31
0.0
  0
LINE
  5
484
100
AcDbEntity
  8
0
  6
CONTINUOUS
 62
               7
100
AcDbLine
 10
-4.9000000000000004
 20
29.239999999999998
 30
0.0
 11
-4.9000000000000004
 21
6.25
 31
0.0
  0
LINE
  5
485
100
AcDbEntity
  8
0
  6
CONTINUOUS
 62
               7
100
AcDbLine
 10
-8.5
 20
5.5
 30
0.0
 11
8.5
 21
5.5
 31
0.0
  0
LINE
  5
486
100
AcDbEntity
  8
0
  6
CENTER
 62
               2
100
AcDbLine
 10
0.0
 20
-9.0299999999999994
 30
0.0
 11
0.0
 21
61.590000000000003
 31
0.0
  0
ENDBLK
  5
487
100
AcDbEntity
  8
0
100
AcDbBlockEnd
  0
BLOCK
  5
488
100
AcDbEntity
  8
0
100
AcDbBlockBegin
  2
MS_30
 70
               0
 10
0.0
 20
0.0
 30
0.0
  3
MS_30
  1

  0
ARC
  5
489
100
AcDbEntity
  8
0
  6
CONTINUOUS
 62
               7
100
AcDbCircle
 10
0.0022345325207578
 20
-0.0018249321945927
 30
0.0
 40
6.2481754673729109
100
AcDbArc
 50
191.52329484813066
 51
269.97950933260029
  0
ARC
  5
48A
100
AcDbEntity
  8
0
  6
CONTINUOUS
 62
               7
100
AcDbCircle
 10
0.0022345325207578
 20
0.0018249321945927
 30
0.0
 40
6.2481754673729109
100
AcDbArc
 50
90.020490667398917
 51
168.47670515186854
  0
ARC
  5
48B
100
AcDbEntity
  8
0
  6
CONTINUOUS
 62
               7
100
AcDbCircle
 10
0.0000000000000009
 20
0.0
 30
0.0
 40
8.4994176271083415
100
AcDbArc
 50
47.336333871075006
 51
312.66366612892421
  0
LINE
  5
48C
100
AcDbEntity
  8
0
  6
CONTINUOUS
 62
               7
100
AcDbLine
 10
8.5
 20
-8.75
 30
0.0
 11
6.0
 21
-6.25
 31
0.0
  0
LINE
  5
48D
100
AcDbEntity
  8
0
  6
CONTINUOUS
 62
               7
100
AcDbLine
 10
6.0
 20
-6.25
 30
0.0
 11
6.0
 21
-1.25
 31
0.0
  0
LINE
  5
48E
100
AcDbEntity
  8
0
  6
CONTINUOUS
 62
               7
100
AcDbLine
 10
6.0
 20
6.25
 30
0.0
 11
6.0
 21
1.25
 31
0.0
  0
LINE
  5
48F
100
AcDbEntity
  8
0
  6
CONTINUOUS
 62
               7
100
AcDbLine
 10
8.5
 20
8.75
 30
0.0
 11
6.0
 21
6.25
 31
0.0
  0
LINE
  5
490
100
AcDbEntity
  8
0
  6
CONTINUOUS
 62
               7
100
AcDbLine
 10
8.5
 20
-1.25
 30
0.0
 11
8.5
 21
-8.75
 31
0.0
  0
LINE
  5
491
100
AcDbEntity
  8
0
  6
CONTINUOUS
 62
               7
100
AcDbLine
 10
-8.4000000000000004
 20
-1.25
 30
0.0
 11
8.5
 21
-1.25
 31
0.0
  0
LINE
  5
492
100
AcDbEntity
  8
0
  6
CONTINUOUS
 62
               7
100
AcDbLine
 10
-8.4000000000000004
 20
1.25
 30
0.0
 11
8.5
 21
1.25
 31
0.0
  0
LINE
  5
493
100
AcDbEntity
  8
0
  6
CONTINUOUS
 62
               7
100
AcDbLine
 10
0.0
 20
-6.25
 30
0.0
 11
6.0
 21
-6.25
 31
0.0
  0
LINE
  5
494
100
AcDbEntity
  8
0
  6
CONTINUOUS
 62
               7
100
AcDbLine
 10
18.5
 20
8.75
 30
0.0
 11
18.5
 21
-8.75
 31
0.0
  0
LINE
  5
495
100
AcDbEntity
  8
0
  6
CONTINUOUS
 62
               7
100
AcDbLine
 10
0.0
 20
6.25
 30
0.0
 11
6.0
 21
6.25
 31
0.0
  0
LINE
  5
496
100
AcDbEntity
  8
0
  6
CONTINUOUS
 62
               7
100
AcDbLine
 10
8.5
 20
1.25
 30
0.0
 11
8.5
 21
8.75
 31
0.0
  0
LINE
  5
497
100
AcDbEntity
  8
0
  6
CONTINUOUS
 62
               7
100
AcDbLine
 10
8.5
 20
-8.75
 30
0.0
 11
20.5
 21
-8.75
 31
0.0
  0
LINE
  5
498
100
AcDbEntity
  8
0
  6
CONTINUOUS
 62
               7
100
AcDbLine
 10
20.5
 20
-8.5
 30
0.0
 11
22.5
 21
-8.5
 31
0.0
  0
LINE
  5
499
100
AcDbEntity
  8
0
  6
CONTINUOUS
 62
               7
100
AcDbLine
 10
8.5
 20
8.75
 30
0.0
 11
20.5
 21
8.75
 31
0.0
  0
LINE
  5
49A
100
AcDbEntity
  8
0
  6
CONTINUOUS
 62
               7
100
AcDbLine
 10
20.5
 20
8.5
 30
0.0
 11
22.5
 21
8.5
 31
0.0
  0
LINE
  5
49B
100
AcDbEntity
  8
0
  6
CONTINUOUS
 62
               7
100
AcDbLine
 10
22.5
 20
8.5
 30
0.0
 11
22.5
 21
-8.5
 31
0.0
  0
LINE
  5
49C
100
AcDbEntity
  8
0
  6
CONTINUOUS
 62
               7
100
AcDbLine
 10
22.5
 20
6.0
 30
0.0
 11
23.300000000000001
 21
6.0
 31
0.0
  0
LINE
  5
49D
100
AcDbEntity
  8
0
  6
CONTINUOUS
 62
               7
100
AcDbLine
 10
22.5
 20
-6.0
 30
0.0
 11
23.300000000000001
 21
-6.0
 31
0.0
  0
LINE
  5
49E
100
AcDbEntity
  8
0
  6
CONTINUOUS
 62
               7
100
AcDbLine
 10
23.300000000000001
 20
8.4000000000000004
 30
0.0
 11
23.300000000000001
 21
-8.4000000000000004
 31
0.0
  0
LINE
  5
49F
100
AcDbEntity
  8
0
  6
CONTINUOUS
 62
               7
100
AcDbLine
 10
23.300000000000001
 20
-8.4000000000000004
 30
0.0
 11
25.5
 21
-8.4000000000000004
 31
0.0
  0
LINE
  5
4A0
100
AcDbEntity
  8
0
  6
CONTINUOUS
 62
               7
100
AcDbLine
 10
23.300000000000001
 20
8.4000000000000004
 30
0.0
 11
25.5
 21
8.4000000000000004
 31
0.0
  0
LINE
  5
4A1
100
AcDbEntity
  8
0
  6
CONTINUOUS
 62
               7
100
AcDbLine
 10
25.5
 20
8.4000000000000004
 30
0.0
 11
25.5
 21
-8.4000000000000004
 31
0.0
  0
LINE
  5
4A2
100
AcDbEntity
  8
0
  6
CONTINUOUS
 62
               7
100
AcDbLine
 10
20.5
 20
8.75
 30
0.0
 11
20.5
 21
-8.75
 31
0.0
  0
LINE
  5
4A3
100
AcDbEntity
  8
0
  6
CENTER
 62
               2
100
AcDbLine
 10
0.0
 20
11.0
 30
0.0
 11
0.0
 21
-11.0
 31
0.0
  0
LINE
  5
4A4
100
AcDbEntity
  8
0
  6
CENTER
 62
               2
100
AcDbLine
 10
-11.0
 20
0.0
 30
0.0
 11
29.34
 21
0.0
 31
0.0
  0
LINE
  5
4A5
100
AcDbEntity
  8
0
  6
CONTINUOUS
 62
               7
100
AcDbLine
 10
-9.8100000000000005
 20
0.0
 30
0.0
 11
-4.9000000000000004
 21
-8.5
 31
0.0
  0
LINE
  5
4A6
100
AcDbEntity
  8
0
  6
CONTINUOUS
 62
               7
100
AcDbLine
 10
-4.9000000000000004
 20
8.5
 30
0.0
 11
-9.8100000000000005
 21
0.0
 31
0.0
  0
LINE
  5
4A7
100
AcDbEntity
  8
0
  6
CONTINUOUS
 62
               7
100
AcDbLine
 10
4.9000000000000004
 20
8.5
 30
0.0
 11
-4.9000000000000004
 21
8.5
 31
0.0
  0
LINE
  5
4A8
100
AcDbEntity
  8
0
  6
CONTINUOUS
 62
               7
100
AcDbLine
 10
6.1299999999999999
 20
6.3799999999999999
 30
0.0
 11
4.9000000000000004
 21
8.5
 31
0.0
  0
LINE
  5
4A9
100
AcDbEntity
  8
0
  6
CONTINUOUS
 62
               7
100
AcDbLine
 10
4.9000000000000004
 20
-8.5
 30
0.0
 11
6.1299999999999999
 21
-6.3799999999999999
 31
0.0
  0
LINE
  5
4AA
100
AcDbEntity
  8
0
  6
CONTINUOUS
 62
               7
100
AcDbLine
 10
-4.9000000000000004
 20
-8.5
 30
0.0
 11
4.9000000000000004
 21
-8.5
 31
0.0
  0
ENDBLK
  5
4AB
100
AcDbEntity
  8
0
100
AcDbBlockEnd
  0
BLOCK
  5
4AC
100
AcDbEntity
  8
0
100
AcDbBlockBegin
  2
MS_31
 70
               0
 10
0.0
 20
0.0
 30
0.0
  3
MS_31
  1

  0
ARC
  5
4AD
100
AcDbEntity
  8
0
  6
CONTINUOUS
 62
               7
100
AcDbCircle
 10
-0.0018249321945936
 20
49.24776546747924
 30
0.0
 40
6.24817546737291
100
AcDbArc
 50
101.52329484813086
 51
179.97950933260049
  0
ARC
  5
4AE
100
AcDbEntity
  8
0
  6
CONTINUOUS
 62
               7
100
AcDbCircle
 10
0.0018249321945936
 20
49.24776546747924
 30
0.0
 40
6.24817546737291
100
AcDbArc
 50
0.0204906673991371
 51
78.476705151868742
  0
ARC
  5
4AF
100
AcDbEntity
  8
0
  6
CONTINUOUS
 62
               7
100
AcDbCircle
 10
0.0
 20
49.25
 30
0.0
 40
8.7543931828539669
100
AcDbArc
 50
315.55535365299295
 51
224.44464634700583
  0
ARC
  5
4B0
100
AcDbEntity
  8
0
  6
CONTINUOUS
 62
               7
100
AcDbCircle
 10
4.25
 20
17.7244873046875
 30
0.0
 40
12.274751836021098
100
AcDbArc
 50
69.742541769224985
 51
110.25745823077463
  0
ARC
  5
4B1
100
AcDbEntity
  8
0
  6
CONTINUOUS
 62
               7
100
AcDbCircle
 10
-4.25
 20
17.7244873046875
 30
0.0
 40
12.274751836021098
100
AcDbArc
 50
69.742541769224985
 51
110.25745823077463
  0
ARC
  5
4B2
100
AcDbEntity
  8
0
  6
CONTINUOUS
 62
               7
100
AcDbCircle
 10
-4.25
 20
17.775497436523438
 30
0.0
 40
12.28411947024728
100
AcDbArc
 50
249.758666468699
 51
290.2413335312998
  0
ARC
  5
4B3
100
AcDbEntity
  8
0
  6
CONTINUOUS
 62
               7
100
AcDbCircle
 10
4.25
 20
17.775497436523438
 30
0.0
 40
12.28411947024728
100
AcDbArc
 50
249.758666468699
 51
290.2413335312998
  0
LINE
  5
4B4
100
AcDbEntity
  8
0
  6
CONTINUOUS
 62
               7
100
AcDbLine
 10
-8.5
 20
40.0
 30
0.0
 11
-6.25
 21
42.25
 31
0.0
  0
LINE
  5
4B5
100
AcDbEntity
  8
0
  6
CONTINUOUS
 62
               7
100
AcDbLine
 10
6.25
 20
42.25
 30
0.0
 11
6.25
 21
49.25
 31
0.0
  0
LINE
  5
4B6
100
AcDbEntity
  8
0
  6
CONTINUOUS
 62
               7
100
AcDbLine
 10
8.5
 20
40.0
 30
0.0
 11
6.25
 21
42.25
 31
0.0
  0
LINE
  5
4B7
100
AcDbEntity
  8
0
  6
CONTINUOUS
 62
               7
100
AcDbLine
 10
6.25
 20
42.25
 30
0.0
 11
1.25
 21
42.25
 31
0.0
  0
LINE
  5
4B8
100
AcDbEntity
  8
0
  6
CONTINUOUS
 62
               7
100
AcDbLine
 10
-6.25
 20
42.25
 30
0.0
 11
-1.25
 21
42.25
 31
0.0
  0
LINE
  5
4B9
100
AcDbEntity
  8
0
  6
CONTINUOUS
 62
               7
100
AcDbLine
 10
-1.25
 20
40.0
 30
0.0
 11
-8.5
 21
40.0
 31
0.0
  0
LINE
  5
4BA
100
AcDbEntity
  8
0
  6
CONTINUOUS
 62
               7
100
AcDbLine
 10
-1.25
 20
40.0
 30
0.0
 11
-1.25
 21
57.909999999999997
 31
0.0
  0
LINE
  5
4BB
100
AcDbEntity
  8
0
  6
CONTINUOUS
 62
               7
100
AcDbLine
 10
1.25
 20
40.0
 30
0.0
 11
1.25
 21
57.909999999999997
 31
0.0
  0
LINE
  5
4BC
100
AcDbEntity
  8
0
  6
CENTER
 62
               2
100
AcDbLine
 10
-11.0
 20
49.25
 30
0.0
 11
11.0
 21
49.25
 31
0.0
  0
LINE
  5
4BD
100
AcDbEntity
  8
0
  6
CONTINUOUS
 62
               7
100
AcDbLine
 10
-6.25
 20
42.25
 30
0.0
 11
-6.25
 21
49.25
 31
0.0
  0
LINE
  5
4BE
100
AcDbEntity
  8
0
  6
CONTINUOUS
 62
               7
100
AcDbLine
 10
1.25
 20
40.0
 30
0.0
 11
8.5
 21
40.0
 31
0.0
  0
LINE
  5
4BF
100
AcDbEntity
  8
0
  6
CONTINUOUS
 62
               7
100
AcDbLine
 10
8.1199999999999992
 20
-6.5
 30
0.0
 11
8.5
 21
5.4000000000000004
 31
0.0
  0
LINE
  5
4C0
100
AcDbEntity
  8
0
  6
CONTINUOUS
 62
               2
100
AcDbLine
 10
7.2699999999999996
 20
-6.5
 30
0.0
 11
7.6399999999999997
 21
5.5
 31
0.0
  0
LINE
  5
4C1
100
AcDbEntity
  8
0
  6
CONTINUOUS
 62
               7
100
AcDbLine
 10
-8.1199999999999992
 20
-6.5
 30
0.0
 11
8.1199999999999992
 21
-6.5
 31
0.0
  0
LINE
  5
4C2
100
AcDbEntity
  8
0
  6
CONTINUOUS
 62
               2
100
AcDbLine
 10
-7.2699999999999996
 20
-6.5
 30
0.0
 11
-7.6399999999999997
 21
5.5
 31
0.0
  0
LINE
  5
4C3
100
AcDbEntity
  8
0
  6
CONTINUOUS
 62
               7
100
AcDbLine
 10
-8.1199999999999992
 20
-6.5
 30
0.0
 11
-8.5
 21
5.4000000000000004
 31
0.0
  0
LINE
  5
4C4
100
AcDbEntity
  8
0
  6
CONTINUOUS
 62
               7
100
AcDbLine
 10
-8.5
 20
30.0
 30
0.0
 11
8.5
 21
30.0
 31
0.0
  0
LINE
  5
4C5
100
AcDbEntity
  8
0
  6
CONTINUOUS
 62
               7
100
AcDbLine
 10
0.0
 20
29.239999999999998
 30
0.0
 11
0.0
 21
6.25
 31
0.0
  0
LINE
  5
4C6
100
AcDbEntity
  8
0
  6
CONTINUOUS
 62
               7
100
AcDbLine
 10
-8.5
 20
40.0
 30
0.0
 11
-8.5
 21
5.4000000000000004
 31
0.0
  0
LINE
  5
4C7
100
AcDbEntity
  8
0
  6
CONTINUOUS
 62
               7
100
AcDbLine
 10
8.5
 20
40.0
 30
0.0
 11
8.5
 21
5.4000000000000004
 31
0.0
  0
LINE
  5
4C8
100
AcDbEntity
  8
0
  6
CONTINUOUS
 62
               7
100
AcDbLine
 10
-8.5
 20
5.5
 30
0.0
 11
8.5
 21
5.5
 31
0.0
  0
LINE
  5
4C9
100
AcDbEntity
  8
0
  6
CENTER
 62
               2
100
AcDbLine
 10
0.0
 20
-8.9000000000000004
 30
0.0
 11
0.0
 21
61.770000000000003
 31
0.0
  0
ENDBLK
  5
4CA
100
AcDbEntity
  8
0
100
AcDbBlockEnd
  0
BLOCK
  5
4CB
100
AcDbEntity
  8
0
100
AcDbBlockBegin
  2
MS_32
 70
               0
 10
0.0
 20
0.0
 30
0.0
  3
MS_32
  1

  0
CIRCLE
  5
4CC
100
AcDbEntity
  8
0
  6
CONTINUOUS
 62
               7
100
AcDbCircle
 10
0.0
 20
49.25
 30
0.0
 40
5.0
  0
CIRCLE
  5
4CD
100
AcDbEntity
  8
0
  6
CONTINUOUS
 62
               7
100
AcDbCircle
 10
0.0
 20
49.25
 30
0.0
 40
8.3999996185302734
  0
CIRCLE
  5
4CE
100
AcDbEntity
  8
0
  6
CONTINUOUS
 62
               7
100
AcDbCircle
 10
0.0
 20
49.25
 30
0.0
 40
8.75
  0
ARC
  5
4CF
100
AcDbEntity
  8
0
  6
CONTINUOUS
 62
               7
100
AcDbCircle
 10
-4.25
 20
17.7244873046875
 30
0.0
 40
12.274751836021098
100
AcDbArc
 50
69.742541769224985
 51
110.25745823077463
  0
ARC
  5
4D0
100
AcDbEntity
  8
0
  6
CONTINUOUS
 62
               7
100
AcDbCircle
 10
4.25
 20
17.7244873046875
 30
0.0
 40
12.274751836021098
100
AcDbArc
 50
69.742541769224985
 51
110.25745823077463
  0
ARC
  5
4D1
100
AcDbEntity
  8
0
  6
CONTINUOUS
 62
               7
100
AcDbCircle
 10
4.25
 20
17.775497436523438
 30
0.0
 40
12.28411947024728
100
AcDbArc
 50
249.758666468699
 51
290.2413335312998
  0
ARC
  5
4D2
100
AcDbEntity
  8
0
  6
CONTINUOUS
 62
               7
100
AcDbCircle
 10
-4.25
 20
17.775497436523438
 30
0.0
 40
12.28411947024728
100
AcDbArc
 50
249.758666468699
 51
290.2413335312998
  0
LINE
  5
4D3
100
AcDbEntity
  8
0
  6
CONTINUOUS
 62
               7
100
AcDbLine
 10
8.5
 20
40.0
 30
0.0
 11
6.25
 21
42.25
 31
0.0
  0
LINE
  5
4D4
100
AcDbEntity
  8
0
  6
CONTINUOUS
 62
               7
100
AcDbLine
 10
-8.5
 20
40.0
 30
0.0
 11
-6.25
 21
42.25
 31
0.0
  0
LINE
  5
4D5
100
AcDbEntity
  8
0
  6
CONTINUOUS
 62
               7
100
AcDbLine
 10
-1.25
 20
35.93
 30
0.0
 11
1.25
 21
35.93
 31
0.0
  0
LINE
  5
4D6
100
AcDbEntity
  8
0
  6
CONTINUOUS
 62
               7
100
AcDbLine
 10
-1.25
 20
35.93
 30
0.0
 11
-1.25
 21
40.590000000000003
 31
0.0
  0
LINE
  5
4D7
100
AcDbEntity
  8
0
  6
CONTINUOUS
 62
               7
100
AcDbLine
 10
1.25
 20
35.93
 30
0.0
 11
1.25
 21
40.590000000000003
 31
0.0
  0
LINE
  5
4D8
100
AcDbEntity
  8
0
  6
CONTINUOUS
 62
               7
100
AcDbLine
 10
6.25
 20
40.0
 30
0.0
 11
8.5
 21
40.0
 31
0.0
  0
LINE
  5
4D9
100
AcDbEntity
  8
0
  6
CENTER
 62
               2
100
AcDbLine
 10
11.0
 20
49.25
 30
0.0
 11
-11.0
 21
49.25
 31
0.0
  0
LINE
  5
4DA
100
AcDbEntity
  8
0
  6
CONTINUOUS
 62
               7
100
AcDbLine
 10
6.25
 20
40.0
 30
0.0
 11
6.25
 21
43.119999999999997
 31
0.0
  0
LINE
  5
4DB
100
AcDbEntity
  8
0
  6
CONTINUOUS
 62
               7
100
AcDbLine
 10
-6.25
 20
40.0
 30
0.0
 11
-6.25
 21
43.119999999999997
 31
0.0
  0
LINE
  5
4DC
100
AcDbEntity
  8
0
  6
CONTINUOUS
 62
               7
100
AcDbLine
 10
-6.25
 20
40.0
 30
0.0
 11
-8.5
 21
40.0
 31
0.0
  0
LINE
  5
4DD
100
AcDbEntity
  8
0
  6
CONTINUOUS
 62
               7
100
AcDbLine
 10
8.5
 20
30.0
 30
0.0
 11
-8.5
 21
30.0
 31
0.0
  0
LINE
  5
4DE
100
AcDbEntity
  8
0
  6
CONTINUOUS
 62
               7
100
AcDbLine
 10
0.0
 20
29.239999999999998
 30
0.0
 11
0.0
 21
6.25
 31
0.0
  0
LINE
  5
4DF
100
AcDbEntity
  8
0
  6
CONTINUOUS
 62
               7
100
AcDbLine
 10
8.5
 20
40.0
 30
0.0
 11
8.5
 21
5.4000000000000004
 31
0.0
  0
LINE
  5
4E0
100
AcDbEntity
  8
0
  6
CONTINUOUS
 62
               7
100
AcDbLine
 10
-8.5
 20
40.0
 30
0.0
 11
-8.5
 21
5.4000000000000004
 31
0.0
  0
LINE
  5
4E1
100
AcDbEntity
  8
0
  6
CONTINUOUS
 62
               7
100
AcDbLine
 10
8.5
 20
5.5
 30
0.0
 11
-8.5
 21
5.5
 31
0.0
  0
LINE
  5
4E2
100
AcDbEntity
  8
0
  6
CENTER
 62
               2
100
AcDbLine
 10
0.0
 20
-8.9000000000000004
 30
0.0
 11
0.0
 21
61.590000000000003
 31
0.0
  0
LINE
  5
4E3
100
AcDbEntity
  8
0
  6
CONTINUOUS
 62
               7
100
AcDbLine
 10
8.1199999999999992
 20
-6.5
 30
0.0
 11
8.5
 21
5.4000000000000004
 31
0.0
  0
LINE
  5
4E4
100
AcDbEntity
  8
0
  6
CONTINUOUS
 62
               2
100
AcDbLine
 10
7.2699999999999996
 20
-6.5
 30
0.0
 11
7.6399999999999997
 21
5.5
 31
0.0
  0
LINE
  5
4E5
100
AcDbEntity
  8
0
  6
CONTINUOUS
 62
               7
100
AcDbLine
 10
-8.1199999999999992
 20
-6.5
 30
0.0
 11
-8.5
 21
5.4000000000000004
 31
0.0
  0
LINE
  5
4E6
100
AcDbEntity
  8
0
  6
CONTINUOUS
 62
               2
100
AcDbLine
 10
-7.2699999999999996
 20
-6.5
 30
0.0
 11
-7.6399999999999997
 21
5.5
 31
0.0
  0
LINE
  5
4E7
100
AcDbEntity
  8
0
  6
CONTINUOUS
 62
               7
100
AcDbLine
 10
-8.1199999999999992
 20
-6.5
 30
0.0
 11
8.1199999999999992
 21
-6.5
 31
0.0
  0
ENDBLK
  5
4E8
100
AcDbEntity
  8
0
100
AcDbBlockEnd
  0
ENDSEC
  0
SECTION
  2
ENTITIES
  0
MTEXT
  5
4E9
100
AcDbEntity
  8
0
  6
CONTINUOUS
 62
               7
100
AcDbMText
 10
225.15459769587085
 20
-240.25
 30
0.0
 40
11.0
 41
0.0
 71
               4
 72
               1
  1
\W1.121;\A1;KOGANEI CORP.
  7
MX_NOTE_STANDARD
  0
MTEXT
  5
4EA
100
AcDbEntity
  8
0
  6
CONTINUOUS
 62
               7
100
AcDbMText
 10
266.65303341905604
 20
240.25
 30
0.0
 40
8.5
 41
0.0
 71
               4
 72
               1
  1
\W1.273;\A1;Ver.1.0
  7
MX_NOTE_STANDARD
  0
INSERT
  5
4EB
100
AcDbEntity
  8
0
100
AcDbBlockReference
  2
MS_32
 10
314.061279296875
 20
-169.85282897949219
 30
0.0
  0
INSERT
  5
4EC
100
AcDbEntity
  8
0
100
AcDbBlockReference
  2
MS_31
 10
180.436767578125
 20
-169.85287475585937
 30
0.0
  0
INSERT
  5
4ED
100
AcDbEntity
  8
0
100
AcDbBlockReference
  2
MS_30
 10
242.24900817871094
 20
-77.426467895507813
 30
0.0
  0
INSERT
  5
4EE
100
AcDbEntity
  8
0
100
AcDbBlockReference
  2
MS_29
 10
242.24906921386719
 20
-169.85289001464844
 30
0.0
  0
INSERT
  5
4EF
100
AcDbEntity
  8
0
100
AcDbBlockReference
  2
MS_28
 10
314.061279296875
 20
56.103561401367188
 30
0.0
  0
INSERT
  5
4F0
100
AcDbEntity
  8
0
100
AcDbBlockReference
  2
MS_27
 10
180.436767578125
 20
56.103515625
 30
0.0
  0
INSERT
  5
4F1
100
AcDbEntity
  8
0
100
AcDbBlockReference
  2
MS_26
 10
242.24900817871094
 20
148.52992248535156
 30
0.0
  0
INSERT
  5
4F2
100
AcDbEntity
  8
0
100
AcDbBlockReference
  2
MS_25
 10
242.24906921386719
 20
56.103500366210938
 30
0.0
  0
INSERT
  5
4F3
100
AcDbEntity
  8
0
100
AcDbBlockReference
  2
MS_24
 10
66.812255859375
 20
-224.70564270019531
 30
0.0
  0
INSERT
  5
4F4
100
AcDbEntity
  8
0
100
AcDbBlockReference
  2
MS_23
 10
-66.812271118164062
 20
-224.7056884765625
 30
0.0
  0
INSERT
  5
4F5
100
AcDbEntity
  8
0
100
AcDbBlockReference
  2
MS_22
 10
-5.000030517578125
 20
-152.27928161621094
 30
0.0
  0
INSERT
  5
4F6
100
AcDbEntity
  8
0
100
AcDbBlockReference
  2
MS_21
 10
-4.999969482421875
 20
-224.70570373535156
 30
0.0
  0
INSERT
  5
4F7
100
AcDbEntity
  8
0
100
AcDbBlockReference
  2
MS_20
 10
-180.43678283691406
 20
-224.70564270019531
 30
0.0
  0
INSERT
  5
4F8
100
AcDbEntity
  8
0
100
AcDbBlockReference
  2
MS_19
 10
-314.061279296875
 20
-224.7056884765625
 30
0.0
  0
INSERT
  5
4F9
100
AcDbEntity
  8
0
100
AcDbBlockReference
  2
MS_18
 10
-252.24906921386719
 20
-152.27928161621094
 30
0.0
  0
INSERT
  5
4FA
100
AcDbEntity
  8
0
100
AcDbBlockReference
  2
MS_17
 10
-252.24900817871094
 20
-224.70570373535156
 30
0.0
  0
INSERT
  5
4FB
100
AcDbEntity
  8
0
100
AcDbBlockReference
  2
MS_16
 10
66.812255859375
 20
-54.999984741210938
 30
0.0
  0
INSERT
  5
4FC
100
AcDbEntity
  8
0
100
AcDbBlockReference
  2
MS_15
 10
-66.812271118164062
 20
-55.000030517578125
 30
0.0
  0
INSERT
  5
4FD
100
AcDbEntity
  8
0
100
AcDbBlockReference
  2
MS_14
 10
-5.000030517578125
 20
17.426376342773437
 30
0.0
  0
INSERT
  5
4FE
100
AcDbEntity
  8
0
100
AcDbBlockReference
  2
MS_13
 10
-4.999969482421875
 20
-55.000045776367188
 30
0.0
  0
INSERT
  5
4FF
100
AcDbEntity
  8
0
100
AcDbBlockReference
  2
MS_12
 10
-180.43678283691406
 20
-54.999984741210938
 30
0.0
  0
INSERT
  5
500
100
AcDbEntity
  8
0
100
AcDbBlockReference
  2
MS_11
 10
-314.061279296875
 20
-55.000030517578125
 30
0.0
  0
INSERT
  5
501
100
AcDbEntity
  8
0
100
AcDbBlockReference
  2
MS_10
 10
-252.24906921386719
 20
17.426376342773437
 30
0.0
  0
INSERT
  5
502
100
AcDbEntity
  8
0
100
AcDbBlockReference
  2
MS_9
 10
-252.24900817871094
 20
-55.000045776367188
 30
0.0
  0
INSERT
  5
503
100
AcDbEntity
  8
0
100
AcDbBlockReference
  2
MS_8
 10
66.812255859375
 20
114.70567321777344
 30
0.0
  0
INSERT
  5
504
100
AcDbEntity
  8
0
100
AcDbBlockReference
  2
MS_7
 10
-66.812271118164062
 20
114.70562744140625
 30
0.0
  0
INSERT
  5
505
100
AcDbEntity
  8
0
100
AcDbBlockReference
  2
MS_6
 10
-5.000030517578125
 20
177.13203430175781
 30
0.0
  0
INSERT
  5
506
100
AcDbEntity
  8
0
100
AcDbBlockReference
  2
MS_5
 10
-4.999969482421875
 20
114.70561218261719
 30
0.0
  0
INSERT
  5
507
100
AcDbEntity
  8
0
100
AcDbBlockReference
  2
MS_4
 10
-180.43678283691406
 20
114.70567321777344
 30
0.0
  0
INSERT
  5
508
100
AcDbEntity
  8
0
100
AcDbBlockReference
  2
MS_3
 10
-314.061279296875
 20
114.70562744140625
 30
0.0
  0
INSERT
  5
509
100
AcDbEntity
  8
0
100
AcDbBlockReference
  2
MS_2
 10
-252.24906921386719
 20
177.13203430175781
 30
0.0
  0
INSERT
  5
50A
100
AcDbEntity
  8
0
100
AcDbBlockReference
  2
MS_1
 10
-252.24900817871094
 20
114.70561218261719
 30
0.0
  0
MTEXT
  5
50B
100
AcDbEntity
  8
0
  6
CONTINUOUS
 62
               7
100
AcDbMText
 10
131.39046916636124
 20
219.95637512207031
 30
0.0
 40
7.0
 41
0.0
 71
               1
 72
               1
  1
\W1.085;\A1;MODEL:CS-TLL10-02
  7
MX_NOTE_STANDARD
  0
MTEXT
  5
50C
100
AcDbEntity
  8
0
  6
CONTINUOUS
 62
               7
100
AcDbMText
 10
-115.89375774596368
 20
-90.852828979492188
 30
0.0
 40
7.0
 41
0.0
 71
               1
 72
               1
  1
\W1.055;\A1;MODEL:CS-TLL8-02
  7
MX_NOTE_STANDARD
  0
MTEXT
  5
50D
100
AcDbEntity
  8
0
  6
CONTINUOUS
 62
               7
100
AcDbMText
 10
-115.89375774596368
 20
78.852828979492188
 30
0.0
 40
7.0
 41
0.0
 71
               1
 72
               1
  1
\W1.055;\A1;MODEL:CS-TLL6-02
  7
MX_NOTE_STANDARD
  0
MTEXT
  5
50E
100
AcDbEntity
  8
0
  6
CONTINUOUS
 62
               7
100
AcDbMText
 10
-363.11510819080064
 20
-90.852828979492188
 30
0.0
 40
7.0
 41
0.0
 71
               1
 72
               1
  1
\W1.079;\A1;MODEL:CS-TLL8-01
  7
MX_NOTE_STANDARD
  0
MTEXT
  5
50F
100
AcDbEntity
  8
0
  6
CONTINUOUS
 62
               7
100
AcDbMText
 10
-363.11510819080064
 20
78.852828979492188
 30
0.0
 40
7.0
 41
0.0
 71
               1
 72
               1
  1
\W1.079;\A1;MODEL:CS-TLL6-01
  7
MX_NOTE_STANDARD
  0
MTEXT
  5
510
100
AcDbEntity
  8
0
  6
CONTINUOUS
 62
               7
100
AcDbMText
 10
-363.15614385269089
 20
219.95639038085937
 30
0.0
 40
7.0
 41
0.0
 71
               1
 72
               1
  1
\W1.043;\A1;MODEL:CS-TLL4-M5
  7
MX_NOTE_STANDARD
  0
MTEXT
  5
511
100
AcDbEntity
  8
0
  6
CONTINUOUS
 62
               7
100
AcDbMText
 10
-115.86610001208972
 20
219.95639038085937
 30
0.0
 40
7.0
 41
0.0
 71
               1
 72
               1
  1
\W1.079;\A1;MODEL:CS-TLL4-01
  7
MX_NOTE_STANDARD
  0
MTEXT
  5
512
100
AcDbEntity
  8
0
  6
CONTINUOUS
 62
               7
100
AcDbMText
 10
131.39046916636124
 20
-6.0000152587890625
 30
0.0
 40
7.0
 41
0.0
 71
               1
 72
               1
  1
\W1.085;\A1;MODEL:CS-TLL10-03
  7
MX_NOTE_STANDARD
  0
MTEXT
  5
513
100
AcDbEntity
  8
0
  6
CONTINUOUS
 62
               7
100
AcDbMText
 10
-368.22010289431017
 20
245.25746154785156
 30
0.0
 40
10.0
 41
0.0
 71
               1
 72
               1
  1
\W0.829;\A1;CS-QUICK FITTING,TLL
  7
MX_NOTE_STANDARD
  0
LINE
  5
514
100
AcDbEntity
  8
0
  6
CONTINUOUS
 62
               7
100
AcDbLine
 10
-123.62
 20
254.55000000000001
 30
0.0
 11
-123.62
 21
-254.55000000000001
 31
0.0
  0
LINE
  5
515
100
AcDbEntity
  8
0
  6
CONTINUOUS
 62
               7
100
AcDbLine
 10
123.62
 20
254.55000000000001
 30
0.0
 11
123.62
 21
-254.55000000000001
 31
0.0
  0
LINE
  5
516
100
AcDbEntity
  8
0
  6
CONTINUOUS
 62
               7
100
AcDbLine
 10
-370.87
 20
84.849999999999994
 30
0.0
 11
123.62
 21
84.849999999999994
 31
0.0
  0
LINE
  5
517
100
AcDbEntity
  8
0
  6
CONTINUOUS
 62
               7
100
AcDbLine
 10
123.62
 20
0.0
 30
0.0
 11
370.87
 21
0.0
 31
0.0
  0
LINE
  5
518
100
AcDbEntity
  8
0
  6
CONTINUOUS
 62
               7
100
AcDbLine
 10
-370.87
 20
-84.849999999999994
 30
0.0
 11
123.62
 21
-84.849999999999994
 31
0.0
  0
LINE
  5
519
100
AcDbEntity
  8
0
  6
CONTINUOUS
 62
               7
100
AcDbLine
 10
218.33000000000001
 20
225.94999999999999
 30
0.0
 11
370.87
 21
225.94999999999999
 31
0.0
  0
LINE
  5
51A
100
AcDbEntity
  8
0
  6
CONTINUOUS
 62
               7
100
AcDbLine
 10
218.33000000000001
 20
254.55000000000001
 30
0.0
 11
218.33000000000001
 21
225.94999999999999
 31
0.0
  0
LINE
  5
51B
100
AcDbEntity
  8
0
  6
CONTINUOUS
 62
               7
100
AcDbLine
 10
218.33000000000001
 20
-225.94999999999999
 30
0.0
 11
218.33000000000001
 21
-254.55000000000001
 31
0.0
  0
LINE
  5
51C
100
AcDbEntity
  8
0
  6
CONTINUOUS
 62
               7
100
AcDbLine
 10
-370.87
 20
-254.55000000000001
 30
0.0
 11
-370.87
 21
254.55000000000001
 31
0.0
  0
LINE
  5
51D
100
AcDbEntity
  8
0
  6
CONTINUOUS
 62
               7
100
AcDbLine
 10
370.87
 20
254.55000000000001
 30
0.0
 11
370.87
 21
-254.55000000000001
 31
0.0
  0
LINE
  5
51E
100
AcDbEntity
  8
0
  6
CONTINUOUS
 62
               7
100
AcDbLine
 10
-370.87
 20
-254.55000000000001
 30
0.0
 11
370.87
 21
-254.55000000000001
 31
0.0
  0
LINE
  5
51F
100
AcDbEntity
  8
0
  6
CONTINUOUS
 62
               7
100
AcDbLine
 10
-370.87
 20
254.55000000000001
 30
0.0
 11
370.87
 21
254.55000000000001
 31
0.0
  0
LINE
  5
520
100
AcDbEntity
  8
0
  6
CONTINUOUS
 62
               7
100
AcDbLine
 10
-370.87
 20
225.94999999999999
 30
0.0
 11
-218.33000000000001
 21
225.94999999999999
 31
0.0
  0
LINE
  5
521
100
AcDbEntity
  8
0
  6
CONTINUOUS
 62
               7
100
AcDbLine
 10
-218.33000000000001
 20
225.94999999999999
 30
0.0
 11
-218.33000000000001
 21
254.55000000000001
 31
0.0
  0
LINE
  5
522
100
AcDbEntity
  8
0
  6
CONTINUOUS
 62
               7
100
AcDbLine
 10
218.33000000000001
 20
-225.94999999999999
 30
0.0
 11
370.87
 21
-225.94999999999999
 31
0.0
  0
ENDSEC
  0
SECTION
  2
OBJECTS
  0
DICTIONARY
  5
19
100
AcDbDictionary
  3
ACAD_GROUP
350
1A
  3
ACAD_MLINESTYLE
350
1B
  0
DICTIONARY
  5
1A
102
{ACAD_REACTORS
330
19
102
}
100
AcDbDictionary
  0
DICTIONARY
  5
1B
102
{ACAD_REACTORS
330
19
102
}
100
AcDbDictionary
  3
STANDARD
350
1C
  0
MLINESTYLE
  5
1C
102
{ACAD_REACTORS
330
1B
102
}
100
AcDbMlineStyle
  2
Standard
 70
               0
  3

 62
               0
 51
90.0
 52
90.0
 71
               2
 49
0.5
 62
             256
  6
ByLayer
 49
-0.5
 62
             256
  6
ByLayer
  0
ENDSEC
  0
EOF
