  0
SECTION
  2
HEADER
  9
$ACADVER
  1
AC1012
  9
$DWGCODEPAGE
  3
dos932
  9
$INSBASE
 10
0.0
 20
0.0
 30
0.0
  9
$EXTMIN
 10
-281.25
 20
-195.0
 30
0.0
  9
$EXTMAX
 10
282.10000000000002
 20
195.5
 30
0.0
  9
$LIMMIN
 10
-281.25
 20
-195.0
  9
$LIMMAX
 10
282.10000000000002
 20
195.5
  9
$ORTHOMODE
 70
               0
  9
$REGENMODE
 70
               1
  9
$FILLMODE
 70
               1
  9
$QTEXTMODE
 70
               0
  9
$MIRRTEXT
 70
               1
  9
$DRAGMODE
 70
               2
  9
$LTSCALE
 40
1.0
  9
$OSMODE
 70
               0
  9
$ATTMODE
 70
               1
  9
$TEXTSIZE
 40
3.2000000476837158
  9
$TRACEWID
 40
0.05
  9
$TEXTSTYLE
  7
MX_NOTE_STANDARD
  9
$CLAYER
  8
0
  9
$CELTYPE
  6
CONTINUOUS
  9
$CECOLOR
 62
             256
  9
$CELTSCALE
 40
1.0
  9
$DELOBJ
 70
               1
  9
$DISPSILH
 70
               0
  9
$DIMSCALE
 40
1.0
  9
$DIMASZ
 40
2.5
  9
$DIMEXO
 40
1.5
  9
$DIMDLI
 40
3.75
  9
$DIMRND
 40
0.0
  9
$DIMDLE
 40
0.0
  9
$DIMEXE
 40
1.5
  9
$DIMTP
 40
0.0
  9
$DIMTM
 40
0.0
  9
$DIMTXT
 40
3.2000000476837158
  9
$DIMCEN
 40
2.5
  9
$DIMTSZ
 40
0.0
  9
$DIMTOL
 70
               0
  9
$DIMLIM
 70
               0
  9
$DIMTIH
 70
               0
  9
$DIMTOH
 70
               0
  9
$DIMSE1
 70
               0
  9
$DIMSE2
 70
               0
  9
$DIMTAD
 70
               1
  9
$DIMZIN
 70
               8
  9
$DIMBLK
  1

  9
$DIMASO
 70
               1
  9
$DIMSHO
 70
               1
  9
$DIMPOST
  1

  9
$DIMAPOST
  1

  9
$DIMALT
 70
               0
  9
$DIMALTD
 70
               4
  9
$DIMALTF
 40
0.0394
  9
$DIMLFAC
 40
1.0
  9
$DIMTOFL
 70
               1
  9
$DIMTVP
 40
0.0
  9
$DIMTIX
 70
               0
  9
$DIMSOXD
 70
               0
  9
$DIMSAH
 70
               0
  9
$DIMBLK1
  1

  9
$DIMBLK2
  1

  9
$DIMSTYLE
  2
MXDIMSTYLE
  9
$DIMCLRD
 70
               0
  9
$DIMCLRE
 70
               0
  9
$DIMCLRT
 70
               0
  9
$DIMTFAC
 40
1.0
  9
$DIMGAP
 40
1.0
  9
$DIMJUST
 70
               0
  9
$DIMSD1
 70
               0
  9
$DIMSD2
 70
               0
  9
$DIMTOLJ
 70
               1
  9
$DIMTZIN
 70
               0
  9
$DIMALTZ
 70
               0
  9
$DIMALTTZ
 70
               0
  9
$DIMFIT
 70
               3
  9
$DIMUPT
 70
               1
  9
$DIMUNIT
 70
               2
  9
$DIMDEC
 70
               4
  9
$DIMTDEC
 70
               4
  9
$DIMALTU
 70
               8
  9
$DIMALTTD
 70
               4
  9
$DIMTXSTY
  7
MX_NOTE_STANDARD
  9
$DIMAUNIT
 70
               0
  9
$LUNITS
 70
               2
  9
$LUPREC
 70
               4
  9
$SKETCHINC
 40
0.1
  9
$FILLETRAD
 40
0.0
  9
$AUNITS
 70
               0
  9
$AUPREC
 70
               0
  9
$MENU
  1
acad
  9
$ELEVATION
 40
0.0
  9
$PELEVATION
 40
0.0
  9
$THICKNESS
 40
0.0
  9
$LIMCHECK
 70
               0
  9
$BLIPMODE
 70
               1
  9
$CHAMFERA
 40
0.0
  9
$CHAMFERB
 40
0.0
  9
$CHAMFERC
 40
0.0
  9
$CHAMFERD
 40
0.0
  9
$SKPOLY
 70
               0
  9
$TDCREATE
 40
2452220.697662037
  9
$TDUPDATE
 40
2452220.697662037
  9
$TDINDWG
 40
0.0000000000
  9
$TDUSRTIMER
 40
0.0000000000
  9
$USRTIMER
 70
               1
  9
$ANGBASE
 50
0.0
  9
$ANGDIR
 70
               0
  9
$PDMODE
 70
               0
  9
$PDSIZE
 40
0.0
  9
$PLINEWID
 40
0.0
  9
$COORDS
 70
               1
  9
$SPLFRAME
 70
               0
  9
$SPLINETYPE
 70
               6
  9
$SPLINESEGS
 70
               8
  9
$ATTDIA
 70
               0
  9
$ATTREQ
 70
               1
  9
$HANDLING
 70
               1
  9
$HANDSEED
  5
38D
  9
$SURFTAB1
 70
               6
  9
$SURFTAB2
 70
               6
  9
$SURFTYPE
 70
               6
  9
$SURFU
 70
               6
  9
$SURFV
 70
               6
  9
$UCSNAME
  2

  9
$UCSORG
 10
0.0
 20
0.0
 30
0.0
  9
$UCSXDIR
 10
1.0
 20
0.0
 30
0.0
  9
$UCSYDIR
 10
0.0
 20
1.0
 30
0.0
  9
$PUCSNAME
  2

  9
$PUCSORG
 10
0.0
 20
0.0
 30
0.0
  9
$PUCSXDIR
 10
1.0
 20
0.0
 30
0.0
  9
$PUCSYDIR
 10
0.0
 20
1.0
 30
0.0
  9
$USERI1
 70
               0
  9
$USERI2
 70
               0
  9
$USERI3
 70
               0
  9
$USERI4
 70
               0
  9
$USERI5
 70
               0
  9
$USERR1
 40
0.0
  9
$USERR2
 40
0.0
  9
$USERR3
 40
0.0
  9
$USERR4
 40
0.0
  9
$USERR5
 40
0.0
  9
$WORLDVIEW
 70
               1
  9
$SHADEDGE
 70
               3
  9
$SHADEDIF
 70
              70
  9
$TILEMODE
 70
               1
  9
$MAXACTVP
 70
              16
  9
$PINSBASE
 10
0.0
 20
0.0
 30
0.0
  9
$PLIMCHECK
 70
               0
  9
$PEXTMIN
 10
1.0000000000000000E+20
 20
1.0000000000000000E+20
 30
1.0000000000000000E+20
  9
$PEXTMAX
 10
-1.0000000000000000E+20
 20
-1.0000000000000000E+20
 30
-1.0000000000000000E+20
  9
$PLIMMIN
 10
0.0
 20
0.0
  9
$PLIMMAX
 10
12.0
 20
9.0
  9
$UNITMODE
 70
               0
  9
$VISRETAIN
 70
               0
  9
$PLINEGEN
 70
               1
  9
$PSLTSCALE
 70
               0
  9
$TREEDEPTH
 70
            3020
  9
$PICKSTYLE
 70
               1
  9
$CMLSTYLE
  2
Standard
  9
$CMLJUST
 70
               0
  9
$CMLSCALE
 40
1.0
  9
$SAVEIMAGES
 70
               0
  0
ENDSEC
  0
SECTION
  2
CLASSES
  0
CLASS
  1
LWPOLYLINE
  2
AcDbPolyline
  3
"AutoCAD"
 90
        0
280
               0
281
               1
  0
CLASS
  1
IMAGE
  2
AcDbRasterImage
  3
ISM
 90
      127
280
               0
281
               1
  0
CLASS
  1
OLE2FRAME
  2
AcDbOle2Frame
  3
""
 90
        0
280
               0
281
               1
  0
CLASS
  1
HATCH
  2
AcDbHatch
  3
"ACAD_SEDONA"
 90
        0
280
               0
281
               1
  0
CLASS
  1
DICTIONARYVAR
  2
AcDbDictionaryVar
  3
"AutoCAD"
 90
        0
280
               0
281
               0
  0
CLASS
  1
RASTERVARIABLES
  2
AcDbRasterVariables
  3
ISM
 90
        0
280
               0
281
               0
  0
CLASS
  1
IMAGEDEF
  2
AcDbRasterImageDef
  3
ISM
 90
        0
280
               0
281
               0
  0
CLASS
  1
IMAGEDEF_REACTOR
  2
AcDbRasterImageDefReactor
  3
ISM
 90
        1
280
               0
281
               0
  0
CLASS
  1
IDBUFFER
  2
AcDbIdBuffer
  3
"Acad"
 90
        0
280
               0
281
               0
  0
CLASS
  1
SPATIAL_FILTER
  2
AcDbSpatialFilter
  3
"Acad"
 90
        0
280
               0
281
               0
  0
CLASS
  1
XRECORD
  2
AcDbXrecord
  3
"<Built In>"
 90
        0
280
               0
281
               0
  0
CLASS
  1
SORTENTSTABLE
  2
AcDbSortentsTable
  3
"AutoCAD"
 90
        0
280
               0
281
               0
  0
CLASS
  1
LAYER_INDEX
  2
AcDbLayerIndex
  3
"Acad"
 90
        0
280
               0
281
               0
  0
CLASS
  1
SPATIAL_INDEX
  2
AcDbSpatialIndex
  3
"Acad"
 90
        0
280
               0
281
               0
  0
CLASS
  1
OBJECT_PTR
  2
CAseDLPNTableRecord
  3
"ASE-LPNTableRecord"
 90
        1
280
               0
281
               0
  0
CLASS
  1
LAYOUT
  2
AcDbLayout
  3
"AutoCAD 2000"
 90
        1
280
               0
281
               0
  0
CLASS
  1
PLOTSETTINGS
  2
AcDbPlotSettings
  3
"AutoCAD 2000"
 90
        1
280
               0
281
               0
  0
CLASS
  1
ACDBDICTIONARYWDFLT
  2
AcDbDictionaryWithDefault
  3
"AutoCAD 2000"
 90
        1
280
               0
281
               0
  0
CLASS
  1
ACDBPLACEHOLDER
  2
AcDbPlaceHolder
  3
"AutoCAD 2000"
 90
        1
280
               0
281
               0
  0
CLASS
  1
VBA_PROJECT
  2
AcDbVbaProject
  3
"acadvba"
 90
        1
280
               0
281
               0
  0
CLASS
  1
WIPEOUT
  2
AcDbWipeout
  3
WipeOut|AutoCAD Express Tool|expresstools@autodesk.com
 90
      127
280
               0
281
               1
  0
CLASS
  1
WIPEOUTVARIABLES
  2
AcDbWipeoutVariables
  3
WipeOut|AutoCAD Express Tool|expresstools@autodesk.com
 90
        0
280
               0
281
               0
  0
CLASS
  1
RTEXT
  2
RText
  3
RText|AutoCAD Express Tool|expresstools@autodesk.com
 90
        0
280
               0
281
               1
  0
CLASS
  1
ARCALIGNEDTEXT
  2
AcDbArcAlignedText
  3
ATEXT|AutoCAD Express Tool|expresstools@autodesk.com
 90
        0
280
               0
281
               1
  0
ENDSEC
  0
SECTION
  2
TABLES
  0
TABLE
  2
VPORT
  5
7
100
AcDbSymbolTable
 70
               1
  0
VPORT
  5
15
100
AcDbSymbolTableRecord
100
AcDbViewportTableRecord
  2
*ACTIVE
 70
               0
 10
0.0
 20
0.0
 11
1.0
 21
1.0
 12
0.4250000000000114
 22
0.25
 13
0.0
 23
0.0
 14
1.0
 24
1.0
 15
0.0
 25
0.0
 16
0.0
 26
0.0
 36
1.0
 17
0.0
 27
0.0
 37
0.0
 40
394.40500000000003
 41
1.7320508075688772
 42
50.0
 43
0.0
 44
0.0
 50
0.0
 51
0.0
 71
               0
 72
             100
 73
               1
 74
               1
 75
               0
 76
               0
 77
               0
 78
               0
  0
ENDTAB
  0
TABLE
  2
LTYPE
  5
4
100
AcDbSymbolTable
 70
               5
  0
LTYPE
  5
11
100
AcDbSymbolTableRecord
100
AcDbLinetypeTableRecord
  2
BYBLOCK
 70
              64
  3

 72
              65
 73
               0
 40
0.0
  0
LTYPE
  5
12
100
AcDbSymbolTableRecord
100
AcDbLinetypeTableRecord
  2
BYLAYER
 70
              64
  3

 72
              65
 73
               0
 40
0.0
  0
LTYPE
  5
13
100
AcDbSymbolTableRecord
100
AcDbLinetypeTableRecord
  2
CONTINUOUS
 70
              64
  3
Solid line
 72
              65
 73
               0
 40
0.0
  0
LTYPE
  5
45
100
AcDbSymbolTableRecord
100
AcDbLinetypeTableRecord
  2
CENTER
 70
              64
  3
Center ____ _ ____ _ ____ _ ____ _ ____ _ ____
 72
              65
 73
               4
 40
50.800000000000004
 49
31.75
 74
               0
 49
-6.3499999999999996
 74
               0
 49
6.3499999999999996
 74
               0
 49
-6.3499999999999996
 74
               0
  0
LTYPE
  5
47
100
AcDbSymbolTableRecord
100
AcDbLinetypeTableRecord
  2
DASHED
 70
              64
  3
Dashed __ __ __ __ __ __ __ __ __ __ __ __ __ _
 72
              65
 73
               2
 40
19.049999999999997
 49
12.699999999999999
 74
               0
 49
-6.3499999999999996
 74
               0
  0
ENDTAB
  0
TABLE
  2
LAYER
  5
2
100
AcDbSymbolTable
 70
               2
  0
LAYER
  5
14
100
AcDbSymbolTableRecord
100
AcDbLayerTableRecord
  2
0
 70
               0
 62
               7
  6
CONTINUOUS
  0
LAYER
  5
1D
100
AcDbSymbolTableRecord
100
AcDbLayerTableRecord
  2
DEFPOINTS
 70
               0
 62
               7
  6
CONTINUOUS
  0
ENDTAB
  0
TABLE
  2
STYLE
  5
3
100
AcDbSymbolTable
 70
               1
  0
STYLE
  5
17
100
AcDbSymbolTableRecord
100
AcDbTextStyleTableRecord
  2
MX_NOTE_STANDARD
 70
               0
 40
3.2000000476837158
 41
1.0
 50
0.0
 71
               0
 42
3.2000000476837158
  3
txt.shx
  4
extfont.shx
  0
ENDTAB
  0
TABLE
  2
VIEW
  5
5
100
AcDbSymbolTable
 70
               0
  0
ENDTAB
  0
TABLE
  2
UCS
  5
6
100
AcDbSymbolTable
 70
               0
  0
ENDTAB
  0
TABLE
  2
APPID
  5
8
100
AcDbSymbolTable
 70
               1
  0
APPID
  5
16
100
AcDbSymbolTableRecord
100
AcDbRegAppTableRecord
  2
ACAD
 70
               0
  0
ENDTAB
  0
TABLE
  2
DIMSTYLE
  5
9
100
AcDbSymbolTable
 70
               1
  0
DIMSTYLE
105
18
100
AcDbSymbolTableRecord
100
AcDbDimStyleTableRecord
  2
MXDIMSTYLE
 70
               0
  3

  4

  5

  6

  7

 40
1.0
 41
2.5
 42
1.5
 43
3.75
 44
1.5
 45
0.0
 46
0.0
 47
0.0
 48
0.0
 71
               0
 72
               0
 73
               0
 74
               0
 75
               0
 76
               0
 77
               1
 78
               8
140
3.2000000476837158
141
2.5
142
0.0
143
0.0394
144
1.0
145
0.0
146
1.0
147
1.0
170
               0
171
               4
172
               1
173
               0
174
               0
175
               0
176
               0
177
               0
178
               0
270
               2
271
               4
272
               4
273
               8
274
               4
275
               0
280
               0
281
               0
282
               0
283
               1
284
               0
285
               0
286
               0
287
               3
288
               1
340
17
  0
ENDTAB
  0
TABLE
  2
BLOCK_RECORD
  5
1
100
AcDbSymbolTable
 70
              21
  0
BLOCK_RECORD
  5
A
100
AcDbSymbolTableRecord
100
AcDbBlockTableRecord
  2
*MODEL_SPACE
  0
BLOCK_RECORD
  5
B
100
AcDbSymbolTableRecord
100
AcDbBlockTableRecord
  2
*PAPER_SPACE
  0
BLOCK_RECORD
  5
1E
100
AcDbSymbolTableRecord
100
AcDbBlockTableRecord
  2
MS_1
  0
BLOCK_RECORD
  5
1F
100
AcDbSymbolTableRecord
100
AcDbBlockTableRecord
  2
MS_2
  0
BLOCK_RECORD
  5
20
100
AcDbSymbolTableRecord
100
AcDbBlockTableRecord
  2
MS_3
  0
BLOCK_RECORD
  5
21
100
AcDbSymbolTableRecord
100
AcDbBlockTableRecord
  2
MS_4
  0
BLOCK_RECORD
  5
22
100
AcDbSymbolTableRecord
100
AcDbBlockTableRecord
  2
MS_5
  0
BLOCK_RECORD
  5
23
100
AcDbSymbolTableRecord
100
AcDbBlockTableRecord
  2
MS_6
  0
BLOCK_RECORD
  5
24
100
AcDbSymbolTableRecord
100
AcDbBlockTableRecord
  2
MS_7
  0
BLOCK_RECORD
  5
25
100
AcDbSymbolTableRecord
100
AcDbBlockTableRecord
  2
MS_8
  0
BLOCK_RECORD
  5
26
100
AcDbSymbolTableRecord
100
AcDbBlockTableRecord
  2
MS_9
  0
BLOCK_RECORD
  5
27
100
AcDbSymbolTableRecord
100
AcDbBlockTableRecord
  2
MS_10
  0
BLOCK_RECORD
  5
28
100
AcDbSymbolTableRecord
100
AcDbBlockTableRecord
  2
MS_11
  0
BLOCK_RECORD
  5
29
100
AcDbSymbolTableRecord
100
AcDbBlockTableRecord
  2
MS_12
  0
BLOCK_RECORD
  5
2A
100
AcDbSymbolTableRecord
100
AcDbBlockTableRecord
  2
MS_13
  0
BLOCK_RECORD
  5
2B
100
AcDbSymbolTableRecord
100
AcDbBlockTableRecord
  2
MS_14
  0
BLOCK_RECORD
  5
2C
100
AcDbSymbolTableRecord
100
AcDbBlockTableRecord
  2
MS_15
  0
BLOCK_RECORD
  5
2D
100
AcDbSymbolTableRecord
100
AcDbBlockTableRecord
  2
MS_16
  0
BLOCK_RECORD
  5
2E
100
AcDbSymbolTableRecord
100
AcDbBlockTableRecord
  2
MS_17
  0
BLOCK_RECORD
  5
2F
100
AcDbSymbolTableRecord
100
AcDbBlockTableRecord
  2
MS_18
  0
BLOCK_RECORD
  5
30
100
AcDbSymbolTableRecord
100
AcDbBlockTableRecord
  2
MS_19
  0
BLOCK_RECORD
  5
31
100
AcDbSymbolTableRecord
100
AcDbBlockTableRecord
  2
MS_20
  0
BLOCK_RECORD
  5
32
100
AcDbSymbolTableRecord
100
AcDbBlockTableRecord
  2
MS_21
  0
ENDTAB
  0
ENDSEC
  0
SECTION
  2
BLOCKS
  0
BLOCK
  5
D
100
AcDbEntity
  8
0
100
AcDbBlockBegin
  2
*MODEL_SPACE
 70
               0
 10
0.0
 20
0.0
 30
0.0
  3
*MODEL_SPACE
  1

  0
ENDBLK
  5
E
100
AcDbEntity
  8
0
100
AcDbBlockEnd
  0
BLOCK
  5
F
100
AcDbEntity
 67
               1
  8
0
100
AcDbBlockBegin
  2
*PAPER_SPACE
 70
               0
 10
0.0
 20
0.0
 30
0.0
  3
*PAPER_SPACE
  1

  0
ENDBLK
  5
10
100
AcDbEntity
 67
               1
  8
0
100
AcDbBlockEnd
  0
BLOCK
  5
33
100
AcDbEntity
  8
0
100
AcDbBlockBegin
  2
MS_1
 70
               0
 10
0.0
 20
0.0
 30
0.0
  3
MS_1
  1

  0
LINE
  5
34
100
AcDbEntity
  8
0
  6
CONTINUOUS
 62
               7
100
AcDbLine
 10
7.7000000000000002
 20
12.800000000000001
 30
0.0
 11
12.0
 21
12.800000000000001
 31
0.0
  0
LINE
  5
35
100
AcDbEntity
  8
0
  6
CONTINUOUS
 62
               7
100
AcDbLine
 10
7.7000000000000002
 20
9.8000000000000007
 30
0.0
 11
12.050000000000001
 21
9.8000000000000007
 31
0.0
  0
LINE
  5
36
100
AcDbEntity
  8
0
  6
CONTINUOUS
 62
               7
100
AcDbLine
 10
22.800000000000001
 20
6.4000000000000004
 30
0.0
 11
23.800000000000001
 21
6.4000000000000004
 31
0.0
  0
LINE
  5
37
100
AcDbEntity
  8
0
  6
CONTINUOUS
 62
               7
100
AcDbLine
 10
23.800000000000001
 20
18.199999999999999
 30
0.0
 11
23.800000000000001
 21
4.4000000000000004
 31
0.0
  0
LINE
  5
38
100
AcDbEntity
  8
0
  6
CONTINUOUS
 62
               7
100
AcDbLine
 10
25.800000000000001
 20
18.199999999999999
 30
0.0
 11
25.800000000000001
 21
4.4000000000000004
 31
0.0
  0
LINE
  5
39
100
AcDbEntity
  8
0
  6
CONTINUOUS
 62
               7
100
AcDbLine
 10
22.800000000000001
 20
18.550000000000001
 30
0.0
 11
22.800000000000001
 21
4.0499999999999998
 31
0.0
  0
LINE
  5
3A
100
AcDbEntity
  8
0
  6
CONTINUOUS
 62
               7
100
AcDbLine
 10
22.800000000000001
 20
16.199999999999999
 30
0.0
 11
23.800000000000001
 21
16.199999999999999
 31
0.0
  0
LINE
  5
3B
100
AcDbEntity
  8
0
  6
CONTINUOUS
 62
               7
100
AcDbLine
 10
23.800000000000001
 20
4.4000000000000004
 30
0.0
 11
25.800000000000001
 21
4.4000000000000004
 31
0.0
  0
LINE
  5
3C
100
AcDbEntity
  8
0
  6
CONTINUOUS
 62
               7
100
AcDbLine
 10
23.800000000000001
 20
18.199999999999999
 30
0.0
 11
25.800000000000001
 21
18.199999999999999
 31
0.0
  0
LINE
  5
3D
100
AcDbEntity
  8
0
  6
CONTINUOUS
 62
               2
100
AcDbLine
 10
4.4000000000000004
 20
4.0499999999999998
 30
0.0
 11
4.0999999999999996
 21
-3.9399999999999999
 31
0.0
  0
LINE
  5
3E
100
AcDbEntity
  8
0
  6
CONTINUOUS
 62
               2
100
AcDbLine
 10
-4.4000000000000004
 20
4.0499999999999998
 30
0.0
 11
-4.0999999999999996
 21
-3.9399999999999999
 31
0.0
  0
LINE
  5
3F
100
AcDbEntity
  8
0
  6
CONTINUOUS
 62
               7
100
AcDbLine
 10
5.0
 20
4.0300000000000002
 30
0.0
 11
4.7000000000000002
 21
-3.9700000000000002
 31
0.0
  0
LINE
  5
40
100
AcDbEntity
  8
0
  6
CONTINUOUS
 62
               7
100
AcDbLine
 10
-5.0
 20
4.0300000000000002
 30
0.0
 11
-4.7000000000000002
 21
-3.9700000000000002
 31
0.0
  0
LINE
  5
41
100
AcDbEntity
  8
0
  6
CONTINUOUS
 62
               7
100
AcDbLine
 10
-4.7000000000000002
 20
-3.9700000000000002
 30
0.0
 11
4.7000000000000002
 21
-3.9700000000000002
 31
0.0
  0
LINE
  5
42
100
AcDbEntity
  8
0
  6
CONTINUOUS
 62
               7
100
AcDbLine
 10
5.5999999999999996
 20
5.0300000000000002
 30
0.0
 11
5.5999999999999996
 21
4.0300000000000002
 31
0.0
  0
LINE
  5
43
100
AcDbEntity
  8
0
  6
CONTINUOUS
 62
               7
100
AcDbLine
 10
-5.5999999999999996
 20
5.0300000000000002
 30
0.0
 11
-5.5999999999999996
 21
4.0300000000000002
 31
0.0
  0
LINE
  5
44
100
AcDbEntity
  8
0
  6
CONTINUOUS
 62
               7
100
AcDbLine
 10
-5.5999999999999996
 20
4.0300000000000002
 30
0.0
 11
5.5999999999999996
 21
4.0300000000000002
 31
0.0
  0
LINE
  5
46
100
AcDbEntity
  8
0
  6
CENTER
 62
               2
100
AcDbLine
 10
-8.3800000000000008
 20
0.0
 30
0.0
 11
7.7800000000000002
 21
0.0
 31
0.0
  0
LINE
  5
48
100
AcDbEntity
  8
0
  6
DASHED
 62
               2
100
AcDbLine
 10
4.25
 20
28.530000000000001
 30
0.0
 11
4.0
 21
20.649999999999999
 31
0.0
  0
LINE
  5
49
100
AcDbEntity
  8
0
  6
DASHED
 62
               2
100
AcDbLine
 10
-4.25
 20
28.530000000000001
 30
0.0
 11
-4.0
 21
20.539999999999999
 31
0.0
  0
LINE
  5
4A
100
AcDbEntity
  8
0
  6
DASHED
 62
               2
100
AcDbLine
 10
4.8499999999999996
 20
28.530000000000001
 30
0.0
 11
4.5999999999999996
 21
20.629999999999999
 31
0.0
  0
LINE
  5
4B
100
AcDbEntity
  8
0
  6
DASHED
 62
               2
100
AcDbLine
 10
-4.8499999999999996
 20
28.530000000000001
 30
0.0
 11
-4.5999999999999996
 21
20.530000000000001
 31
0.0
  0
LINE
  5
4C
100
AcDbEntity
  8
0
  6
DASHED
 62
               2
100
AcDbLine
 10
-4.5999999999999996
 20
20.530000000000001
 30
0.0
 11
4.5999999999999996
 21
20.530000000000001
 31
0.0
  0
LINE
  5
4D
100
AcDbEntity
  8
0
  6
CONTINUOUS
 62
               7
100
AcDbLine
 10
4.0
 20
28.530000000000001
 30
0.0
 11
4.0
 21
19.030000000000001
 31
0.0
  0
LINE
  5
4E
100
AcDbEntity
  8
0
  6
CONTINUOUS
 62
               7
100
AcDbLine
 10
-4.0
 20
28.530000000000001
 30
0.0
 11
-4.0
 21
19.030000000000001
 31
0.0
  0
LINE
  5
4F
100
AcDbEntity
  8
0
  6
CONTINUOUS
 62
               7
100
AcDbLine
 10
-8.0700000000000003
 20
28.530000000000001
 30
0.0
 11
-8.0700000000000003
 21
19.030000000000001
 31
0.0
  0
LINE
  5
50
100
AcDbEntity
  8
0
  6
CONTINUOUS
 62
               7
100
AcDbLine
 10
8.0700000000000003
 20
28.530000000000001
 30
0.0
 11
8.0700000000000003
 21
19.030000000000001
 31
0.0
  0
LINE
  5
51
100
AcDbEntity
  8
0
  6
CONTINUOUS
 62
               7
100
AcDbLine
 10
-8.0700000000000003
 20
28.530000000000001
 30
0.0
 11
8.0700000000000003
 21
28.530000000000001
 31
0.0
  0
LINE
  5
52
100
AcDbEntity
  8
0
  6
CONTINUOUS
 62
               7
100
AcDbLine
 10
12.0
 20
4.0499999999999998
 30
0.0
 11
22.800000000000001
 21
4.0499999999999998
 31
0.0
  0
LINE
  5
53
100
AcDbEntity
  8
0
  6
CONTINUOUS
 62
               7
100
AcDbLine
 10
10.25
 20
16.800000000000001
 30
0.0
 11
12.0
 21
18.550000000000001
 31
0.0
  0
LINE
  5
54
100
AcDbEntity
  8
0
  6
CONTINUOUS
 62
               7
100
AcDbLine
 10
10.25
 20
5.7999999999999998
 30
0.0
 11
12.0
 21
4.0499999999999998
 31
0.0
  0
LINE
  5
55
100
AcDbEntity
  8
0
  6
CONTINUOUS
 62
               7
100
AcDbLine
 10
7.7000000000000002
 20
5.7999999999999998
 30
0.0
 11
10.25
 21
5.7999999999999998
 31
0.0
  0
LINE
  5
56
100
AcDbEntity
  8
0
  6
CONTINUOUS
 62
               7
100
AcDbLine
 10
7.7000000000000002
 20
16.800000000000001
 30
0.0
 11
10.25
 21
16.800000000000001
 31
0.0
  0
LINE
  5
57
100
AcDbEntity
  8
0
  6
CONTINUOUS
 62
               7
100
AcDbLine
 10
10.25
 20
16.800000000000001
 30
0.0
 11
10.25
 21
12.800000000000001
 31
0.0
  0
LINE
  5
58
100
AcDbEntity
  8
0
  6
CONTINUOUS
 62
               7
100
AcDbLine
 10
12.0
 20
18.550000000000001
 30
0.0
 11
12.0
 21
12.800000000000001
 31
0.0
  0
LINE
  5
59
100
AcDbEntity
  8
0
  6
CONTINUOUS
 62
               7
100
AcDbLine
 10
12.0
 20
18.550000000000001
 30
0.0
 11
22.800000000000001
 21
18.550000000000001
 31
0.0
  0
LINE
  5
5A
100
AcDbEntity
  8
0
  6
CONTINUOUS
 62
               7
100
AcDbLine
 10
-7.7000000000000002
 20
5.7999999999999998
 30
0.0
 11
7.7000000000000002
 21
5.7999999999999998
 31
0.0
  0
LINE
  5
5B
100
AcDbEntity
  8
0
  6
CONTINUOUS
 62
               7
100
AcDbLine
 10
-7.7000000000000002
 20
18.25
 30
0.0
 11
7.7000000000000002
 21
18.25
 31
0.0
  0
LINE
  5
5C
100
AcDbEntity
  8
0
  6
CONTINUOUS
 62
               7
100
AcDbLine
 10
7.25
 20
19.030000000000001
 30
0.0
 11
7.7000000000000002
 21
18.25
 31
0.0
  0
LINE
  5
5D
100
AcDbEntity
  8
0
  6
CONTINUOUS
 62
               7
100
AcDbLine
 10
-7.7000000000000002
 20
5.7999999999999998
 30
0.0
 11
-7.25
 21
5.0300000000000002
 31
0.0
  0
LINE
  5
5E
100
AcDbEntity
  8
0
  6
CONTINUOUS
 62
               7
100
AcDbLine
 10
7.25
 20
5.0300000000000002
 30
0.0
 11
7.7000000000000002
 21
5.7999999999999998
 31
0.0
  0
LINE
  5
5F
100
AcDbEntity
  8
0
  6
CONTINUOUS
 62
               7
100
AcDbLine
 10
-7.7000000000000002
 20
18.25
 30
0.0
 11
-7.25
 21
19.030000000000001
 31
0.0
  0
LINE
  5
60
100
AcDbEntity
  8
0
  6
CONTINUOUS
 62
               7
100
AcDbLine
 10
7.7000000000000002
 20
18.25
 30
0.0
 11
7.7000000000000002
 21
5.7999999999999998
 31
0.0
  0
LINE
  5
61
100
AcDbEntity
  8
0
  6
CONTINUOUS
 62
               7
100
AcDbLine
 10
-7.7000000000000002
 20
18.25
 30
0.0
 11
-7.7000000000000002
 21
5.7999999999999998
 31
0.0
  0
LINE
  5
62
100
AcDbEntity
  8
0
  6
CONTINUOUS
 62
               7
100
AcDbLine
 10
-7.25
 20
5.0300000000000002
 30
0.0
 11
7.25
 21
5.0300000000000002
 31
0.0
  0
LINE
  5
63
100
AcDbEntity
  8
0
  6
CONTINUOUS
 62
               7
100
AcDbLine
 10
-8.0700000000000003
 20
19.030000000000001
 30
0.0
 11
8.0700000000000003
 21
19.030000000000001
 31
0.0
  0
LINE
  5
64
100
AcDbEntity
  8
0
  6
CENTER
 62
               2
100
AcDbLine
 10
0.0
 20
36.780000000000001
 30
0.0
 11
0.0
 21
-10.58
 31
0.0
  0
LINE
  5
65
100
AcDbEntity
  8
0
  6
CENTER
 62
               2
100
AcDbLine
 10
-15.869999999999999
 20
11.300000000000001
 30
0.0
 11
34.619999999999997
 21
11.300000000000001
 31
0.0
  0
LINE
  5
66
100
AcDbEntity
  8
0
  6
CONTINUOUS
 62
               7
100
AcDbLine
 10
10.25
 20
9.8000000000000007
 30
0.0
 11
10.25
 21
5.7999999999999998
 31
0.0
  0
LINE
  5
67
100
AcDbEntity
  8
0
  6
CONTINUOUS
 62
               7
100
AcDbLine
 10
12.0
 20
9.8000000000000007
 30
0.0
 11
12.0
 21
4.0499999999999998
 31
0.0
  0
ENDBLK
  5
68
100
AcDbEntity
  8
0
100
AcDbBlockEnd
  0
BLOCK
  5
69
100
AcDbEntity
  8
0
100
AcDbBlockBegin
  2
MS_2
 70
               0
 10
0.0
 20
0.0
 30
0.0
  3
MS_2
  1

  0
CIRCLE
  5
6A
100
AcDbEntity
  8
0
  6
CONTINUOUS
 62
               7
100
AcDbCircle
 10
0.0
 20
11.300000190734863
 30
0.0
 40
4.0999994277954102
  0
CIRCLE
  5
6B
100
AcDbEntity
  8
0
  6
CONTINUOUS
 62
               7
100
AcDbCircle
 10
0.0
 20
11.300000190734863
 30
0.0
 40
7.25
  0
CIRCLE
  5
6C
100
AcDbEntity
  8
0
  6
CONTINUOUS
 62
               7
100
AcDbCircle
 10
0.0
 20
11.300000190734863
 30
0.0
 40
6.8999996185302734
  0
LINE
  5
6D
100
AcDbEntity
  8
0
  6
CONTINUOUS
 62
               7
100
AcDbLine
 10
3.6400000000000001
 20
5.0300000000000002
 30
0.0
 11
7.25
 21
5.0300000000000002
 31
0.0
  0
LINE
  5
6E
100
AcDbEntity
  8
0
  6
CONTINUOUS
 62
               7
100
AcDbLine
 10
0.0
 20
28.530000000000001
 30
0.0
 11
0.0
 21
19.030000000000001
 31
0.0
  0
LINE
  5
6F
100
AcDbEntity
  8
0
  6
CENTER
 62
               2
100
AcDbLine
 10
0.0
 20
31.559999999999999
 30
0.0
 11
0.0
 21
-11.51
 31
0.0
  0
LINE
  5
70
100
AcDbEntity
  8
0
  6
CONTINUOUS
 62
               7
100
AcDbLine
 10
-7.0
 20
28.530000000000001
 30
0.0
 11
-7.0
 21
19.030000000000001
 31
0.0
  0
LINE
  5
71
100
AcDbEntity
  8
0
  6
CONTINUOUS
 62
               7
100
AcDbLine
 10
7.0
 20
28.530000000000001
 30
0.0
 11
7.0
 21
19.030000000000001
 31
0.0
  0
LINE
  5
72
100
AcDbEntity
  8
0
  6
CONTINUOUS
 62
               7
100
AcDbLine
 10
-7.0
 20
28.530000000000001
 30
0.0
 11
7.0
 21
28.530000000000001
 31
0.0
  0
LINE
  5
73
100
AcDbEntity
  8
0
  6
CONTINUOUS
 62
               7
100
AcDbLine
 10
4.7300000000000004
 20
5.7999999999999998
 30
0.0
 11
7.7000000000000002
 21
5.7999999999999998
 31
0.0
  0
LINE
  5
74
100
AcDbEntity
  8
0
  6
CONTINUOUS
 62
               7
100
AcDbLine
 10
2.0600000000000001
 20
18.25
 30
0.0
 11
7.7000000000000002
 21
18.25
 31
0.0
  0
LINE
  5
75
100
AcDbEntity
  8
0
  6
CONTINUOUS
 62
               7
100
AcDbLine
 10
-7.25
 20
19.030000000000001
 30
0.0
 11
7.25
 21
19.030000000000001
 31
0.0
  0
LINE
  5
76
100
AcDbEntity
  8
0
  6
CONTINUOUS
 62
               7
100
AcDbLine
 10
-7.7000000000000002
 20
18.25
 30
0.0
 11
-2.0600000000000001
 21
18.25
 31
0.0
  0
LINE
  5
77
100
AcDbEntity
  8
0
  6
CONTINUOUS
 62
               7
100
AcDbLine
 10
-7.7000000000000002
 20
5.7999999999999998
 30
0.0
 11
-4.7300000000000004
 21
5.7999999999999998
 31
0.0
  0
LINE
  5
78
100
AcDbEntity
  8
0
  6
CONTINUOUS
 62
               7
100
AcDbLine
 10
-7.7000000000000002
 20
5.7999999999999998
 30
0.0
 11
-7.25
 21
5.0300000000000002
 31
0.0
  0
LINE
  5
79
100
AcDbEntity
  8
0
  6
CONTINUOUS
 62
               7
100
AcDbLine
 10
7.25
 20
19.030000000000001
 30
0.0
 11
7.7000000000000002
 21
18.25
 31
0.0
  0
LINE
  5
7A
100
AcDbEntity
  8
0
  6
CONTINUOUS
 62
               7
100
AcDbLine
 10
7.25
 20
5.0300000000000002
 30
0.0
 11
7.7000000000000002
 21
5.7999999999999998
 31
0.0
  0
LINE
  5
7B
100
AcDbEntity
  8
0
  6
CONTINUOUS
 62
               7
100
AcDbLine
 10
-7.7000000000000002
 20
18.25
 30
0.0
 11
-7.25
 21
19.030000000000001
 31
0.0
  0
LINE
  5
7C
100
AcDbEntity
  8
0
  6
CONTINUOUS
 62
               7
100
AcDbLine
 10
-7.7000000000000002
 20
18.25
 30
0.0
 11
-7.7000000000000002
 21
5.7999999999999998
 31
0.0
  0
LINE
  5
7D
100
AcDbEntity
  8
0
  6
CONTINUOUS
 62
               7
100
AcDbLine
 10
7.7000000000000002
 20
18.25
 30
0.0
 11
7.7000000000000002
 21
5.7999999999999998
 31
0.0
  0
LINE
  5
7E
100
AcDbEntity
  8
0
  6
CONTINUOUS
 62
               7
100
AcDbLine
 10
-7.25
 20
5.0300000000000002
 30
0.0
 11
-3.6400000000000001
 21
5.0300000000000002
 31
0.0
  0
LINE
  5
7F
100
AcDbEntity
  8
0
  6
CENTER
 62
               2
100
AcDbLine
 10
-8.3800000000000008
 20
0.0
 30
0.0
 11
7.7800000000000002
 21
0.0
 31
0.0
  0
LINE
  5
80
100
AcDbEntity
  8
0
  6
CONTINUOUS
 62
               2
100
AcDbLine
 10
4.4000000000000004
 20
4.0499999999999998
 30
0.0
 11
4.0999999999999996
 21
-3.9399999999999999
 31
0.0
  0
LINE
  5
81
100
AcDbEntity
  8
0
  6
CONTINUOUS
 62
               2
100
AcDbLine
 10
-4.4000000000000004
 20
4.0499999999999998
 30
0.0
 11
-4.0999999999999996
 21
-3.9399999999999999
 31
0.0
  0
LINE
  5
82
100
AcDbEntity
  8
0
  6
CONTINUOUS
 62
               7
100
AcDbLine
 10
5.0
 20
4.0300000000000002
 30
0.0
 11
4.7000000000000002
 21
-3.9700000000000002
 31
0.0
  0
LINE
  5
83
100
AcDbEntity
  8
0
  6
CONTINUOUS
 62
               7
100
AcDbLine
 10
-5.0
 20
4.0300000000000002
 30
0.0
 11
-4.7000000000000002
 21
-3.9700000000000002
 31
0.0
  0
LINE
  5
84
100
AcDbEntity
  8
0
  6
CONTINUOUS
 62
               7
100
AcDbLine
 10
-4.7000000000000002
 20
-3.9700000000000002
 30
0.0
 11
4.7000000000000002
 21
-3.9700000000000002
 31
0.0
  0
LINE
  5
85
100
AcDbEntity
  8
0
  6
CONTINUOUS
 62
               7
100
AcDbLine
 10
5.5999999999999996
 20
5.0300000000000002
 30
0.0
 11
5.5999999999999996
 21
4.0300000000000002
 31
0.0
  0
LINE
  5
86
100
AcDbEntity
  8
0
  6
CONTINUOUS
 62
               7
100
AcDbLine
 10
-5.5999999999999996
 20
5.0300000000000002
 30
0.0
 11
-5.5999999999999996
 21
4.0300000000000002
 31
0.0
  0
LINE
  5
87
100
AcDbEntity
  8
0
  6
CONTINUOUS
 62
               7
100
AcDbLine
 10
-5.5999999999999996
 20
4.0300000000000002
 30
0.0
 11
5.5999999999999996
 21
4.0300000000000002
 31
0.0
  0
LINE
  5
88
100
AcDbEntity
  8
0
  6
CENTER
 62
               2
100
AcDbLine
 10
-18.280000000000001
 20
11.300000000000001
 30
0.0
 11
17.350000000000001
 21
11.300000000000001
 31
0.0
  0
ENDBLK
  5
89
100
AcDbEntity
  8
0
100
AcDbBlockEnd
  0
BLOCK
  5
8A
100
AcDbEntity
  8
0
100
AcDbBlockBegin
  2
MS_3
 70
               0
 10
0.0
 20
0.0
 30
0.0
  3
MS_3
  1

  0
ARC
  5
8B
100
AcDbEntity
  8
0
  6
CONTINUOUS
 62
               7
100
AcDbCircle
 10
0.0
 20
0.0000000000000009
 30
0.0
 40
7.6967525619575428
100
AcDbArc
 50
65.43282867939854
 51
114.56717132060108
  0
ARC
  5
8C
100
AcDbEntity
  8
0
  6
CONTINUOUS
 62
               7
100
AcDbCircle
 10
-0.0030670012601268
 20
-0.0053071938657649
 30
0.0
 40
7.6912088433915908
100
AcDbArc
 50
125.32290780843566
 51
174.58877205171171
  0
ARC
  5
8D
100
AcDbEntity
  8
0
  6
CONTINUOUS
 62
               7
100
AcDbCircle
 10
0.0
 20
-0.0000000000000009
 30
0.0
 40
7.6967525619575428
100
AcDbArc
 50
245.43282867939814
 51
294.56717132060066
  0
ARC
  5
8E
100
AcDbEntity
  8
0
  6
CONTINUOUS
 62
               7
100
AcDbCircle
 10
0.0030670012601268
 20
-0.0053071938657649
 30
0.0
 40
7.6912088433915908
100
AcDbArc
 50
5.4112279482878787
 51
54.677092191563943
  0
CIRCLE
  5
8F
100
AcDbEntity
  8
0
  6
CONTINUOUS
 62
               7
100
AcDbCircle
 10
0.0
 20
0.0
 30
0.0
 40
4.25
  0
CIRCLE
  5
90
100
AcDbEntity
  8
0
  6
CONTINUOUS
 62
               2
100
AcDbCircle
 10
0.0
 20
0.0
 30
0.0
 40
4.8499994277954102
  0
ARC
  5
91
100
AcDbEntity
  8
0
  6
CONTINUOUS
 62
               7
100
AcDbCircle
 10
0.0030670012601268
 20
0.0053071938657649
 30
0.0
 40
7.6912088433915908
100
AcDbArc
 50
305.32290780843528
 51
354.58877205171132
  0
ARC
  5
92
100
AcDbEntity
  8
0
  6
CONTINUOUS
 62
               7
100
AcDbCircle
 10
-0.0030670012601268
 20
0.0053071938657649
 30
0.0
 40
7.6912088433915908
100
AcDbArc
 50
185.41122794828746
 51
234.67709219156353
  0
LINE
  5
93
100
AcDbEntity
  8
0
  6
CONTINUOUS
 62
               7
100
AcDbLine
 10
10.25
 20
5.5
 30
0.0
 11
12.0
 21
7.25
 31
0.0
  0
LINE
  5
94
100
AcDbEntity
  8
0
  6
CONTINUOUS
 62
               7
100
AcDbLine
 10
10.25
 20
-5.5
 30
0.0
 11
12.0
 21
-7.25
 31
0.0
  0
LINE
  5
95
100
AcDbEntity
  8
0
  6
CONTINUOUS
 62
               7
100
AcDbLine
 10
5.3799999999999999
 20
-5.5
 30
0.0
 11
10.25
 21
-5.5
 31
0.0
  0
LINE
  5
96
100
AcDbEntity
  8
0
  6
CONTINUOUS
 62
               7
100
AcDbLine
 10
5.3799999999999999
 20
5.5
 30
0.0
 11
10.25
 21
5.5
 31
0.0
  0
LINE
  5
97
100
AcDbEntity
  8
0
  6
CONTINUOUS
 62
               7
100
AcDbLine
 10
10.25
 20
5.5
 30
0.0
 11
10.25
 21
-5.5
 31
0.0
  0
LINE
  5
98
100
AcDbEntity
  8
0
  6
CONTINUOUS
 62
               7
100
AcDbLine
 10
12.0
 20
7.25
 30
0.0
 11
12.0
 21
-7.25
 31
0.0
  0
LINE
  5
99
100
AcDbEntity
  8
0
  6
CONTINUOUS
 62
               7
100
AcDbLine
 10
2.5899999999999999
 20
-7.25
 30
0.0
 11
22.800000000000001
 21
-7.25
 31
0.0
  0
LINE
  5
9A
100
AcDbEntity
  8
0
  6
CONTINUOUS
 62
               7
100
AcDbLine
 10
2.5899999999999999
 20
7.25
 30
0.0
 11
22.800000000000001
 21
7.25
 31
0.0
  0
LINE
  5
9B
100
AcDbEntity
  8
0
  6
CONTINUOUS
 62
               7
100
AcDbLine
 10
4.04
 20
-7.0
 30
0.0
 11
8.0800000000000001
 21
0.0
 31
0.0
  0
LINE
  5
9C
100
AcDbEntity
  8
0
  6
CONTINUOUS
 62
               7
100
AcDbLine
 10
-8.0800000000000001
 20
0.0
 30
0.0
 11
-4.04
 21
7.0
 31
0.0
  0
LINE
  5
9D
100
AcDbEntity
  8
0
  6
CONTINUOUS
 62
               7
100
AcDbLine
 10
4.04
 20
7.0
 30
0.0
 11
8.0800000000000001
 21
0.0
 31
0.0
  0
LINE
  5
9E
100
AcDbEntity
  8
0
  6
CONTINUOUS
 62
               7
100
AcDbLine
 10
-8.0800000000000001
 20
0.0
 30
0.0
 11
-4.04
 21
-7.0
 31
0.0
  0
LINE
  5
9F
100
AcDbEntity
  8
0
  6
CONTINUOUS
 62
               7
100
AcDbLine
 10
-4.04
 20
-7.0
 30
0.0
 11
4.04
 21
-7.0
 31
0.0
  0
LINE
  5
A0
100
AcDbEntity
  8
0
  6
CONTINUOUS
 62
               7
100
AcDbLine
 10
-4.04
 20
7.0
 30
0.0
 11
4.04
 21
7.0
 31
0.0
  0
LINE
  5
A1
100
AcDbEntity
  8
0
  6
CONTINUOUS
 62
               7
100
AcDbLine
 10
23.800000000000001
 20
6.9000000000000004
 30
0.0
 11
25.800000000000001
 21
6.9000000000000004
 31
0.0
  0
LINE
  5
A2
100
AcDbEntity
  8
0
  6
CONTINUOUS
 62
               7
100
AcDbLine
 10
23.800000000000001
 20
-6.9000000000000004
 30
0.0
 11
25.800000000000001
 21
-6.9000000000000004
 31
0.0
  0
LINE
  5
A3
100
AcDbEntity
  8
0
  6
CONTINUOUS
 62
               7
100
AcDbLine
 10
22.800000000000001
 20
4.9000000000000004
 30
0.0
 11
23.800000000000001
 21
4.9000000000000004
 31
0.0
  0
LINE
  5
A4
100
AcDbEntity
  8
0
  6
CONTINUOUS
 62
               7
100
AcDbLine
 10
22.800000000000001
 20
-4.9000000000000004
 30
0.0
 11
23.800000000000001
 21
-4.9000000000000004
 31
0.0
  0
LINE
  5
A5
100
AcDbEntity
  8
0
  6
CONTINUOUS
 62
               7
100
AcDbLine
 10
23.800000000000001
 20
6.9000000000000004
 30
0.0
 11
23.800000000000001
 21
-6.9000000000000004
 31
0.0
  0
LINE
  5
A6
100
AcDbEntity
  8
0
  6
CONTINUOUS
 62
               7
100
AcDbLine
 10
25.800000000000001
 20
6.9000000000000004
 30
0.0
 11
25.800000000000001
 21
-6.9000000000000004
 31
0.0
  0
LINE
  5
A7
100
AcDbEntity
  8
0
  6
CONTINUOUS
 62
               7
100
AcDbLine
 10
22.800000000000001
 20
7.25
 30
0.0
 11
22.800000000000001
 21
-7.25
 31
0.0
  0
LINE
  5
A8
100
AcDbEntity
  8
0
  6
CENTER
 62
               2
100
AcDbLine
 10
-14.31
 20
0.0
 30
0.0
 11
32.630000000000003
 21
0.0
 31
0.0
  0
LINE
  5
A9
100
AcDbEntity
  8
0
  6
CENTER
 62
               2
100
AcDbLine
 10
0.0
 20
15.529999999999999
 30
0.0
 11
0.0
 21
-12.5
 31
0.0
  0
ENDBLK
  5
AA
100
AcDbEntity
  8
0
100
AcDbBlockEnd
  0
BLOCK
  5
AB
100
AcDbEntity
  8
0
100
AcDbBlockBegin
  2
MS_4
 70
               0
 10
0.0
 20
0.0
 30
0.0
  3
MS_4
  1

  0
LINE
  5
AC
100
AcDbEntity
  8
0
  6
CONTINUOUS
 62
               7
100
AcDbLine
 10
9.4000000000000004
 20
32.490000000000002
 30
0.0
 11
9.4000000000000004
 21
20.989999999999998
 31
0.0
  0
LINE
  5
AD
100
AcDbEntity
  8
0
  6
CONTINUOUS
 62
               7
100
AcDbLine
 10
-9.4000000000000004
 20
32.490000000000002
 30
0.0
 11
-9.4000000000000004
 21
20.989999999999998
 31
0.0
  0
LINE
  5
AE
100
AcDbEntity
  8
0
  6
CONTINUOUS
 62
               7
100
AcDbLine
 10
9.8000000000000007
 20
11.0
 30
0.0
 11
12.5
 21
11.0
 31
0.0
  0
LINE
  5
AF
100
AcDbEntity
  8
0
  6
CONTINUOUS
 62
               7
100
AcDbLine
 10
9.8000000000000007
 20
14.0
 30
0.0
 11
12.5
 21
14.0
 31
0.0
  0
LINE
  5
B0
100
AcDbEntity
  8
0
  6
CONTINUOUS
 62
               7
100
AcDbLine
 10
24.800000000000001
 20
7.5999999999999996
 30
0.0
 11
25.800000000000001
 21
7.5999999999999996
 31
0.0
  0
LINE
  5
B1
100
AcDbEntity
  8
0
  6
CONTINUOUS
 62
               7
100
AcDbLine
 10
25.800000000000001
 20
19.399999999999999
 30
0.0
 11
25.800000000000001
 21
5.5999999999999996
 31
0.0
  0
LINE
  5
B2
100
AcDbEntity
  8
0
  6
CONTINUOUS
 62
               7
100
AcDbLine
 10
27.800000000000001
 20
19.399999999999999
 30
0.0
 11
27.800000000000001
 21
5.5999999999999996
 31
0.0
  0
LINE
  5
B3
100
AcDbEntity
  8
0
  6
CONTINUOUS
 62
               7
100
AcDbLine
 10
24.800000000000001
 20
19.75
 30
0.0
 11
24.800000000000001
 21
5.25
 31
0.0
  0
LINE
  5
B4
100
AcDbEntity
  8
0
  6
CONTINUOUS
 62
               7
100
AcDbLine
 10
25.800000000000001
 20
19.399999999999999
 30
0.0
 11
27.800000000000001
 21
19.399999999999999
 31
0.0
  0
LINE
  5
B5
100
AcDbEntity
  8
0
  6
CONTINUOUS
 62
               7
100
AcDbLine
 10
24.800000000000001
 20
17.399999999999999
 30
0.0
 11
25.800000000000001
 21
17.399999999999999
 31
0.0
  0
LINE
  5
B6
100
AcDbEntity
  8
0
  6
CONTINUOUS
 62
               7
100
AcDbLine
 10
25.800000000000001
 20
5.5999999999999996
 30
0.0
 11
27.800000000000001
 21
5.5999999999999996
 31
0.0
  0
LINE
  5
B7
100
AcDbEntity
  8
0
  6
CONTINUOUS
 62
               7
100
AcDbLine
 10
7.4000000000000004
 20
5.9900000000000002
 30
0.0
 11
7.4000000000000004
 21
4.9900000000000002
 31
0.0
  0
LINE
  5
B8
100
AcDbEntity
  8
0
  6
CONTINUOUS
 62
               7
100
AcDbLine
 10
-7.4000000000000004
 20
4.9900000000000002
 30
0.0
 11
7.4000000000000004
 21
4.9900000000000002
 31
0.0
  0
LINE
  5
B9
100
AcDbEntity
  8
0
  6
CONTINUOUS
 62
               7
100
AcDbLine
 10
-7.4000000000000004
 20
5.9900000000000002
 30
0.0
 11
-7.4000000000000004
 21
4.9900000000000002
 31
0.0
  0
LINE
  5
BA
100
AcDbEntity
  8
0
  6
CONTINUOUS
 62
               2
100
AcDbLine
 10
5.9000000000000004
 20
5.0099999999999998
 30
0.0
 11
5.5999999999999996
 21
-5.9800000000000004
 31
0.0
  0
LINE
  5
BB
100
AcDbEntity
  8
0
  6
CONTINUOUS
 62
               2
100
AcDbLine
 10
-5.9000000000000004
 20
5.0099999999999998
 30
0.0
 11
-5.5999999999999996
 21
-5.9800000000000004
 31
0.0
  0
LINE
  5
BC
100
AcDbEntity
  8
0
  6
CONTINUOUS
 62
               7
100
AcDbLine
 10
6.7000000000000002
 20
4.9900000000000002
 30
0.0
 11
6.4000000000000004
 21
-6.0099999999999998
 31
0.0
  0
LINE
  5
BD
100
AcDbEntity
  8
0
  6
CONTINUOUS
 62
               7
100
AcDbLine
 10
-6.7000000000000002
 20
4.9900000000000002
 30
0.0
 11
-6.4000000000000004
 21
-6.0099999999999998
 31
0.0
  0
LINE
  5
BE
100
AcDbEntity
  8
0
  6
CONTINUOUS
 62
               7
100
AcDbLine
 10
-6.4000000000000004
 20
-6.0099999999999998
 30
0.0
 11
6.4000000000000004
 21
-6.0099999999999998
 31
0.0
  0
LINE
  5
BF
100
AcDbEntity
  8
0
  6
CENTER
 62
               2
100
AcDbLine
 10
-10.83
 20
0.0
 30
0.0
 11
9.3200000000000003
 21
0.0
 31
0.0
  0
LINE
  5
C0
100
AcDbEntity
  8
0
  6
CONTINUOUS
 62
               7
100
AcDbLine
 10
-4.9000000000000004
 20
32.490000000000002
 30
0.0
 11
-4.9000000000000004
 21
20.989999999999998
 31
0.0
  0
LINE
  5
C1
100
AcDbEntity
  8
0
  6
CONTINUOUS
 62
               7
100
AcDbLine
 10
4.9000000000000004
 20
32.490000000000002
 30
0.0
 11
4.9000000000000004
 21
20.989999999999998
 31
0.0
  0
LINE
  5
C2
100
AcDbEntity
  8
0
  6
CONTINUOUS
 62
               7
100
AcDbLine
 10
-9.4000000000000004
 20
32.490000000000002
 30
0.0
 11
9.4000000000000004
 21
32.490000000000002
 31
0.0
  0
LINE
  5
C3
100
AcDbEntity
  8
0
  6
CONTINUOUS
 62
               7
100
AcDbLine
 10
10.5
 20
18.0
 30
0.0
 11
12.5
 21
19.75
 31
0.0
  0
LINE
  5
C4
100
AcDbEntity
  8
0
  6
CONTINUOUS
 62
               7
100
AcDbLine
 10
10.5
 20
7.0
 30
0.0
 11
12.5
 21
5.25
 31
0.0
  0
LINE
  5
C5
100
AcDbEntity
  8
0
  6
CONTINUOUS
 62
               7
100
AcDbLine
 10
9.3300000000000001
 20
7.0
 30
0.0
 11
10.5
 21
7.0
 31
0.0
  0
LINE
  5
C6
100
AcDbEntity
  8
0
  6
CONTINUOUS
 62
               7
100
AcDbLine
 10
9.8000000000000007
 20
18.0
 30
0.0
 11
10.5
 21
18.0
 31
0.0
  0
LINE
  5
C7
100
AcDbEntity
  8
0
  6
CONTINUOUS
 62
               7
100
AcDbLine
 10
10.5
 20
18.0
 30
0.0
 11
10.5
 21
14.0
 31
0.0
  0
LINE
  5
C8
100
AcDbEntity
  8
0
  6
CONTINUOUS
 62
               7
100
AcDbLine
 10
12.5
 20
19.75
 30
0.0
 11
12.5
 21
14.0
 31
0.0
  0
LINE
  5
C9
100
AcDbEntity
  8
0
  6
CONTINUOUS
 62
               7
100
AcDbLine
 10
12.5
 20
19.75
 30
0.0
 11
24.800000000000001
 21
19.75
 31
0.0
  0
LINE
  5
CA
100
AcDbEntity
  8
0
  6
CONTINUOUS
 62
               7
100
AcDbLine
 10
12.5
 20
5.25
 30
0.0
 11
24.800000000000001
 21
5.25
 31
0.0
  0
LINE
  5
CB
100
AcDbEntity
  8
0
  6
CONTINUOUS
 62
               7
100
AcDbLine
 10
9.8000000000000007
 20
7.7999999999999998
 30
0.0
 11
-9.8000000000000007
 21
7.7999999999999998
 31
0.0
  0
LINE
  5
CC
100
AcDbEntity
  8
0
  6
CONTINUOUS
 62
               7
100
AcDbLine
 10
-9.8000000000000007
 20
19.170000000000002
 30
0.0
 11
9.8000000000000007
 21
19.170000000000002
 31
0.0
  0
LINE
  5
CD
100
AcDbEntity
  8
0
  6
CONTINUOUS
 62
               7
100
AcDbLine
 10
8.75
 20
20.989999999999998
 30
0.0
 11
9.8000000000000007
 21
19.170000000000002
 31
0.0
  0
LINE
  5
CE
100
AcDbEntity
  8
0
  6
CONTINUOUS
 62
               7
100
AcDbLine
 10
-9.8000000000000007
 20
7.7999999999999998
 30
0.0
 11
-8.75
 21
5.9900000000000002
 31
0.0
  0
LINE
  5
CF
100
AcDbEntity
  8
0
  6
CONTINUOUS
 62
               7
100
AcDbLine
 10
8.75
 20
5.9900000000000002
 30
0.0
 11
9.8000000000000007
 21
7.7999999999999998
 31
0.0
  0
LINE
  5
D0
100
AcDbEntity
  8
0
  6
CONTINUOUS
 62
               7
100
AcDbLine
 10
-9.8000000000000007
 20
19.170000000000002
 30
0.0
 11
-8.75
 21
20.989999999999998
 31
0.0
  0
LINE
  5
D1
100
AcDbEntity
  8
0
  6
CONTINUOUS
 62
               7
100
AcDbLine
 10
-9.8000000000000007
 20
19.170000000000002
 30
0.0
 11
-9.8000000000000007
 21
7.7999999999999998
 31
0.0
  0
LINE
  5
D2
100
AcDbEntity
  8
0
  6
CONTINUOUS
 62
               7
100
AcDbLine
 10
9.8000000000000007
 20
19.170000000000002
 30
0.0
 11
9.8000000000000007
 21
7.7999999999999998
 31
0.0
  0
LINE
  5
D3
100
AcDbEntity
  8
0
  6
CONTINUOUS
 62
               7
100
AcDbLine
 10
-9.4000000000000004
 20
20.989999999999998
 30
0.0
 11
9.4000000000000004
 21
20.989999999999998
 31
0.0
  0
LINE
  5
D4
100
AcDbEntity
  8
0
  6
CONTINUOUS
 62
               7
100
AcDbLine
 10
-8.75
 20
5.9900000000000002
 30
0.0
 11
8.75
 21
5.9900000000000002
 31
0.0
  0
LINE
  5
D5
100
AcDbEntity
  8
0
  6
CENTER
 62
               2
100
AcDbLine
 10
0.0
 20
37.090000000000003
 30
0.0
 11
0.0
 21
-12.06
 31
0.0
  0
LINE
  5
D6
100
AcDbEntity
  8
0
  6
CENTER
 62
               2
100
AcDbLine
 10
-20.140000000000001
 20
12.5
 30
0.0
 11
34.060000000000002
 21
12.5
 31
0.0
  0
LINE
  5
D7
100
AcDbEntity
  8
0
  6
DASHED
 62
               2
100
AcDbLine
 10
5.7400000000000002
 20
32.490000000000002
 30
0.0
 11
4.9900000000000002
 21
21.5
 31
0.0
  0
LINE
  5
D8
100
AcDbEntity
  8
0
  6
DASHED
 62
               2
100
AcDbLine
 10
-5.7400000000000002
 20
32.490000000000002
 30
0.0
 11
-5.1100000000000003
 21
21.579999999999998
 31
0.0
  0
LINE
  5
D9
100
AcDbEntity
  8
0
  6
DASHED
 62
               2
100
AcDbLine
 10
6.5499999999999998
 20
32.490000000000002
 30
0.0
 11
5.79
 21
21.449999999999999
 31
0.0
  0
LINE
  5
DA
100
AcDbEntity
  8
0
  6
DASHED
 62
               2
100
AcDbLine
 10
-6.5499999999999998
 20
32.490000000000002
 30
0.0
 11
-5.9100000000000001
 21
21.539999999999999
 31
0.0
  0
LINE
  5
DB
100
AcDbEntity
  8
0
  6
DASHED
 62
               2
100
AcDbLine
 10
-5.9100000000000001
 20
21.489999999999998
 30
0.0
 11
5.79
 21
21.489999999999998
 31
0.0
  0
LINE
  5
DC
100
AcDbEntity
  8
0
  6
CONTINUOUS
 62
               7
100
AcDbLine
 10
10.5
 20
11.0
 30
0.0
 11
10.5
 21
7.0
 31
0.0
  0
LINE
  5
DD
100
AcDbEntity
  8
0
  6
CONTINUOUS
 62
               7
100
AcDbLine
 10
12.5
 20
11.0
 30
0.0
 11
12.5
 21
5.25
 31
0.0
  0
ENDBLK
  5
DE
100
AcDbEntity
  8
0
100
AcDbBlockEnd
  0
BLOCK
  5
DF
100
AcDbEntity
  8
0
100
AcDbBlockBegin
  2
MS_5
 70
               0
 10
0.0
 20
0.0
 30
0.0
  3
MS_5
  1

  0
CIRCLE
  5
E0
100
AcDbEntity
  8
0
  6
CONTINUOUS
 62
               7
100
AcDbCircle
 10
0.0
 20
12.5
 30
0.0
 40
4.0999994277954102
  0
CIRCLE
  5
E1
100
AcDbEntity
  8
0
  6
CONTINUOUS
 62
               7
100
AcDbCircle
 10
0.0
 20
12.5
 30
0.0
 40
7.25
  0
CIRCLE
  5
E2
100
AcDbEntity
  8
0
  6
CONTINUOUS
 62
               7
100
AcDbCircle
 10
0.0
 20
12.5
 30
0.0
 40
6.8999996185302734
  0
LINE
  5
E3
100
AcDbEntity
  8
0
  6
CONTINUOUS
 62
               7
100
AcDbLine
 10
3.1899999999999999
 20
5.9900000000000002
 30
0.0
 11
8.75
 21
5.9900000000000002
 31
0.0
  0
LINE
  5
E4
100
AcDbEntity
  8
0
  6
CONTINUOUS
 62
               7
100
AcDbLine
 10
0.0
 20
32.490000000000002
 30
0.0
 11
0.0
 21
20.989999999999998
 31
0.0
  0
LINE
  5
E5
100
AcDbEntity
  8
0
  6
CENTER
 62
               2
100
AcDbLine
 10
0.0
 20
39.560000000000002
 30
0.0
 11
0.0
 21
-12.43
 31
0.0
  0
LINE
  5
E6
100
AcDbEntity
  8
0
  6
CONTINUOUS
 62
               7
100
AcDbLine
 10
8.5
 20
32.490000000000002
 30
0.0
 11
8.5
 21
20.989999999999998
 31
0.0
  0
LINE
  5
E7
100
AcDbEntity
  8
0
  6
CONTINUOUS
 62
               7
100
AcDbLine
 10
-8.5
 20
32.490000000000002
 30
0.0
 11
-8.5
 21
20.989999999999998
 31
0.0
  0
LINE
  5
E8
100
AcDbEntity
  8
0
  6
CONTINUOUS
 62
               7
100
AcDbLine
 10
-8.5
 20
32.490000000000002
 30
0.0
 11
8.5
 21
32.490000000000002
 31
0.0
  0
LINE
  5
E9
100
AcDbEntity
  8
0
  6
CONTINUOUS
 62
               7
100
AcDbLine
 10
5.5199999999999996
 20
7.7999999999999998
 30
0.0
 11
9.8000000000000007
 21
7.7999999999999998
 31
0.0
  0
LINE
  5
EA
100
AcDbEntity
  8
0
  6
CONTINUOUS
 62
               7
100
AcDbLine
 10
2.8300000000000001
 20
19.170000000000002
 30
0.0
 11
9.8000000000000007
 21
19.170000000000002
 31
0.0
  0
LINE
  5
EB
100
AcDbEntity
  8
0
  6
CONTINUOUS
 62
               7
100
AcDbLine
 10
-9.8000000000000007
 20
7.7999999999999998
 30
0.0
 11
-5.5199999999999996
 21
7.7999999999999998
 31
0.0
  0
LINE
  5
EC
100
AcDbEntity
  8
0
  6
CONTINUOUS
 62
               7
100
AcDbLine
 10
-9.8000000000000007
 20
19.170000000000002
 30
0.0
 11
-2.8300000000000001
 21
19.170000000000002
 31
0.0
  0
LINE
  5
ED
100
AcDbEntity
  8
0
  6
CONTINUOUS
 62
               7
100
AcDbLine
 10
8.75
 20
20.989999999999998
 30
0.0
 11
9.8000000000000007
 21
19.170000000000002
 31
0.0
  0
LINE
  5
EE
100
AcDbEntity
  8
0
  6
CONTINUOUS
 62
               7
100
AcDbLine
 10
-9.8000000000000007
 20
7.7999999999999998
 30
0.0
 11
-8.75
 21
5.9900000000000002
 31
0.0
  0
LINE
  5
EF
100
AcDbEntity
  8
0
  6
CONTINUOUS
 62
               7
100
AcDbLine
 10
8.75
 20
5.9900000000000002
 30
0.0
 11
9.8000000000000007
 21
7.7999999999999998
 31
0.0
  0
LINE
  5
F0
100
AcDbEntity
  8
0
  6
CONTINUOUS
 62
               7
100
AcDbLine
 10
-9.8000000000000007
 20
19.170000000000002
 30
0.0
 11
-8.75
 21
20.989999999999998
 31
0.0
  0
LINE
  5
F1
100
AcDbEntity
  8
0
  6
CONTINUOUS
 62
               7
100
AcDbLine
 10
-9.8000000000000007
 20
19.170000000000002
 30
0.0
 11
-9.8000000000000007
 21
7.7999999999999998
 31
0.0
  0
LINE
  5
F2
100
AcDbEntity
  8
0
  6
CONTINUOUS
 62
               7
100
AcDbLine
 10
9.8000000000000007
 20
19.170000000000002
 30
0.0
 11
9.8000000000000007
 21
7.7999999999999998
 31
0.0
  0
LINE
  5
F3
100
AcDbEntity
  8
0
  6
CONTINUOUS
 62
               7
100
AcDbLine
 10
-8.75
 20
5.9900000000000002
 30
0.0
 11
-3.1899999999999999
 21
5.9900000000000002
 31
0.0
  0
LINE
  5
F4
100
AcDbEntity
  8
0
  6
CONTINUOUS
 62
               7
100
AcDbLine
 10
-8.75
 20
20.989999999999998
 30
0.0
 11
8.75
 21
20.989999999999998
 31
0.0
  0
LINE
  5
F5
100
AcDbEntity
  8
0
  6
CONTINUOUS
 62
               7
100
AcDbLine
 10
-7.4000000000000004
 20
5.9900000000000002
 30
0.0
 11
-7.4000000000000004
 21
4.9900000000000002
 31
0.0
  0
LINE
  5
F6
100
AcDbEntity
  8
0
  6
CONTINUOUS
 62
               7
100
AcDbLine
 10
7.4000000000000004
 20
5.9900000000000002
 30
0.0
 11
7.4000000000000004
 21
4.9900000000000002
 31
0.0
  0
LINE
  5
F7
100
AcDbEntity
  8
0
  6
CONTINUOUS
 62
               7
100
AcDbLine
 10
-7.4000000000000004
 20
4.9900000000000002
 30
0.0
 11
7.4000000000000004
 21
4.9900000000000002
 31
0.0
  0
LINE
  5
F8
100
AcDbEntity
  8
0
  6
CENTER
 62
               2
100
AcDbLine
 10
-19.949999999999999
 20
12.5
 30
0.0
 11
19.77
 21
12.5
 31
0.0
  0
LINE
  5
F9
100
AcDbEntity
  8
0
  6
CONTINUOUS
 62
               2
100
AcDbLine
 10
5.9000000000000004
 20
5.0099999999999998
 30
0.0
 11
5.5999999999999996
 21
-5.9800000000000004
 31
0.0
  0
LINE
  5
FA
100
AcDbEntity
  8
0
  6
CONTINUOUS
 62
               2
100
AcDbLine
 10
-5.9000000000000004
 20
5.0099999999999998
 30
0.0
 11
-5.5999999999999996
 21
-5.9800000000000004
 31
0.0
  0
LINE
  5
FB
100
AcDbEntity
  8
0
  6
CONTINUOUS
 62
               7
100
AcDbLine
 10
6.7000000000000002
 20
4.9900000000000002
 30
0.0
 11
6.4000000000000004
 21
-6.0099999999999998
 31
0.0
  0
LINE
  5
FC
100
AcDbEntity
  8
0
  6
CONTINUOUS
 62
               7
100
AcDbLine
 10
-6.7000000000000002
 20
4.9900000000000002
 30
0.0
 11
-6.4000000000000004
 21
-6.0099999999999998
 31
0.0
  0
LINE
  5
FD
100
AcDbEntity
  8
0
  6
CONTINUOUS
 62
               7
100
AcDbLine
 10
-6.4000000000000004
 20
-6.0099999999999998
 30
0.0
 11
6.4000000000000004
 21
-6.0099999999999998
 31
0.0
  0
LINE
  5
FE
100
AcDbEntity
  8
0
  6
CENTER
 62
               2
100
AcDbLine
 10
-10.83
 20
0.0
 30
0.0
 11
9.3200000000000003
 21
0.0
 31
0.0
  0
ENDBLK
  5
FF
100
AcDbEntity
  8
0
100
AcDbBlockEnd
  0
BLOCK
  5
100
100
AcDbEntity
  8
0
100
AcDbBlockBegin
  2
MS_6
 70
               0
 10
0.0
 20
0.0
 30
0.0
  3
MS_6
  1

  0
CIRCLE
  5
101
100
AcDbEntity
  8
0
  6
CONTINUOUS
 62
               2
100
AcDbCircle
 10
0.0
 20
0.0
 30
0.0
 40
6.5500001907348633
  0
CIRCLE
  5
102
100
AcDbEntity
  8
0
  6
CONTINUOUS
 62
               7
100
AcDbCircle
 10
0.0
 20
0.0
 30
0.0
 40
9.8000001907348633
  0
CIRCLE
  5
103
100
AcDbEntity
  8
0
  6
CONTINUOUS
 62
               7
100
AcDbCircle
 10
0.0
 20
0.0
 30
0.0
 40
5.6999998092651367
  0
LINE
  5
104
100
AcDbEntity
  8
0
  6
CONTINUOUS
 62
               7
100
AcDbLine
 10
10.5
 20
5.5
 30
0.0
 11
12.5
 21
7.25
 31
0.0
  0
LINE
  5
105
100
AcDbEntity
  8
0
  6
CONTINUOUS
 62
               7
100
AcDbLine
 10
10.5
 20
-5.5
 30
0.0
 11
12.5
 21
-7.25
 31
0.0
  0
LINE
  5
106
100
AcDbEntity
  8
0
  6
CONTINUOUS
 62
               7
100
AcDbLine
 10
8.1099999999999994
 20
-5.5
 30
0.0
 11
10.5
 21
-5.5
 31
0.0
  0
LINE
  5
107
100
AcDbEntity
  8
0
  6
CONTINUOUS
 62
               7
100
AcDbLine
 10
8.1099999999999994
 20
5.5
 30
0.0
 11
10.5
 21
5.5
 31
0.0
  0
LINE
  5
108
100
AcDbEntity
  8
0
  6
CONTINUOUS
 62
               7
100
AcDbLine
 10
10.5
 20
5.5
 30
0.0
 11
10.5
 21
-5.5
 31
0.0
  0
LINE
  5
109
100
AcDbEntity
  8
0
  6
CONTINUOUS
 62
               7
100
AcDbLine
 10
12.5
 20
7.25
 30
0.0
 11
12.5
 21
-7.25
 31
0.0
  0
LINE
  5
10A
100
AcDbEntity
  8
0
  6
CONTINUOUS
 62
               7
100
AcDbLine
 10
6.5899999999999999
 20
7.25
 30
0.0
 11
24.800000000000001
 21
7.25
 31
0.0
  0
LINE
  5
10B
100
AcDbEntity
  8
0
  6
CONTINUOUS
 62
               7
100
AcDbLine
 10
6.5899999999999999
 20
-7.25
 30
0.0
 11
24.800000000000001
 21
-7.25
 31
0.0
  0
LINE
  5
10C
100
AcDbEntity
  8
0
  6
CONTINUOUS
 62
               7
100
AcDbLine
 10
4.9000000000000004
 20
-8.5
 30
0.0
 11
9.8100000000000005
 21
0.0
 31
0.0
  0
LINE
  5
10D
100
AcDbEntity
  8
0
  6
CONTINUOUS
 62
               7
100
AcDbLine
 10
-9.8100000000000005
 20
0.0
 30
0.0
 11
-4.9000000000000004
 21
8.5
 31
0.0
  0
LINE
  5
10E
100
AcDbEntity
  8
0
  6
CONTINUOUS
 62
               7
100
AcDbLine
 10
4.9000000000000004
 20
8.5
 30
0.0
 11
9.8100000000000005
 21
0.0
 31
0.0
  0
LINE
  5
10F
100
AcDbEntity
  8
0
  6
CONTINUOUS
 62
               7
100
AcDbLine
 10
-9.8100000000000005
 20
0.0
 30
0.0
 11
-4.9000000000000004
 21
-8.5
 31
0.0
  0
LINE
  5
110
100
AcDbEntity
  8
0
  6
CONTINUOUS
 62
               7
100
AcDbLine
 10
-4.9000000000000004
 20
-8.5
 30
0.0
 11
4.9000000000000004
 21
-8.5
 31
0.0
  0
LINE
  5
111
100
AcDbEntity
  8
0
  6
CONTINUOUS
 62
               7
100
AcDbLine
 10
-4.9000000000000004
 20
8.5
 30
0.0
 11
4.9000000000000004
 21
8.5
 31
0.0
  0
LINE
  5
112
100
AcDbEntity
  8
0
  6
CONTINUOUS
 62
               7
100
AcDbLine
 10
25.800000000000001
 20
6.9000000000000004
 30
0.0
 11
27.800000000000001
 21
6.9000000000000004
 31
0.0
  0
LINE
  5
113
100
AcDbEntity
  8
0
  6
CONTINUOUS
 62
               7
100
AcDbLine
 10
25.800000000000001
 20
-6.9000000000000004
 30
0.0
 11
27.800000000000001
 21
-6.9000000000000004
 31
0.0
  0
LINE
  5
114
100
AcDbEntity
  8
0
  6
CONTINUOUS
 62
               7
100
AcDbLine
 10
24.800000000000001
 20
4.9000000000000004
 30
0.0
 11
25.800000000000001
 21
4.9000000000000004
 31
0.0
  0
LINE
  5
115
100
AcDbEntity
  8
0
  6
CONTINUOUS
 62
               7
100
AcDbLine
 10
24.800000000000001
 20
-4.9000000000000004
 30
0.0
 11
25.800000000000001
 21
-4.9000000000000004
 31
0.0
  0
LINE
  5
116
100
AcDbEntity
  8
0
  6
CONTINUOUS
 62
               7
100
AcDbLine
 10
25.800000000000001
 20
6.9000000000000004
 30
0.0
 11
25.800000000000001
 21
-6.9000000000000004
 31
0.0
  0
LINE
  5
117
100
AcDbEntity
  8
0
  6
CONTINUOUS
 62
               7
100
AcDbLine
 10
27.800000000000001
 20
6.9000000000000004
 30
0.0
 11
27.800000000000001
 21
-6.9000000000000004
 31
0.0
  0
LINE
  5
118
100
AcDbEntity
  8
0
  6
CONTINUOUS
 62
               7
100
AcDbLine
 10
24.800000000000001
 20
7.25
 30
0.0
 11
24.800000000000001
 21
-7.25
 31
0.0
  0
LINE
  5
119
100
AcDbEntity
  8
0
  6
CENTER
 62
               2
100
AcDbLine
 10
0.0
 20
18.399999999999999
 30
0.0
 11
0.0
 21
-18.399999999999999
 31
0.0
  0
LINE
  5
11A
100
AcDbEntity
  8
0
  6
CENTER
 62
               2
100
AcDbLine
 10
-20.149999999999999
 20
0.0
 30
0.0
 11
40.729999999999997
 21
0.0
 31
0.0
  0
ENDBLK
  5
11B
100
AcDbEntity
  8
0
100
AcDbBlockEnd
  0
BLOCK
  5
11C
100
AcDbEntity
  8
0
100
AcDbBlockBegin
  2
MS_7
 70
               0
 10
0.0
 20
0.0
 30
0.0
  3
MS_7
  1

  0
LINE
  5
11D
100
AcDbEntity
  8
0
  6
CONTINUOUS
 62
               7
100
AcDbLine
 10
-11.25
 20
38.149999999999999
 30
0.0
 11
-11.25
 21
24.649999999999999
 31
0.0
  0
LINE
  5
11E
100
AcDbEntity
  8
0
  6
CONTINUOUS
 62
               7
100
AcDbLine
 10
11.25
 20
38.149999999999999
 30
0.0
 11
11.25
 21
24.649999999999999
 31
0.0
  0
LINE
  5
11F
100
AcDbEntity
  8
0
  6
CONTINUOUS
 62
               7
100
AcDbLine
 10
-8.1300000000000008
 20
-6.3499999999999996
 30
0.0
 11
-8.5
 21
5.6500000000000004
 31
0.0
  0
LINE
  5
120
100
AcDbEntity
  8
0
  6
CONTINUOUS
 62
               2
100
AcDbLine
 10
-7.2699999999999996
 20
-6.3200000000000003
 30
0.0
 11
-7.6500000000000004
 21
5.6500000000000004
 31
0.0
  0
LINE
  5
121
100
AcDbEntity
  8
0
  6
CONTINUOUS
 62
               2
100
AcDbLine
 10
7.2699999999999996
 20
-6.3200000000000003
 30
0.0
 11
7.6500000000000004
 21
5.6500000000000004
 31
0.0
  0
LINE
  5
122
100
AcDbEntity
  8
0
  6
CONTINUOUS
 62
               7
100
AcDbLine
 10
8.1300000000000008
 20
-6.3499999999999996
 30
0.0
 11
8.5
 21
5.6500000000000004
 31
0.0
  0
LINE
  5
123
100
AcDbEntity
  8
0
  6
CONTINUOUS
 62
               7
100
AcDbLine
 10
12.199999999999999
 20
12.5
 30
0.0
 11
13.5
 21
12.5
 31
0.0
  0
LINE
  5
124
100
AcDbEntity
  8
0
  6
CONTINUOUS
 62
               7
100
AcDbLine
 10
12.199999999999999
 20
16.5
 30
0.0
 11
13.5
 21
16.5
 31
0.0
  0
LINE
  5
125
100
AcDbEntity
  8
0
  6
CONTINUOUS
 62
               7
100
AcDbLine
 10
26.800000000000001
 20
19.399999999999999
 30
0.0
 11
27.800000000000001
 21
19.399999999999999
 31
0.0
  0
LINE
  5
126
100
AcDbEntity
  8
0
  6
CONTINUOUS
 62
               7
100
AcDbLine
 10
27.800000000000001
 20
21.399999999999999
 30
0.0
 11
27.800000000000001
 21
7.5999999999999996
 31
0.0
  0
LINE
  5
127
100
AcDbEntity
  8
0
  6
CONTINUOUS
 62
               7
100
AcDbLine
 10
29.800000000000001
 20
21.399999999999999
 30
0.0
 11
29.800000000000001
 21
7.5999999999999996
 31
0.0
  0
LINE
  5
128
100
AcDbEntity
  8
0
  6
CONTINUOUS
 62
               7
100
AcDbLine
 10
26.800000000000001
 20
21.75
 30
0.0
 11
26.800000000000001
 21
7.25
 31
0.0
  0
LINE
  5
129
100
AcDbEntity
  8
0
  6
CONTINUOUS
 62
               7
100
AcDbLine
 10
26.800000000000001
 20
9.5999999999999996
 30
0.0
 11
27.800000000000001
 21
9.5999999999999996
 31
0.0
  0
LINE
  5
12A
100
AcDbEntity
  8
0
  6
CONTINUOUS
 62
               7
100
AcDbLine
 10
27.800000000000001
 20
7.5999999999999996
 30
0.0
 11
29.800000000000001
 21
7.5999999999999996
 31
0.0
  0
LINE
  5
12B
100
AcDbEntity
  8
0
  6
CONTINUOUS
 62
               7
100
AcDbLine
 10
27.800000000000001
 20
21.399999999999999
 30
0.0
 11
29.800000000000001
 21
21.399999999999999
 31
0.0
  0
LINE
  5
12C
100
AcDbEntity
  8
0
  6
CENTER
 62
               2
100
AcDbLine
 10
-12.529999999999999
 20
0.0
 30
0.0
 11
11.960000000000001
 21
0.0
 31
0.0
  0
LINE
  5
12D
100
AcDbEntity
  8
0
  6
CONTINUOUS
 62
               7
100
AcDbLine
 10
-8.1300000000000008
 20
-6.3499999999999996
 30
0.0
 11
8.1300000000000008
 21
-6.3499999999999996
 31
0.0
  0
LINE
  5
12E
100
AcDbEntity
  8
0
  6
CONTINUOUS
 62
               7
100
AcDbLine
 10
9.0999999999999996
 20
6.6500000000000004
 30
0.0
 11
9.0999999999999996
 21
5.6500000000000004
 31
0.0
  0
LINE
  5
12F
100
AcDbEntity
  8
0
  6
CONTINUOUS
 62
               7
100
AcDbLine
 10
-9.0999999999999996
 20
6.6500000000000004
 30
0.0
 11
-9.0999999999999996
 21
5.6500000000000004
 31
0.0
  0
LINE
  5
130
100
AcDbEntity
  8
0
  6
CONTINUOUS
 62
               7
100
AcDbLine
 10
-9.0999999999999996
 20
5.6500000000000004
 30
0.0
 11
9.0999999999999996
 21
5.6500000000000004
 31
0.0
  0
LINE
  5
131
100
AcDbEntity
  8
0
  6
DASHED
 62
               2
100
AcDbLine
 10
7.5
 20
38.170000000000002
 30
0.0
 11
7.1200000000000001
 21
26.170000000000002
 31
0.0
  0
LINE
  5
132
100
AcDbEntity
  8
0
  6
DASHED
 62
               2
100
AcDbLine
 10
-7.5
 20
38.170000000000002
 30
0.0
 11
-7.1200000000000001
 21
26.170000000000002
 31
0.0
  0
LINE
  5
133
100
AcDbEntity
  8
0
  6
DASHED
 62
               2
100
AcDbLine
 10
8.3000000000000007
 20
38.149999999999999
 30
0.0
 11
7.9199999999999999
 21
26.149999999999999
 31
0.0
  0
LINE
  5
134
100
AcDbEntity
  8
0
  6
DASHED
 62
               2
100
AcDbLine
 10
-8.3000000000000007
 20
38.149999999999999
 30
0.0
 11
-7.9199999999999999
 21
26.149999999999999
 31
0.0
  0
LINE
  5
135
100
AcDbEntity
  8
0
  6
DASHED
 62
               2
100
AcDbLine
 10
-7.9199999999999999
 20
26.149999999999999
 30
0.0
 11
7.9199999999999999
 21
26.149999999999999
 31
0.0
  0
LINE
  5
136
100
AcDbEntity
  8
0
  6
CONTINUOUS
 62
               7
100
AcDbLine
 10
-6.0
 20
38.149999999999999
 30
0.0
 11
-6.0
 21
24.649999999999999
 31
0.0
  0
LINE
  5
137
100
AcDbEntity
  8
0
  6
CONTINUOUS
 62
               7
100
AcDbLine
 10
6.0
 20
38.149999999999999
 30
0.0
 11
6.0
 21
24.649999999999999
 31
0.0
  0
LINE
  5
138
100
AcDbEntity
  8
0
  6
CONTINUOUS
 62
               7
100
AcDbLine
 10
-11.25
 20
38.149999999999999
 30
0.0
 11
11.25
 21
38.149999999999999
 31
0.0
  0
LINE
  5
139
100
AcDbEntity
  8
0
  6
CONTINUOUS
 62
               7
100
AcDbLine
 10
12.5
 20
20.75
 30
0.0
 11
13.5
 21
21.75
 31
0.0
  0
LINE
  5
13A
100
AcDbEntity
  8
0
  6
CONTINUOUS
 62
               7
100
AcDbLine
 10
12.5
 20
8.25
 30
0.0
 11
13.5
 21
7.25
 31
0.0
  0
LINE
  5
13B
100
AcDbEntity
  8
0
  6
CONTINUOUS
 62
               7
100
AcDbLine
 10
12.199999999999999
 20
20.75
 30
0.0
 11
12.5
 21
20.75
 31
0.0
  0
LINE
  5
13C
100
AcDbEntity
  8
0
  6
CONTINUOUS
 62
               7
100
AcDbLine
 10
11.67
 20
8.25
 30
0.0
 11
12.5
 21
8.25
 31
0.0
  0
LINE
  5
13D
100
AcDbEntity
  8
0
  6
CONTINUOUS
 62
               7
100
AcDbLine
 10
12.5
 20
20.75
 30
0.0
 11
12.5
 21
16.5
 31
0.0
  0
LINE
  5
13E
100
AcDbEntity
  8
0
  6
CONTINUOUS
 62
               7
100
AcDbLine
 10
13.5
 20
21.75
 30
0.0
 11
13.5
 21
16.5
 31
0.0
  0
LINE
  5
13F
100
AcDbEntity
  8
0
  6
CONTINUOUS
 62
               7
100
AcDbLine
 10
13.5
 20
7.25
 30
0.0
 11
26.800000000000001
 21
7.25
 31
0.0
  0
LINE
  5
140
100
AcDbEntity
  8
0
  6
CONTINUOUS
 62
               7
100
AcDbLine
 10
13.5
 20
21.75
 30
0.0
 11
26.800000000000001
 21
21.75
 31
0.0
  0
LINE
  5
141
100
AcDbEntity
  8
0
  6
CONTINUOUS
 62
               7
100
AcDbLine
 10
12.199999999999999
 20
9.1600000000000001
 30
0.0
 11
-12.199999999999999
 21
9.1600000000000001
 31
0.0
  0
LINE
  5
142
100
AcDbEntity
  8
0
  6
CONTINUOUS
 62
               7
100
AcDbLine
 10
-12.199999999999999
 20
22.129999999999999
 30
0.0
 11
12.199999999999999
 21
22.129999999999999
 31
0.0
  0
LINE
  5
143
100
AcDbEntity
  8
0
  6
CONTINUOUS
 62
               7
100
AcDbLine
 10
10.75
 20
24.649999999999999
 30
0.0
 11
12.199999999999999
 21
22.129999999999999
 31
0.0
  0
LINE
  5
144
100
AcDbEntity
  8
0
  6
CONTINUOUS
 62
               7
100
AcDbLine
 10
-12.199999999999999
 20
9.1600000000000001
 30
0.0
 11
-10.75
 21
6.6500000000000004
 31
0.0
  0
LINE
  5
145
100
AcDbEntity
  8
0
  6
CONTINUOUS
 62
               7
100
AcDbLine
 10
10.75
 20
6.6500000000000004
 30
0.0
 11
12.199999999999999
 21
9.1600000000000001
 31
0.0
  0
LINE
  5
146
100
AcDbEntity
  8
0
  6
CONTINUOUS
 62
               7
100
AcDbLine
 10
-12.199999999999999
 20
22.129999999999999
 30
0.0
 11
-10.75
 21
24.649999999999999
 31
0.0
  0
LINE
  5
147
100
AcDbEntity
  8
0
  6
CONTINUOUS
 62
               7
100
AcDbLine
 10
-12.199999999999999
 20
22.129999999999999
 30
0.0
 11
-12.199999999999999
 21
9.1600000000000001
 31
0.0
  0
LINE
  5
148
100
AcDbEntity
  8
0
  6
CONTINUOUS
 62
               7
100
AcDbLine
 10
12.199999999999999
 20
22.129999999999999
 30
0.0
 11
12.199999999999999
 21
9.1600000000000001
 31
0.0
  0
LINE
  5
149
100
AcDbEntity
  8
0
  6
CONTINUOUS
 62
               7
100
AcDbLine
 10
-11.25
 20
24.649999999999999
 30
0.0
 11
11.25
 21
24.649999999999999
 31
0.0
  0
LINE
  5
14A
100
AcDbEntity
  8
0
  6
CONTINUOUS
 62
               7
100
AcDbLine
 10
-10.75
 20
6.6500000000000004
 30
0.0
 11
10.75
 21
6.6500000000000004
 31
0.0
  0
LINE
  5
14B
100
AcDbEntity
  8
0
  6
CENTER
 62
               2
100
AcDbLine
 10
-20.850000000000001
 20
14.5
 30
0.0
 11
38.149999999999999
 21
14.5
 31
0.0
  0
LINE
  5
14C
100
AcDbEntity
  8
0
  6
CENTER
 62
               2
100
AcDbLine
 10
0.0
 20
42.140000000000001
 30
0.0
 11
0.0
 21
-13.550000000000001
 31
0.0
  0
LINE
  5
14D
100
AcDbEntity
  8
0
  6
CONTINUOUS
 62
               7
100
AcDbLine
 10
12.5
 20
12.5
 30
0.0
 11
12.5
 21
8.25
 31
0.0
  0
LINE
  5
14E
100
AcDbEntity
  8
0
  6
CONTINUOUS
 62
               7
100
AcDbLine
 10
13.5
 20
12.5
 30
0.0
 11
13.5
 21
7.25
 31
0.0
  0
ENDBLK
  5
14F
100
AcDbEntity
  8
0
100
AcDbBlockEnd
  0
BLOCK
  5
150
100
AcDbEntity
  8
0
100
AcDbBlockBegin
  2
MS_8
 70
               0
 10
0.0
 20
0.0
 30
0.0
  3
MS_8
  1

  0
CIRCLE
  5
151
100
AcDbEntity
  8
0
  6
CONTINUOUS
 62
               7
100
AcDbCircle
 10
0.0
 20
14.5
 30
0.0
 40
4.0999994277954102
  0
CIRCLE
  5
152
100
AcDbEntity
  8
0
  6
CONTINUOUS
 62
               7
100
AcDbCircle
 10
0.0
 20
14.5
 30
0.0
 40
7.25
  0
CIRCLE
  5
153
100
AcDbEntity
  8
0
  6
CONTINUOUS
 62
               7
100
AcDbCircle
 10
0.0
 20
14.5
 30
0.0
 40
6.8999996185302734
  0
LINE
  5
154
100
AcDbEntity
  8
0
  6
CONTINUOUS
 62
               7
100
AcDbLine
 10
-8.1300000000000008
 20
-6.3499999999999996
 30
0.0
 11
-8.5
 21
5.6500000000000004
 31
0.0
  0
LINE
  5
155
100
AcDbEntity
  8
0
  6
CONTINUOUS
 62
               2
100
AcDbLine
 10
-7.2699999999999996
 20
-6.3200000000000003
 30
0.0
 11
-7.6500000000000004
 21
5.6500000000000004
 31
0.0
  0
LINE
  5
156
100
AcDbEntity
  8
0
  6
CONTINUOUS
 62
               2
100
AcDbLine
 10
7.2699999999999996
 20
-6.3200000000000003
 30
0.0
 11
7.6500000000000004
 21
5.6500000000000004
 31
0.0
  0
LINE
  5
157
100
AcDbEntity
  8
0
  6
CONTINUOUS
 62
               7
100
AcDbLine
 10
8.1300000000000008
 20
-6.3499999999999996
 30
0.0
 11
8.5
 21
5.6500000000000004
 31
0.0
  0
LINE
  5
158
100
AcDbEntity
  8
0
  6
CONTINUOUS
 62
               7
100
AcDbLine
 10
0.0
 20
38.149999999999999
 30
0.0
 11
0.0
 21
24.649999999999999
 31
0.0
  0
LINE
  5
159
100
AcDbEntity
  8
0
  6
CENTER
 62
               2
100
AcDbLine
 10
0.0
 20
46.060000000000002
 30
0.0
 11
0.0
 21
-16.350000000000001
 31
0.0
  0
LINE
  5
15A
100
AcDbEntity
  8
0
  6
CONTINUOUS
 62
               7
100
AcDbLine
 10
-10.5
 20
38.149999999999999
 30
0.0
 11
-10.5
 21
24.649999999999999
 31
0.0
  0
LINE
  5
15B
100
AcDbEntity
  8
0
  6
CONTINUOUS
 62
               7
100
AcDbLine
 10
10.5
 20
38.149999999999999
 30
0.0
 11
10.5
 21
24.649999999999999
 31
0.0
  0
LINE
  5
15C
100
AcDbEntity
  8
0
  6
CONTINUOUS
 62
               7
100
AcDbLine
 10
-10.5
 20
38.149999999999999
 30
0.0
 11
10.5
 21
38.149999999999999
 31
0.0
  0
LINE
  5
15D
100
AcDbEntity
  8
0
  6
CONTINUOUS
 62
               7
100
AcDbLine
 10
4.9000000000000004
 20
9.1600000000000001
 30
0.0
 11
12.199999999999999
 21
9.1600000000000001
 31
0.0
  0
LINE
  5
15E
100
AcDbEntity
  8
0
  6
CONTINUOUS
 62
               7
100
AcDbLine
 10
-12.199999999999999
 20
9.1600000000000001
 30
0.0
 11
-4.9000000000000004
 21
9.1600000000000001
 31
0.0
  0
LINE
  5
15F
100
AcDbEntity
  8
0
  6
CONTINUOUS
 62
               7
100
AcDbLine
 10
-12.199999999999999
 20
22.129999999999999
 30
0.0
 11
12.199999999999999
 21
22.129999999999999
 31
0.0
  0
LINE
  5
160
100
AcDbEntity
  8
0
  6
CONTINUOUS
 62
               7
100
AcDbLine
 10
10.75
 20
6.6500000000000004
 30
0.0
 11
12.199999999999999
 21
9.1600000000000001
 31
0.0
  0
LINE
  5
161
100
AcDbEntity
  8
0
  6
CONTINUOUS
 62
               7
100
AcDbLine
 10
-12.199999999999999
 20
22.129999999999999
 30
0.0
 11
-10.75
 21
24.649999999999999
 31
0.0
  0
LINE
  5
162
100
AcDbEntity
  8
0
  6
CONTINUOUS
 62
               7
100
AcDbLine
 10
10.75
 20
24.649999999999999
 30
0.0
 11
12.199999999999999
 21
22.129999999999999
 31
0.0
  0
LINE
  5
163
100
AcDbEntity
  8
0
  6
CONTINUOUS
 62
               7
100
AcDbLine
 10
-12.199999999999999
 20
9.1600000000000001
 30
0.0
 11
-10.75
 21
6.6500000000000004
 31
0.0
  0
LINE
  5
164
100
AcDbEntity
  8
0
  6
CONTINUOUS
 62
               7
100
AcDbLine
 10
12.199999999999999
 20
22.129999999999999
 30
0.0
 11
12.199999999999999
 21
9.1600000000000001
 31
0.0
  0
LINE
  5
165
100
AcDbEntity
  8
0
  6
CONTINUOUS
 62
               7
100
AcDbLine
 10
-12.199999999999999
 20
22.129999999999999
 30
0.0
 11
-12.199999999999999
 21
9.1600000000000001
 31
0.0
  0
LINE
  5
166
100
AcDbEntity
  8
0
  6
CONTINUOUS
 62
               7
100
AcDbLine
 10
-10.75
 20
24.649999999999999
 30
0.0
 11
10.75
 21
24.649999999999999
 31
0.0
  0
LINE
  5
167
100
AcDbEntity
  8
0
  6
CONTINUOUS
 62
               7
100
AcDbLine
 10
-10.75
 20
6.6500000000000004
 30
0.0
 11
10.75
 21
6.6500000000000004
 31
0.0
  0
LINE
  5
168
100
AcDbEntity
  8
0
  6
CENTER
 62
               2
100
AcDbLine
 10
-12.529999999999999
 20
0.0
 30
0.0
 11
11.960000000000001
 21
0.0
 31
0.0
  0
LINE
  5
169
100
AcDbEntity
  8
0
  6
CONTINUOUS
 62
               7
100
AcDbLine
 10
-8.0999999999999996
 20
-6.3499999999999996
 30
0.0
 11
8.0999999999999996
 21
-6.3499999999999996
 31
0.0
  0
LINE
  5
16A
100
AcDbEntity
  8
0
  6
CONTINUOUS
 62
               7
100
AcDbLine
 10
9.0999999999999996
 20
6.6500000000000004
 30
0.0
 11
9.0999999999999996
 21
5.6500000000000004
 31
0.0
  0
LINE
  5
16B
100
AcDbEntity
  8
0
  6
CONTINUOUS
 62
               7
100
AcDbLine
 10
-9.0999999999999996
 20
6.6500000000000004
 30
0.0
 11
-9.0999999999999996
 21
5.6500000000000004
 31
0.0
  0
LINE
  5
16C
100
AcDbEntity
  8
0
  6
CONTINUOUS
 62
               7
100
AcDbLine
 10
-9.0999999999999996
 20
5.6500000000000004
 30
0.0
 11
9.0999999999999996
 21
5.6500000000000004
 31
0.0
  0
LINE
  5
16D
100
AcDbEntity
  8
0
  6
CENTER
 62
               2
100
AcDbLine
 10
-32.950000000000003
 20
14.5
 30
0.0
 11
40.649999999999999
 21
14.5
 31
0.0
  0
ENDBLK
  5
16E
100
AcDbEntity
  8
0
100
AcDbBlockEnd
  0
BLOCK
  5
16F
100
AcDbEntity
  8
0
100
AcDbBlockBegin
  2
MS_9
 70
               0
 10
0.0
 20
0.0
 30
0.0
  3
MS_9
  1

  0
CIRCLE
  5
170
100
AcDbEntity
  8
0
  6
CONTINUOUS
 62
               2
100
AcDbCircle
 10
0.0
 20
0.0
 30
0.0
 40
8.3000001907348633
  0
CIRCLE
  5
171
100
AcDbEntity
  8
0
  6
CONTINUOUS
 62
               7
100
AcDbCircle
 10
0.0
 20
0.0
 30
0.0
 40
12.199999809265137
  0
CIRCLE
  5
172
100
AcDbEntity
  8
0
  6
CONTINUOUS
 62
               7
100
AcDbCircle
 10
0.0
 20
0.0
 30
0.0
 40
7.4499998092651367
  0
LINE
  5
173
100
AcDbEntity
  8
0
  6
CONTINUOUS
 62
               7
100
AcDbLine
 10
12.5
 20
6.25
 30
0.0
 11
13.5
 21
7.25
 31
0.0
  0
LINE
  5
174
100
AcDbEntity
  8
0
  6
CONTINUOUS
 62
               7
100
AcDbLine
 10
12.5
 20
-6.25
 30
0.0
 11
13.5
 21
-7.25
 31
0.0
  0
LINE
  5
175
100
AcDbEntity
  8
0
  6
CONTINUOUS
 62
               7
100
AcDbLine
 10
10.470000000000001
 20
-6.25
 30
0.0
 11
12.5
 21
-6.25
 31
0.0
  0
LINE
  5
176
100
AcDbEntity
  8
0
  6
CONTINUOUS
 62
               7
100
AcDbLine
 10
10.470000000000001
 20
6.25
 30
0.0
 11
12.5
 21
6.25
 31
0.0
  0
LINE
  5
177
100
AcDbEntity
  8
0
  6
CONTINUOUS
 62
               7
100
AcDbLine
 10
12.5
 20
6.25
 30
0.0
 11
12.5
 21
-6.25
 31
0.0
  0
LINE
  5
178
100
AcDbEntity
  8
0
  6
CONTINUOUS
 62
               7
100
AcDbLine
 10
13.5
 20
7.25
 30
0.0
 11
13.5
 21
-7.25
 31
0.0
  0
LINE
  5
179
100
AcDbEntity
  8
0
  6
CONTINUOUS
 62
               7
100
AcDbLine
 10
9.8100000000000005
 20
-7.25
 30
0.0
 11
26.800000000000001
 21
-7.25
 31
0.0
  0
LINE
  5
17A
100
AcDbEntity
  8
0
  6
CONTINUOUS
 62
               7
100
AcDbLine
 10
9.8100000000000005
 20
7.25
 30
0.0
 11
26.800000000000001
 21
7.25
 31
0.0
  0
LINE
  5
17B
100
AcDbEntity
  8
0
  6
CONTINUOUS
 62
               7
100
AcDbLine
 10
6.0599999999999996
 20
10.5
 30
0.0
 11
12.119999999999999
 21
0.0
 31
0.0
  0
LINE
  5
17C
100
AcDbEntity
  8
0
  6
CONTINUOUS
 62
               7
100
AcDbLine
 10
-12.119999999999999
 20
0.0
 30
0.0
 11
-6.0599999999999996
 21
-10.5
 31
0.0
  0
LINE
  5
17D
100
AcDbEntity
  8
0
  6
CONTINUOUS
 62
               7
100
AcDbLine
 10
6.0599999999999996
 20
-10.5
 30
0.0
 11
12.119999999999999
 21
0.0
 31
0.0
  0
LINE
  5
17E
100
AcDbEntity
  8
0
  6
CONTINUOUS
 62
               7
100
AcDbLine
 10
-12.119999999999999
 20
0.0
 30
0.0
 11
-6.0599999999999996
 21
10.5
 31
0.0
  0
LINE
  5
17F
100
AcDbEntity
  8
0
  6
CONTINUOUS
 62
               7
100
AcDbLine
 10
-6.0599999999999996
 20
-10.5
 30
0.0
 11
6.0599999999999996
 21
-10.5
 31
0.0
  0
LINE
  5
180
100
AcDbEntity
  8
0
  6
CONTINUOUS
 62
               7
100
AcDbLine
 10
-6.0599999999999996
 20
10.5
 30
0.0
 11
6.0599999999999996
 21
10.5
 31
0.0
  0
LINE
  5
181
100
AcDbEntity
  8
0
  6
CONTINUOUS
 62
               7
100
AcDbLine
 10
27.800000000000001
 20
-6.9000000000000004
 30
0.0
 11
29.800000000000001
 21
-6.9000000000000004
 31
0.0
  0
LINE
  5
182
100
AcDbEntity
  8
0
  6
CONTINUOUS
 62
               7
100
AcDbLine
 10
27.800000000000001
 20
6.9000000000000004
 30
0.0
 11
29.800000000000001
 21
6.9000000000000004
 31
0.0
  0
LINE
  5
183
100
AcDbEntity
  8
0
  6
CONTINUOUS
 62
               7
100
AcDbLine
 10
26.800000000000001
 20
-4.9000000000000004
 30
0.0
 11
27.800000000000001
 21
-4.9000000000000004
 31
0.0
  0
LINE
  5
184
100
AcDbEntity
  8
0
  6
CONTINUOUS
 62
               7
100
AcDbLine
 10
26.800000000000001
 20
4.9000000000000004
 30
0.0
 11
27.800000000000001
 21
4.9000000000000004
 31
0.0
  0
LINE
  5
185
100
AcDbEntity
  8
0
  6
CONTINUOUS
 62
               7
100
AcDbLine
 10
27.800000000000001
 20
6.9000000000000004
 30
0.0
 11
27.800000000000001
 21
-6.9000000000000004
 31
0.0
  0
LINE
  5
186
100
AcDbEntity
  8
0
  6
CONTINUOUS
 62
               7
100
AcDbLine
 10
29.800000000000001
 20
6.9000000000000004
 30
0.0
 11
29.800000000000001
 21
-6.9000000000000004
 31
0.0
  0
LINE
  5
187
100
AcDbEntity
  8
0
  6
CONTINUOUS
 62
               7
100
AcDbLine
 10
26.800000000000001
 20
7.25
 30
0.0
 11
26.800000000000001
 21
-7.25
 31
0.0
  0
LINE
  5
188
100
AcDbEntity
  8
0
  6
CENTER
 62
               2
100
AcDbLine
 10
-19.850000000000001
 20
0.0
 30
0.0
 11
39.140000000000001
 21
0.0
 31
0.0
  0
LINE
  5
189
100
AcDbEntity
  8
0
  6
CENTER
 62
               2
100
AcDbLine
 10
0.0
 20
19.199999999999999
 30
0.0
 11
0.0
 21
-18.399999999999999
 31
0.0
  0
ENDBLK
  5
18A
100
AcDbEntity
  8
0
100
AcDbBlockEnd
  0
BLOCK
  5
18B
100
AcDbEntity
  8
0
100
AcDbBlockBegin
  2
MS_10
 70
               0
 10
0.0
 20
0.0
 30
0.0
  3
MS_10
  1

  0
LINE
  5
18C
100
AcDbEntity
  8
0
  6
CONTINUOUS
 62
               7
100
AcDbLine
 10
9.1699999999999999
 20
20.25
 30
0.0
 11
11.75
 21
20.25
 31
0.0
  0
LINE
  5
18D
100
AcDbEntity
  8
0
  6
CONTINUOUS
 62
               7
100
AcDbLine
 10
11.75
 20
20.25
 30
0.0
 11
14.5
 21
23.0
 31
0.0
  0
LINE
  5
18E
100
AcDbEntity
  8
0
  6
CONTINUOUS
 62
               7
100
AcDbLine
 10
11.75
 20
16.0
 30
0.0
 11
11.75
 21
20.25
 31
0.0
  0
LINE
  5
18F
100
AcDbEntity
  8
0
  6
CONTINUOUS
 62
               7
100
AcDbLine
 10
28.199999999999999
 20
22.399999999999999
 30
0.0
 11
28.199999999999999
 21
5.5999999999999996
 31
0.0
  0
LINE
  5
190
100
AcDbEntity
  8
0
  6
CONTINUOUS
 62
               7
100
AcDbLine
 10
30.399999999999999
 20
22.399999999999999
 30
0.0
 11
30.399999999999999
 21
5.5999999999999996
 31
0.0
  0
LINE
  5
191
100
AcDbEntity
  8
0
  6
CONTINUOUS
 62
               7
100
AcDbLine
 10
27.0
 20
23.0
 30
0.0
 11
27.0
 21
5.0
 31
0.0
  0
LINE
  5
192
100
AcDbEntity
  8
0
  6
CONTINUOUS
 62
               7
100
AcDbLine
 10
28.199999999999999
 20
22.399999999999999
 30
0.0
 11
30.399999999999999
 21
22.399999999999999
 31
0.0
  0
LINE
  5
193
100
AcDbEntity
  8
0
  6
CONTINUOUS
 62
               7
100
AcDbLine
 10
27.0
 20
20.0
 30
0.0
 11
28.199999999999999
 21
20.0
 31
0.0
  0
LINE
  5
194
100
AcDbEntity
  8
0
  6
CONTINUOUS
 62
               7
100
AcDbLine
 10
28.199999999999999
 20
5.5999999999999996
 30
0.0
 11
30.399999999999999
 21
5.5999999999999996
 31
0.0
  0
LINE
  5
195
100
AcDbEntity
  8
0
  6
CONTINUOUS
 62
               2
100
AcDbLine
 10
5.9000000000000004
 20
5.0099999999999998
 30
0.0
 11
5.5999999999999996
 21
-5.9800000000000004
 31
0.0
  0
LINE
  5
196
100
AcDbEntity
  8
0
  6
CONTINUOUS
 62
               2
100
AcDbLine
 10
-5.9000000000000004
 20
5.0099999999999998
 30
0.0
 11
-5.5999999999999996
 21
-5.9800000000000004
 31
0.0
  0
LINE
  5
197
100
AcDbEntity
  8
0
  6
CONTINUOUS
 62
               7
100
AcDbLine
 10
6.7000000000000002
 20
4.9900000000000002
 30
0.0
 11
6.4000000000000004
 21
-6.0099999999999998
 31
0.0
  0
LINE
  5
198
100
AcDbEntity
  8
0
  6
CONTINUOUS
 62
               7
100
AcDbLine
 10
-6.7000000000000002
 20
4.9900000000000002
 30
0.0
 11
-6.4000000000000004
 21
-6.0099999999999998
 31
0.0
  0
LINE
  5
199
100
AcDbEntity
  8
0
  6
CONTINUOUS
 62
               7
100
AcDbLine
 10
-6.4000000000000004
 20
-6.0099999999999998
 30
0.0
 11
6.4000000000000004
 21
-6.0099999999999998
 31
0.0
  0
LINE
  5
19A
100
AcDbEntity
  8
0
  6
CONTINUOUS
 62
               7
100
AcDbLine
 10
-7.4000000000000004
 20
5.9900000000000002
 30
0.0
 11
-7.4000000000000004
 21
4.9900000000000002
 31
0.0
  0
LINE
  5
19B
100
AcDbEntity
  8
0
  6
CONTINUOUS
 62
               7
100
AcDbLine
 10
7.4000000000000004
 20
5.9900000000000002
 30
0.0
 11
7.4000000000000004
 21
4.9900000000000002
 31
0.0
  0
LINE
  5
19C
100
AcDbEntity
  8
0
  6
CONTINUOUS
 62
               7
100
AcDbLine
 10
-7.4000000000000004
 20
4.9900000000000002
 30
0.0
 11
7.4000000000000004
 21
4.9900000000000002
 31
0.0
  0
LINE
  5
19D
100
AcDbEntity
  8
0
  6
CENTER
 62
               2
100
AcDbLine
 10
-10.619999999999999
 20
0.0
 30
0.0
 11
10.52
 21
0.0
 31
0.0
  0
LINE
  5
19E
100
AcDbEntity
  8
0
  6
DASHED
 62
               2
100
AcDbLine
 10
5.75
 20
32.509999999999998
 30
0.0
 11
5.4000000000000004
 21
21.510000000000002
 31
0.0
  0
LINE
  5
19F
100
AcDbEntity
  8
0
  6
DASHED
 62
               2
100
AcDbLine
 10
-5.75
 20
32.509999999999998
 30
0.0
 11
-5.4000000000000004
 21
21.510000000000002
 31
0.0
  0
LINE
  5
1A0
100
AcDbEntity
  8
0
  6
DASHED
 62
               2
100
AcDbLine
 10
-6.2000000000000002
 20
21.489999999999998
 30
0.0
 11
6.2000000000000002
 21
21.489999999999998
 31
0.0
  0
LINE
  5
1A1
100
AcDbEntity
  8
0
  6
DASHED
 62
               2
100
AcDbLine
 10
6.5499999999999998
 20
32.490000000000002
 30
0.0
 11
6.2000000000000002
 21
21.489999999999998
 31
0.0
  0
LINE
  5
1A2
100
AcDbEntity
  8
0
  6
DASHED
 62
               2
100
AcDbLine
 10
-6.5499999999999998
 20
32.490000000000002
 30
0.0
 11
-6.2000000000000002
 21
21.489999999999998
 31
0.0
  0
LINE
  5
1A3
100
AcDbEntity
  8
0
  6
CONTINUOUS
 62
               7
100
AcDbLine
 10
4.9000000000000004
 20
32.490000000000002
 30
0.0
 11
4.9000000000000004
 21
20.989999999999998
 31
0.0
  0
LINE
  5
1A4
100
AcDbEntity
  8
0
  6
CONTINUOUS
 62
               7
100
AcDbLine
 10
-4.9000000000000004
 20
32.490000000000002
 30
0.0
 11
-4.9000000000000004
 21
20.989999999999998
 31
0.0
  0
LINE
  5
1A5
100
AcDbEntity
  8
0
  6
CONTINUOUS
 62
               7
100
AcDbLine
 10
-9.8000000000000007
 20
32.490000000000002
 30
0.0
 11
-9.8000000000000007
 21
20.989999999999998
 31
0.0
  0
LINE
  5
1A6
100
AcDbEntity
  8
0
  6
CONTINUOUS
 62
               7
100
AcDbLine
 10
9.8000000000000007
 20
32.490000000000002
 30
0.0
 11
9.8000000000000007
 21
20.989999999999998
 31
0.0
  0
LINE
  5
1A7
100
AcDbEntity
  8
0
  6
CONTINUOUS
 62
               7
100
AcDbLine
 10
-9.8000000000000007
 20
32.490000000000002
 30
0.0
 11
9.8000000000000007
 21
32.490000000000002
 31
0.0
  0
LINE
  5
1A8
100
AcDbEntity
  8
0
  6
CONTINUOUS
 62
               7
100
AcDbLine
 10
11.75
 20
12.0
 30
0.0
 11
11.75
 21
7.75
 31
0.0
  0
LINE
  5
1A9
100
AcDbEntity
  8
0
  6
CONTINUOUS
 62
               7
100
AcDbLine
 10
9.8000000000000007
 20
16.0
 30
0.0
 11
14.5
 21
16.0
 31
0.0
  0
LINE
  5
1AA
100
AcDbEntity
  8
0
  6
CONTINUOUS
 62
               7
100
AcDbLine
 10
9.8000000000000007
 20
12.0
 30
0.0
 11
14.5
 21
12.0
 31
0.0
  0
LINE
  5
1AB
100
AcDbEntity
  8
0
  6
CONTINUOUS
 62
               7
100
AcDbLine
 10
11.75
 20
7.75
 30
0.0
 11
14.5
 21
5.0
 31
0.0
  0
LINE
  5
1AC
100
AcDbEntity
  8
0
  6
CONTINUOUS
 62
               7
100
AcDbLine
 10
9.8000000000000007
 20
7.75
 30
0.0
 11
11.75
 21
7.75
 31
0.0
  0
LINE
  5
1AD
100
AcDbEntity
  8
0
  6
CONTINUOUS
 62
               7
100
AcDbLine
 10
14.5
 20
23.0
 30
0.0
 11
14.5
 21
16.0
 31
0.0
  0
LINE
  5
1AE
100
AcDbEntity
  8
0
  6
CONTINUOUS
 62
               7
100
AcDbLine
 10
14.5
 20
23.0
 30
0.0
 11
27.0
 21
23.0
 31
0.0
  0
LINE
  5
1AF
100
AcDbEntity
  8
0
  6
CONTINUOUS
 62
               7
100
AcDbLine
 10
14.5
 20
5.0
 30
0.0
 11
27.0
 21
5.0
 31
0.0
  0
LINE
  5
1B0
100
AcDbEntity
  8
0
  6
CONTINUOUS
 62
               7
100
AcDbLine
 10
-9.8000000000000007
 20
7.7999999999999998
 30
0.0
 11
9.8000000000000007
 21
7.7999999999999998
 31
0.0
  0
LINE
  5
1B1
100
AcDbEntity
  8
0
  6
CONTINUOUS
 62
               7
100
AcDbLine
 10
-9.8000000000000007
 20
19.170000000000002
 30
0.0
 11
9.8000000000000007
 21
19.170000000000002
 31
0.0
  0
LINE
  5
1B2
100
AcDbEntity
  8
0
  6
CONTINUOUS
 62
               7
100
AcDbLine
 10
8.75
 20
20.989999999999998
 30
0.0
 11
9.8000000000000007
 21
19.170000000000002
 31
0.0
  0
LINE
  5
1B3
100
AcDbEntity
  8
0
  6
CONTINUOUS
 62
               7
100
AcDbLine
 10
-9.8000000000000007
 20
7.7999999999999998
 30
0.0
 11
-8.75
 21
5.9900000000000002
 31
0.0
  0
LINE
  5
1B4
100
AcDbEntity
  8
0
  6
CONTINUOUS
 62
               7
100
AcDbLine
 10
8.75
 20
5.9900000000000002
 30
0.0
 11
9.8000000000000007
 21
7.7999999999999998
 31
0.0
  0
LINE
  5
1B5
100
AcDbEntity
  8
0
  6
CONTINUOUS
 62
               7
100
AcDbLine
 10
-9.8000000000000007
 20
19.170000000000002
 30
0.0
 11
-8.75
 21
20.989999999999998
 31
0.0
  0
LINE
  5
1B6
100
AcDbEntity
  8
0
  6
CONTINUOUS
 62
               7
100
AcDbLine
 10
9.8000000000000007
 20
19.170000000000002
 30
0.0
 11
9.8000000000000007
 21
7.7999999999999998
 31
0.0
  0
LINE
  5
1B7
100
AcDbEntity
  8
0
  6
CONTINUOUS
 62
               7
100
AcDbLine
 10
-9.8000000000000007
 20
19.170000000000002
 30
0.0
 11
-9.8000000000000007
 21
7.7999999999999998
 31
0.0
  0
LINE
  5
1B8
100
AcDbEntity
  8
0
  6
CONTINUOUS
 62
               7
100
AcDbLine
 10
-8.75
 20
5.9900000000000002
 30
0.0
 11
8.75
 21
5.9900000000000002
 31
0.0
  0
LINE
  5
1B9
100
AcDbEntity
  8
0
  6
CONTINUOUS
 62
               7
100
AcDbLine
 10
-9.8000000000000007
 20
20.989999999999998
 30
0.0
 11
9.8000000000000007
 21
20.989999999999998
 31
0.0
  0
LINE
  5
1BA
100
AcDbEntity
  8
0
  6
CENTER
 62
               2
100
AcDbLine
 10
0.0
 20
39.789999999999999
 30
0.0
 11
0.0
 21
-18.210000000000001
 31
0.0
  0
LINE
  5
1BB
100
AcDbEntity
  8
0
  6
CENTER
 62
               2
100
AcDbLine
 10
-22.920000000000002
 20
14.0
 30
0.0
 11
40.0
 21
14.0
 31
0.0
  0
LINE
  5
1BC
100
AcDbEntity
  8
0
  6
CONTINUOUS
 62
               7
100
AcDbLine
 10
27.0
 20
8.0
 30
0.0
 11
28.199999999999999
 21
8.0
 31
0.0
  0
LINE
  5
1BD
100
AcDbEntity
  8
0
  6
CONTINUOUS
 62
               7
100
AcDbLine
 10
14.5
 20
12.0
 30
0.0
 11
14.5
 21
5.0
 31
0.0
  0
ENDBLK
  5
1BE
100
AcDbEntity
  8
0
100
AcDbBlockEnd
  0
BLOCK
  5
1BF
100
AcDbEntity
  8
0
100
AcDbBlockBegin
  2
MS_11
 70
               0
 10
0.0
 20
0.0
 30
0.0
  3
MS_11
  1

  0
CIRCLE
  5
1C0
100
AcDbEntity
  8
0
  6
CONTINUOUS
 62
               7
100
AcDbCircle
 10
0.0
 20
14.0
 30
0.0
 40
5.0999994277954102
  0
CIRCLE
  5
1C1
100
AcDbEntity
  8
0
  6
CONTINUOUS
 62
               7
100
AcDbCircle
 10
0.0
 20
14.0
 30
0.0
 40
9.0
  0
CIRCLE
  5
1C2
100
AcDbEntity
  8
0
  6
CONTINUOUS
 62
               7
100
AcDbCircle
 10
0.0
 20
14.0
 30
0.0
 40
8.3999996185302734
  0
LINE
  5
1C3
100
AcDbEntity
  8
0
  6
CONTINUOUS
 62
               7
100
AcDbLine
 10
4.0999999999999996
 20
5.9900000000000002
 30
0.0
 11
8.75
 21
5.9900000000000002
 31
0.0
  0
LINE
  5
1C4
100
AcDbEntity
  8
0
  6
CONTINUOUS
 62
               7
100
AcDbLine
 10
-8.5
 20
32.490000000000002
 30
0.0
 11
-8.5
 21
20.989999999999998
 31
0.0
  0
LINE
  5
1C5
100
AcDbEntity
  8
0
  6
CONTINUOUS
 62
               7
100
AcDbLine
 10
8.5
 20
32.490000000000002
 30
0.0
 11
8.5
 21
20.989999999999998
 31
0.0
  0
LINE
  5
1C6
100
AcDbEntity
  8
0
  6
CONTINUOUS
 62
               7
100
AcDbLine
 10
6.5300000000000002
 20
7.7999999999999998
 30
0.0
 11
9.8000000000000007
 21
7.7999999999999998
 31
0.0
  0
LINE
  5
1C7
100
AcDbEntity
  8
0
  6
CONTINUOUS
 62
               7
100
AcDbLine
 10
7.3600000000000003
 20
19.170000000000002
 30
0.0
 11
9.8000000000000007
 21
19.170000000000002
 31
0.0
  0
LINE
  5
1C8
100
AcDbEntity
  8
0
  6
CONTINUOUS
 62
               7
100
AcDbLine
 10
5.6600000000000001
 20
20.989999999999998
 30
0.0
 11
8.75
 21
20.989999999999998
 31
0.0
  0
LINE
  5
1C9
100
AcDbEntity
  8
0
  6
CONTINUOUS
 62
               7
100
AcDbLine
 10
-8.5
 20
32.490000000000002
 30
0.0
 11
8.5
 21
32.490000000000002
 31
0.0
  0
LINE
  5
1CA
100
AcDbEntity
  8
0
  6
CONTINUOUS
 62
               7
100
AcDbLine
 10
-9.8000000000000007
 20
7.7999999999999998
 30
0.0
 11
-6.5300000000000002
 21
7.7999999999999998
 31
0.0
  0
LINE
  5
1CB
100
AcDbEntity
  8
0
  6
CONTINUOUS
 62
               7
100
AcDbLine
 10
-9.8000000000000007
 20
19.170000000000002
 30
0.0
 11
-7.3600000000000003
 21
19.170000000000002
 31
0.0
  0
LINE
  5
1CC
100
AcDbEntity
  8
0
  6
CONTINUOUS
 62
               7
100
AcDbLine
 10
8.75
 20
5.9900000000000002
 30
0.0
 11
9.8000000000000007
 21
7.7999999999999998
 31
0.0
  0
LINE
  5
1CD
100
AcDbEntity
  8
0
  6
CONTINUOUS
 62
               7
100
AcDbLine
 10
-9.8000000000000007
 20
19.170000000000002
 30
0.0
 11
-8.75
 21
20.989999999999998
 31
0.0
  0
LINE
  5
1CE
100
AcDbEntity
  8
0
  6
CONTINUOUS
 62
               7
100
AcDbLine
 10
8.75
 20
20.989999999999998
 30
0.0
 11
9.8000000000000007
 21
19.170000000000002
 31
0.0
  0
LINE
  5
1CF
100
AcDbEntity
  8
0
  6
CONTINUOUS
 62
               7
100
AcDbLine
 10
-9.8000000000000007
 20
7.7999999999999998
 30
0.0
 11
-8.75
 21
5.9900000000000002
 31
0.0
  0
LINE
  5
1D0
100
AcDbEntity
  8
0
  6
CONTINUOUS
 62
               7
100
AcDbLine
 10
9.8000000000000007
 20
19.170000000000002
 30
0.0
 11
9.8000000000000007
 21
7.7999999999999998
 31
0.0
  0
LINE
  5
1D1
100
AcDbEntity
  8
0
  6
CONTINUOUS
 62
               7
100
AcDbLine
 10
-9.8000000000000007
 20
19.170000000000002
 30
0.0
 11
-9.8000000000000007
 21
7.7999999999999998
 31
0.0
  0
LINE
  5
1D2
100
AcDbEntity
  8
0
  6
CONTINUOUS
 62
               7
100
AcDbLine
 10
-8.75
 20
5.9900000000000002
 30
0.0
 11
-4.0999999999999996
 21
5.9900000000000002
 31
0.0
  0
LINE
  5
1D3
100
AcDbEntity
  8
0
  6
CONTINUOUS
 62
               7
100
AcDbLine
 10
-8.75
 20
20.989999999999998
 30
0.0
 11
-5.6600000000000001
 21
20.989999999999998
 31
0.0
  0
LINE
  5
1D4
100
AcDbEntity
  8
0
  6
CONTINUOUS
 62
               7
100
AcDbLine
 10
0.0
 20
32.490000000000002
 30
0.0
 11
0.0
 21
23.0
 31
0.0
  0
LINE
  5
1D5
100
AcDbEntity
  8
0
  6
CENTER
 62
               2
100
AcDbLine
 10
0.0
 20
39.409999999999997
 30
0.0
 11
0.0
 21
-17.41
 31
0.0
  0
LINE
  5
1D6
100
AcDbEntity
  8
0
  6
CENTER
 62
               2
100
AcDbLine
 10
-10.619999999999999
 20
0.0
 30
0.0
 11
10.52
 21
0.0
 31
0.0
  0
LINE
  5
1D7
100
AcDbEntity
  8
0
  6
CONTINUOUS
 62
               2
100
AcDbLine
 10
5.9000000000000004
 20
4.9900000000000002
 30
0.0
 11
5.5999999999999996
 21
-5.9800000000000004
 31
0.0
  0
LINE
  5
1D8
100
AcDbEntity
  8
0
  6
CONTINUOUS
 62
               2
100
AcDbLine
 10
-5.9000000000000004
 20
4.9900000000000002
 30
0.0
 11
-5.5999999999999996
 21
-5.9800000000000004
 31
0.0
  0
LINE
  5
1D9
100
AcDbEntity
  8
0
  6
CONTINUOUS
 62
               7
100
AcDbLine
 10
6.7000000000000002
 20
4.9900000000000002
 30
0.0
 11
6.4000000000000004
 21
-6.0099999999999998
 31
0.0
  0
LINE
  5
1DA
100
AcDbEntity
  8
0
  6
CONTINUOUS
 62
               7
100
AcDbLine
 10
-6.7000000000000002
 20
4.9900000000000002
 30
0.0
 11
-6.4000000000000004
 21
-6.0099999999999998
 31
0.0
  0
LINE
  5
1DB
100
AcDbEntity
  8
0
  6
CONTINUOUS
 62
               7
100
AcDbLine
 10
-6.4000000000000004
 20
-6.0099999999999998
 30
0.0
 11
6.4000000000000004
 21
-6.0099999999999998
 31
0.0
  0
LINE
  5
1DC
100
AcDbEntity
  8
0
  6
CONTINUOUS
 62
               7
100
AcDbLine
 10
-7.4000000000000004
 20
5.9900000000000002
 30
0.0
 11
-7.4000000000000004
 21
4.9900000000000002
 31
0.0
  0
LINE
  5
1DD
100
AcDbEntity
  8
0
  6
CONTINUOUS
 62
               7
100
AcDbLine
 10
7.4000000000000004
 20
5.9900000000000002
 30
0.0
 11
7.4000000000000004
 21
4.9900000000000002
 31
0.0
  0
LINE
  5
1DE
100
AcDbEntity
  8
0
  6
CONTINUOUS
 62
               7
100
AcDbLine
 10
-7.4000000000000004
 20
4.9900000000000002
 30
0.0
 11
7.4000000000000004
 21
4.9900000000000002
 31
0.0
  0
LINE
  5
1DF
100
AcDbEntity
  8
0
  6
CENTER
 62
               2
100
AcDbLine
 10
-19.210000000000001
 20
14.0
 30
0.0
 11
16.43
 21
14.0
 31
0.0
  0
ENDBLK
  5
1E0
100
AcDbEntity
  8
0
100
AcDbBlockEnd
  0
BLOCK
  5
1E1
100
AcDbEntity
  8
0
100
AcDbBlockBegin
  2
MS_12
 70
               0
 10
0.0
 20
0.0
 30
0.0
  3
MS_12
  1

  0
CIRCLE
  5
1E2
100
AcDbEntity
  8
0
  6
CONTINUOUS
 62
               2
100
AcDbCircle
 10
0.0
 20
0.0
 30
0.0
 40
6.5500001907348633
  0
CIRCLE
  5
1E3
100
AcDbEntity
  8
0
  6
CONTINUOUS
 62
               7
100
AcDbCircle
 10
0.0
 20
0.0
 30
0.0
 40
9.8000001907348633
  0
CIRCLE
  5
1E4
100
AcDbEntity
  8
0
  6
CONTINUOUS
 62
               7
100
AcDbCircle
 10
0.0
 20
0.0
 30
0.0
 40
5.6999998092651367
  0
LINE
  5
1E5
100
AcDbEntity
  8
0
  6
CONTINUOUS
 62
               7
100
AcDbLine
 10
11.75
 20
6.25
 30
0.0
 11
14.5
 21
9.0
 31
0.0
  0
LINE
  5
1E6
100
AcDbEntity
  8
0
  6
CONTINUOUS
 62
               7
100
AcDbLine
 10
11.75
 20
-6.25
 30
0.0
 11
14.5
 21
-9.0
 31
0.0
  0
LINE
  5
1E7
100
AcDbEntity
  8
0
  6
CONTINUOUS
 62
               7
100
AcDbLine
 10
7.54
 20
-6.25
 30
0.0
 11
11.75
 21
-6.25
 31
0.0
  0
LINE
  5
1E8
100
AcDbEntity
  8
0
  6
CONTINUOUS
 62
               7
100
AcDbLine
 10
7.54
 20
6.25
 30
0.0
 11
11.75
 21
6.25
 31
0.0
  0
LINE
  5
1E9
100
AcDbEntity
  8
0
  6
CONTINUOUS
 62
               7
100
AcDbLine
 10
11.75
 20
6.25
 30
0.0
 11
11.75
 21
-6.25
 31
0.0
  0
LINE
  5
1EA
100
AcDbEntity
  8
0
  6
CONTINUOUS
 62
               7
100
AcDbLine
 10
14.5
 20
9.0
 30
0.0
 11
14.5
 21
-9.0
 31
0.0
  0
LINE
  5
1EB
100
AcDbEntity
  8
0
  6
CONTINUOUS
 62
               7
100
AcDbLine
 10
3.8700000000000001
 20
9.0
 30
0.0
 11
27.0
 21
9.0
 31
0.0
  0
LINE
  5
1EC
100
AcDbEntity
  8
0
  6
CONTINUOUS
 62
               7
100
AcDbLine
 10
3.8700000000000001
 20
-9.0
 30
0.0
 11
27.0
 21
-9.0
 31
0.0
  0
LINE
  5
1ED
100
AcDbEntity
  8
0
  6
CONTINUOUS
 62
               7
100
AcDbLine
 10
4.9000000000000004
 20
8.5
 30
0.0
 11
9.8100000000000005
 21
0.0
 31
0.0
  0
LINE
  5
1EE
100
AcDbEntity
  8
0
  6
CONTINUOUS
 62
               7
100
AcDbLine
 10
-9.8100000000000005
 20
0.0
 30
0.0
 11
-4.9000000000000004
 21
-8.5
 31
0.0
  0
LINE
  5
1EF
100
AcDbEntity
  8
0
  6
CONTINUOUS
 62
               7
100
AcDbLine
 10
4.9000000000000004
 20
-8.5
 30
0.0
 11
9.8100000000000005
 21
0.0
 31
0.0
  0
LINE
  5
1F0
100
AcDbEntity
  8
0
  6
CONTINUOUS
 62
               7
100
AcDbLine
 10
-9.8100000000000005
 20
0.0
 30
0.0
 11
-4.9000000000000004
 21
8.5
 31
0.0
  0
LINE
  5
1F1
100
AcDbEntity
  8
0
  6
CONTINUOUS
 62
               7
100
AcDbLine
 10
-4.9000000000000004
 20
8.5
 30
0.0
 11
4.9000000000000004
 21
8.5
 31
0.0
  0
LINE
  5
1F2
100
AcDbEntity
  8
0
  6
CONTINUOUS
 62
               7
100
AcDbLine
 10
-4.9000000000000004
 20
-8.5
 30
0.0
 11
4.9000000000000004
 21
-8.5
 31
0.0
  0
LINE
  5
1F3
100
AcDbEntity
  8
0
  6
CONTINUOUS
 62
               7
100
AcDbLine
 10
28.199999999999999
 20
8.4000000000000004
 30
0.0
 11
30.399999999999999
 21
8.4000000000000004
 31
0.0
  0
LINE
  5
1F4
100
AcDbEntity
  8
0
  6
CONTINUOUS
 62
               7
100
AcDbLine
 10
28.199999999999999
 20
-8.4000000000000004
 30
0.0
 11
30.399999999999999
 21
-8.4000000000000004
 31
0.0
  0
LINE
  5
1F5
100
AcDbEntity
  8
0
  6
CONTINUOUS
 62
               7
100
AcDbLine
 10
27.0
 20
6.0
 30
0.0
 11
28.199999999999999
 21
6.0
 31
0.0
  0
LINE
  5
1F6
100
AcDbEntity
  8
0
  6
CONTINUOUS
 62
               7
100
AcDbLine
 10
27.0
 20
-6.0
 30
0.0
 11
28.199999999999999
 21
-6.0
 31
0.0
  0
LINE
  5
1F7
100
AcDbEntity
  8
0
  6
CONTINUOUS
 62
               7
100
AcDbLine
 10
28.199999999999999
 20
8.4000000000000004
 30
0.0
 11
28.199999999999999
 21
-8.4000000000000004
 31
0.0
  0
LINE
  5
1F8
100
AcDbEntity
  8
0
  6
CONTINUOUS
 62
               7
100
AcDbLine
 10
30.399999999999999
 20
8.4000000000000004
 30
0.0
 11
30.399999999999999
 21
-8.4000000000000004
 31
0.0
  0
LINE
  5
1F9
100
AcDbEntity
  8
0
  6
CONTINUOUS
 62
               7
100
AcDbLine
 10
27.0
 20
9.0
 30
0.0
 11
27.0
 21
-9.0
 31
0.0
  0
LINE
  5
1FA
100
AcDbEntity
  8
0
  6
CENTER
 62
               2
100
AcDbLine
 10
0.0
 20
20.0
 30
0.0
 11
0.0
 21
-19.600000000000001
 31
0.0
  0
LINE
  5
1FB
100
AcDbEntity
  8
0
  6
CENTER
 62
               2
100
AcDbLine
 10
-17.73
 20
0.0
 30
0.0
 11
39.450000000000003
 21
0.0
 31
0.0
  0
ENDBLK
  5
1FC
100
AcDbEntity
  8
0
100
AcDbBlockEnd
  0
BLOCK
  5
1FD
100
AcDbEntity
  8
0
100
AcDbBlockBegin
  2
MS_13
 70
               0
 10
0.0
 20
0.0
 30
0.0
  3
MS_13
  1

  0
LINE
  5
1FE
100
AcDbEntity
  8
0
  6
CONTINUOUS
 62
               7
100
AcDbLine
 10
-11.25
 20
38.149999999999999
 30
0.0
 11
-11.25
 21
24.649999999999999
 31
0.0
  0
LINE
  5
1FF
100
AcDbEntity
  8
0
  6
CONTINUOUS
 62
               7
100
AcDbLine
 10
11.25
 20
38.149999999999999
 30
0.0
 11
11.25
 21
24.649999999999999
 31
0.0
  0
LINE
  5
200
100
AcDbEntity
  8
0
  6
CONTINUOUS
 62
               7
100
AcDbLine
 10
8.5
 20
5.6500000000000004
 30
0.0
 11
8.0999999999999996
 21
-6.3499999999999996
 31
0.0
  0
LINE
  5
201
100
AcDbEntity
  8
0
  6
CONTINUOUS
 62
               7
100
AcDbLine
 10
-8.5
 20
5.6500000000000004
 30
0.0
 11
-8.0999999999999996
 21
-6.3499999999999996
 31
0.0
  0
LINE
  5
202
100
AcDbEntity
  8
0
  6
CONTINUOUS
 62
               7
100
AcDbLine
 10
-8.0999999999999996
 20
-6.3499999999999996
 30
0.0
 11
8.0999999999999996
 21
-6.3499999999999996
 31
0.0
  0
LINE
  5
203
100
AcDbEntity
  8
0
  6
CENTER
 62
               2
100
AcDbLine
 10
-11.720000000000001
 20
0.0
 30
0.0
 11
11.880000000000001
 21
0.0
 31
0.0
  0
LINE
  5
204
100
AcDbEntity
  8
0
  6
CONTINUOUS
 62
               2
100
AcDbLine
 10
7.7000000000000002
 20
5.6699999999999999
 30
0.0
 11
7.2999999999999998
 21
-6.3200000000000003
 31
0.0
  0
LINE
  5
205
100
AcDbEntity
  8
0
  6
DASHED
 62
               2
100
AcDbLine
 10
-7.5
 20
38.170000000000002
 30
0.0
 11
-7.1200000000000001
 21
26.170000000000002
 31
0.0
  0
LINE
  5
206
100
AcDbEntity
  8
0
  6
DASHED
 62
               2
100
AcDbLine
 10
8.3000000000000007
 20
38.149999999999999
 30
0.0
 11
7.9199999999999999
 21
26.149999999999999
 31
0.0
  0
LINE
  5
207
100
AcDbEntity
  8
0
  6
DASHED
 62
               2
100
AcDbLine
 10
-8.3000000000000007
 20
38.149999999999999
 30
0.0
 11
-7.9199999999999999
 21
26.149999999999999
 31
0.0
  0
LINE
  5
208
100
AcDbEntity
  8
0
  6
DASHED
 62
               2
100
AcDbLine
 10
7.5
 20
38.170000000000002
 30
0.0
 11
7.1200000000000001
 21
26.170000000000002
 31
0.0
  0
LINE
  5
209
100
AcDbEntity
  8
0
  6
DASHED
 62
               2
100
AcDbLine
 10
-7.9199999999999999
 20
26.149999999999999
 30
0.0
 11
7.9199999999999999
 21
26.149999999999999
 31
0.0
  0
LINE
  5
20A
100
AcDbEntity
  8
0
  6
CONTINUOUS
 62
               7
100
AcDbLine
 10
29.0
 20
20.5
 30
0.0
 11
30.199999999999999
 21
20.5
 31
0.0
  0
LINE
  5
20B
100
AcDbEntity
  8
0
  6
CONTINUOUS
 62
               7
100
AcDbLine
 10
30.199999999999999
 20
22.899999999999999
 30
0.0
 11
30.199999999999999
 21
6.0999999999999996
 31
0.0
  0
LINE
  5
20C
100
AcDbEntity
  8
0
  6
CONTINUOUS
 62
               7
100
AcDbLine
 10
32.399999999999999
 20
22.899999999999999
 30
0.0
 11
32.399999999999999
 21
6.0999999999999996
 31
0.0
  0
LINE
  5
20D
100
AcDbEntity
  8
0
  6
CONTINUOUS
 62
               7
100
AcDbLine
 10
29.0
 20
23.5
 30
0.0
 11
29.0
 21
5.5
 31
0.0
  0
LINE
  5
20E
100
AcDbEntity
  8
0
  6
CONTINUOUS
 62
               7
100
AcDbLine
 10
29.0
 20
8.5
 30
0.0
 11
30.199999999999999
 21
8.5
 31
0.0
  0
LINE
  5
20F
100
AcDbEntity
  8
0
  6
CONTINUOUS
 62
               7
100
AcDbLine
 10
30.199999999999999
 20
6.0999999999999996
 30
0.0
 11
32.399999999999999
 21
6.0999999999999996
 31
0.0
  0
LINE
  5
210
100
AcDbEntity
  8
0
  6
CONTINUOUS
 62
               7
100
AcDbLine
 10
30.199999999999999
 20
22.899999999999999
 30
0.0
 11
32.399999999999999
 21
22.899999999999999
 31
0.0
  0
LINE
  5
211
100
AcDbEntity
  8
0
  6
CONTINUOUS
 62
               7
100
AcDbLine
 10
9.0999999999999996
 20
6.6500000000000004
 30
0.0
 11
9.0999999999999996
 21
5.6500000000000004
 31
0.0
  0
LINE
  5
212
100
AcDbEntity
  8
0
  6
CONTINUOUS
 62
               7
100
AcDbLine
 10
-9.0999999999999996
 20
6.6500000000000004
 30
0.0
 11
-9.0999999999999996
 21
5.6500000000000004
 31
0.0
  0
LINE
  5
213
100
AcDbEntity
  8
0
  6
CONTINUOUS
 62
               7
100
AcDbLine
 10
-9.0999999999999996
 20
5.6500000000000004
 30
0.0
 11
9.0999999999999996
 21
5.6500000000000004
 31
0.0
  0
LINE
  5
214
100
AcDbEntity
  8
0
  6
CONTINUOUS
 62
               7
100
AcDbLine
 10
6.0
 20
38.149999999999999
 30
0.0
 11
6.0
 21
24.649999999999999
 31
0.0
  0
LINE
  5
215
100
AcDbEntity
  8
0
  6
CONTINUOUS
 62
               7
100
AcDbLine
 10
-6.0
 20
38.149999999999999
 30
0.0
 11
-6.0
 21
24.649999999999999
 31
0.0
  0
LINE
  5
216
100
AcDbEntity
  8
0
  6
CONTINUOUS
 62
               7
100
AcDbLine
 10
-11.25
 20
38.149999999999999
 30
0.0
 11
11.25
 21
38.149999999999999
 31
0.0
  0
LINE
  5
217
100
AcDbEntity
  8
0
  6
CONTINUOUS
 62
               7
100
AcDbLine
 10
12.5
 20
12.5
 30
0.0
 11
12.5
 21
8.25
 31
0.0
  0
LINE
  5
218
100
AcDbEntity
  8
0
  6
CONTINUOUS
 62
               7
100
AcDbLine
 10
12.199999999999999
 20
12.5
 30
0.0
 11
15.0
 21
12.5
 31
0.0
  0
LINE
  5
219
100
AcDbEntity
  8
0
  6
CONTINUOUS
 62
               7
100
AcDbLine
 10
12.199999999999999
 20
16.5
 30
0.0
 11
15.0
 21
16.5
 31
0.0
  0
LINE
  5
21A
100
AcDbEntity
  8
0
  6
CONTINUOUS
 62
               7
100
AcDbLine
 10
12.5
 20
20.75
 30
0.0
 11
15.0
 21
23.5
 31
0.0
  0
LINE
  5
21B
100
AcDbEntity
  8
0
  6
CONTINUOUS
 62
               7
100
AcDbLine
 10
12.5
 20
8.25
 30
0.0
 11
15.0
 21
5.5
 31
0.0
  0
LINE
  5
21C
100
AcDbEntity
  8
0
  6
CONTINUOUS
 62
               7
100
AcDbLine
 10
12.199999999999999
 20
20.75
 30
0.0
 11
12.5
 21
20.75
 31
0.0
  0
LINE
  5
21D
100
AcDbEntity
  8
0
  6
CONTINUOUS
 62
               7
100
AcDbLine
 10
11.67
 20
8.25
 30
0.0
 11
12.5
 21
8.25
 31
0.0
  0
LINE
  5
21E
100
AcDbEntity
  8
0
  6
CONTINUOUS
 62
               7
100
AcDbLine
 10
12.5
 20
20.75
 30
0.0
 11
12.5
 21
16.5
 31
0.0
  0
LINE
  5
21F
100
AcDbEntity
  8
0
  6
CONTINUOUS
 62
               7
100
AcDbLine
 10
15.0
 20
23.5
 30
0.0
 11
15.0
 21
16.5
 31
0.0
  0
LINE
  5
220
100
AcDbEntity
  8
0
  6
CONTINUOUS
 62
               7
100
AcDbLine
 10
15.0
 20
5.5
 30
0.0
 11
29.0
 21
5.5
 31
0.0
  0
LINE
  5
221
100
AcDbEntity
  8
0
  6
CONTINUOUS
 62
               7
100
AcDbLine
 10
15.0
 20
23.5
 30
0.0
 11
29.0
 21
23.5
 31
0.0
  0
LINE
  5
222
100
AcDbEntity
  8
0
  6
CONTINUOUS
 62
               7
100
AcDbLine
 10
-12.199999999999999
 20
9.1600000000000001
 30
0.0
 11
12.199999999999999
 21
9.1600000000000001
 31
0.0
  0
LINE
  5
223
100
AcDbEntity
  8
0
  6
CONTINUOUS
 62
               7
100
AcDbLine
 10
-12.199999999999999
 20
22.129999999999999
 30
0.0
 11
12.199999999999999
 21
22.129999999999999
 31
0.0
  0
LINE
  5
224
100
AcDbEntity
  8
0
  6
CONTINUOUS
 62
               7
100
AcDbLine
 10
10.75
 20
24.649999999999999
 30
0.0
 11
12.199999999999999
 21
22.129999999999999
 31
0.0
  0
LINE
  5
225
100
AcDbEntity
  8
0
  6
CONTINUOUS
 62
               7
100
AcDbLine
 10
-12.199999999999999
 20
9.1600000000000001
 30
0.0
 11
-10.75
 21
6.6500000000000004
 31
0.0
  0
LINE
  5
226
100
AcDbEntity
  8
0
  6
CONTINUOUS
 62
               7
100
AcDbLine
 10
10.75
 20
6.6500000000000004
 30
0.0
 11
12.199999999999999
 21
9.1600000000000001
 31
0.0
  0
LINE
  5
227
100
AcDbEntity
  8
0
  6
CONTINUOUS
 62
               7
100
AcDbLine
 10
-12.199999999999999
 20
22.129999999999999
 30
0.0
 11
-10.75
 21
24.649999999999999
 31
0.0
  0
LINE
  5
228
100
AcDbEntity
  8
0
  6
CONTINUOUS
 62
               7
100
AcDbLine
 10
-12.199999999999999
 20
22.129999999999999
 30
0.0
 11
-12.199999999999999
 21
9.1600000000000001
 31
0.0
  0
LINE
  5
229
100
AcDbEntity
  8
0
  6
CONTINUOUS
 62
               7
100
AcDbLine
 10
12.199999999999999
 20
22.129999999999999
 30
0.0
 11
12.199999999999999
 21
9.1600000000000001
 31
0.0
  0
LINE
  5
22A
100
AcDbEntity
  8
0
  6
CONTINUOUS
 62
               7
100
AcDbLine
 10
-11.25
 20
24.649999999999999
 30
0.0
 11
11.25
 21
24.649999999999999
 31
0.0
  0
LINE
  5
22B
100
AcDbEntity
  8
0
  6
CONTINUOUS
 62
               7
100
AcDbLine
 10
-10.75
 20
6.6500000000000004
 30
0.0
 11
10.75
 21
6.6500000000000004
 31
0.0
  0
LINE
  5
22C
100
AcDbEntity
  8
0
  6
CENTER
 62
               2
100
AcDbLine
 10
0.0
 20
42.850000000000001
 30
0.0
 11
0.0
 21
-13.550000000000001
 31
0.0
  0
LINE
  5
22D
100
AcDbEntity
  8
0
  6
CENTER
 62
               2
100
AcDbLine
 10
-22.370000000000001
 20
14.5
 30
0.0
 11
44.399999999999999
 21
14.5
 31
0.0
  0
LINE
  5
22E
100
AcDbEntity
  8
0
  6
CONTINUOUS
 62
               2
100
AcDbLine
 10
-7.7000000000000002
 20
5.6699999999999999
 30
0.0
 11
-7.2999999999999998
 21
-6.3200000000000003
 31
0.0
  0
LINE
  5
22F
100
AcDbEntity
  8
0
  6
CONTINUOUS
 62
               7
100
AcDbLine
 10
15.0
 20
12.5
 30
0.0
 11
15.0
 21
5.5
 31
0.0
  0
ENDBLK
  5
230
100
AcDbEntity
  8
0
100
AcDbBlockEnd
  0
BLOCK
  5
231
100
AcDbEntity
  8
0
100
AcDbBlockBegin
  2
MS_14
 70
               0
 10
0.0
 20
0.0
 30
0.0
  3
MS_14
  1

  0
CIRCLE
  5
232
100
AcDbEntity
  8
0
  6
CONTINUOUS
 62
               7
100
AcDbCircle
 10
0.0
 20
14.5
 30
0.0
 40
5.0999994277954102
  0
CIRCLE
  5
233
100
AcDbEntity
  8
0
  6
CONTINUOUS
 62
               7
100
AcDbCircle
 10
0.0
 20
14.5
 30
0.0
 40
9.0
  0
CIRCLE
  5
234
100
AcDbEntity
  8
0
  6
CONTINUOUS
 62
               7
100
AcDbCircle
 10
0.0
 20
14.5
 30
0.0
 40
8.3999996185302734
  0
LINE
  5
235
100
AcDbEntity
  8
0
  6
CONTINUOUS
 62
               7
100
AcDbLine
 10
1.6299999999999999
 20
5.6500000000000004
 30
0.0
 11
9.0999999999999996
 21
5.6500000000000004
 31
0.0
  0
LINE
  5
236
100
AcDbEntity
  8
0
  6
CONTINUOUS
 62
               7
100
AcDbLine
 10
4.4000000000000004
 20
6.6500000000000004
 30
0.0
 11
10.75
 21
6.6500000000000004
 31
0.0
  0
LINE
  5
237
100
AcDbEntity
  8
0
  6
CONTINUOUS
 62
               7
100
AcDbLine
 10
0.0
 20
38.149999999999999
 30
0.0
 11
0.0
 21
24.649999999999999
 31
0.0
  0
LINE
  5
238
100
AcDbEntity
  8
0
  6
CENTER
 62
               2
100
AcDbLine
 10
0.0
 20
46.390000000000001
 30
0.0
 11
0.0
 21
-15.949999999999999
 31
0.0
  0
LINE
  5
239
100
AcDbEntity
  8
0
  6
CONTINUOUS
 62
               7
100
AcDbLine
 10
-10.5
 20
38.149999999999999
 30
0.0
 11
-10.5
 21
24.649999999999999
 31
0.0
  0
LINE
  5
23A
100
AcDbEntity
  8
0
  6
CONTINUOUS
 62
               7
100
AcDbLine
 10
10.5
 20
38.149999999999999
 30
0.0
 11
10.5
 21
24.649999999999999
 31
0.0
  0
LINE
  5
23B
100
AcDbEntity
  8
0
  6
CONTINUOUS
 62
               7
100
AcDbLine
 10
-10.5
 20
38.149999999999999
 30
0.0
 11
10.5
 21
38.149999999999999
 31
0.0
  0
LINE
  5
23C
100
AcDbEntity
  8
0
  6
CONTINUOUS
 62
               7
100
AcDbLine
 10
7.2400000000000002
 20
9.1600000000000001
 30
0.0
 11
12.199999999999999
 21
9.1600000000000001
 31
0.0
  0
LINE
  5
23D
100
AcDbEntity
  8
0
  6
CONTINUOUS
 62
               7
100
AcDbLine
 10
4.7599999999999998
 20
22.129999999999999
 30
0.0
 11
12.199999999999999
 21
22.129999999999999
 31
0.0
  0
LINE
  5
23E
100
AcDbEntity
  8
0
  6
CONTINUOUS
 62
               7
100
AcDbLine
 10
-12.199999999999999
 20
9.1600000000000001
 30
0.0
 11
-7.2400000000000002
 21
9.1600000000000001
 31
0.0
  0
LINE
  5
23F
100
AcDbEntity
  8
0
  6
CONTINUOUS
 62
               7
100
AcDbLine
 10
-12.199999999999999
 20
22.129999999999999
 30
0.0
 11
-4.7599999999999998
 21
22.129999999999999
 31
0.0
  0
LINE
  5
240
100
AcDbEntity
  8
0
  6
CONTINUOUS
 62
               7
100
AcDbLine
 10
10.75
 20
6.6500000000000004
 30
0.0
 11
12.199999999999999
 21
9.1600000000000001
 31
0.0
  0
LINE
  5
241
100
AcDbEntity
  8
0
  6
CONTINUOUS
 62
               7
100
AcDbLine
 10
-12.199999999999999
 20
22.129999999999999
 30
0.0
 11
-10.75
 21
24.649999999999999
 31
0.0
  0
LINE
  5
242
100
AcDbEntity
  8
0
  6
CONTINUOUS
 62
               7
100
AcDbLine
 10
10.75
 20
24.649999999999999
 30
0.0
 11
12.199999999999999
 21
22.129999999999999
 31
0.0
  0
LINE
  5
243
100
AcDbEntity
  8
0
  6
CONTINUOUS
 62
               7
100
AcDbLine
 10
-12.199999999999999
 20
9.1600000000000001
 30
0.0
 11
-10.75
 21
6.6500000000000004
 31
0.0
  0
LINE
  5
244
100
AcDbEntity
  8
0
  6
CONTINUOUS
 62
               7
100
AcDbLine
 10
-12.199999999999999
 20
22.129999999999999
 30
0.0
 11
-12.199999999999999
 21
9.1600000000000001
 31
0.0
  0
LINE
  5
245
100
AcDbEntity
  8
0
  6
CONTINUOUS
 62
               7
100
AcDbLine
 10
12.199999999999999
 20
22.129999999999999
 30
0.0
 11
12.199999999999999
 21
9.1600000000000001
 31
0.0
  0
LINE
  5
246
100
AcDbEntity
  8
0
  6
CONTINUOUS
 62
               7
100
AcDbLine
 10
-10.75
 20
24.649999999999999
 30
0.0
 11
10.75
 21
24.649999999999999
 31
0.0
  0
LINE
  5
247
100
AcDbEntity
  8
0
  6
CONTINUOUS
 62
               7
100
AcDbLine
 10
-10.75
 20
6.6500000000000004
 30
0.0
 11
-4.4000000000000004
 21
6.6500000000000004
 31
0.0
  0
LINE
  5
248
100
AcDbEntity
  8
0
  6
CENTER
 62
               2
100
AcDbLine
 10
-11.720000000000001
 20
0.0
 30
0.0
 11
11.880000000000001
 21
0.0
 31
0.0
  0
LINE
  5
249
100
AcDbEntity
  8
0
  6
CONTINUOUS
 62
               2
100
AcDbLine
 10
7.7000000000000002
 20
5.6699999999999999
 30
0.0
 11
7.2999999999999998
 21
-6.3200000000000003
 31
0.0
  0
LINE
  5
24A
100
AcDbEntity
  8
0
  6
CONTINUOUS
 62
               2
100
AcDbLine
 10
-7.7000000000000002
 20
5.6699999999999999
 30
0.0
 11
-7.2999999999999998
 21
-6.3200000000000003
 31
0.0
  0
LINE
  5
24B
100
AcDbEntity
  8
0
  6
CONTINUOUS
 62
               7
100
AcDbLine
 10
8.5
 20
5.6500000000000004
 30
0.0
 11
8.0999999999999996
 21
-6.3499999999999996
 31
0.0
  0
LINE
  5
24C
100
AcDbEntity
  8
0
  6
CONTINUOUS
 62
               7
100
AcDbLine
 10
-8.5
 20
5.6500000000000004
 30
0.0
 11
-8.0999999999999996
 21
-6.3499999999999996
 31
0.0
  0
LINE
  5
24D
100
AcDbEntity
  8
0
  6
CONTINUOUS
 62
               7
100
AcDbLine
 10
-8.0999999999999996
 20
-6.3499999999999996
 30
0.0
 11
8.0999999999999996
 21
-6.3499999999999996
 31
0.0
  0
LINE
  5
24E
100
AcDbEntity
  8
0
  6
CONTINUOUS
 62
               7
100
AcDbLine
 10
9.0999999999999996
 20
6.6500000000000004
 30
0.0
 11
9.0999999999999996
 21
5.6500000000000004
 31
0.0
  0
LINE
  5
24F
100
AcDbEntity
  8
0
  6
CONTINUOUS
 62
               7
100
AcDbLine
 10
-9.0999999999999996
 20
6.6500000000000004
 30
0.0
 11
-9.0999999999999996
 21
5.6500000000000004
 31
0.0
  0
LINE
  5
250
100
AcDbEntity
  8
0
  6
CONTINUOUS
 62
               7
100
AcDbLine
 10
-9.0999999999999996
 20
5.6500000000000004
 30
0.0
 11
-1.6299999999999999
 21
5.6500000000000004
 31
0.0
  0
LINE
  5
251
100
AcDbEntity
  8
0
  6
CENTER
 62
               2
100
AcDbLine
 10
-21.809999999999999
 20
14.5
 30
0.0
 11
22.920000000000002
 21
14.5
 31
0.0
  0
ENDBLK
  5
252
100
AcDbEntity
  8
0
100
AcDbBlockEnd
  0
BLOCK
  5
253
100
AcDbEntity
  8
0
100
AcDbBlockBegin
  2
MS_15
 70
               0
 10
0.0
 20
0.0
 30
0.0
  3
MS_15
  1

  0
CIRCLE
  5
254
100
AcDbEntity
  8
0
  6
CONTINUOUS
 62
               2
100
AcDbCircle
 10
0.0
 20
0.0
 30
0.0
 40
8.3000001907348633
  0
CIRCLE
  5
255
100
AcDbEntity
  8
0
  6
CONTINUOUS
 62
               7
100
AcDbCircle
 10
0.0
 20
0.0
 30
0.0
 40
12.199999809265137
  0
CIRCLE
  5
256
100
AcDbEntity
  8
0
  6
CONTINUOUS
 62
               7
100
AcDbCircle
 10
0.0
 20
0.0
 30
0.0
 40
7.4499998092651367
  0
LINE
  5
257
100
AcDbEntity
  8
0
  6
CONTINUOUS
 62
               7
100
AcDbLine
 10
12.5
 20
6.25
 30
0.0
 11
15.0
 21
9.0
 31
0.0
  0
LINE
  5
258
100
AcDbEntity
  8
0
  6
CONTINUOUS
 62
               7
100
AcDbLine
 10
12.5
 20
-6.25
 30
0.0
 11
15.0
 21
-9.0
 31
0.0
  0
LINE
  5
259
100
AcDbEntity
  8
0
  6
CONTINUOUS
 62
               7
100
AcDbLine
 10
10.470000000000001
 20
-6.25
 30
0.0
 11
12.5
 21
-6.25
 31
0.0
  0
LINE
  5
25A
100
AcDbEntity
  8
0
  6
CONTINUOUS
 62
               7
100
AcDbLine
 10
10.470000000000001
 20
6.25
 30
0.0
 11
12.5
 21
6.25
 31
0.0
  0
LINE
  5
25B
100
AcDbEntity
  8
0
  6
CONTINUOUS
 62
               7
100
AcDbLine
 10
12.5
 20
6.25
 30
0.0
 11
12.5
 21
-6.25
 31
0.0
  0
LINE
  5
25C
100
AcDbEntity
  8
0
  6
CONTINUOUS
 62
               7
100
AcDbLine
 10
15.0
 20
9.0
 30
0.0
 11
15.0
 21
-9.0
 31
0.0
  0
LINE
  5
25D
100
AcDbEntity
  8
0
  6
CONTINUOUS
 62
               7
100
AcDbLine
 10
8.2300000000000004
 20
9.0
 30
0.0
 11
29.0
 21
9.0
 31
0.0
  0
LINE
  5
25E
100
AcDbEntity
  8
0
  6
CONTINUOUS
 62
               7
100
AcDbLine
 10
8.2300000000000004
 20
-9.0
 30
0.0
 11
29.0
 21
-9.0
 31
0.0
  0
LINE
  5
25F
100
AcDbEntity
  8
0
  6
CONTINUOUS
 62
               7
100
AcDbLine
 10
6.0599999999999996
 20
10.5
 30
0.0
 11
12.119999999999999
 21
0.0
 31
0.0
  0
LINE
  5
260
100
AcDbEntity
  8
0
  6
CONTINUOUS
 62
               7
100
AcDbLine
 10
-12.119999999999999
 20
0.0
 30
0.0
 11
-6.0599999999999996
 21
-10.5
 31
0.0
  0
LINE
  5
261
100
AcDbEntity
  8
0
  6
CONTINUOUS
 62
               7
100
AcDbLine
 10
6.0599999999999996
 20
-10.5
 30
0.0
 11
12.119999999999999
 21
0.0
 31
0.0
  0
LINE
  5
262
100
AcDbEntity
  8
0
  6
CONTINUOUS
 62
               7
100
AcDbLine
 10
-12.119999999999999
 20
0.0
 30
0.0
 11
-6.0599999999999996
 21
10.5
 31
0.0
  0
LINE
  5
263
100
AcDbEntity
  8
0
  6
CONTINUOUS
 62
               7
100
AcDbLine
 10
-6.0599999999999996
 20
10.5
 30
0.0
 11
6.0599999999999996
 21
10.5
 31
0.0
  0
LINE
  5
264
100
AcDbEntity
  8
0
  6
CONTINUOUS
 62
               7
100
AcDbLine
 10
-6.0599999999999996
 20
-10.5
 30
0.0
 11
6.0599999999999996
 21
-10.5
 31
0.0
  0
LINE
  5
265
100
AcDbEntity
  8
0
  6
CONTINUOUS
 62
               7
100
AcDbLine
 10
30.199999999999999
 20
8.4000000000000004
 30
0.0
 11
32.399999999999999
 21
8.4000000000000004
 31
0.0
  0
LINE
  5
266
100
AcDbEntity
  8
0
  6
CONTINUOUS
 62
               7
100
AcDbLine
 10
30.199999999999999
 20
-8.4000000000000004
 30
0.0
 11
32.399999999999999
 21
-8.4000000000000004
 31
0.0
  0
LINE
  5
267
100
AcDbEntity
  8
0
  6
CONTINUOUS
 62
               7
100
AcDbLine
 10
29.0
 20
-6.0
 30
0.0
 11
30.199999999999999
 21
-6.0
 31
0.0
  0
LINE
  5
268
100
AcDbEntity
  8
0
  6
CONTINUOUS
 62
               7
100
AcDbLine
 10
29.0
 20
6.0
 30
0.0
 11
30.199999999999999
 21
6.0
 31
0.0
  0
LINE
  5
269
100
AcDbEntity
  8
0
  6
CONTINUOUS
 62
               7
100
AcDbLine
 10
30.199999999999999
 20
8.4000000000000004
 30
0.0
 11
30.199999999999999
 21
-8.4000000000000004
 31
0.0
  0
LINE
  5
26A
100
AcDbEntity
  8
0
  6
CONTINUOUS
 62
               7
100
AcDbLine
 10
32.399999999999999
 20
8.4000000000000004
 30
0.0
 11
32.399999999999999
 21
-8.4000000000000004
 31
0.0
  0
LINE
  5
26B
100
AcDbEntity
  8
0
  6
CONTINUOUS
 62
               7
100
AcDbLine
 10
29.0
 20
9.0
 30
0.0
 11
29.0
 21
-9.0
 31
0.0
  0
LINE
  5
26C
100
AcDbEntity
  8
0
  6
CENTER
 62
               2
100
AcDbLine
 10
-19.949999999999999
 20
0.0
 30
0.0
 11
38.399999999999999
 21
0.0
 31
0.0
  0
LINE
  5
26D
100
AcDbEntity
  8
0
  6
CENTER
 62
               2
100
AcDbLine
 10
0.0
 20
20.399999999999999
 30
0.0
 11
0.0
 21
-17.199999999999999
 31
0.0
  0
ENDBLK
  5
26E
100
AcDbEntity
  8
0
100
AcDbBlockEnd
  0
BLOCK
  5
26F
100
AcDbEntity
  8
0
100
AcDbBlockBegin
  2
MS_16
 70
               0
 10
0.0
 20
0.0
 30
0.0
  3
MS_16
  1

  0
LINE
  5
270
100
AcDbEntity
  8
0
  6
CONTINUOUS
 62
               7
100
AcDbLine
 10
14.0
 20
23.5
 30
0.0
 11
11.41
 21
23.5
 31
0.0
  0
LINE
  5
271
100
AcDbEntity
  8
0
  6
CONTINUOUS
 62
               7
100
AcDbLine
 10
33.0
 20
25.899999999999999
 30
0.0
 11
33.0
 21
6.0999999999999996
 31
0.0
  0
LINE
  5
272
100
AcDbEntity
  8
0
  6
CONTINUOUS
 62
               7
100
AcDbLine
 10
35.200000000000003
 20
25.899999999999999
 30
0.0
 11
35.200000000000003
 21
6.0999999999999996
 31
0.0
  0
LINE
  5
273
100
AcDbEntity
  8
0
  6
CONTINUOUS
 62
               7
100
AcDbLine
 10
31.399999999999999
 20
26.5
 30
0.0
 11
31.399999999999999
 21
5.5
 31
0.0
  0
LINE
  5
274
100
AcDbEntity
  8
0
  6
CONTINUOUS
 62
               7
100
AcDbLine
 10
33.0
 20
6.0999999999999996
 30
0.0
 11
35.200000000000003
 21
6.0999999999999996
 31
0.0
  0
LINE
  5
275
100
AcDbEntity
  8
0
  6
CONTINUOUS
 62
               7
100
AcDbLine
 10
31.399999999999999
 20
8.5
 30
0.0
 11
33.0
 21
8.5
 31
0.0
  0
LINE
  5
276
100
AcDbEntity
  8
0
  6
CONTINUOUS
 62
               7
100
AcDbLine
 10
33.0
 20
25.899999999999999
 30
0.0
 11
35.200000000000003
 21
25.899999999999999
 31
0.0
  0
LINE
  5
277
100
AcDbEntity
  8
0
  6
CONTINUOUS
 62
               7
100
AcDbLine
 10
9.0999999999999996
 20
6.6500000000000004
 30
0.0
 11
9.0999999999999996
 21
5.6500000000000004
 31
0.0
  0
LINE
  5
278
100
AcDbEntity
  8
0
  6
CONTINUOUS
 62
               7
100
AcDbLine
 10
-9.0999999999999996
 20
5.6500000000000004
 30
0.0
 11
9.0999999999999996
 21
5.6500000000000004
 31
0.0
  0
LINE
  5
279
100
AcDbEntity
  8
0
  6
CONTINUOUS
 62
               2
100
AcDbLine
 10
7.7000000000000002
 20
5.6699999999999999
 30
0.0
 11
7.2999999999999998
 21
-6.3200000000000003
 31
0.0
  0
LINE
  5
27A
100
AcDbEntity
  8
0
  6
CONTINUOUS
 62
               2
100
AcDbLine
 10
-7.7000000000000002
 20
5.6699999999999999
 30
0.0
 11
-7.2999999999999998
 21
-6.3200000000000003
 31
0.0
  0
LINE
  5
27B
100
AcDbEntity
  8
0
  6
CONTINUOUS
 62
               7
100
AcDbLine
 10
8.5
 20
5.6500000000000004
 30
0.0
 11
8.0999999999999996
 21
-6.3499999999999996
 31
0.0
  0
LINE
  5
27C
100
AcDbEntity
  8
0
  6
CONTINUOUS
 62
               7
100
AcDbLine
 10
-8.5
 20
5.6500000000000004
 30
0.0
 11
-8.0999999999999996
 21
-6.3499999999999996
 31
0.0
  0
LINE
  5
27D
100
AcDbEntity
  8
0
  6
CONTINUOUS
 62
               7
100
AcDbLine
 10
-8.0999999999999996
 20
-6.3499999999999996
 30
0.0
 11
8.0999999999999996
 21
-6.3499999999999996
 31
0.0
  0
LINE
  5
27E
100
AcDbEntity
  8
0
  6
CENTER
 62
               2
100
AcDbLine
 10
-11.720000000000001
 20
0.0
 30
0.0
 11
11.880000000000001
 21
0.0
 31
0.0
  0
LINE
  5
27F
100
AcDbEntity
  8
0
  6
CONTINUOUS
 62
               7
100
AcDbLine
 10
-9.0999999999999996
 20
6.6500000000000004
 30
0.0
 11
-9.0999999999999996
 21
5.6500000000000004
 31
0.0
  0
LINE
  5
280
100
AcDbEntity
  8
0
  6
CONTINUOUS
 62
               7
100
AcDbLine
 10
14.0
 20
14.0
 30
0.0
 11
14.0
 21
8.5
 31
0.0
  0
LINE
  5
281
100
AcDbEntity
  8
0
  6
CONTINUOUS
 62
               7
100
AcDbLine
 10
12.199999999999999
 20
18.0
 30
0.0
 11
17.0
 21
18.0
 31
0.0
  0
LINE
  5
282
100
AcDbEntity
  8
0
  6
CONTINUOUS
 62
               7
100
AcDbLine
 10
12.199999999999999
 20
14.0
 30
0.0
 11
17.0
 21
14.0
 31
0.0
  0
LINE
  5
283
100
AcDbEntity
  8
0
  6
CONTINUOUS
 62
               7
100
AcDbLine
 10
-6.0
 20
38.149999999999999
 30
0.0
 11
-6.0
 21
24.649999999999999
 31
0.0
  0
LINE
  5
284
100
AcDbEntity
  8
0
  6
CONTINUOUS
 62
               7
100
AcDbLine
 10
6.0
 20
38.149999999999999
 30
0.0
 11
6.0
 21
24.649999999999999
 31
0.0
  0
LINE
  5
285
100
AcDbEntity
  8
0
  6
CONTINUOUS
 62
               7
100
AcDbLine
 10
-12.109999999999999
 20
38.149999999999999
 30
0.0
 11
-12.109999999999999
 21
24.649999999999999
 31
0.0
  0
LINE
  5
286
100
AcDbEntity
  8
0
  6
CONTINUOUS
 62
               7
100
AcDbLine
 10
12.109999999999999
 20
38.149999999999999
 30
0.0
 11
12.109999999999999
 21
24.649999999999999
 31
0.0
  0
LINE
  5
287
100
AcDbEntity
  8
0
  6
CONTINUOUS
 62
               7
100
AcDbLine
 10
-12.109999999999999
 20
38.149999999999999
 30
0.0
 11
12.109999999999999
 21
38.149999999999999
 31
0.0
  0
LINE
  5
288
100
AcDbEntity
  8
0
  6
CONTINUOUS
 62
               7
100
AcDbLine
 10
14.0
 20
23.5
 30
0.0
 11
17.0
 21
26.5
 31
0.0
  0
LINE
  5
289
100
AcDbEntity
  8
0
  6
CONTINUOUS
 62
               7
100
AcDbLine
 10
14.0
 20
8.5
 30
0.0
 11
17.0
 21
5.5
 31
0.0
  0
LINE
  5
28A
100
AcDbEntity
  8
0
  6
CONTINUOUS
 62
               7
100
AcDbLine
 10
11.81
 20
8.5
 30
0.0
 11
14.0
 21
8.5
 31
0.0
  0
LINE
  5
28B
100
AcDbEntity
  8
0
  6
CONTINUOUS
 62
               7
100
AcDbLine
 10
14.0
 20
23.5
 30
0.0
 11
14.0
 21
18.0
 31
0.0
  0
LINE
  5
28C
100
AcDbEntity
  8
0
  6
CONTINUOUS
 62
               7
100
AcDbLine
 10
17.0
 20
26.5
 30
0.0
 11
17.0
 21
18.0
 31
0.0
  0
LINE
  5
28D
100
AcDbEntity
  8
0
  6
CONTINUOUS
 62
               7
100
AcDbLine
 10
17.0
 20
26.5
 30
0.0
 11
31.399999999999999
 21
26.5
 31
0.0
  0
LINE
  5
28E
100
AcDbEntity
  8
0
  6
CONTINUOUS
 62
               7
100
AcDbLine
 10
17.0
 20
5.5
 30
0.0
 11
31.399999999999999
 21
5.5
 31
0.0
  0
LINE
  5
28F
100
AcDbEntity
  8
0
  6
CONTINUOUS
 62
               7
100
AcDbLine
 10
-12.199999999999999
 20
9.1600000000000001
 30
0.0
 11
12.199999999999999
 21
9.1600000000000001
 31
0.0
  0
LINE
  5
290
100
AcDbEntity
  8
0
  6
CONTINUOUS
 62
               7
100
AcDbLine
 10
-12.199999999999999
 20
22.129999999999999
 30
0.0
 11
12.199999999999999
 21
22.129999999999999
 31
0.0
  0
LINE
  5
291
100
AcDbEntity
  8
0
  6
CONTINUOUS
 62
               7
100
AcDbLine
 10
10.75
 20
24.649999999999999
 30
0.0
 11
12.199999999999999
 21
22.129999999999999
 31
0.0
  0
LINE
  5
292
100
AcDbEntity
  8
0
  6
CONTINUOUS
 62
               7
100
AcDbLine
 10
-12.199999999999999
 20
9.1600000000000001
 30
0.0
 11
-10.75
 21
6.6500000000000004
 31
0.0
  0
LINE
  5
293
100
AcDbEntity
  8
0
  6
CONTINUOUS
 62
               7
100
AcDbLine
 10
10.75
 20
6.6500000000000004
 30
0.0
 11
12.199999999999999
 21
9.1600000000000001
 31
0.0
  0
LINE
  5
294
100
AcDbEntity
  8
0
  6
CONTINUOUS
 62
               7
100
AcDbLine
 10
-12.199999999999999
 20
22.129999999999999
 30
0.0
 11
-10.75
 21
24.649999999999999
 31
0.0
  0
LINE
  5
295
100
AcDbEntity
  8
0
  6
CONTINUOUS
 62
               7
100
AcDbLine
 10
-12.199999999999999
 20
22.129999999999999
 30
0.0
 11
-12.199999999999999
 21
9.1600000000000001
 31
0.0
  0
LINE
  5
296
100
AcDbEntity
  8
0
  6
CONTINUOUS
 62
               7
100
AcDbLine
 10
12.199999999999999
 20
22.129999999999999
 30
0.0
 11
12.199999999999999
 21
9.1600000000000001
 31
0.0
  0
LINE
  5
297
100
AcDbEntity
  8
0
  6
CONTINUOUS
 62
               7
100
AcDbLine
 10
-10.75
 20
6.6500000000000004
 30
0.0
 11
10.75
 21
6.6500000000000004
 31
0.0
  0
LINE
  5
298
100
AcDbEntity
  8
0
  6
CONTINUOUS
 62
               7
100
AcDbLine
 10
-12.109999999999999
 20
24.649999999999999
 30
0.0
 11
12.109999999999999
 21
24.649999999999999
 31
0.0
  0
LINE
  5
299
100
AcDbEntity
  8
0
  6
DASHED
 62
               2
100
AcDbLine
 10
7.5
 20
38.170000000000002
 30
0.0
 11
7.1200000000000001
 21
26.170000000000002
 31
0.0
  0
LINE
  5
29A
100
AcDbEntity
  8
0
  6
DASHED
 62
               2
100
AcDbLine
 10
-7.5
 20
38.170000000000002
 30
0.0
 11
-7.1200000000000001
 21
26.170000000000002
 31
0.0
  0
LINE
  5
29B
100
AcDbEntity
  8
0
  6
DASHED
 62
               2
100
AcDbLine
 10
8.3000000000000007
 20
38.149999999999999
 30
0.0
 11
7.9199999999999999
 21
26.149999999999999
 31
0.0
  0
LINE
  5
29C
100
AcDbEntity
  8
0
  6
DASHED
 62
               2
100
AcDbLine
 10
-8.3000000000000007
 20
38.149999999999999
 30
0.0
 11
-7.9199999999999999
 21
26.149999999999999
 31
0.0
  0
LINE
  5
29D
100
AcDbEntity
  8
0
  6
DASHED
 62
               2
100
AcDbLine
 10
-7.9199999999999999
 20
26.149999999999999
 30
0.0
 11
7.9199999999999999
 21
26.149999999999999
 31
0.0
  0
LINE
  5
29E
100
AcDbEntity
  8
0
  6
CENTER
 62
               2
100
AcDbLine
 10
0.0
 20
48.350000000000001
 30
0.0
 11
0.0
 21
-15.25
 31
0.0
  0
LINE
  5
29F
100
AcDbEntity
  8
0
  6
CENTER
 62
               2
100
AcDbLine
 10
-32.399999999999999
 20
16.0
 30
0.0
 11
51.600000000000001
 21
16.0
 31
0.0
  0
LINE
  5
2A0
100
AcDbEntity
  8
0
  6
CONTINUOUS
 62
               7
100
AcDbLine
 10
31.399999999999999
 20
23.5
 30
0.0
 11
33.0
 21
23.5
 31
0.0
  0
LINE
  5
2A1
100
AcDbEntity
  8
0
  6
CONTINUOUS
 62
               7
100
AcDbLine
 10
17.0
 20
14.0
 30
0.0
 11
17.0
 21
5.5
 31
0.0
  0
ENDBLK
  5
2A2
100
AcDbEntity
  8
0
100
AcDbBlockEnd
  0
BLOCK
  5
2A3
100
AcDbEntity
  8
0
100
AcDbBlockBegin
  2
MS_17
 70
               0
 10
0.0
 20
0.0
 30
0.0
  3
MS_17
  1

  0
CIRCLE
  5
2A4
100
AcDbEntity
  8
0
  6
CONTINUOUS
 62
               7
100
AcDbCircle
 10
0.0
 20
16.0
 30
0.0
 40
6.0999994277954102
  0
CIRCLE
  5
2A5
100
AcDbEntity
  8
0
  6
CONTINUOUS
 62
               7
100
AcDbCircle
 10
0.0
 20
16.0
 30
0.0
 40
10.5
  0
CIRCLE
  5
2A6
100
AcDbEntity
  8
0
  6
CONTINUOUS
 62
               7
100
AcDbCircle
 10
0.0
 20
16.0
 30
0.0
 40
9.8999996185302734
  0
LINE
  5
2A7
100
AcDbEntity
  8
0
  6
CONTINUOUS
 62
               7
100
AcDbLine
 10
1.76
 20
5.6500000000000004
 30
0.0
 11
9.0999999999999996
 21
5.6500000000000004
 31
0.0
  0
LINE
  5
2A8
100
AcDbEntity
  8
0
  6
CONTINUOUS
 62
               7
100
AcDbLine
 10
4.7699999999999996
 20
6.6500000000000004
 30
0.0
 11
10.75
 21
6.6500000000000004
 31
0.0
  0
LINE
  5
2A9
100
AcDbEntity
  8
0
  6
CONTINUOUS
 62
               7
100
AcDbLine
 10
0.0
 20
38.149999999999999
 30
0.0
 11
0.0
 21
27.649999999999999
 31
0.0
  0
LINE
  5
2AA
100
AcDbEntity
  8
0
  6
CENTER
 62
               2
100
AcDbLine
 10
0.0
 20
27.649999999999999
 30
0.0
 11
0.0
 21
-16.050000000000001
 31
0.0
  0
LINE
  5
2AB
100
AcDbEntity
  8
0
  6
CONTINUOUS
 62
               7
100
AcDbLine
 10
10.5
 20
38.149999999999999
 30
0.0
 11
10.5
 21
24.649999999999999
 31
0.0
  0
LINE
  5
2AC
100
AcDbEntity
  8
0
  6
CONTINUOUS
 62
               7
100
AcDbLine
 10
-10.5
 20
38.149999999999999
 30
0.0
 11
-10.5
 21
24.649999999999999
 31
0.0
  0
LINE
  5
2AD
100
AcDbEntity
  8
0
  6
CONTINUOUS
 62
               7
100
AcDbLine
 10
-10.5
 20
38.149999999999999
 30
0.0
 11
10.5
 21
38.149999999999999
 31
0.0
  0
LINE
  5
2AE
100
AcDbEntity
  8
0
  6
CONTINUOUS
 62
               7
100
AcDbLine
 10
5.9500000000000002
 20
24.649999999999999
 30
0.0
 11
10.75
 21
24.649999999999999
 31
0.0
  0
LINE
  5
2AF
100
AcDbEntity
  8
0
  6
CONTINUOUS
 62
               7
100
AcDbLine
 10
8.5099999999999998
 20
22.129999999999999
 30
0.0
 11
12.199999999999999
 21
22.129999999999999
 31
0.0
  0
LINE
  5
2B0
100
AcDbEntity
  8
0
  6
CONTINUOUS
 62
               7
100
AcDbLine
 10
7.96
 20
9.1600000000000001
 30
0.0
 11
12.199999999999999
 21
9.1600000000000001
 31
0.0
  0
LINE
  5
2B1
100
AcDbEntity
  8
0
  6
CONTINUOUS
 62
               7
100
AcDbLine
 10
-12.199999999999999
 20
9.1600000000000001
 30
0.0
 11
-7.96
 21
9.1600000000000001
 31
0.0
  0
LINE
  5
2B2
100
AcDbEntity
  8
0
  6
CONTINUOUS
 62
               7
100
AcDbLine
 10
-12.199999999999999
 20
22.129999999999999
 30
0.0
 11
-8.5099999999999998
 21
22.129999999999999
 31
0.0
  0
LINE
  5
2B3
100
AcDbEntity
  8
0
  6
CONTINUOUS
 62
               7
100
AcDbLine
 10
10.75
 20
6.6500000000000004
 30
0.0
 11
12.199999999999999
 21
9.1600000000000001
 31
0.0
  0
LINE
  5
2B4
100
AcDbEntity
  8
0
  6
CONTINUOUS
 62
               7
100
AcDbLine
 10
-12.199999999999999
 20
22.129999999999999
 30
0.0
 11
-10.75
 21
24.649999999999999
 31
0.0
  0
LINE
  5
2B5
100
AcDbEntity
  8
0
  6
CONTINUOUS
 62
               7
100
AcDbLine
 10
10.75
 20
24.649999999999999
 30
0.0
 11
12.199999999999999
 21
22.129999999999999
 31
0.0
  0
LINE
  5
2B6
100
AcDbEntity
  8
0
  6
CONTINUOUS
 62
               7
100
AcDbLine
 10
-12.199999999999999
 20
9.1600000000000001
 30
0.0
 11
-10.75
 21
6.6500000000000004
 31
0.0
  0
LINE
  5
2B7
100
AcDbEntity
  8
0
  6
CONTINUOUS
 62
               7
100
AcDbLine
 10
12.199999999999999
 20
22.129999999999999
 30
0.0
 11
12.199999999999999
 21
9.1600000000000001
 31
0.0
  0
LINE
  5
2B8
100
AcDbEntity
  8
0
  6
CONTINUOUS
 62
               7
100
AcDbLine
 10
-12.199999999999999
 20
22.129999999999999
 30
0.0
 11
-12.199999999999999
 21
9.1600000000000001
 31
0.0
  0
LINE
  5
2B9
100
AcDbEntity
  8
0
  6
CONTINUOUS
 62
               7
100
AcDbLine
 10
-10.75
 20
6.6500000000000004
 30
0.0
 11
-4.7699999999999996
 21
6.6500000000000004
 31
0.0
  0
LINE
  5
2BA
100
AcDbEntity
  8
0
  6
CONTINUOUS
 62
               7
100
AcDbLine
 10
-10.75
 20
24.649999999999999
 30
0.0
 11
-5.9500000000000002
 21
24.649999999999999
 31
0.0
  0
LINE
  5
2BB
100
AcDbEntity
  8
0
  6
CONTINUOUS
 62
               7
100
AcDbLine
 10
-9.0999999999999996
 20
6.6500000000000004
 30
0.0
 11
-9.0999999999999996
 21
5.6500000000000004
 31
0.0
  0
LINE
  5
2BC
100
AcDbEntity
  8
0
  6
CONTINUOUS
 62
               7
100
AcDbLine
 10
9.0999999999999996
 20
6.6500000000000004
 30
0.0
 11
9.0999999999999996
 21
5.6500000000000004
 31
0.0
  0
LINE
  5
2BD
100
AcDbEntity
  8
0
  6
CONTINUOUS
 62
               7
100
AcDbLine
 10
-9.0999999999999996
 20
5.6500000000000004
 30
0.0
 11
-1.76
 21
5.6500000000000004
 31
0.0
  0
LINE
  5
2BE
100
AcDbEntity
  8
0
  6
CONTINUOUS
 62
               2
100
AcDbLine
 10
7.7000000000000002
 20
5.6500000000000004
 30
0.0
 11
7.2999999999999998
 21
-6.3200000000000003
 31
0.0
  0
LINE
  5
2BF
100
AcDbEntity
  8
0
  6
CONTINUOUS
 62
               2
100
AcDbLine
 10
-7.7000000000000002
 20
5.6500000000000004
 30
0.0
 11
-7.2999999999999998
 21
-6.3200000000000003
 31
0.0
  0
LINE
  5
2C0
100
AcDbEntity
  8
0
  6
CONTINUOUS
 62
               7
100
AcDbLine
 10
8.5
 20
5.6500000000000004
 30
0.0
 11
8.0999999999999996
 21
-6.3499999999999996
 31
0.0
  0
LINE
  5
2C1
100
AcDbEntity
  8
0
  6
CONTINUOUS
 62
               7
100
AcDbLine
 10
-8.5
 20
5.6500000000000004
 30
0.0
 11
-8.0999999999999996
 21
-6.3499999999999996
 31
0.0
  0
LINE
  5
2C2
100
AcDbEntity
  8
0
  6
CONTINUOUS
 62
               7
100
AcDbLine
 10
-8.0999999999999996
 20
-6.3499999999999996
 30
0.0
 11
8.0999999999999996
 21
-6.3499999999999996
 31
0.0
  0
LINE
  5
2C3
100
AcDbEntity
  8
0
  6
CENTER
 62
               2
100
AcDbLine
 10
-11.720000000000001
 20
0.0
 30
0.0
 11
11.880000000000001
 21
0.0
 31
0.0
  0
LINE
  5
2C4
100
AcDbEntity
  8
0
  6
CENTER
 62
               2
100
AcDbLine
 10
-21.809999999999999
 20
16.0
 30
0.0
 11
23.670000000000002
 21
16.0
 31
0.0
  0
LINE
  5
2C5
100
AcDbEntity
  8
0
  6
CENTER
 62
               2
100
AcDbLine
 10
0.0
 20
44.350000000000001
 30
0.0
 11
0.0
 21
38.149999999999999
 31
0.0
  0
ENDBLK
  5
2C6
100
AcDbEntity
  8
0
100
AcDbBlockEnd
  0
BLOCK
  5
2C7
100
AcDbEntity
  8
0
100
AcDbBlockBegin
  2
MS_18
 70
               0
 10
0.0
 20
0.0
 30
0.0
  3
MS_18
  1

  0
CIRCLE
  5
2C8
100
AcDbEntity
  8
0
  6
CONTINUOUS
 62
               2
100
AcDbCircle
 10
0.0
 20
0.0
 30
0.0
 40
8.3000001907348633
  0
CIRCLE
  5
2C9
100
AcDbEntity
  8
0
  6
CONTINUOUS
 62
               7
100
AcDbCircle
 10
0.0
 20
0.0
 30
0.0
 40
12.199999809265137
  0
CIRCLE
  5
2CA
100
AcDbEntity
  8
0
  6
CONTINUOUS
 62
               7
100
AcDbCircle
 10
0.0
 20
0.0
 30
0.0
 40
7.4499998092651367
  0
LINE
  5
2CB
100
AcDbEntity
  8
0
  6
CONTINUOUS
 62
               7
100
AcDbLine
 10
14.0
 20
7.5
 30
0.0
 11
17.0
 21
10.5
 31
0.0
  0
LINE
  5
2CC
100
AcDbEntity
  8
0
  6
CONTINUOUS
 62
               7
100
AcDbLine
 10
14.0
 20
-7.5
 30
0.0
 11
17.0
 21
-10.5
 31
0.0
  0
LINE
  5
2CD
100
AcDbEntity
  8
0
  6
CONTINUOUS
 62
               7
100
AcDbLine
 10
9.6199999999999992
 20
7.5
 30
0.0
 11
14.0
 21
7.5
 31
0.0
  0
LINE
  5
2CE
100
AcDbEntity
  8
0
  6
CONTINUOUS
 62
               7
100
AcDbLine
 10
9.6199999999999992
 20
-7.5
 30
0.0
 11
14.0
 21
-7.5
 31
0.0
  0
LINE
  5
2CF
100
AcDbEntity
  8
0
  6
CONTINUOUS
 62
               7
100
AcDbLine
 10
14.0
 20
7.5
 30
0.0
 11
14.0
 21
-7.5
 31
0.0
  0
LINE
  5
2D0
100
AcDbEntity
  8
0
  6
CONTINUOUS
 62
               7
100
AcDbLine
 10
17.0
 20
10.5
 30
0.0
 11
17.0
 21
-10.5
 31
0.0
  0
LINE
  5
2D1
100
AcDbEntity
  8
0
  6
CONTINUOUS
 62
               7
100
AcDbLine
 10
6.21
 20
-10.5
 30
0.0
 11
31.399999999999999
 21
-10.5
 31
0.0
  0
LINE
  5
2D2
100
AcDbEntity
  8
0
  6
CONTINUOUS
 62
               7
100
AcDbLine
 10
6.21
 20
10.5
 30
0.0
 11
31.399999999999999
 21
10.5
 31
0.0
  0
LINE
  5
2D3
100
AcDbEntity
  8
0
  6
CONTINUOUS
 62
               7
100
AcDbLine
 10
6.0599999999999996
 20
10.5
 30
0.0
 11
12.119999999999999
 21
0.0
 31
0.0
  0
LINE
  5
2D4
100
AcDbEntity
  8
0
  6
CONTINUOUS
 62
               7
100
AcDbLine
 10
-12.119999999999999
 20
0.0
 30
0.0
 11
-6.0599999999999996
 21
-10.5
 31
0.0
  0
LINE
  5
2D5
100
AcDbEntity
  8
0
  6
CONTINUOUS
 62
               7
100
AcDbLine
 10
6.0599999999999996
 20
-10.5
 30
0.0
 11
12.119999999999999
 21
0.0
 31
0.0
  0
LINE
  5
2D6
100
AcDbEntity
  8
0
  6
CONTINUOUS
 62
               7
100
AcDbLine
 10
-12.119999999999999
 20
0.0
 30
0.0
 11
-6.0599999999999996
 21
10.5
 31
0.0
  0
LINE
  5
2D7
100
AcDbEntity
  8
0
  6
CONTINUOUS
 62
               7
100
AcDbLine
 10
-6.0599999999999996
 20
10.5
 30
0.0
 11
6.0599999999999996
 21
10.5
 31
0.0
  0
LINE
  5
2D8
100
AcDbEntity
  8
0
  6
CONTINUOUS
 62
               7
100
AcDbLine
 10
-6.0599999999999996
 20
-10.5
 30
0.0
 11
6.0599999999999996
 21
-10.5
 31
0.0
  0
LINE
  5
2D9
100
AcDbEntity
  8
0
  6
CONTINUOUS
 62
               7
100
AcDbLine
 10
33.0
 20
9.9000000000000004
 30
0.0
 11
35.200000000000003
 21
9.9000000000000004
 31
0.0
  0
LINE
  5
2DA
100
AcDbEntity
  8
0
  6
CONTINUOUS
 62
               7
100
AcDbLine
 10
33.0
 20
-9.9000000000000004
 30
0.0
 11
35.200000000000003
 21
-9.9000000000000004
 31
0.0
  0
LINE
  5
2DB
100
AcDbEntity
  8
0
  6
CONTINUOUS
 62
               7
100
AcDbLine
 10
31.399999999999999
 20
-7.5
 30
0.0
 11
33.0
 21
-7.5
 31
0.0
  0
LINE
  5
2DC
100
AcDbEntity
  8
0
  6
CONTINUOUS
 62
               7
100
AcDbLine
 10
31.399999999999999
 20
7.5
 30
0.0
 11
33.0
 21
7.5
 31
0.0
  0
LINE
  5
2DD
100
AcDbEntity
  8
0
  6
CONTINUOUS
 62
               7
100
AcDbLine
 10
33.0
 20
9.9000000000000004
 30
0.0
 11
33.0
 21
-9.9000000000000004
 31
0.0
  0
LINE
  5
2DE
100
AcDbEntity
  8
0
  6
CONTINUOUS
 62
               7
100
AcDbLine
 10
35.200000000000003
 20
9.9000000000000004
 30
0.0
 11
35.200000000000003
 21
-9.9000000000000004
 31
0.0
  0
LINE
  5
2DF
100
AcDbEntity
  8
0
  6
CONTINUOUS
 62
               7
100
AcDbLine
 10
31.399999999999999
 20
10.5
 30
0.0
 11
31.399999999999999
 21
-10.5
 31
0.0
  0
LINE
  5
2E0
100
AcDbEntity
  8
0
  6
CENTER
 62
               2
100
AcDbLine
 10
0.0
 20
14.85
 30
0.0
 11
0.0
 21
-20.0
 31
0.0
  0
LINE
  5
2E1
100
AcDbEntity
  8
0
  6
CENTER
 62
               2
100
AcDbLine
 10
-34.600000000000001
 20
0.0
 30
0.0
 11
54.799999999999997
 21
0.0
 31
0.0
  0
ENDBLK
  5
2E2
100
AcDbEntity
  8
0
100
AcDbBlockEnd
  0
BLOCK
  5
2E3
100
AcDbEntity
  8
0
100
AcDbBlockBegin
  2
MS_19
 70
               0
 10
0.0
 20
0.0
 30
0.0
  3
MS_19
  1

  0
LINE
  5
2E4
100
AcDbEntity
  8
0
  6
CONTINUOUS
 62
               7
100
AcDbLine
 10
-13.199999999999999
 20
44.039999999999999
 30
0.0
 11
-13.199999999999999
 21
27.039999999999999
 31
0.0
  0
LINE
  5
2E5
100
AcDbEntity
  8
0
  6
CONTINUOUS
 62
               7
100
AcDbLine
 10
13.199999999999999
 20
44.039999999999999
 30
0.0
 11
13.199999999999999
 21
27.039999999999999
 31
0.0
  0
LINE
  5
2E6
100
AcDbEntity
  8
0
  6
CONTINUOUS
 62
               7
100
AcDbLine
 10
19.0
 20
15.5
 30
0.0
 11
19.0
 21
7.0
 31
0.0
  0
LINE
  5
2E7
100
AcDbEntity
  8
0
  6
CONTINUOUS
 62
               7
100
AcDbLine
 10
15.0
 20
19.5
 30
0.0
 11
19.0
 21
19.5
 31
0.0
  0
LINE
  5
2E8
100
AcDbEntity
  8
0
  6
CONTINUOUS
 62
               7
100
AcDbLine
 10
15.0
 20
15.5
 30
0.0
 11
19.0
 21
15.5
 31
0.0
  0
LINE
  5
2E9
100
AcDbEntity
  8
0
  6
CONTINUOUS
 62
               7
100
AcDbLine
 10
34.399999999999999
 20
25.0
 30
0.0
 11
36.0
 21
25.0
 31
0.0
  0
LINE
  5
2EA
100
AcDbEntity
  8
0
  6
CONTINUOUS
 62
               7
100
AcDbLine
 10
36.0
 20
27.399999999999999
 30
0.0
 11
36.0
 21
7.5999999999999996
 31
0.0
  0
LINE
  5
2EB
100
AcDbEntity
  8
0
  6
CONTINUOUS
 62
               7
100
AcDbLine
 10
38.200000000000003
 20
27.399999999999999
 30
0.0
 11
38.200000000000003
 21
7.5999999999999996
 31
0.0
  0
LINE
  5
2EC
100
AcDbEntity
  8
0
  6
CONTINUOUS
 62
               7
100
AcDbLine
 10
34.399999999999999
 20
28.0
 30
0.0
 11
34.399999999999999
 21
7.0
 31
0.0
  0
LINE
  5
2ED
100
AcDbEntity
  8
0
  6
CONTINUOUS
 62
               7
100
AcDbLine
 10
36.0
 20
27.399999999999999
 30
0.0
 11
38.200000000000003
 21
27.399999999999999
 31
0.0
  0
LINE
  5
2EE
100
AcDbEntity
  8
0
  6
CONTINUOUS
 62
               7
100
AcDbLine
 10
34.399999999999999
 20
10.0
 30
0.0
 11
36.0
 21
10.0
 31
0.0
  0
LINE
  5
2EF
100
AcDbEntity
  8
0
  6
CONTINUOUS
 62
               7
100
AcDbLine
 10
36.0
 20
7.5999999999999996
 30
0.0
 11
38.200000000000003
 21
7.5999999999999996
 31
0.0
  0
LINE
  5
2F0
100
AcDbEntity
  8
0
  6
CONTINUOUS
 62
               2
100
AcDbLine
 10
9.5500000000000007
 20
4.8799999999999999
 30
0.0
 11
9.0500000000000007
 21
-8.1099999999999994
 31
0.0
  0
LINE
  5
2F1
100
AcDbEntity
  8
0
  6
CONTINUOUS
 62
               2
100
AcDbLine
 10
-9.5500000000000007
 20
4.8799999999999999
 30
0.0
 11
-9.0500000000000007
 21
-8.1099999999999994
 31
0.0
  0
LINE
  5
2F2
100
AcDbEntity
  8
0
  6
CONTINUOUS
 62
               7
100
AcDbLine
 10
10.699999999999999
 20
4.8399999999999999
 30
0.0
 11
10.199999999999999
 21
-8.1600000000000001
 31
0.0
  0
LINE
  5
2F3
100
AcDbEntity
  8
0
  6
CONTINUOUS
 62
               7
100
AcDbLine
 10
-10.699999999999999
 20
4.8399999999999999
 30
0.0
 11
-10.199999999999999
 21
-8.1600000000000001
 31
0.0
  0
LINE
  5
2F4
100
AcDbEntity
  8
0
  6
CONTINUOUS
 62
               7
100
AcDbLine
 10
-10.199999999999999
 20
-8.1600000000000001
 30
0.0
 11
10.199999999999999
 21
-8.1600000000000001
 31
0.0
  0
LINE
  5
2F5
100
AcDbEntity
  8
0
  6
CONTINUOUS
 62
               7
100
AcDbLine
 10
-11.0
 20
6.04
 30
0.0
 11
-11.0
 21
4.8399999999999999
 31
0.0
  0
LINE
  5
2F6
100
AcDbEntity
  8
0
  6
CONTINUOUS
 62
               7
100
AcDbLine
 10
11.0
 20
6.04
 30
0.0
 11
11.0
 21
4.8399999999999999
 31
0.0
  0
LINE
  5
2F7
100
AcDbEntity
  8
0
  6
CONTINUOUS
 62
               7
100
AcDbLine
 10
-11.0
 20
4.8399999999999999
 30
0.0
 11
11.0
 21
4.8399999999999999
 31
0.0
  0
LINE
  5
2F8
100
AcDbEntity
  8
0
  6
CENTER
 62
               2
100
AcDbLine
 10
-13.26
 20
0.0
 30
0.0
 11
14.33
 21
0.0
 31
0.0
  0
LINE
  5
2F9
100
AcDbEntity
  8
0
  6
DASHED
 62
               2
100
AcDbLine
 10
9.3000000000000007
 20
44.07
 30
0.0
 11
8.8300000000000001
 21
29.07
 31
0.0
  0
LINE
  5
2FA
100
AcDbEntity
  8
0
  6
DASHED
 62
               2
100
AcDbLine
 10
-9.3000000000000007
 20
44.07
 30
0.0
 11
-8.8300000000000001
 21
29.07
 31
0.0
  0
LINE
  5
2FB
100
AcDbEntity
  8
0
  6
DASHED
 62
               2
100
AcDbLine
 10
10.449999999999999
 20
44.039999999999999
 30
0.0
 11
9.9800000000000004
 21
29.039999999999999
 31
0.0
  0
LINE
  5
2FC
100
AcDbEntity
  8
0
  6
DASHED
 62
               2
100
AcDbLine
 10
-10.449999999999999
 20
44.039999999999999
 30
0.0
 11
-9.9800000000000004
 21
29.039999999999999
 31
0.0
  0
LINE
  5
2FD
100
AcDbEntity
  8
0
  6
DASHED
 62
               2
100
AcDbLine
 10
-9.9800000000000004
 20
29.039999999999999
 30
0.0
 11
9.9800000000000004
 21
29.039999999999999
 31
0.0
  0
LINE
  5
2FE
100
AcDbEntity
  8
0
  6
CONTINUOUS
 62
               7
100
AcDbLine
 10
-6.9000000000000004
 20
44.039999999999999
 30
0.0
 11
-6.9000000000000004
 21
27.039999999999999
 31
0.0
  0
LINE
  5
2FF
100
AcDbEntity
  8
0
  6
CONTINUOUS
 62
               7
100
AcDbLine
 10
6.9000000000000004
 20
44.039999999999999
 30
0.0
 11
6.9000000000000004
 21
27.039999999999999
 31
0.0
  0
LINE
  5
300
100
AcDbEntity
  8
0
  6
CONTINUOUS
 62
               7
100
AcDbLine
 10
-13.199999999999999
 20
44.039999999999999
 30
0.0
 11
13.199999999999999
 21
44.039999999999999
 31
0.0
  0
LINE
  5
301
100
AcDbEntity
  8
0
  6
CONTINUOUS
 62
               7
100
AcDbLine
 10
16.0
 20
25.0
 30
0.0
 11
19.0
 21
28.0
 31
0.0
  0
LINE
  5
302
100
AcDbEntity
  8
0
  6
CONTINUOUS
 62
               7
100
AcDbLine
 10
16.0
 20
10.0
 30
0.0
 11
19.0
 21
7.0
 31
0.0
  0
LINE
  5
303
100
AcDbEntity
  8
0
  6
CONTINUOUS
 62
               7
100
AcDbLine
 10
15.0
 20
10.0
 30
0.0
 11
16.0
 21
10.0
 31
0.0
  0
LINE
  5
304
100
AcDbEntity
  8
0
  6
CONTINUOUS
 62
               7
100
AcDbLine
 10
14.67
 20
25.0
 30
0.0
 11
16.0
 21
25.0
 31
0.0
  0
LINE
  5
305
100
AcDbEntity
  8
0
  6
CONTINUOUS
 62
               7
100
AcDbLine
 10
16.0
 20
25.0
 30
0.0
 11
16.0
 21
19.5
 31
0.0
  0
LINE
  5
306
100
AcDbEntity
  8
0
  6
CONTINUOUS
 62
               7
100
AcDbLine
 10
19.0
 20
28.0
 30
0.0
 11
19.0
 21
19.5
 31
0.0
  0
LINE
  5
307
100
AcDbEntity
  8
0
  6
CONTINUOUS
 62
               7
100
AcDbLine
 10
19.0
 20
28.0
 30
0.0
 11
34.399999999999999
 21
28.0
 31
0.0
  0
LINE
  5
308
100
AcDbEntity
  8
0
  6
CONTINUOUS
 62
               7
100
AcDbLine
 10
19.0
 20
7.0
 30
0.0
 11
34.399999999999999
 21
7.0
 31
0.0
  0
LINE
  5
309
100
AcDbEntity
  8
0
  6
CONTINUOUS
 62
               7
100
AcDbLine
 10
-15.0
 20
8.6300000000000008
 30
0.0
 11
15.0
 21
8.6300000000000008
 31
0.0
  0
LINE
  5
30A
100
AcDbEntity
  8
0
  6
CONTINUOUS
 62
               7
100
AcDbLine
 10
-15.0
 20
24.440000000000001
 30
0.0
 11
15.0
 21
24.440000000000001
 31
0.0
  0
LINE
  5
30B
100
AcDbEntity
  8
0
  6
CONTINUOUS
 62
               7
100
AcDbLine
 10
13.5
 20
27.039999999999999
 30
0.0
 11
15.0
 21
24.440000000000001
 31
0.0
  0
LINE
  5
30C
100
AcDbEntity
  8
0
  6
CONTINUOUS
 62
               7
100
AcDbLine
 10
-15.0
 20
8.6300000000000008
 30
0.0
 11
-13.5
 21
6.04
 31
0.0
  0
LINE
  5
30D
100
AcDbEntity
  8
0
  6
CONTINUOUS
 62
               7
100
AcDbLine
 10
13.5
 20
6.04
 30
0.0
 11
15.0
 21
8.6300000000000008
 31
0.0
  0
LINE
  5
30E
100
AcDbEntity
  8
0
  6
CONTINUOUS
 62
               7
100
AcDbLine
 10
-15.0
 20
24.440000000000001
 30
0.0
 11
-13.5
 21
27.039999999999999
 31
0.0
  0
LINE
  5
30F
100
AcDbEntity
  8
0
  6
CONTINUOUS
 62
               7
100
AcDbLine
 10
15.0
 20
24.440000000000001
 30
0.0
 11
15.0
 21
8.6300000000000008
 31
0.0
  0
LINE
  5
310
100
AcDbEntity
  8
0
  6
CONTINUOUS
 62
               7
100
AcDbLine
 10
-15.0
 20
24.440000000000001
 30
0.0
 11
-15.0
 21
8.6300000000000008
 31
0.0
  0
LINE
  5
311
100
AcDbEntity
  8
0
  6
CONTINUOUS
 62
               7
100
AcDbLine
 10
-13.5
 20
27.039999999999999
 30
0.0
 11
13.5
 21
27.039999999999999
 31
0.0
  0
LINE
  5
312
100
AcDbEntity
  8
0
  6
CONTINUOUS
 62
               7
100
AcDbLine
 10
-13.5
 20
6.04
 30
0.0
 11
13.5
 21
6.04
 31
0.0
  0
LINE
  5
313
100
AcDbEntity
  8
0
  6
CENTER
 62
               2
100
AcDbLine
 10
0.0
 20
50.310000000000002
 30
0.0
 11
0.0
 21
-16.66
 31
0.0
  0
LINE
  5
314
100
AcDbEntity
  8
0
  6
CENTER
 62
               2
100
AcDbLine
 10
-27.0
 20
17.5
 30
0.0
 11
50.600000000000001
 21
17.5
 31
0.0
  0
LINE
  5
315
100
AcDbEntity
  8
0
  6
CONTINUOUS
 62
               7
100
AcDbLine
 10
16.0
 20
15.5
 30
0.0
 11
16.0
 21
10.0
 31
0.0
  0
ENDBLK
  5
316
100
AcDbEntity
  8
0
100
AcDbBlockEnd
  0
BLOCK
  5
317
100
AcDbEntity
  8
0
100
AcDbBlockBegin
  2
MS_20
 70
               0
 10
0.0
 20
0.0
 30
0.0
  3
MS_20
  1

  0
CIRCLE
  5
318
100
AcDbEntity
  8
0
  6
CONTINUOUS
 62
               7
100
AcDbCircle
 10
0.0
 20
17.5
 30
0.0
 40
6.0999994277954102
  0
CIRCLE
  5
319
100
AcDbEntity
  8
0
  6
CONTINUOUS
 62
               7
100
AcDbCircle
 10
0.0
 20
17.5
 30
0.0
 40
9.8999996185302734
  0
CIRCLE
  5
31A
100
AcDbEntity
  8
0
  6
CONTINUOUS
 62
               7
100
AcDbCircle
 10
0.0
 20
17.5
 30
0.0
 40
10.5
  0
LINE
  5
31B
100
AcDbEntity
  8
0
  6
CONTINUOUS
 62
               7
100
AcDbLine
 10
4.3799999999999999
 20
27.039999999999999
 30
0.0
 11
13.5
 21
27.039999999999999
 31
0.0
  0
LINE
  5
31C
100
AcDbEntity
  8
0
  6
CONTINUOUS
 62
               7
100
AcDbLine
 10
0.0
 20
44.039999999999999
 30
0.0
 11
0.0
 21
28.0
 31
0.0
  0
LINE
  5
31D
100
AcDbEntity
  8
0
  6
CENTER
 62
               2
100
AcDbLine
 10
0.0
 20
51.100000000000001
 30
0.0
 11
0.0
 21
-16.0
 31
0.0
  0
LINE
  5
31E
100
AcDbEntity
  8
0
  6
CONTINUOUS
 62
               7
100
AcDbLine
 10
-12.0
 20
44.039999999999999
 30
0.0
 11
-12.0
 21
27.039999999999999
 31
0.0
  0
LINE
  5
31F
100
AcDbEntity
  8
0
  6
CONTINUOUS
 62
               7
100
AcDbLine
 10
12.0
 20
44.039999999999999
 30
0.0
 11
12.0
 21
27.039999999999999
 31
0.0
  0
LINE
  5
320
100
AcDbEntity
  8
0
  6
CONTINUOUS
 62
               7
100
AcDbLine
 10
5.6299999999999999
 20
8.6300000000000008
 30
0.0
 11
15.0
 21
8.6300000000000008
 31
0.0
  0
LINE
  5
321
100
AcDbEntity
  8
0
  6
CONTINUOUS
 62
               7
100
AcDbLine
 10
7.8700000000000001
 20
24.440000000000001
 30
0.0
 11
15.0
 21
24.440000000000001
 31
0.0
  0
LINE
  5
322
100
AcDbEntity
  8
0
  6
CONTINUOUS
 62
               7
100
AcDbLine
 10
-15.0
 20
8.6300000000000008
 30
0.0
 11
-5.6299999999999999
 21
8.6300000000000008
 31
0.0
  0
LINE
  5
323
100
AcDbEntity
  8
0
  6
CONTINUOUS
 62
               7
100
AcDbLine
 10
-15.0
 20
24.440000000000001
 30
0.0
 11
-7.8700000000000001
 21
24.440000000000001
 31
0.0
  0
LINE
  5
324
100
AcDbEntity
  8
0
  6
CONTINUOUS
 62
               7
100
AcDbLine
 10
13.5
 20
27.039999999999999
 30
0.0
 11
15.0
 21
24.440000000000001
 31
0.0
  0
LINE
  5
325
100
AcDbEntity
  8
0
  6
CONTINUOUS
 62
               7
100
AcDbLine
 10
-15.0
 20
8.6300000000000008
 30
0.0
 11
-13.5
 21
6.04
 31
0.0
  0
LINE
  5
326
100
AcDbEntity
  8
0
  6
CONTINUOUS
 62
               7
100
AcDbLine
 10
13.5
 20
6.04
 30
0.0
 11
15.0
 21
8.6300000000000008
 31
0.0
  0
LINE
  5
327
100
AcDbEntity
  8
0
  6
CONTINUOUS
 62
               7
100
AcDbLine
 10
-15.0
 20
24.440000000000001
 30
0.0
 11
-13.5
 21
27.039999999999999
 31
0.0
  0
LINE
  5
328
100
AcDbEntity
  8
0
  6
CONTINUOUS
 62
               7
100
AcDbLine
 10
-15.0
 20
24.440000000000001
 30
0.0
 11
-15.0
 21
8.6300000000000008
 31
0.0
  0
LINE
  5
329
100
AcDbEntity
  8
0
  6
CONTINUOUS
 62
               7
100
AcDbLine
 10
15.0
 20
24.440000000000001
 30
0.0
 11
15.0
 21
8.6300000000000008
 31
0.0
  0
LINE
  5
32A
100
AcDbEntity
  8
0
  6
CONTINUOUS
 62
               7
100
AcDbLine
 10
-13.5
 20
27.039999999999999
 30
0.0
 11
-4.3799999999999999
 21
27.039999999999999
 31
0.0
  0
LINE
  5
32B
100
AcDbEntity
  8
0
  6
CONTINUOUS
 62
               7
100
AcDbLine
 10
-13.5
 20
6.04
 30
0.0
 11
13.5
 21
6.04
 31
0.0
  0
LINE
  5
32C
100
AcDbEntity
  8
0
  6
CONTINUOUS
 62
               2
100
AcDbLine
 10
9.5500000000000007
 20
4.8799999999999999
 30
0.0
 11
9.0500000000000007
 21
-8.1099999999999994
 31
0.0
  0
LINE
  5
32D
100
AcDbEntity
  8
0
  6
CONTINUOUS
 62
               2
100
AcDbLine
 10
-9.5500000000000007
 20
4.8799999999999999
 30
0.0
 11
-9.0500000000000007
 21
-8.1099999999999994
 31
0.0
  0
LINE
  5
32E
100
AcDbEntity
  8
0
  6
CONTINUOUS
 62
               7
100
AcDbLine
 10
10.699999999999999
 20
4.8399999999999999
 30
0.0
 11
10.199999999999999
 21
-8.1600000000000001
 31
0.0
  0
LINE
  5
32F
100
AcDbEntity
  8
0
  6
CONTINUOUS
 62
               7
100
AcDbLine
 10
-10.699999999999999
 20
4.8399999999999999
 30
0.0
 11
-10.199999999999999
 21
-8.1600000000000001
 31
0.0
  0
LINE
  5
330
100
AcDbEntity
  8
0
  6
CONTINUOUS
 62
               7
100
AcDbLine
 10
-10.199999999999999
 20
-8.1600000000000001
 30
0.0
 11
10.199999999999999
 21
-8.1600000000000001
 31
0.0
  0
LINE
  5
331
100
AcDbEntity
  8
0
  6
CONTINUOUS
 62
               7
100
AcDbLine
 10
-11.0
 20
6.04
 30
0.0
 11
-11.0
 21
4.8399999999999999
 31
0.0
  0
LINE
  5
332
100
AcDbEntity
  8
0
  6
CONTINUOUS
 62
               7
100
AcDbLine
 10
11.0
 20
6.04
 30
0.0
 11
11.0
 21
4.8399999999999999
 31
0.0
  0
LINE
  5
333
100
AcDbEntity
  8
0
  6
CONTINUOUS
 62
               7
100
AcDbLine
 10
-11.0
 20
4.8399999999999999
 30
0.0
 11
11.0
 21
4.8399999999999999
 31
0.0
  0
LINE
  5
334
100
AcDbEntity
  8
0
  6
CENTER
 62
               2
100
AcDbLine
 10
-27.73
 20
17.5
 30
0.0
 11
24.609999999999999
 21
17.5
 31
0.0
  0
LINE
  5
335
100
AcDbEntity
  8
0
  6
CENTER
 62
               2
100
AcDbLine
 10
-13.26
 20
0.0
 30
0.0
 11
14.33
 21
0.0
 31
0.0
  0
LINE
  5
336
100
AcDbEntity
  8
0
  6
CONTINUOUS
 62
               7
100
AcDbLine
 10
-12.0
 20
44.039999999999999
 30
0.0
 11
12.0
 21
44.039999999999999
 31
0.0
  0
ENDBLK
  5
337
100
AcDbEntity
  8
0
100
AcDbBlockEnd
  0
BLOCK
  5
338
100
AcDbEntity
  8
0
100
AcDbBlockBegin
  2
MS_21
 70
               0
 10
0.0
 20
0.0
 30
0.0
  3
MS_21
  1

  0
ARC
  5
339
100
AcDbEntity
  8
0
  6
CONTINUOUS
 62
               7
100
AcDbCircle
 10
0.0
 20
0.0
 30
0.0
 40
13.497866498080354
100
AcDbArc
 50
62.751532573355114
 51
117.24846742664448
  0
ARC
  5
33A
100
AcDbEntity
  8
0
  6
CONTINUOUS
 62
               7
100
AcDbCircle
 10
-0.0001515704994102
 20
-0.0002626792076246
 30
0.0
 40
13.495045386388878
100
AcDbArc
 50
122.74683681303323
 51
177.2806222799515
  0
ARC
  5
33B
100
AcDbEntity
  8
0
  6
CONTINUOUS
 62
               7
100
AcDbCircle
 10
0.0
 20
0.0
 30
0.0
 40
13.497866498080354
100
AcDbArc
 50
242.75153257335469
 51
297.24846742664408
  0
ARC
  5
33C
100
AcDbEntity
  8
0
  6
CONTINUOUS
 62
               7
100
AcDbCircle
 10
0.0001515704994102
 20
-0.0002626792076246
 30
0.0
 40
13.495045386388878
100
AcDbArc
 50
2.719377720048096
 51
57.253163186966368
  0
CIRCLE
  5
33D
100
AcDbEntity
  8
0
  6
CONTINUOUS
 62
               7
100
AcDbCircle
 10
0.0
 20
0.0
 30
0.0
 40
15.0
  0
CIRCLE
  5
33E
100
AcDbEntity
  8
0
  6
CONTINUOUS
 62
               7
100
AcDbCircle
 10
0.0
 20
0.0
 30
0.0
 40
10.199999809265137
  0
CIRCLE
  5
33F
100
AcDbEntity
  8
0
  6
CONTINUOUS
 62
               2
100
AcDbCircle
 10
0.0
 20
0.0
 30
0.0
 40
10.699999809265137
  0
ARC
  5
340
100
AcDbEntity
  8
0
  6
CONTINUOUS
 62
               7
100
AcDbCircle
 10
-0.0001515704994102
 20
0.0002626792076246
 30
0.0
 40
13.495045386388878
100
AcDbArc
 50
182.7193777200477
 51
237.25316318696596
  0
ARC
  5
341
100
AcDbEntity
  8
0
  6
CONTINUOUS
 62
               7
100
AcDbCircle
 10
0.0001515704994102
 20
0.0002626792076246
 30
0.0
 40
13.495045386388878
100
AcDbArc
 50
302.74683681303281
 51
357.2806222799511
  0
LINE
  5
342
100
AcDbEntity
  8
0
  6
CONTINUOUS
 62
               7
100
AcDbLine
 10
16.0
 20
7.5
 30
0.0
 11
19.0
 21
10.5
 31
0.0
  0
LINE
  5
343
100
AcDbEntity
  8
0
  6
CONTINUOUS
 62
               7
100
AcDbLine
 10
16.0
 20
-7.5
 30
0.0
 11
19.0
 21
-10.5
 31
0.0
  0
LINE
  5
344
100
AcDbEntity
  8
0
  6
CONTINUOUS
 62
               7
100
AcDbLine
 10
12.99
 20
-7.5
 30
0.0
 11
16.0
 21
-7.5
 31
0.0
  0
LINE
  5
345
100
AcDbEntity
  8
0
  6
CONTINUOUS
 62
               7
100
AcDbLine
 10
12.99
 20
7.5
 30
0.0
 11
16.0
 21
7.5
 31
0.0
  0
LINE
  5
346
100
AcDbEntity
  8
0
  6
CONTINUOUS
 62
               7
100
AcDbLine
 10
16.0
 20
7.5
 30
0.0
 11
16.0
 21
-7.5
 31
0.0
  0
LINE
  5
347
100
AcDbEntity
  8
0
  6
CONTINUOUS
 62
               7
100
AcDbLine
 10
19.0
 20
10.5
 30
0.0
 11
19.0
 21
-10.5
 31
0.0
  0
LINE
  5
348
100
AcDbEntity
  8
0
  6
CONTINUOUS
 62
               7
100
AcDbLine
 10
10.710000000000001
 20
-10.5
 30
0.0
 11
34.399999999999999
 21
-10.5
 31
0.0
  0
LINE
  5
349
100
AcDbEntity
  8
0
  6
CONTINUOUS
 62
               7
100
AcDbLine
 10
10.710000000000001
 20
10.5
 30
0.0
 11
34.399999999999999
 21
10.5
 31
0.0
  0
LINE
  5
34A
100
AcDbEntity
  8
0
  6
CONTINUOUS
 62
               7
100
AcDbLine
 10
6.9199999999999999
 20
12.0
 30
0.0
 11
13.85
 21
0.0
 31
0.0
  0
LINE
  5
34B
100
AcDbEntity
  8
0
  6
CONTINUOUS
 62
               7
100
AcDbLine
 10
-13.85
 20
0.0
 30
0.0
 11
-6.9199999999999999
 21
-12.0
 31
0.0
  0
LINE
  5
34C
100
AcDbEntity
  8
0
  6
CONTINUOUS
 62
               7
100
AcDbLine
 10
6.9199999999999999
 20
-12.0
 30
0.0
 11
13.85
 21
0.0
 31
0.0
  0
LINE
  5
34D
100
AcDbEntity
  8
0
  6
CONTINUOUS
 62
               7
100
AcDbLine
 10
-13.85
 20
0.0
 30
0.0
 11
-6.9199999999999999
 21
12.0
 31
0.0
  0
LINE
  5
34E
100
AcDbEntity
  8
0
  6
CONTINUOUS
 62
               7
100
AcDbLine
 10
-6.9199999999999999
 20
12.0
 30
0.0
 11
6.9199999999999999
 21
12.0
 31
0.0
  0
LINE
  5
34F
100
AcDbEntity
  8
0
  6
CONTINUOUS
 62
               7
100
AcDbLine
 10
-6.9199999999999999
 20
-12.0
 30
0.0
 11
6.9199999999999999
 21
-12.0
 31
0.0
  0
LINE
  5
350
100
AcDbEntity
  8
0
  6
CONTINUOUS
 62
               7
100
AcDbLine
 10
36.0
 20
-9.9000000000000004
 30
0.0
 11
38.200000000000003
 21
-9.9000000000000004
 31
0.0
  0
LINE
  5
351
100
AcDbEntity
  8
0
  6
CONTINUOUS
 62
               7
100
AcDbLine
 10
36.0
 20
9.9000000000000004
 30
0.0
 11
38.200000000000003
 21
9.9000000000000004
 31
0.0
  0
LINE
  5
352
100
AcDbEntity
  8
0
  6
CONTINUOUS
 62
               7
100
AcDbLine
 10
34.399999999999999
 20
-7.5
 30
0.0
 11
36.0
 21
-7.5
 31
0.0
  0
LINE
  5
353
100
AcDbEntity
  8
0
  6
CONTINUOUS
 62
               7
100
AcDbLine
 10
34.399999999999999
 20
7.5
 30
0.0
 11
36.0
 21
7.5
 31
0.0
  0
LINE
  5
354
100
AcDbEntity
  8
0
  6
CONTINUOUS
 62
               7
100
AcDbLine
 10
36.0
 20
9.9000000000000004
 30
0.0
 11
36.0
 21
-9.9000000000000004
 31
0.0
  0
LINE
  5
355
100
AcDbEntity
  8
0
  6
CONTINUOUS
 62
               7
100
AcDbLine
 10
38.200000000000003
 20
9.9000000000000004
 30
0.0
 11
38.200000000000003
 21
-9.9000000000000004
 31
0.0
  0
LINE
  5
356
100
AcDbEntity
  8
0
  6
CONTINUOUS
 62
               7
100
AcDbLine
 10
34.399999999999999
 20
10.5
 30
0.0
 11
34.399999999999999
 21
-10.5
 31
0.0
  0
LINE
  5
357
100
AcDbEntity
  8
0
  6
CENTER
 62
               2
100
AcDbLine
 10
0.0
 20
20.489999999999998
 30
0.0
 11
0.0
 21
-22.399999999999999
 31
0.0
  0
LINE
  5
358
100
AcDbEntity
  8
0
  6
CENTER
 62
               2
100
AcDbLine
 10
-25.210000000000001
 20
0.0
 30
0.0
 11
45.200000000000003
 21
0.0
 31
0.0
  0
ENDBLK
  5
359
100
AcDbEntity
  8
0
100
AcDbBlockEnd
  0
ENDSEC
  0
SECTION
  2
ENTITIES
  0
INSERT
  5
35A
100
AcDbEntity
  8
0
100
AcDbBlockReference
  2
MS_21
 10
66.749557495117188
 20
-91.430267333984375
 30
0.0
  0
INSERT
  5
35B
100
AcDbEntity
  8
0
100
AcDbBlockReference
  2
MS_20
 10
165.74955749511719
 20
-165.37026977539062
 30
0.0
  0
INSERT
  5
35C
100
AcDbEntity
  8
0
100
AcDbBlockReference
  2
MS_19
 10
66.749557495117188
 20
-165.37026977539062
 30
0.0
  0
INSERT
  5
35D
100
AcDbEntity
  8
0
100
AcDbBlockReference
  2
MS_18
 10
-195.450439453125
 20
-91.430267333984375
 30
0.0
  0
INSERT
  5
35E
100
AcDbEntity
  8
0
100
AcDbBlockReference
  2
MS_17
 10
-86.250442504882813
 20
-165.98027038574219
 30
0.0
  0
INSERT
  5
35F
100
AcDbEntity
  8
0
100
AcDbBlockReference
  2
MS_16
 10
-195.450439453125
 20
-165.98027038574219
 30
0.0
  0
INSERT
  5
360
100
AcDbEntity
  8
0
100
AcDbBlockReference
  2
MS_15
 10
71.749557495117188
 20
35.369735717773437
 30
0.0
  0
INSERT
  5
361
100
AcDbEntity
  8
0
100
AcDbBlockReference
  2
MS_14
 10
180.74955749511719
 20
-37.880264282226563
 30
0.0
  0
INSERT
  5
362
100
AcDbEntity
  8
0
100
AcDbBlockReference
  2
MS_13
 10
71.749557495117188
 20
-37.880264282226563
 30
0.0
  0
INSERT
  5
363
100
AcDbEntity
  8
0
100
AcDbBlockReference
  2
MS_12
 10
-195.450439453125
 20
35.369735717773437
 30
0.0
  0
INSERT
  5
364
100
AcDbEntity
  8
0
100
AcDbBlockReference
  2
MS_11
 10
-86.250442504882813
 20
-37.220260620117188
 30
0.0
  0
INSERT
  5
365
100
AcDbEntity
  8
0
100
AcDbBlockReference
  2
MS_10
 10
-195.450439453125
 20
-37.220260620117188
 30
0.0
  0
INSERT
  5
366
100
AcDbEntity
  8
0
100
AcDbBlockReference
  2
MS_9
 10
138.63204956054687
 20
161.57763671875
 30
0.0
  0
INSERT
  5
367
100
AcDbEntity
  8
0
100
AcDbBlockReference
  2
MS_8
 10
232.20977783203125
 20
91.727630615234375
 30
0.0
  0
INSERT
  5
368
100
AcDbEntity
  8
0
100
AcDbBlockReference
  2
MS_7
 10
138.63204956054687
 20
91.727630615234375
 30
0.0
  0
INSERT
  5
369
100
AcDbEntity
  8
0
100
AcDbBlockReference
  2
MS_6
 10
-48.367950439453125
 20
161.57763671875
 30
0.0
  0
INSERT
  5
36A
100
AcDbEntity
  8
0
100
AcDbBlockReference
  2
MS_5
 10
44.132049560546875
 20
93.887649536132813
 30
0.0
  0
INSERT
  5
36B
100
AcDbEntity
  8
0
100
AcDbBlockReference
  2
MS_4
 10
-48.367950439453125
 20
93.887649536132813
 30
0.0
  0
INSERT
  5
36C
100
AcDbEntity
  8
0
100
AcDbBlockReference
  2
MS_3
 10
-232.74479675292969
 20
156.16766357421875
 30
0.0
  0
INSERT
  5
36D
100
AcDbEntity
  8
0
100
AcDbBlockReference
  2
MS_2
 10
-146.24479675292969
 20
93.887649536132813
 30
0.0
  0
INSERT
  5
36E
100
AcDbEntity
  8
0
100
AcDbBlockReference
  2
MS_1
 10
-232.74479675292969
 20
93.887649536132813
 30
0.0
  0
MTEXT
  5
36F
100
AcDbEntity
  8
0
  6
CONTINUOUS
 62
               7
100
AcDbMText
 10
232.0999755859375
 20
-181.5
 30
0.0
 40
7.0
 41
0.0
 71
               2
 72
               1
  1
\T1.254;\W0.968;\A1;KOGANEI CORP.
  7
MX_NOTE_STANDARD
  0
MTEXT
  5
370
100
AcDbEntity
  8
0
  6
CONTINUOUS
 62
               7
100
AcDbMText
 10
6.3197246345126397
 20
-190.0
 30
0.0
 40
5.0
 41
0.0
 71
               4
 72
               1
  1
\W1.074;\A1;MODEL:CS-SLM12-04
  7
MX_NOTE_STANDARD
  0
MTEXT
  5
371
100
AcDbEntity
  8
0
  6
CONTINUOUS
 62
               7
100
AcDbMText
 10
6.3292431126910671
 20
-59.833343505859375
 30
0.0
 40
5.0
 41
0.0
 71
               4
 72
               1
  1
\W1.085;\A1;MODEL:CS-SLM10-03
  7
MX_NOTE_STANDARD
  0
MTEXT
  5
372
100
AcDbEntity
  8
0
  6
CONTINUOUS
 62
               7
100
AcDbMText
 10
-275.34574468027768
 20
-59.833343505859375
 30
0.0
 40
5.0
 41
0.0
 71
               4
 72
               1
  1
\W1.085;\A1;MODEL:CS-SLM10-02
  7
MX_NOTE_STANDARD
  0
MTEXT
  5
373
100
AcDbEntity
  8
0
  6
CONTINUOUS
 62
               7
100
AcDbMText
 10
100.1957712703217
 20
70.333328247070312
 30
0.0
 40
5.0
 41
0.0
 71
               4
 72
               1
  1
\W1.055;\A1;MODEL:CS-SLM8-03
  7
MX_NOTE_STANDARD
  0
MTEXT
  5
374
100
AcDbEntity
  8
0
  6
CONTINUOUS
 62
               7
100
AcDbMText
 10
-87.5875539249908
 20
70.333328247070312
 30
0.0
 40
5.0
 41
0.0
 71
               4
 72
               1
  1
\W1.055;\A1;MODEL:CS-SLM8-02
  7
MX_NOTE_STANDARD
  0
MTEXT
  5
375
100
AcDbEntity
  8
0
  6
CONTINUOUS
 62
               7
100
AcDbMText
 10
-275.35112359610758
 20
70.333328247070312
 30
0.0
 40
5.0
 41
0.0
 71
               4
 72
               1
  1
\W1.079;\A1;MODEL:CS-SLM8-01
  7
MX_NOTE_STANDARD
  0
MTEXT
  5
376
100
AcDbEntity
  8
0
  6
CONTINUOUS
 62
               7
100
AcDbMText
 10
-275.35526315845613
 20
-190.00001525878906
 30
0.0
 40
5.0
 41
0.0
 71
               4
 72
               1
  1
\W1.074;\A1;MODEL:CS-SLM12-03
  7
MX_NOTE_STANDARD
  0
MTEXT
  5
377
100
AcDbEntity
  8
0
  6
CONTINUOUS
 62
               7
100
AcDbMText
 10
213.03027797579438
 20
188.0
 30
0.0
 40
5.8000001907348633
 41
0.0
 71
               4
 72
               1
  1
\W1.273;\A1;Ver.1.0
  7
MX_NOTE_STANDARD
  0
MTEXT
  5
378
100
AcDbEntity
  8
0
  6
CONTINUOUS
 62
               7
100
AcDbMText
 10
-277.87523020545893
 20
188.0
 30
0.0
 40
5.8000001907348633
 41
0.0
 71
               4
 72
               1
  1
\W0.905;\A1;CS-QUICK FITTING,SLM
  7
MX_NOTE_STANDARD
  0
LINE
  5
379
100
AcDbEntity
  8
0
  6
CONTINUOUS
 62
               7
100
AcDbLine
 10
94.310000000000002
 20
65.329999999999998
 30
0.0
 11
94.310000000000002
 21
195.5
 31
0.0
  0
LINE
  5
37A
100
AcDbEntity
  8
0
  6
CONTINUOUS
 62
               7
100
AcDbLine
 10
-93.459999999999994
 20
65.329999999999998
 30
0.0
 11
-93.459999999999994
 21
195.5
 31
0.0
  0
LINE
  5
37B
100
AcDbEntity
  8
0
  6
CONTINUOUS
 62
               7
100
AcDbLine
 10
0.42
 20
65.329999999999998
 30
0.0
 11
0.42
 21
-195.0
 31
0.0
  0
LINE
  5
37C
100
AcDbEntity
  8
0
  6
CONTINUOUS
 62
               7
100
AcDbLine
 10
-281.25
 20
-54.829999999999998
 30
0.0
 11
282.10000000000002
 21
-54.829999999999998
 31
0.0
  0
LINE
  5
37D
100
AcDbEntity
  8
0
  6
CONTINUOUS
 62
               7
100
AcDbLine
 10
-281.25
 20
75.329999999999998
 30
0.0
 11
282.10000000000002
 21
75.329999999999998
 31
0.0
  0
LINE
  5
37E
100
AcDbEntity
  8
0
  6
CONTINUOUS
 62
               7
100
AcDbLine
 10
-281.25
 20
-64.829999999999998
 30
0.0
 11
282.10000000000002
 21
-64.829999999999998
 31
0.0
  0
LINE
  5
37F
100
AcDbEntity
  8
0
  6
CONTINUOUS
 62
               7
100
AcDbLine
 10
-281.25
 20
65.329999999999998
 30
0.0
 11
282.10000000000002
 21
65.329999999999998
 31
0.0
  0
LINE
  5
380
100
AcDbEntity
  8
0
  6
CONTINUOUS
 62
               7
100
AcDbLine
 10
-281.25
 20
-195.0
 30
0.0
 11
282.10000000000002
 21
-195.0
 31
0.0
  0
LINE
  5
381
100
AcDbEntity
  8
0
  6
CONTINUOUS
 62
               7
100
AcDbLine
 10
282.10000000000002
 20
195.5
 30
0.0
 11
282.10000000000002
 21
-195.0
 31
0.0
  0
LINE
  5
382
100
AcDbEntity
  8
0
  6
CONTINUOUS
 62
               7
100
AcDbLine
 10
-281.25
 20
195.5
 30
0.0
 11
-281.25
 21
-195.0
 31
0.0
  0
LINE
  5
383
100
AcDbEntity
  8
0
  6
CONTINUOUS
 62
               7
100
AcDbLine
 10
-281.25
 20
195.5
 30
0.0
 11
282.10000000000002
 21
195.5
 31
0.0
  0
LINE
  5
384
100
AcDbEntity
  8
0
  6
CONTINUOUS
 62
               7
100
AcDbLine
 10
-281.25
 20
-185.0
 30
0.0
 11
182.09999999999999
 21
-185.0
 31
0.0
  0
LINE
  5
385
100
AcDbEntity
  8
0
  6
CONTINUOUS
 62
               7
100
AcDbLine
 10
182.09999999999999
 20
-175.0
 30
0.0
 11
282.10000000000002
 21
-175.0
 31
0.0
  0
LINE
  5
386
100
AcDbEntity
  8
0
  6
CONTINUOUS
 62
               7
100
AcDbLine
 10
182.09999999999999
 20
180.5
 30
0.0
 11
282.10000000000002
 21
180.5
 31
0.0
  0
LINE
  5
387
100
AcDbEntity
  8
0
  6
CONTINUOUS
 62
               7
100
AcDbLine
 10
182.09999999999999
 20
-175.0
 30
0.0
 11
182.09999999999999
 21
-195.0
 31
0.0
  0
LINE
  5
388
100
AcDbEntity
  8
0
  6
CONTINUOUS
 62
               7
100
AcDbLine
 10
-281.25
 20
180.5
 30
0.0
 11
-181.25
 21
180.5
 31
0.0
  0
LINE
  5
389
100
AcDbEntity
  8
0
  6
CONTINUOUS
 62
               7
100
AcDbLine
 10
182.09999999999999
 20
195.5
 30
0.0
 11
182.09999999999999
 21
180.5
 31
0.0
  0
LINE
  5
38A
100
AcDbEntity
  8
0
  6
CONTINUOUS
 62
               7
100
AcDbLine
 10
-181.25
 20
195.5
 30
0.0
 11
-181.25
 21
180.5
 31
0.0
  0
ENDSEC
  0
SECTION
  2
OBJECTS
  0
DICTIONARY
  5
19
100
AcDbDictionary
  3
ACAD_GROUP
350
1A
  3
ACAD_MLINESTYLE
350
1B
  0
DICTIONARY
  5
1A
102
{ACAD_REACTORS
330
19
102
}
100
AcDbDictionary
  0
DICTIONARY
  5
1B
102
{ACAD_REACTORS
330
19
102
}
100
AcDbDictionary
  3
STANDARD
350
1C
  0
MLINESTYLE
  5
1C
102
{ACAD_REACTORS
330
1B
102
}
100
AcDbMlineStyle
  2
Standard
 70
               0
  3

 62
               0
 51
90.0
 52
90.0
 71
               2
 49
0.5
 62
             256
  6
ByLayer
 49
-0.5
 62
             256
  6
ByLayer
  0
ENDSEC
  0
EOF
