  0
SECTION
  2
HEADER
  0
ENDSEC
  0
SECTION
  2
TABLES
  0
TABLE
  2
LTYPE
 70
     4
  0
LTYPE
  2
CONTINUOUS
 70
    64
  3
Solid line
 72
    65
 73
     0
 40
0.000000
  0
LTYPE
  2
DASHED
 70
    64
  3
__ __ __ __ __ __ __ __ __ __ __ __ __ __ __
 72
    65
 73
     2
 40
3.500000
 49
2.000000
 49
-1.500000
  0
LTYPE
  2
CENTER
 70
    64
  3
____ _ ____ _ ____ _ ____ _ ____ _ ____ _ ____
 72
    65
 73
     4
 40
17.500000
 49
13.000000
 49
-1.500000
 49
1.500000
 49
-1.500000
  0
LTYPE
  2
PHANTOM
 70
    64
  3
_____ _ _ _____ _ _ _____ _ _ _____ _ _ ____  
 72
    65
 73
     6
 40
15.500000
 49
8.000000
 49
-1.500000
 49
1.500000
 49
-1.500000
 49
1.500000
 49
-1.500000
  0
LTYPE
  2
DASHED1
 70
    64
  3
__ __ __ __ __ __ __ __ __ __ __ __ __ __ __
 72
    65
 73
     2
 40
1.500000
 49
1.000000
 49
-0.500000
  0
LTYPE
  2
DASHED2
 70
    64
  3
__ __ __ __ __ __ __ __ __ __ __ __ __ __ __
 72
    65
 73
     2
 40
3.500000
 49
2.500000
 49
-1.000000
  0
LTYPE
  2
DASHED3
 70
    64
  3
__ __ __ __ __ __ __ __ __ __ __ __ __ __ __
 72
    65
 73
     2
 40
6.000000
 49
4.000000
 49
-2.000000
  0
LTYPE
  2
DASHED4
 70
    64
  3
__ __ __ __ __ __ __ __ __ __ __ __ __ __ __
 72
    65
 73
     2
 40
12.000000
 49
10.000000
 49
-2.000000
  0
LTYPE
  2
DASHED5
 70
    64
  3
__ __ __ __ __ __ __ __ __ __ __ __ __ __ __
 72
    65
 73
     2
 40
17.000000
 49
15.000000
 49
-2.000000
  0
LTYPE
  2
DASHED6
 70
    64
  3
__ __ __ __ __ __ __ __ __ __ __ __ __ __ __
 72
    65
 73
     2
 40
29.000000
 49
27.000000
 49
-2.000000
  0
LTYPE
  2
PHANTOM1
 70
    64
  3
_____ _ _ _____ _ _ _____ _ _ _____ _ _ ____  
 72
    65
 73
     6
 40
31.000000
 49
25.000000
 49
-1.500000
 49
1.000000
 49
-1.000000
 49
1.000000
 49
-1.500000
  0
LTYPE
  2
PHANTOM2
 70
    64
  3
_____ _ _ _____ _ _ _____ _ _ _____ _ _ ____  
 72
    65
 73
     6
 40
36.000000
 49
27.000000
 49
-1.500000
 49
2.500000
 49
-1.000000
 49
2.500000
 49
-1.500000
  0
LTYPE
  2
PHANTOM3
 70
    64
  3
_____ _ _ _____ _ _ _____ _ _ _____ _ _ ____  
 72
    65
 73
     6
 40
78.000000
 49
64.000000
 49
-2.000000
 49
4.000000
 49
-2.000000
 49
4.000000
 49
-2.000000
  0
LTYPE
  2
CENTER1
 70
    64
  3
____ _ ____ _ ____ _ ____ _ ____ _ ____ _ ____
 72
    65
 73
     4
 40
19.000000
 49
14.000000
 49
-1.000000
 49
3.000000
 49
-1.000000
  0
LTYPE
  2
CENTER2
 70
    64
  3
____ _ ____ _ ____ _ ____ _ ____ _ ____ _ ____
 72
    65
 73
     4
 40
28.500000
 49
25.000000
 49
-1.000000
 49
1.500000
 49
-1.000000
  0
LTYPE
  2
CENTER3
 70
    64
  3
____ _ ____ _ ____ _ ____ _ ____ _ ____ _ ____
 72
    65
 73
     4
 40
31.500000
 49
27.000000
 49
-1.000000
 49
2.500000
 49
-1.000000
  0
LTYPE
  2
CENTER4
 70
    64
  3
____ _ ____ _ ____ _ ____ _ ____ _ ____ _ ____
 72
    65
 73
     4
 40
50.000000
 49
45.000000
 49
-1.000000
 49
3.000000
 49
-1.000000
  0
LTYPE
  2
CENTER5
 70
    64
  3
____ _ ____ _ ____ _ ____ _ ____ _ ____ _ ____
 72
    65
 73
     4
 40
100.000000
 49
92.000000
 49
-2.000000
 49
4.000000
 49
-2.000000
  0
LTYPE
  2
SBK1
 70
    64
  3
______ _ _ _ ______ _ _ _ ______ _ _ _ _____  
 72
    65
 73
     8
 40
60.500000
 49
45.000000
 49
-2.000000
 49
2.500000
 49
-2.000000
 49
2.500000
 49
-2.000000
 49
2.500000
 49
-2.000000
  0
LTYPE
  2
SBK2
 70
    64
  3
______ _ _ _ ______ _ _ _ ______ _ _ _ _____  
 72
    65
 73
     8
 40
84.000000
 49
64.000000
 49
-2.000000
 49
4.000000
 49
-2.000000
 49
4.000000
 49
-2.000000
 49
4.000000
 49
-2.000000
  0
LTYPE
  2
STCH
 70
    64
  3
__ __ __ __ __ __ __ __ __ __ __ __ __ __ __
 72
    65
 73
     2
 40
3.000000
 49
1.000000
 49
-2.000000
  0
LTYPE
  2
MTCH
 70
    64
  3
_____ _ _ _____ _ _ _____ _ _ _____ _ _ ____  
 72
    65
 73
     6
 40
80.000000
 49
66.000000
 49
-2.000000
 49
4.000000
 49
-2.000000
 49
4.000000
 49
-2.000000
  0
ENDTAB
  0
TABLE
  2
LAYER
 70
     1
  0
LAYER
  2
0
 70
     0
 62
     7
  6
CONTINUOUS
  0
ENDTAB
  0
TABLE
  2
STYLE
 70
     1
  0
STYLE
  2
STANDARD
 70
     0
 40
0.000000
 41
1.000000
 50
0.000000
 71
     0
 42
0.200000
  3
txt
  4
BIGFONT
  0
ENDTAB
  0
TABLE
  2
VIEW
 70
     0
  0
ENDTAB
  0
ENDSEC
  0
SECTION
  2
BLOCKS
  0
ENDSEC
  0
SECTION
  2
ENTITIES
  0
LINE
  8
0
 10
-94.250000
 20
132.600006
 11
-94.250000
 21
117.600006
  0
LINE
  8
0
 10
-194.250000
 20
117.600006
 11
-94.250000
 21
117.600006
  0
LINE
  8
0
 10
94.800003
 20
132.600006
 11
94.800003
 21
117.600006
  0
LINE
  8
0
 10
94.800003
 20
117.600006
 11
194.800003
 21
117.600006
  0
LINE
  8
0
 10
94.800003
 20
-113.500000
 11
94.800003
 21
-133.500000
  0
LINE
  8
0
 10
65.116669
 20
-113.500000
 11
194.800003
 21
-113.500000
  0
LINE
  8
0
 10
-194.250000
 20
-123.500000
 11
65.116669
 21
-123.500000
  0
LINE
  8
0
 10
-194.250000
 20
-0.449997
 11
194.800003
 21
-0.449997
  0
LINE
  8
0
 10
-64.566666
 20
132.600006
 11
-64.566666
 21
-133.500000
  0
LINE
  8
0
 10
65.116669
 20
132.600006
 11
65.116669
 21
-133.500000
  0
LINE
  8
0
 10
-194.250000
 20
9.550003
 11
194.800003
 21
9.550003
  0
LINE
  8
0
 10
65.116669
 20
-103.500000
 11
194.800003
 21
-103.500000
  0
LINE
  8
0
 10
210.000000
 20
148.500000
 11
210.000000
 21
-148.500000
  0
LINE
  8
0
 10
-210.000000
 20
148.500000
 11
-210.000000
 21
-148.500000
  0
LINE
  8
0
 10
-210.000000
 20
148.500000
 11
210.000000
 21
148.500000
  0
LINE
  8
0
 10
-210.000000
 20
-148.500000
 11
210.000000
 21
-148.500000
  0
LINE
  8
0
 10
-194.250000
 20
132.600006
 11
194.800003
 21
132.600006
  0
LINE
  8
0
 10
194.800003
 20
132.600006
 11
194.800003
 21
-133.500000
  0
LINE
  8
0
 10
-194.250000
 20
132.600006
 11
-194.250000
 21
-133.500000
  0
LINE
  8
0
 10
-194.250000
 20
-133.500000
 11
194.800003
 21
-133.500000
  0
TEXT
  8
0
 10
-194.128311
 20
120.880005
 40
5.800000
  1
QUICK FITTING,SLH
 50
0.000000
 41
1.052632
 51
0.000000
  7
STANDARD
  0
TEXT
  8
0
 10
100.721687
 20
120.880005
 40
5.800000
  1
DATE: MAY ,1992
 50
0.000000
 41
1.052632
 51
0.000000
  7
STANDARD
  0
TEXT
  8
0
 10
90.700897
 20
-128.800003
 40
7.000000
  1
ＫＯＧＡＮＥＩ，ＣＯＲＰ．
 50
0.000000
 41
0.902367
 51
15.000000
  7
STANDARD
  0
TEXT
  8
0
 10
70.366669
 20
2.550003
 40
5.000000
  1
MODEL:6-02
 50
0.000000
 41
1.052632
 51
0.000000
  7
STANDARD
  0
TEXT
  8
0
 10
70.366669
 20
-110.500000
 40
5.000000
  1
MODEL:SLH8-03
 50
0.000000
 41
1.052632
 51
0.000000
  7
STANDARD
  0
TEXT
  8
0
 10
-189.000000
 20
2.550003
 40
5.000000
  1
MODEL:SLH4-M5
 50
0.000000
 41
1.052632
 51
0.000000
  7
STANDARD
  0
TEXT
  8
0
 10
-189.000000
 20
-130.500000
 40
5.000000
  1
MODEL:SLH8-01
 50
0.000000
 41
1.052632
 51
0.000000
  7
STANDARD
  0
TEXT
  8
0
 10
-59.316666
 20
2.550003
 40
5.000000
  1
MODEL:SLH6-01
 50
0.000000
 41
1.052632
 51
0.000000
  7
STANDARD
  0
TEXT
  8
0
 10
-59.316666
 20
-130.500000
 40
5.000000
  1
MODEL:SLH8-02
 50
0.000000
 41
1.052632
 51
0.000000
  7
STANDARD
  0
POINT
  8
0
 10
-162.750000
 20
47.200005
  0
POINT
  8
0
 10
-160.250000
 20
47.200005
  0
LINE
  8
0
 10
-145.750000
 20
55.500000
 11
-144.550003
 21
55.500000
  0
LINE
  8
0
 10
-144.550003
 20
57.750000
 11
-144.550003
 21
47.850006
  0
LINE
  8
0
  6
CENTER
 10
-176.093033
 20
52.800003
 11
-134.974335
 21
52.800003
  0
LINE
  8
0
  6
CENTER
 10
-162.750000
 20
65.511879
 11
-162.750000
 21
35.888733
  0
LINE
  8
0
 10
-167.750000
 20
57.800003
 11
-167.750000
 21
47.800003
  0
LINE
  8
0
 10
-157.750000
 20
57.800003
 11
-157.750000
 21
47.800003
  0
LINE
  8
0
 10
-167.750000
 20
57.800003
 11
-157.750000
 21
57.800003
  0
LINE
  8
0
 10
-167.750000
 20
47.800003
 11
-157.750000
 21
47.800003
  0
LINE
  8
0
 10
-155.750000
 20
57.800003
 11
-155.750000
 21
47.800003
  0
LINE
  8
0
 10
-156.750000
 20
56.800003
 11
-156.750000
 21
53.800003
  0
LINE
  8
0
 10
-157.750000
 20
56.800003
 11
-156.750000
 21
56.800003
  0
LINE
  8
0
 10
-157.750000
 20
48.800003
 11
-156.750000
 21
48.800003
  0
LINE
  8
0
 10
-156.750000
 20
48.800014
 11
-155.750000
 21
47.800014
  0
LINE
  8
0
 10
-156.750000
 20
56.800003
 11
-155.750000
 21
57.800003
  0
LINE
  8
0
 10
-157.750000
 20
51.800003
 11
-155.750000
 21
51.800003
  0
LINE
  8
0
 10
-157.750000
 20
53.800003
 11
-155.750000
 21
53.800003
  0
LINE
  8
0
 10
-155.750000
 20
57.800003
 11
-145.750000
 21
57.800003
  0
LINE
  8
0
 10
-156.750000
 20
51.800003
 11
-156.750000
 21
48.800003
  0
LINE
  8
0
 10
-155.750000
 20
47.800003
 11
-145.750000
 21
47.800003
  0
LINE
  8
0
 10
-160.250000
 20
47.200005
 11
-160.250000
 21
44.300003
  0
LINE
  8
0
 10
-160.649994
 20
47.200005
 11
-160.649994
 21
44.300003
  0
LINE
  8
0
 10
-164.850006
 20
47.200005
 11
-164.850006
 21
44.300003
  0
LINE
  8
0
 10
-165.250000
 20
47.200005
 11
-165.250000
 21
44.300003
  0
LINE
  8
0
 10
-165.250000
 20
44.300003
 11
-160.250000
 21
44.300003
  0
LINE
  8
0
 10
-166.649994
 20
47.200005
 11
-158.850006
 21
47.200005
  0
LINE
  8
0
 10
-165.850006
 20
61.800003
 11
-159.649994
 21
61.800003
  0
LINE
  8
0
 10
-166.149994
 20
60.000000
 11
-166.149994
 21
57.800003
  0
LINE
  8
0
 10
-159.350006
 20
60.000000
 11
-159.350006
 21
57.800003
  0
LINE
  8
0
 10
-159.649994
 20
61.800003
 11
-159.649994
 21
60.519600
  0
LINE
  8
0
 10
-165.850006
 20
61.800003
 11
-165.850006
 21
60.530983
  0
LINE
  8
0
 10
-166.149994
 20
60.011391
 11
-165.850006
 21
60.530983
  0
LINE
  8
0
 10
-159.650009
 20
60.519600
 11
-159.350021
 21
60.000004
  0
LINE
  8
0
 10
-165.850006
 20
60.530983
 11
-159.649994
 21
60.519600
  0
LINE
  8
0
 10
-159.350006
 20
60.000000
 11
-166.149994
 21
60.000000
  0
LINE
  8
0
 10
-158.850006
 20
47.800003
 11
-158.850006
 21
47.200005
  0
LINE
  8
0
 10
-166.649994
 20
47.800003
 11
-166.649994
 21
47.200005
  0
LINE
  8
0
 10
-144.550003
 20
47.850006
 11
-142.949997
 21
47.850006
  0
LINE
  8
0
 10
-144.550003
 20
57.750000
 11
-142.949997
 21
57.750000
  0
LINE
  8
0
 10
-145.750000
 20
50.100006
 11
-144.550003
 21
50.100006
  0
LINE
  8
0
 10
-145.750000
 20
57.800003
 11
-145.750000
 21
47.800003
  0
LINE
  8
0
 10
-142.949997
 20
57.750000
 11
-142.949997
 21
47.850006
  0
POINT
  8
0
 10
-100.250000
 20
47.200005
  0
POINT
  8
0
 10
-97.750000
 20
47.200005
  0
LINE
  8
0
  6
CENTER
 10
-100.250000
 20
70.633240
 11
-100.250000
 21
37.030865
  0
LINE
  8
0
  6
CENTER
 10
-115.061569
 20
52.800003
 11
-83.669884
 21
52.800003
  0
LINE
  8
0
 10
-103.350006
 20
61.800003
 11
-97.149994
 21
61.800003
  0
LINE
  8
0
 10
-103.649994
 20
60.000000
 11
-103.649994
 21
57.800003
  0
LINE
  8
0
 10
-96.850006
 20
60.000000
 11
-96.850006
 21
57.800003
  0
LINE
  8
0
 10
-97.149994
 20
61.800003
 11
-97.149994
 21
60.519600
  0
LINE
  8
0
 10
-103.350006
 20
61.800003
 11
-103.350006
 21
60.530983
  0
LINE
  8
0
 10
-103.650009
 20
60.011398
 11
-103.350021
 21
60.530991
  0
LINE
  8
0
 10
-97.149994
 20
60.519592
 11
-96.850006
 21
60.000000
  0
LINE
  8
0
 10
-103.350014
 20
60.530979
 11
-97.149994
 21
60.519596
  0
LINE
  8
0
 10
-96.850006
 20
60.000000
 11
-103.649994
 21
60.000000
  0
LINE
  8
0
 10
-104.149994
 20
47.800003
 11
-96.350006
 21
47.800003
  0
LINE
  8
0
 10
-96.350006
 20
47.800003
 11
-96.350006
 21
47.200005
  0
LINE
  8
0
 10
-104.149994
 20
47.800003
 11
-104.149994
 21
47.200005
  0
LINE
  8
0
 10
-102.750000
 20
44.300003
 11
-97.750000
 21
44.300003
  0
LINE
  8
0
 10
-104.149994
 20
47.200005
 11
-96.350006
 21
47.200005
  0
LINE
  8
0
 10
-102.750000
 20
47.200005
 11
-102.750000
 21
44.300003
  0
LINE
  8
0
 10
-97.750000
 20
47.200005
 11
-97.750000
 21
44.300003
  0
LINE
  8
0
 10
-102.350006
 20
47.200005
 11
-102.350006
 21
44.300003
  0
LINE
  8
0
 10
-98.149994
 20
47.200005
 11
-98.149994
 21
44.300003
  0
LINE
  8
0
 10
-105.250000
 20
57.800003
 11
-105.250000
 21
47.800003
  0
LINE
  8
0
 10
-95.250000
 20
57.800003
 11
-95.250000
 21
47.800003
  0
LINE
  8
0
 10
-105.250000
 20
47.800003
 11
-95.250000
 21
47.800003
  0
LINE
  8
0
 10
-105.250000
 20
57.800003
 11
-95.250000
 21
57.800003
  0
CIRCLE
  8
0
 10
-100.250000
 20
52.800003
 40
2.100000
  0
CIRCLE
  8
0
 10
-100.250000
 20
52.800003
 40
4.950000
  0
POINT
  8
0
 10
-162.750000
 20
92.500000
  0
POINT
  8
0
 10
-142.949997
 20
92.500000
  0
LINE
  8
0
  6
CENTER
 10
-162.750000
 20
110.000000
 11
-162.750000
 21
77.500000
  0
LINE
  8
0
  6
CENTER
 10
-180.956543
 20
92.500000
 11
-130.110840
 21
92.500000
  0
LINE
  8
0
 10
-145.750000
 20
97.500000
 11
-145.750000
 21
87.500000
  0
LINE
  8
0
 10
-142.949997
 20
97.449997
 11
-142.949997
 21
87.550003
  0
LINE
  8
0
 10
-144.550003
 20
97.449997
 11
-144.550003
 21
87.550003
  0
LINE
  8
0
 10
-145.750000
 20
95.199997
 11
-144.550003
 21
95.199997
  0
LINE
  8
0
 10
-145.750000
 20
89.800003
 11
-144.550003
 21
89.800003
  0
LINE
  8
0
 10
-144.550003
 20
97.449997
 11
-142.949997
 21
97.449997
  0
LINE
  8
0
 10
-144.550003
 20
87.550003
 11
-142.949997
 21
87.550003
  0
LINE
  8
0
 10
-163.904694
 20
90.500000
 11
-161.595291
 21
90.500000
  0
LINE
  8
0
 10
-163.904694
 20
94.500000
 11
-161.595306
 21
94.500000
  0
LINE
  8
0
 10
-165.059387
 20
92.500008
 11
-163.904694
 21
94.500015
  0
LINE
  8
0
 10
-161.595291
 20
90.500000
 11
-160.440598
 21
92.499992
  0
LINE
  8
0
 10
-165.059402
 20
92.499992
 11
-163.904694
 21
90.499992
  0
LINE
  8
0
 10
-161.595291
 20
94.499992
 11
-160.440598
 21
92.499992
  0
LINE
  8
0
 10
-162.750000
 20
97.500000
 11
-145.750000
 21
97.500000
  0
LINE
  8
0
 10
-162.750000
 20
87.500000
 11
-145.750000
 21
87.500000
  0
LINE
  8
0
 10
-155.750000
 20
97.500000
 11
-155.750000
 21
87.500000
  0
LINE
  8
0
 10
-156.750000
 20
96.500000
 11
-156.750000
 21
88.500000
  0
LINE
  8
0
 10
-159.750000
 20
96.500000
 11
-156.750000
 21
96.500000
  0
LINE
  8
0
 10
-159.750000
 20
88.500000
 11
-156.750000
 21
88.500000
  0
LINE
  8
0
 10
-156.750000
 20
88.499992
 11
-155.750000
 21
87.499992
  0
LINE
  8
0
 10
-156.750000
 20
96.500000
 11
-155.750000
 21
97.500000
  0
CIRCLE
  8
0
 10
-162.750000
 20
92.500000
 40
3.400000
  0
CIRCLE
  8
0
 10
-162.750000
 20
92.500000
 40
5.000000
  0
CIRCLE
  8
0
 10
-162.750000
 20
92.500000
 40
3.100000
  0
POINT
  8
0
 10
-32.375938
 20
41.970001
  0
POINT
  8
0
 10
-37.250000
 20
41.970001
  0
LINE
  8
0
 10
-16.549999
 20
56.550003
 11
-15.350000
 21
56.550003
  0
LINE
  8
0
 10
-15.350000
 20
58.400002
 11
-15.350000
 21
46.599998
  0
LINE
  8
0
  6
CENTER
 10
-53.145844
 20
52.500000
 11
-6.279375
 21
52.500000
  0
LINE
  8
0
  6
CENTER
 10
-37.250000
 20
68.382462
 11
-37.250000
 21
31.242998
  0
LINE
  8
0
 10
-44.400002
 20
46.000000
 11
-30.100000
 21
46.000000
  0
LINE
  8
0
 10
-44.400002
 20
59.000000
 11
-30.100000
 21
59.000000
  0
LINE
  8
0
 10
-30.100000
 20
59.000000
 11
-30.100000
 21
46.000000
  0
LINE
  8
0
 10
-44.400002
 20
59.000000
 11
-44.400002
 21
46.000000
  0
LINE
  8
0
 10
-27.850000
 20
59.000000
 11
-27.850000
 21
46.000000
  0
LINE
  8
0
 10
-29.250000
 20
57.500000
 11
-29.250000
 21
53.750000
  0
LINE
  8
0
 10
-30.100000
 20
57.500000
 11
-29.250000
 21
57.500000
  0
LINE
  8
0
 10
-30.100000
 20
47.500000
 11
-29.250000
 21
47.500000
  0
LINE
  8
0
 10
-29.250000
 20
47.500004
 11
-27.849998
 21
46.000000
  0
LINE
  8
0
 10
-29.250004
 20
57.500000
 11
-27.850002
 21
59.000004
  0
LINE
  8
0
 10
-27.850000
 20
59.000000
 11
-16.549999
 21
59.000000
  0
LINE
  8
0
 10
-27.850000
 20
46.000000
 11
-16.549999
 21
46.000000
  0
LINE
  8
0
 10
-30.100000
 20
51.250000
 11
-27.850000
 21
51.250000
  0
LINE
  8
0
 10
-30.100000
 20
53.750000
 11
-27.850000
 21
53.750000
  0
LINE
  8
0
 10
-29.250000
 20
51.250000
 11
-29.250000
 21
47.500000
  0
LINE
  8
0
 10
-41.650291
 20
46.018742
 11
-41.400291
 21
38.018742
  0
LINE
  8
0
  6
CENTER
 10
-45.433334
 20
41.970001
 11
-29.433334
 21
41.970001
  0
LINE
  8
0
 10
-32.849705
 20
46.018745
 11
-33.099709
 21
38.018742
  0
LINE
  8
0
 10
-32.250000
 20
60.507179
 11
-32.250000
 21
59.000000
  0
LINE
  8
0
 10
-42.250000
 20
60.507179
 11
-42.250000
 21
59.000000
  0
LINE
  8
0
 10
-42.250000
 20
60.507179
 11
-32.250000
 21
60.507179
  0
LINE
  8
0
 10
-42.250000
 20
46.000000
 11
-41.999996
 21
38.000000
  0
LINE
  8
0
 10
-42.249996
 20
60.507179
 11
-41.849998
 21
62.000000
  0
LINE
  8
0
 10
-32.650002
 20
62.000004
 11
-32.250000
 21
60.507179
  0
LINE
  8
0
 10
-41.849998
 20
62.000000
 11
-32.650002
 21
62.000000
  0
LINE
  8
0
 10
-42.000000
 20
38.000000
 11
-32.500000
 21
38.000000
  0
LINE
  8
0
 10
-32.250000
 20
46.000008
 11
-32.500000
 21
38.000000
  0
LINE
  8
0
 10
-15.350000
 20
58.400002
 11
-13.549999
 21
58.400002
  0
LINE
  8
0
 10
-15.350000
 20
46.599998
 11
-13.549999
 21
46.599998
  0
LINE
  8
0
 10
-16.549999
 20
48.449997
 11
-15.350000
 21
48.449997
  0
LINE
  8
0
 10
-16.549999
 20
59.000000
 11
-16.549999
 21
46.000000
  0
LINE
  8
0
 10
-13.549999
 20
58.400002
 11
-13.549999
 21
46.599998
  0
POINT
  8
0
 10
36.624062
 20
41.970001
  0
POINT
  8
0
 10
31.750000
 20
41.970001
  0
LINE
  8
0
  6
CENTER
 10
31.750000
 20
69.824600
 11
31.750000
 21
27.821632
  0
LINE
  8
0
  6
CENTER
 10
16.938427
 20
52.500000
 11
46.561573
 21
52.500000
  0
LINE
  8
0
 10
27.150002
 20
62.000000
 11
36.349998
 21
62.000000
  0
LINE
  8
0
 10
36.750000
 20
60.507179
 11
36.750000
 21
59.000000
  0
LINE
  8
0
 10
26.750000
 20
60.507179
 11
26.750000
 21
59.000000
  0
LINE
  8
0
 10
26.750002
 20
60.507179
 11
27.150002
 21
61.999996
  0
LINE
  8
0
 10
36.349995
 20
62.000000
 11
36.749996
 21
60.507179
  0
LINE
  8
0
 10
26.750000
 20
60.507179
 11
36.750000
 21
60.507179
  0
LINE
  8
0
 10
27.000000
 20
38.000000
 11
36.500000
 21
38.000000
  0
LINE
  8
0
 10
26.750000
 20
46.000008
 11
27.000000
 21
38.000008
  0
LINE
  8
0
 10
36.750000
 20
46.000000
 11
36.500000
 21
38.000000
  0
LINE
  8
0
 10
27.349709
 20
46.018745
 11
27.599709
 21
38.018745
  0
LINE
  8
0
 10
36.150295
 20
46.018742
 11
35.900295
 21
38.018738
  0
LINE
  8
0
  6
CENTER
 10
23.566666
 20
41.970001
 11
39.566666
 21
41.970001
  0
LINE
  8
0
 10
38.900002
 20
59.000000
 11
38.900002
 21
46.000000
  0
LINE
  8
0
 10
24.600000
 20
59.000000
 11
24.600000
 21
46.000000
  0
LINE
  8
0
 10
24.600000
 20
46.000000
 11
28.771324
 21
46.000000
  0
LINE
  8
0
 10
24.600000
 20
59.000000
 11
28.771324
 21
59.000000
  0
LINE
  8
0
 10
34.728676
 20
59.000000
 11
38.900002
 21
59.000000
  0
LINE
  8
0
 10
34.728676
 20
46.000000
 11
38.900002
 21
46.000000
  0
CIRCLE
  8
0
 10
31.750000
 20
52.500000
 40
5.900000
  0
CIRCLE
  8
0
 10
31.750000
 20
52.500000
 40
7.150000
  0
CIRCLE
  8
0
 10
31.750000
 20
52.500000
 40
3.100000
  0
POINT
  8
0
 10
-37.250000
 20
92.500000
  0
POINT
  8
0
 10
-13.549999
 20
92.500000
  0
LINE
  8
0
  6
CENTER
 10
-37.250000
 20
105.764099
 11
-37.250000
 21
78.351631
  0
LINE
  8
0
  6
CENTER
 10
-51.377296
 20
92.500000
 11
-6.279375
 21
92.500000
  0
LINE
  8
0
 10
-16.549999
 20
99.000000
 11
-16.549999
 21
86.000000
  0
LINE
  8
0
 10
-13.549999
 20
98.400002
 11
-13.549999
 21
86.599998
  0
LINE
  8
0
 10
-15.350000
 20
98.400002
 11
-15.350000
 21
86.599998
  0
LINE
  8
0
 10
-16.549999
 20
96.550003
 11
-15.350000
 21
96.550003
  0
LINE
  8
0
 10
-16.549999
 20
88.449997
 11
-15.350000
 21
88.449997
  0
LINE
  8
0
 10
-15.350000
 20
86.599998
 11
-13.549999
 21
86.599998
  0
LINE
  8
0
 10
-15.350000
 20
98.400002
 11
-13.549999
 21
98.400002
  0
LINE
  8
0
 10
-38.837715
 20
95.250000
 11
-35.662285
 21
95.250000
  0
LINE
  8
0
 10
-38.837711
 20
89.750000
 11
-35.662289
 21
89.750000
  0
LINE
  8
0
 10
-40.425430
 20
92.500000
 11
-38.837719
 21
95.250000
  0
LINE
  8
0
 10
-35.662292
 20
89.750008
 11
-34.074581
 21
92.500008
  0
LINE
  8
0
 10
-40.425423
 20
92.500000
 11
-38.837708
 21
89.750000
  0
LINE
  8
0
 10
-35.662285
 20
95.250000
 11
-34.074570
 21
92.500000
  0
LINE
  8
0
 10
-34.271324
 20
99.000000
 11
-16.549999
 21
99.000000
  0
LINE
  8
0
 10
-34.271324
 20
86.000000
 11
-16.549999
 21
86.000000
  0
LINE
  8
0
 10
-27.850000
 20
99.000000
 11
-27.850000
 21
86.000000
  0
LINE
  8
0
 10
-29.250000
 20
97.500000
 11
-29.250000
 21
87.500000
  0
LINE
  8
0
 10
-32.138985
 20
87.500000
 11
-29.250000
 21
87.500000
  0
LINE
  8
0
 10
-32.138985
 20
97.500000
 11
-29.250000
 21
97.500000
  0
LINE
  8
0
 10
-29.250000
 20
87.500000
 11
-27.850002
 21
86.000000
  0
LINE
  8
0
 10
-29.249996
 20
97.500008
 11
-27.849998
 21
99.000000
  0
CIRCLE
  8
0
 10
-37.250000
 20
92.500000
 40
5.000000
  0
CIRCLE
  8
0
 10
-37.250000
 20
92.500000
 40
7.150000
  0
CIRCLE
  8
0
 10
-37.250000
 20
92.500000
 40
4.600000
  0
POINT
  8
0
 10
100.313904
 20
41.010002
  0
POINT
  8
0
 10
93.750000
 20
41.010002
  0
LINE
  8
0
 10
101.750000
 20
51.250000
 11
101.750000
 21
47.500000
  0
LINE
  8
0
 10
100.900002
 20
53.750000
 11
103.150002
 21
53.750000
  0
LINE
  8
0
  6
CENTER
 10
78.050003
 20
52.500000
 11
128.257721
 21
52.500000
  0
LINE
  8
0
  6
CENTER
 10
93.750000
 20
72.500000
 11
93.750000
 21
25.093088
  0
LINE
  8
0
 10
86.599998
 20
59.000000
 11
100.900002
 21
59.000000
  0
LINE
  8
0
 10
100.900002
 20
59.000000
 11
100.900002
 21
46.000000
  0
LINE
  8
0
 10
86.599998
 20
59.000000
 11
86.599998
 21
46.000000
  0
LINE
  8
0
 10
86.599998
 20
46.000000
 11
100.900002
 21
46.000000
  0
LINE
  8
0
 10
103.150002
 20
59.000000
 11
103.150002
 21
46.000000
  0
LINE
  8
0
 10
101.750000
 20
57.500000
 11
101.750000
 21
53.750000
  0
LINE
  8
0
 10
100.900002
 20
47.500000
 11
101.750000
 21
47.500000
  0
LINE
  8
0
 10
100.900002
 20
57.500000
 11
101.750000
 21
57.500000
  0
LINE
  8
0
 10
101.749977
 20
47.499981
 11
103.149979
 21
45.999981
  0
LINE
  8
0
 10
101.750000
 20
57.500000
 11
103.149994
 21
59.000000
  0
LINE
  8
0
 10
103.150002
 20
46.000000
 11
114.449997
 21
46.000000
  0
LINE
  8
0
 10
103.150002
 20
59.000000
 11
114.449997
 21
59.000000
  0
LINE
  8
0
 10
87.850296
 20
46.000000
 11
88.149696
 21
35.021809
  0
LINE
  8
0
 10
99.649689
 20
46.000000
 11
99.350288
 21
35.021812
  0
LINE
  8
0
  6
CENTER
 10
83.695168
 20
41.010002
 11
103.295166
 21
41.010002
  0
LINE
  8
0
 10
88.750000
 20
60.507183
 11
89.150002
 21
62.000008
  0
LINE
  8
0
 10
100.449989
 20
46.000000
 11
100.149994
 21
34.999996
  0
LINE
  8
0
 10
88.750000
 20
60.507179
 11
98.750000
 21
60.507179
  0
LINE
  8
0
 10
86.599998
 20
59.000000
 11
100.900002
 21
59.000000
  0
LINE
  8
0
 10
98.349998
 20
62.000000
 11
98.750000
 21
60.507179
  0
LINE
  8
0
 10
87.049995
 20
46.000000
 11
87.349991
 21
35.000000
  0
LINE
  8
0
 10
87.349998
 20
35.000000
 11
100.150002
 21
35.000000
  0
LINE
  8
0
 10
89.150002
 20
62.000000
 11
98.349998
 21
62.000000
  0
LINE
  8
0
 10
98.750000
 20
60.507179
 11
98.750000
 21
59.000000
  0
LINE
  8
0
 10
88.750000
 20
60.507179
 11
88.750000
 21
59.000000
  0
LINE
  8
0
 10
115.649994
 20
58.400002
 11
117.449997
 21
58.400002
  0
LINE
  8
0
 10
114.449997
 20
48.449997
 11
115.649994
 21
48.449997
  0
LINE
  8
0
 10
115.649994
 20
46.599998
 11
117.449997
 21
46.599998
  0
LINE
  8
0
 10
114.449997
 20
59.000000
 11
114.449997
 21
46.000000
  0
LINE
  8
0
 10
117.449997
 20
58.400002
 11
117.449997
 21
46.599998
  0
LINE
  8
0
 10
115.649994
 20
58.400002
 11
115.649994
 21
46.599998
  0
LINE
  8
0
 10
114.449997
 20
56.550003
 11
115.649994
 21
56.550003
  0
LINE
  8
0
 10
100.900002
 20
51.250000
 11
103.150002
 21
51.250000
  0
POINT
  8
0
 10
166.313904
 20
41.010002
  0
POINT
  8
0
 10
159.750000
 20
41.010002
  0
LINE
  8
0
  6
CENTER
 10
159.750000
 20
78.000000
 11
159.750000
 21
17.134632
  0
LINE
  8
0
  6
CENTER
 10
142.285614
 20
52.500000
 11
178.982941
 21
52.500000
  0
LINE
  8
0
 10
152.600006
 20
59.000000
 11
166.899994
 21
59.000000
  0
LINE
  8
0
 10
155.149994
 20
62.000000
 11
164.350006
 21
62.000000
  0
LINE
  8
0
 10
164.750000
 20
60.507179
 11
164.750000
 21
59.000000
  0
LINE
  8
0
 10
154.750000
 20
60.507179
 11
154.750000
 21
59.000000
  0
LINE
  8
0
 10
154.750000
 20
60.507172
 11
155.150009
 21
62.000000
  0
LINE
  8
0
 10
164.350006
 20
62.000000
 11
164.750015
 21
60.507179
  0
LINE
  8
0
 10
154.750000
 20
60.507179
 11
164.750000
 21
60.507179
  0
LINE
  8
0
 10
153.350006
 20
35.000000
 11
166.149994
 21
35.000000
  0
LINE
  8
0
 10
153.050003
 20
45.999996
 11
153.350006
 21
34.999996
  0
LINE
  8
0
 10
166.449966
 20
46.000000
 11
166.149979
 21
34.999996
  0
LINE
  8
0
 10
153.849701
 20
46.021805
 11
154.149704
 21
35.021805
  0
LINE
  8
0
 10
165.650269
 20
46.021816
 11
165.350281
 21
35.021812
  0
LINE
  8
0
  6
CENTER
 10
149.695160
 20
41.010002
 11
169.295166
 21
41.010002
  0
LINE
  8
0
 10
166.899994
 20
59.000000
 11
166.899994
 21
46.000000
  0
LINE
  8
0
 10
152.600006
 20
59.000000
 11
152.600006
 21
46.000000
  0
LINE
  8
0
 10
152.600006
 20
46.000000
 11
166.899994
 21
46.000000
  0
LINE
  8
0
 10
152.600006
 20
59.000000
 11
166.899994
 21
59.000000
  0
CIRCLE
  8
0
 10
159.750000
 20
52.500000
 40
5.900000
  0
CIRCLE
  8
0
 10
159.750000
 20
52.500000
 40
6.500000
  0
CIRCLE
  8
0
 10
159.750000
 20
52.500000
 40
3.100000
  0
POINT
  8
0
 10
93.750000
 20
92.500000
  0
POINT
  8
0
 10
117.449997
 20
92.500000
  0
LINE
  8
0
  6
CENTER
 10
93.750000
 20
110.500000
 11
93.750000
 21
76.500000
  0
LINE
  8
0
  6
CENTER
 10
79.050003
 20
92.500000
 11
128.257721
 21
92.500000
  0
LINE
  8
0
 10
114.449997
 20
99.000000
 11
114.449997
 21
86.000000
  0
LINE
  8
0
 10
117.449997
 20
98.400002
 11
117.449997
 21
86.599998
  0
LINE
  8
0
 10
115.649994
 20
98.400002
 11
115.649994
 21
86.599998
  0
LINE
  8
0
 10
114.449997
 20
96.550003
 11
115.649994
 21
96.550003
  0
LINE
  8
0
 10
114.449997
 20
88.449997
 11
115.649994
 21
88.449997
  0
LINE
  8
0
 10
115.649994
 20
86.599998
 11
117.449997
 21
86.599998
  0
LINE
  8
0
 10
115.649994
 20
98.400002
 11
117.449997
 21
98.400002
  0
LINE
  8
0
 10
92.162292
 20
89.750000
 11
95.337715
 21
89.750000
  0
LINE
  8
0
 10
92.162285
 20
95.250000
 11
95.337715
 21
95.250000
  0
LINE
  8
0
 10
90.574577
 20
92.500008
 11
92.162292
 21
95.250008
  0
LINE
  8
0
 10
95.337715
 20
89.750008
 11
96.925430
 21
92.500008
  0
LINE
  8
0
 10
90.574585
 20
92.500000
 11
92.162300
 21
89.750000
  0
LINE
  8
0
 10
95.337723
 20
95.250000
 11
96.925438
 21
92.500000
  0
LINE
  8
0
 10
96.528671
 20
86.000000
 11
114.449997
 21
86.000000
  0
LINE
  8
0
 10
96.528671
 20
99.000000
 11
114.449997
 21
99.000000
  0
LINE
  8
0
 10
103.150002
 20
99.000000
 11
103.150002
 21
86.000000
  0
LINE
  8
0
 10
101.750000
 20
97.500000
 11
101.750000
 21
87.500000
  0
LINE
  8
0
 10
98.861015
 20
87.500000
 11
101.750000
 21
87.500000
  0
LINE
  8
0
 10
98.861015
 20
97.500000
 11
101.750000
 21
97.500000
  0
LINE
  8
0
 10
101.749977
 20
87.499985
 11
103.149979
 21
85.999985
  0
LINE
  8
0
 10
101.749992
 20
97.499992
 11
103.150002
 21
99.000000
  0
CIRCLE
  8
0
 10
93.750000
 20
92.500000
 40
5.000000
  0
CIRCLE
  8
0
 10
93.750000
 20
92.500000
 40
7.150000
  0
CIRCLE
  8
0
 10
93.750000
 20
92.500000
 40
4.600000
  0
POINT
  8
0
 10
-161.800003
 20
-84.430000
  0
POINT
  8
0
 10
-156.951126
 20
-84.430000
  0
LINE
  8
0
 10
-151.800003
 20
-74.900002
 11
-151.800003
 21
-79.400002
  0
LINE
  8
0
 10
-152.850006
 20
-71.900002
 11
-150.800003
 21
-71.900002
  0
LINE
  8
0
  6
CENTER
 10
-178.822266
 20
-73.400002
 11
-127.000000
 21
-73.400002
  0
LINE
  8
0
  6
CENTER
 10
-161.800003
 20
-53.599998
 11
-161.800003
 21
-97.251961
  0
LINE
  8
0
  6
CENTER
 10
-169.800003
 20
-84.430000
 11
-153.800003
 21
-84.430000
  0
LINE
  8
0
 10
-166.500000
 20
-88.400002
 11
-157.100006
 21
-88.400002
  0
LINE
  8
0
 10
-135.100006
 20
-66.500000
 11
-135.100006
 21
-80.300003
  0
LINE
  8
0
 10
-137.100006
 20
-66.500000
 11
-137.100006
 21
-80.300003
  0
LINE
  8
0
 10
-138.100006
 20
-78.300003
 11
-137.100006
 21
-78.300003
  0
LINE
  8
0
 10
-152.850006
 20
-66.400002
 11
-152.850006
 21
-80.400002
  0
LINE
  8
0
 10
-170.750000
 20
-66.400002
 11
-170.750000
 21
-80.400002
  0
LINE
  8
0
 10
-170.750000
 20
-66.400002
 11
-152.850006
 21
-66.400002
  0
LINE
  8
0
 10
-170.750000
 20
-80.400002
 11
-152.850006
 21
-80.400002
  0
LINE
  8
0
 10
-150.800003
 20
-66.400002
 11
-150.800003
 21
-80.400002
  0
LINE
  8
0
 10
-151.800003
 20
-67.400002
 11
-151.800003
 21
-71.900002
  0
LINE
  8
0
 10
-152.850006
 20
-79.400002
 11
-151.800003
 21
-79.400002
  0
LINE
  8
0
 10
-152.850006
 20
-67.400002
 11
-151.800003
 21
-67.400002
  0
LINE
  8
0
 10
-151.800003
 20
-79.399994
 11
-150.800003
 21
-80.399994
  0
LINE
  8
0
 10
-151.800003
 20
-67.400002
 11
-150.800003
 21
-66.400002
  0
LINE
  8
0
 10
-150.800003
 20
-66.400002
 11
-138.100006
 21
-66.400002
  0
LINE
  8
0
 10
-150.800003
 20
-80.400002
 11
-138.100006
 21
-80.400002
  0
LINE
  8
0
 10
-138.100006
 20
-66.400002
 11
-138.100006
 21
-80.400002
  0
LINE
  8
0
 10
-137.100006
 20
-80.300003
 11
-135.100006
 21
-80.300003
  0
LINE
  8
0
 10
-138.100006
 20
-68.500000
 11
-137.100006
 21
-68.500000
  0
LINE
  8
0
 10
-137.100006
 20
-66.500000
 11
-135.100006
 21
-66.500000
  0
LINE
  8
0
 10
-167.800003
 20
-61.400002
 11
-155.800003
 21
-61.400002
  0
LINE
  8
0
 10
-155.300003
 20
-63.265755
 11
-155.300003
 21
-66.400002
  0
LINE
  8
0
 10
-168.300003
 20
-63.265755
 11
-168.300003
 21
-66.400002
  0
LINE
  8
0
 10
-168.300003
 20
-63.266041
 11
-167.800003
 21
-61.400009
  0
LINE
  8
0
 10
-155.799988
 20
-61.400002
 11
-155.300003
 21
-63.266018
  0
LINE
  8
0
 10
-168.300003
 20
-63.265755
 11
-155.300003
 21
-63.265755
  0
LINE
  8
0
 10
-152.850006
 20
-74.900002
 11
-150.800003
 21
-74.900002
  0
LINE
  8
0
 10
-166.500000
 20
-88.400002
 11
-166.750015
 21
-80.400002
  0
LINE
  8
0
 10
-165.900436
 20
-88.377518
 11
-166.149734
 21
-80.400002
  0
LINE
  8
0
 10
-157.699570
 20
-88.377518
 11
-157.450256
 21
-80.400002
  0
LINE
  8
0
 10
-157.100006
 20
-88.400002
 11
-156.849991
 21
-80.400002
  0
POINT
  8
0
 10
-102.199997
 20
-84.430000
  0
POINT
  8
0
 10
-97.375938
 20
-84.430000
  0
LINE
  8
0
  6
CENTER
 10
-110.199997
 20
-84.430000
 11
-94.199997
 21
-84.430000
  0
LINE
  8
0
  6
CENTER
 10
-102.199997
 20
-53.922585
 11
-102.199997
 21
-93.272728
  0
LINE
  8
0
  6
CENTER
 10
-120.106522
 20
-73.400002
 11
-84.293472
 21
-73.400002
  0
LINE
  8
0
 10
-106.899994
 20
-88.400002
 11
-97.500000
 21
-88.400002
  0
LINE
  8
0
 10
-111.149994
 20
-80.400002
 11
-93.250000
 21
-80.400002
  0
LINE
  8
0
 10
-108.199997
 20
-61.400002
 11
-96.199997
 21
-61.400002
  0
LINE
  8
0
 10
-95.699997
 20
-63.266018
 11
-95.699997
 21
-66.400002
  0
LINE
  8
0
 10
-108.699997
 20
-63.266041
 11
-108.699997
 21
-66.400002
  0
LINE
  8
0
 10
-108.699997
 20
-63.266041
 11
-108.199997
 21
-61.400005
  0
LINE
  8
0
 10
-96.199989
 20
-61.400002
 11
-95.699989
 21
-63.266014
  0
LINE
  8
0
 10
-108.699997
 20
-63.265755
 11
-95.699997
 21
-63.265755
  0
LINE
  8
0
 10
-111.149994
 20
-66.400002
 11
-93.250000
 21
-66.400002
  0
LINE
  8
0
 10
-111.149994
 20
-66.400002
 11
-111.149994
 21
-80.400002
  0
LINE
  8
0
 10
-93.250000
 20
-66.400002
 11
-93.250000
 21
-80.400002
  0
LINE
  8
0
 10
-106.899986
 20
-88.400009
 11
-107.150002
 21
-80.400002
  0
LINE
  8
0
 10
-106.300423
 20
-88.377518
 11
-106.549736
 21
-80.400002
  0
LINE
  8
0
 10
-98.099571
 20
-88.377518
 11
-97.850258
 21
-80.400002
  0
LINE
  8
0
 10
-97.500008
 20
-88.400009
 11
-97.249992
 21
-80.400002
  0
CIRCLE
  8
0
 10
-102.199997
 20
-73.400002
 40
4.100000
  0
CIRCLE
  8
0
 10
-102.199997
 20
-73.400002
 40
6.900000
  0
POINT
  8
0
 10
-161.800003
 20
-30.400000
  0
POINT
  8
0
 10
-135.100006
 20
-30.400000
  0
LINE
  8
0
  6
CENTER
 10
-179.264389
 20
-30.400000
 11
-129.302979
 21
-30.400000
  0
LINE
  8
0
  6
CENTER
 10
-161.800003
 20
-16.693768
 11
-161.800003
 21
-45.874779
  0
LINE
  8
0
 10
-138.100006
 20
-23.400002
 11
-138.100006
 21
-37.400002
  0
LINE
  8
0
 10
-135.100006
 20
-23.500000
 11
-135.100006
 21
-37.300003
  0
LINE
  8
0
 10
-137.100006
 20
-23.500000
 11
-137.100006
 21
-37.300003
  0
LINE
  8
0
 10
-138.100006
 20
-35.300003
 11
-137.100006
 21
-35.300003
  0
LINE
  8
0
 10
-138.100006
 20
-25.500000
 11
-137.100006
 21
-25.500000
  0
LINE
  8
0
 10
-137.100006
 20
-37.300003
 11
-135.100006
 21
-37.300003
  0
LINE
  8
0
 10
-137.100006
 20
-23.500000
 11
-135.100006
 21
-23.500000
  0
LINE
  8
0
 10
-151.800003
 20
-24.400000
 11
-150.800003
 21
-23.400005
  0
LINE
  8
0
 10
-151.800003
 20
-36.399994
 11
-150.800003
 21
-37.399994
  0
LINE
  8
0
 10
-164.109406
 20
-34.400002
 11
-159.490601
 21
-34.400002
  0
LINE
  8
0
 10
-164.109406
 20
-26.400000
 11
-159.490601
 21
-26.400000
  0
LINE
  8
0
 10
-166.418808
 20
-30.399998
 11
-164.109406
 21
-26.399994
  0
LINE
  8
0
 10
-159.490616
 20
-34.399994
 11
-157.181213
 21
-30.399998
  0
LINE
  8
0
 10
-166.418808
 20
-30.399992
 11
-164.109406
 21
-34.399994
  0
LINE
  8
0
 10
-159.490601
 20
-26.400000
 11
-157.181213
 21
-30.399996
  0
LINE
  8
0
 10
-156.223038
 20
-23.400000
 11
-138.100006
 21
-23.400000
  0
LINE
  8
0
 10
-156.223038
 20
-37.400002
 11
-138.100006
 21
-37.400002
  0
LINE
  8
0
 10
-150.800003
 20
-23.400000
 11
-150.800003
 21
-37.400002
  0
LINE
  8
0
 10
-151.800003
 20
-24.400000
 11
-151.800003
 21
-36.400002
  0
LINE
  8
0
 10
-155.159027
 20
-36.400002
 11
-151.800003
 21
-36.400002
  0
LINE
  8
0
 10
-155.159027
 20
-24.400000
 11
-151.800003
 21
-24.400000
  0
CIRCLE
  8
0
 10
-161.800003
 20
-30.400000
 40
6.000000
  0
CIRCLE
  8
0
 10
-161.800003
 20
-30.400000
 40
6.500000
  0
CIRCLE
  8
0
 10
-161.800003
 20
-30.400000
 40
8.950000
  0
POINT
  8
0
 10
-30.436090
 20
-85.389999
  0
POINT
  8
0
 10
-37.000000
 20
-85.389999
  0
LINE
  8
0
 10
-27.000000
 20
-74.900002
 11
-27.000000
 21
-79.400002
  0
LINE
  8
0
 10
-28.050003
 20
-71.900002
 11
-26.000000
 21
-71.900002
  0
LINE
  8
0
  6
CENTER
 10
-52.011566
 20
-73.400002
 11
-4.702961
 21
-73.400002
  0
LINE
  8
0
  6
CENTER
 10
-37.000000
 20
-55.324718
 11
-37.000000
 21
-97.327682
  0
LINE
  8
0
 10
-12.299999
 20
-66.500000
 11
-12.299999
 21
-80.300003
  0
LINE
  8
0
 10
-10.299999
 20
-66.500000
 11
-10.299999
 21
-80.300003
  0
LINE
  8
0
 10
-13.299999
 20
-78.300003
 11
-12.299999
 21
-78.300003
  0
LINE
  8
0
 10
-28.050003
 20
-66.400002
 11
-28.050003
 21
-80.400002
  0
LINE
  8
0
 10
-45.949997
 20
-66.400002
 11
-45.949997
 21
-80.400002
  0
LINE
  8
0
 10
-45.949997
 20
-66.400002
 11
-28.050003
 21
-66.400002
  0
LINE
  8
0
 10
-12.299999
 20
-80.300003
 11
-10.299999
 21
-80.300003
  0
LINE
  8
0
 10
-26.000000
 20
-66.400002
 11
-26.000000
 21
-80.400002
  0
LINE
  8
0
 10
-27.000000
 20
-67.400002
 11
-27.000000
 21
-71.900002
  0
LINE
  8
0
 10
-28.050003
 20
-79.400002
 11
-27.000000
 21
-79.400002
  0
LINE
  8
0
 10
-28.050003
 20
-67.400002
 11
-27.000000
 21
-67.400002
  0
LINE
  8
0
 10
-26.999994
 20
-79.399994
 11
-25.999996
 21
-80.399994
  0
LINE
  8
0
 10
-27.000000
 20
-67.400002
 11
-26.000000
 21
-66.400002
  0
LINE
  8
0
 10
-26.000000
 20
-66.400002
 11
-13.299999
 21
-66.400002
  0
LINE
  8
0
 10
-26.000000
 20
-80.400002
 11
-13.299999
 21
-80.400002
  0
LINE
  8
0
 10
-43.000000
 20
-61.400002
 11
-31.000000
 21
-61.400002
  0
LINE
  8
0
 10
-30.500000
 20
-63.266018
 11
-30.500000
 21
-66.400002
  0
LINE
  8
0
 10
-43.500000
 20
-63.266041
 11
-43.500000
 21
-66.400002
  0
LINE
  8
0
 10
-43.500000
 20
-63.266037
 11
-42.999996
 21
-61.400002
  0
LINE
  8
0
 10
-30.999989
 20
-61.399998
 11
-30.499992
 21
-63.266014
  0
LINE
  8
0
 10
-43.500000
 20
-63.265755
 11
-30.500000
 21
-63.265755
  0
LINE
  8
0
 10
-13.299999
 20
-66.400002
 11
-13.299999
 21
-80.400002
  0
LINE
  8
0
 10
-13.299999
 20
-68.500000
 11
-12.299999
 21
-68.500000
  0
LINE
  8
0
 10
-12.299999
 20
-66.500000
 11
-10.299999
 21
-66.500000
  0
LINE
  8
0
 10
-45.949997
 20
-80.400002
 11
-28.050003
 21
-80.400002
  0
LINE
  8
0
 10
-43.400002
 20
-91.400002
 11
-30.600000
 21
-91.400002
  0
LINE
  8
0
  6
CENTER
 10
-45.000000
 20
-85.389999
 11
-29.000000
 21
-85.389999
  0
LINE
  8
0
 10
-28.050003
 20
-74.900002
 11
-26.000000
 21
-74.900002
  0
LINE
  8
0
 10
-43.400005
 20
-91.399994
 11
-43.743771
 21
-80.400002
  0
LINE
  8
0
 10
-42.600296
 20
-91.378197
 11
-42.943378
 21
-80.400002
  0
LINE
  8
0
 10
-31.399706
 20
-91.378197
 11
-31.056622
 21
-80.400002
  0
LINE
  8
0
 10
-30.599997
 20
-91.399994
 11
-30.256229
 21
-80.400002
  0
POINT
  8
0
 10
38.763908
 20
-85.389999
  0
POINT
  8
0
 10
32.200001
 20
-85.389999
  0
LINE
  8
0
  6
CENTER
 10
24.199997
 20
-85.389999
 11
40.199997
 21
-85.389999
  0
LINE
  8
0
  6
CENTER
 10
32.200001
 20
-51.787624
 11
32.200001
 21
-97.800003
  0
LINE
  8
0
  6
CENTER
 10
12.967064
 20
-73.400002
 11
48.200001
 21
-73.400002
  0
LINE
  8
0
 10
41.149994
 20
-66.400002
 11
41.149994
 21
-80.400002
  0
LINE
  8
0
 10
26.199997
 20
-61.400002
 11
38.199997
 21
-61.400002
  0
LINE
  8
0
 10
38.699997
 20
-63.266018
 11
38.699997
 21
-66.400002
  0
LINE
  8
0
 10
25.699997
 20
-63.266041
 11
25.699997
 21
-66.400002
  0
LINE
  8
0
 10
25.699995
 20
-63.266045
 11
26.199997
 21
-61.400009
  0
LINE
  8
0
 10
38.200001
 20
-61.400005
 11
38.700001
 21
-63.266022
  0
LINE
  8
0
 10
25.699997
 20
-63.265755
 11
38.699997
 21
-63.265755
  0
LINE
  8
0
 10
23.250000
 20
-66.400002
 11
23.250000
 21
-80.400002
  0
LINE
  8
0
 10
23.250000
 20
-66.400002
 11
41.149994
 21
-66.400002
  0
LINE
  8
0
 10
23.250000
 20
-80.400002
 11
41.149994
 21
-80.400002
  0
LINE
  8
0
 10
25.799995
 20
-91.400002
 11
38.599998
 21
-91.400002
  0
LINE
  8
0
 10
25.799994
 20
-91.399994
 11
25.456226
 21
-80.400002
  0
LINE
  8
0
 10
26.599699
 20
-91.378197
 11
26.256615
 21
-80.400002
  0
LINE
  8
0
 10
37.800301
 20
-91.378197
 11
38.143387
 21
-80.400002
  0
LINE
  8
0
 10
38.600006
 20
-91.399994
 11
38.943775
 21
-80.400002
  0
CIRCLE
  8
0
 10
32.199997
 20
-73.400002
 40
6.900000
  0
CIRCLE
  8
0
 10
32.199997
 20
-73.400002
 40
4.100000
  0
POINT
  8
0
 10
-37.000000
 20
-30.400000
  0
POINT
  8
0
 10
-10.299999
 20
-30.400000
  0
LINE
  8
0
  6
CENTER
 10
-56.799995
 20
-30.400000
 11
4.800007
 21
-30.400000
  0
LINE
  8
0
  6
CENTER
 10
-37.000000
 20
-12.400000
 11
-37.000000
 21
-47.599998
  0
LINE
  8
0
 10
-13.299999
 20
-23.400002
 11
-13.299999
 21
-37.400002
  0
LINE
  8
0
 10
-10.299999
 20
-23.500000
 11
-10.299999
 21
-37.300003
  0
LINE
  8
0
 10
-12.299999
 20
-23.500000
 11
-12.299999
 21
-37.300003
  0
LINE
  8
0
 10
-13.299999
 20
-35.300003
 11
-12.299999
 21
-35.300003
  0
LINE
  8
0
 10
-13.299999
 20
-25.500000
 11
-12.299999
 21
-25.500000
  0
LINE
  8
0
 10
-12.299999
 20
-37.300003
 11
-10.299999
 21
-37.300003
  0
LINE
  8
0
 10
-12.299999
 20
-23.500000
 11
-10.299999
 21
-23.500000
  0
LINE
  8
0
 10
-39.309402
 20
-34.400002
 11
-34.690598
 21
-34.400002
  0
LINE
  8
0
 10
-39.309402
 20
-26.400002
 11
-34.690598
 21
-26.400002
  0
LINE
  8
0
 10
-41.618809
 20
-30.399998
 11
-39.309406
 21
-26.399996
  0
LINE
  8
0
 10
-34.690605
 20
-34.399990
 11
-32.381207
 21
-30.399996
  0
LINE
  8
0
 10
-41.618805
 20
-30.399998
 11
-39.309399
 21
-34.400002
  0
LINE
  8
0
 10
-34.690601
 20
-26.400003
 11
-32.381203
 21
-30.400000
  0
LINE
  8
0
 10
-31.423035
 20
-23.400002
 11
-13.299999
 21
-23.400002
  0
LINE
  8
0
 10
-31.423035
 20
-37.400002
 11
-13.299999
 21
-37.400002
  0
LINE
  8
0
 10
-26.000000
 20
-23.400000
 11
-26.000000
 21
-37.400002
  0
LINE
  8
0
 10
-27.000000
 20
-24.400000
 11
-27.000000
 21
-36.400002
  0
LINE
  8
0
 10
-30.359024
 20
-36.400002
 11
-27.000000
 21
-36.400002
  0
LINE
  8
0
 10
-30.359024
 20
-24.400002
 11
-27.000000
 21
-24.400002
  0
LINE
  8
0
 10
-27.000000
 20
-36.399994
 11
-25.999998
 21
-37.399998
  0
LINE
  8
0
 10
-26.999994
 20
-24.400005
 11
-25.999998
 21
-23.400009
  0
CIRCLE
  8
0
 10
-37.000000
 20
-30.400002
 40
6.500000
  0
CIRCLE
  8
0
 10
-37.000000
 20
-30.400002
 40
8.950000
  0
CIRCLE
  8
0
 10
-37.000000
 20
-30.400002
 40
6.000000
  0
POINT
  8
0
 10
101.711670
 20
-76.050003
  0
POINT
  8
0
 10
93.400002
 20
-76.050003
  0
LINE
  8
0
  6
CENTER
 10
82.104584
 20
-76.050003
 11
104.869186
 21
-76.050003
  0
LINE
  8
0
 10
102.349998
 20
-61.900002
 11
104.400002
 21
-61.900002
  0
LINE
  8
0
  6
CENTER
 10
74.000000
 20
-63.400002
 11
127.907722
 21
-63.400002
  0
LINE
  8
0
  6
CENTER
 10
93.400002
 20
-44.000000
 11
93.400002
 21
-90.640511
  0
LINE
  8
0
 10
102.349998
 20
-56.400002
 11
102.349998
 21
-70.400002
  0
LINE
  8
0
 10
84.450005
 20
-56.400002
 11
84.450005
 21
-70.400002
  0
LINE
  8
0
 10
84.450005
 20
-56.400002
 11
102.349998
 21
-56.400002
  0
LINE
  8
0
 10
84.450005
 20
-70.400002
 11
102.349998
 21
-70.400002
  0
LINE
  8
0
 10
104.400002
 20
-56.400002
 11
104.400002
 21
-70.400002
  0
LINE
  8
0
 10
103.400002
 20
-57.400002
 11
103.400002
 21
-61.900002
  0
LINE
  8
0
 10
102.349998
 20
-69.400002
 11
103.400002
 21
-69.400002
  0
LINE
  8
0
 10
102.349998
 20
-57.400002
 11
103.400002
 21
-57.400002
  0
LINE
  8
0
 10
103.400009
 20
-69.400002
 11
104.400009
 21
-70.400002
  0
LINE
  8
0
 10
103.400009
 20
-57.399998
 11
104.400009
 21
-56.399998
  0
LINE
  8
0
 10
104.400002
 20
-56.400002
 11
117.100006
 21
-56.400002
  0
LINE
  8
0
 10
104.400002
 20
-70.400002
 11
117.100006
 21
-70.400002
  0
LINE
  8
0
 10
87.400002
 20
-51.400002
 11
99.400002
 21
-51.400002
  0
LINE
  8
0
 10
99.900002
 20
-53.266018
 11
99.900002
 21
-56.400002
  0
LINE
  8
0
 10
86.900002
 20
-53.266041
 11
86.900002
 21
-56.400002
  0
LINE
  8
0
 10
86.900009
 20
-53.266029
 11
87.400009
 21
-51.399994
  0
LINE
  8
0
 10
99.400009
 20
-51.400002
 11
99.900009
 21
-53.266022
  0
LINE
  8
0
 10
86.900002
 20
-53.265755
 11
99.900002
 21
-53.265755
  0
LINE
  8
0
 10
118.100006
 20
-56.500000
 11
120.100006
 21
-56.500000
  0
LINE
  8
0
 10
118.100006
 20
-70.300003
 11
120.100006
 21
-70.300003
  0
LINE
  8
0
 10
117.100006
 20
-58.500000
 11
118.100006
 21
-58.500000
  0
LINE
  8
0
 10
117.100006
 20
-56.400002
 11
117.100006
 21
-70.400002
  0
LINE
  8
0
 10
120.100006
 20
-56.500000
 11
120.100006
 21
-70.300003
  0
LINE
  8
0
 10
118.100006
 20
-56.500000
 11
118.100006
 21
-70.300003
  0
LINE
  8
0
 10
117.100006
 20
-68.300003
 11
118.100006
 21
-68.300003
  0
LINE
  8
0
 10
85.300003
 20
-82.400002
 11
101.500000
 21
-82.400002
  0
LINE
  8
0
 10
103.400002
 20
-64.900002
 11
103.400002
 21
-69.400002
  0
LINE
  8
0
 10
102.349998
 20
-64.900002
 11
104.400002
 21
-64.900002
  0
LINE
  8
0
 10
85.300003
 20
-82.400002
 11
84.924988
 21
-70.400002
  0
LINE
  8
0
 10
86.099548
 20
-82.373352
 11
85.725365
 21
-70.400002
  0
LINE
  8
0
 10
100.700455
 20
-82.373352
 11
101.074638
 21
-70.400002
  0
LINE
  8
0
 10
101.500000
 20
-82.400002
 11
101.875015
 21
-70.400002
  0
POINT
  8
0
 10
159.800003
 20
-76.050003
  0
POINT
  8
0
 10
168.098450
 20
-76.050003
  0
LINE
  8
0
  6
CENTER
 10
159.800003
 20
-44.216175
 11
159.800003
 21
-87.400002
  0
LINE
  8
0
  6
CENTER
 10
144.104156
 20
-63.400002
 11
176.199997
 21
-63.400002
  0
LINE
  8
0
 10
153.800003
 20
-51.400002
 11
165.800003
 21
-51.400002
  0
LINE
  8
0
 10
166.300003
 20
-53.266018
 11
166.300003
 21
-56.400002
  0
LINE
  8
0
 10
153.300003
 20
-53.266041
 11
153.300003
 21
-56.400002
  0
LINE
  8
0
 10
153.299988
 20
-53.266048
 11
153.800003
 21
-51.400013
  0
LINE
  8
0
 10
165.800003
 20
-51.400002
 11
166.300003
 21
-53.266022
  0
LINE
  8
0
 10
153.300003
 20
-53.265755
 11
166.300003
 21
-53.265755
  0
LINE
  8
0
 10
168.750000
 20
-56.400002
 11
168.750000
 21
-70.400002
  0
LINE
  8
0
 10
150.850006
 20
-56.400002
 11
150.850006
 21
-70.400002
  0
LINE
  8
0
 10
150.850006
 20
-56.400002
 11
168.750000
 21
-56.400002
  0
LINE
  8
0
 10
150.850006
 20
-70.400002
 11
168.800003
 21
-70.400002
  0
LINE
  8
0
 10
151.700012
 20
-82.400002
 11
167.899994
 21
-82.400002
  0
LINE
  8
0
  6
CENTER
 10
148.504578
 20
-76.050003
 11
171.269196
 21
-76.050003
  0
LINE
  8
0
 10
151.700012
 20
-82.400002
 11
151.324982
 21
-70.400002
  0
LINE
  8
0
 10
152.499573
 20
-82.373352
 11
152.125381
 21
-70.400002
  0
LINE
  8
0
 10
167.100433
 20
-82.373352
 11
167.474625
 21
-70.400002
  0
LINE
  8
0
 10
167.899994
 20
-82.400002
 11
168.275024
 21
-70.400002
  0
CIRCLE
  8
0
 10
159.800003
 20
-63.400002
 40
4.100000
  0
CIRCLE
  8
0
 10
159.800003
 20
-63.400002
 40
6.900000
  0
POINT
  8
0
 10
93.400002
 20
-20.400000
  0
POINT
  8
0
 10
120.100006
 20
-20.400000
  0
LINE
  8
0
  6
CENTER
 10
78.388435
 20
-20.400000
 11
128.791992
 21
-20.400000
  0
LINE
  8
0
  6
CENTER
 10
93.400002
 20
-7.135904
 11
93.400002
 21
-36.316914
  0
LINE
  8
0
 10
117.100006
 20
-13.400002
 11
117.100006
 21
-27.400002
  0
LINE
  8
0
 10
120.100006
 20
-13.500000
 11
120.100006
 21
-27.300003
  0
LINE
  8
0
 10
118.100006
 20
-13.500000
 11
118.100006
 21
-27.300003
  0
LINE
  8
0
 10
117.100006
 20
-25.300003
 11
118.100006
 21
-25.300003
  0
LINE
  8
0
 10
117.100006
 20
-15.500000
 11
118.100006
 21
-15.500000
  0
LINE
  8
0
 10
118.100006
 20
-27.300003
 11
120.100006
 21
-27.300003
  0
LINE
  8
0
 10
118.100006
 20
-13.500000
 11
120.100006
 21
-13.500000
  0
LINE
  8
0
 10
91.090599
 20
-24.400002
 11
95.709404
 21
-24.400002
  0
LINE
  8
0
 10
91.090599
 20
-16.400002
 11
95.709404
 21
-16.400002
  0
LINE
  8
0
 10
88.781189
 20
-20.400002
 11
91.090591
 21
-16.400000
  0
LINE
  8
0
 10
95.709404
 20
-24.399992
 11
98.018799
 21
-20.399996
  0
LINE
  8
0
 10
88.781204
 20
-20.399996
 11
91.090607
 21
-24.399998
  0
LINE
  8
0
 10
95.709404
 20
-16.400005
 11
98.018799
 21
-20.400002
  0
LINE
  8
0
 10
98.976967
 20
-13.400002
 11
117.100006
 21
-13.400002
  0
LINE
  8
0
 10
98.976967
 20
-27.400002
 11
117.100006
 21
-27.400002
  0
LINE
  8
0
 10
104.400002
 20
-13.400000
 11
104.400002
 21
-27.400000
  0
LINE
  8
0
 10
103.400002
 20
-14.400000
 11
103.400002
 21
-26.400000
  0
LINE
  8
0
 10
100.040977
 20
-26.400002
 11
103.400002
 21
-26.400002
  0
LINE
  8
0
 10
100.040977
 20
-14.400002
 11
103.400002
 21
-14.400002
  0
LINE
  8
0
 10
103.400002
 20
-26.399996
 11
104.400002
 21
-27.399998
  0
LINE
  8
0
 10
103.400009
 20
-14.400007
 11
104.400002
 21
-13.400012
  0
CIRCLE
  8
0
 10
93.400002
 20
-20.400002
 40
8.950000
  0
CIRCLE
  8
0
 10
93.400002
 20
-20.400002
 40
6.500000
  0
CIRCLE
  8
0
 10
93.400002
 20
-20.400002
 40
6.000000
  0
ENDSEC
  0
EOF
