  0
SECTION
  2
HEADER
  0
ENDSEC
  0
SECTION
  2
TABLES
  0
TABLE
  2
LTYPE
 70
     4
  0
LTYPE
  2
CONTINUOUS
 70
    64
  3
Solid line
 72
    65
 73
     0
 40
0.000000
  0
LTYPE
  2
DASHED
 70
    64
  3
__ __ __ __ __ __ __ __ __ __ __ __ __ __ __
 72
    65
 73
     2
 40
3.500000
 49
2.000000
 49
-1.500000
  0
LTYPE
  2
CENTER
 70
    64
  3
____ _ ____ _ ____ _ ____ _ ____ _ ____ _ ____
 72
    65
 73
     4
 40
17.500000
 49
13.000000
 49
-1.500000
 49
1.500000
 49
-1.500000
  0
LTYPE
  2
PHANTOM
 70
    64
  3
_____ _ _ _____ _ _ _____ _ _ _____ _ _ ____  
 72
    65
 73
     6
 40
15.500000
 49
8.000000
 49
-1.500000
 49
1.500000
 49
-1.500000
 49
1.500000
 49
-1.500000
  0
LTYPE
  2
DASHED1
 70
    64
  3
__ __ __ __ __ __ __ __ __ __ __ __ __ __ __
 72
    65
 73
     2
 40
1.500000
 49
1.000000
 49
-0.500000
  0
LTYPE
  2
DASHED2
 70
    64
  3
__ __ __ __ __ __ __ __ __ __ __ __ __ __ __
 72
    65
 73
     2
 40
3.500000
 49
2.500000
 49
-1.000000
  0
LTYPE
  2
DASHED3
 70
    64
  3
__ __ __ __ __ __ __ __ __ __ __ __ __ __ __
 72
    65
 73
     2
 40
6.000000
 49
4.000000
 49
-2.000000
  0
LTYPE
  2
DASHED4
 70
    64
  3
__ __ __ __ __ __ __ __ __ __ __ __ __ __ __
 72
    65
 73
     2
 40
12.000000
 49
10.000000
 49
-2.000000
  0
LTYPE
  2
DASHED5
 70
    64
  3
__ __ __ __ __ __ __ __ __ __ __ __ __ __ __
 72
    65
 73
     2
 40
17.000000
 49
15.000000
 49
-2.000000
  0
LTYPE
  2
DASHED6
 70
    64
  3
__ __ __ __ __ __ __ __ __ __ __ __ __ __ __
 72
    65
 73
     2
 40
29.000000
 49
27.000000
 49
-2.000000
  0
LTYPE
  2
PHANTOM1
 70
    64
  3
_____ _ _ _____ _ _ _____ _ _ _____ _ _ ____  
 72
    65
 73
     6
 40
31.000000
 49
25.000000
 49
-1.500000
 49
1.000000
 49
-1.000000
 49
1.000000
 49
-1.500000
  0
LTYPE
  2
PHANTOM2
 70
    64
  3
_____ _ _ _____ _ _ _____ _ _ _____ _ _ ____  
 72
    65
 73
     6
 40
36.000000
 49
27.000000
 49
-1.500000
 49
2.500000
 49
-1.000000
 49
2.500000
 49
-1.500000
  0
LTYPE
  2
PHANTOM3
 70
    64
  3
_____ _ _ _____ _ _ _____ _ _ _____ _ _ ____  
 72
    65
 73
     6
 40
78.000000
 49
64.000000
 49
-2.000000
 49
4.000000
 49
-2.000000
 49
4.000000
 49
-2.000000
  0
LTYPE
  2
CENTER1
 70
    64
  3
____ _ ____ _ ____ _ ____ _ ____ _ ____ _ ____
 72
    65
 73
     4
 40
19.000000
 49
14.000000
 49
-1.000000
 49
3.000000
 49
-1.000000
  0
LTYPE
  2
CENTER2
 70
    64
  3
____ _ ____ _ ____ _ ____ _ ____ _ ____ _ ____
 72
    65
 73
     4
 40
28.500000
 49
25.000000
 49
-1.000000
 49
1.500000
 49
-1.000000
  0
LTYPE
  2
CENTER3
 70
    64
  3
____ _ ____ _ ____ _ ____ _ ____ _ ____ _ ____
 72
    65
 73
     4
 40
31.500000
 49
27.000000
 49
-1.000000
 49
2.500000
 49
-1.000000
  0
LTYPE
  2
CENTER4
 70
    64
  3
____ _ ____ _ ____ _ ____ _ ____ _ ____ _ ____
 72
    65
 73
     4
 40
50.000000
 49
45.000000
 49
-1.000000
 49
3.000000
 49
-1.000000
  0
LTYPE
  2
CENTER5
 70
    64
  3
____ _ ____ _ ____ _ ____ _ ____ _ ____ _ ____
 72
    65
 73
     4
 40
100.000000
 49
92.000000
 49
-2.000000
 49
4.000000
 49
-2.000000
  0
LTYPE
  2
SBK1
 70
    64
  3
______ _ _ _ ______ _ _ _ ______ _ _ _ _____  
 72
    65
 73
     8
 40
60.500000
 49
45.000000
 49
-2.000000
 49
2.500000
 49
-2.000000
 49
2.500000
 49
-2.000000
 49
2.500000
 49
-2.000000
  0
LTYPE
  2
SBK2
 70
    64
  3
______ _ _ _ ______ _ _ _ ______ _ _ _ _____  
 72
    65
 73
     8
 40
84.000000
 49
64.000000
 49
-2.000000
 49
4.000000
 49
-2.000000
 49
4.000000
 49
-2.000000
 49
4.000000
 49
-2.000000
  0
LTYPE
  2
STCH
 70
    64
  3
__ __ __ __ __ __ __ __ __ __ __ __ __ __ __
 72
    65
 73
     2
 40
3.000000
 49
1.000000
 49
-2.000000
  0
LTYPE
  2
MTCH
 70
    64
  3
_____ _ _ _____ _ _ _____ _ _ _____ _ _ ____  
 72
    65
 73
     6
 40
80.000000
 49
66.000000
 49
-2.000000
 49
4.000000
 49
-2.000000
 49
4.000000
 49
-2.000000
  0
ENDTAB
  0
TABLE
  2
LAYER
 70
     1
  0
LAYER
  2
0
 70
     0
 62
     7
  6
CONTINUOUS
  0
ENDTAB
  0
TABLE
  2
STYLE
 70
     1
  0
STYLE
  2
STANDARD
 70
     0
 40
0.000000
 41
1.000000
 50
0.000000
 71
     0
 42
0.200000
  3
txt
  4
BIGFONT
  0
ENDTAB
  0
TABLE
  2
VIEW
 70
     0
  0
ENDTAB
  0
ENDSEC
  0
SECTION
  2
BLOCKS
  0
ENDSEC
  0
SECTION
  2
ENTITIES
  0
LINE
  8
0
 10
-181.250000
 20
195.500000
 11
-181.250000
 21
180.500000
  0
LINE
  8
0
 10
182.099976
 20
195.500000
 11
182.099976
 21
180.500000
  0
LINE
  8
0
 10
-281.250000
 20
180.500000
 11
-181.250000
 21
180.500000
  0
LINE
  8
0
 10
182.099976
 20
-175.000000
 11
182.099976
 21
-195.000000
  0
LINE
  8
0
 10
182.099976
 20
180.500000
 11
282.099976
 21
180.500000
  0
LINE
  8
0
 10
182.099976
 20
-175.000000
 11
282.099976
 21
-175.000000
  0
LINE
  8
0
 10
-281.250000
 20
-185.000000
 11
182.099976
 21
-185.000000
  0
LINE
  8
0
 10
-297.000000
 20
210.000000
 11
297.000000
 21
210.000000
  0
LINE
  8
0
 10
-297.000000
 20
-210.000000
 11
297.000000
 21
-210.000000
  0
LINE
  8
0
 10
297.000000
 20
210.000000
 11
297.000000
 21
-210.000000
  0
LINE
  8
0
 10
-297.000000
 20
210.000000
 11
-297.000000
 21
-210.000000
  0
LINE
  8
0
 10
-281.250000
 20
195.500000
 11
282.099976
 21
195.500000
  0
LINE
  8
0
 10
-281.250000
 20
195.500000
 11
-281.250000
 21
-195.000000
  0
LINE
  8
0
 10
282.099976
 20
195.500000
 11
282.099976
 21
-195.000000
  0
LINE
  8
0
 10
-281.250000
 20
-195.000000
 11
282.099976
 21
-195.000000
  0
LINE
  8
0
 10
-281.250000
 20
65.333328
 11
282.099976
 21
65.333328
  0
LINE
  8
0
 10
-281.250000
 20
-64.833344
 11
282.099976
 21
-64.833344
  0
LINE
  8
0
 10
-281.250000
 20
75.333328
 11
282.099976
 21
75.333328
  0
LINE
  8
0
 10
-281.250000
 20
-54.833344
 11
282.099976
 21
-54.833344
  0
LINE
  8
0
 10
0.424988
 20
65.333328
 11
0.424988
 21
-195.000000
  0
LINE
  8
0
 10
-93.466675
 20
65.333328
 11
-93.466675
 21
195.500000
  0
LINE
  8
0
 10
94.316650
 20
65.333328
 11
94.316650
 21
195.500000
  0
TEXT
  8
0
 10
-281.128326
 20
183.779999
 40
5.800000
  1
QUICK FITTING,SLM
 50
0.000000
 41
1.052632
 51
0.000000
  7
STANDARD
  0
TEXT
  8
0
 10
188.021667
 20
183.779999
 40
5.800000
  1
DATE: MAY ,1992
 50
0.000000
 41
1.052632
 51
0.000000
  7
STANDARD
  0
TEXT
  8
0
 10
178.000870
 20
-190.300003
 40
7.000000
  1
ＫＯＧＡＮＥＩ，ＣＯＲＰ．
 50
0.000000
 41
0.902367
 51
15.000000
  7
STANDARD
  0
TEXT
  8
0
 10
-276.000000
 20
-192.000015
 40
5.000000
  1
MODEL:SLM12-03
 50
0.000000
 41
1.052632
 51
0.000000
  7
STANDARD
  0
TEXT
  8
0
 10
-276.000000
 20
68.333328
 40
5.000000
  1
MODEL:SLM8-01
 50
0.000000
 41
1.052632
 51
0.000000
  7
STANDARD
  0
TEXT
  8
0
 10
-88.216675
 20
68.333328
 40
5.000000
  1
MODEL:SLM8-02
 50
0.000000
 41
1.052632
 51
0.000000
  7
STANDARD
  0
TEXT
  8
0
 10
99.566650
 20
68.333328
 40
5.000000
  1
MODEL:SLM8-03
 50
0.000000
 41
1.052632
 51
0.000000
  7
STANDARD
  0
TEXT
  8
0
 10
-276.000000
 20
-61.833344
 40
5.000000
  1
MODEL:SLM10-02
 50
0.000000
 41
1.052632
 51
0.000000
  7
STANDARD
  0
TEXT
  8
0
 10
5.674988
 20
-61.833344
 40
5.000000
  1
MODEL:SLM10-03
 50
0.000000
 41
1.052632
 51
0.000000
  7
STANDARD
  0
TEXT
  8
0
 10
5.674988
 20
-192.000000
 40
5.000000
  1
MODEL:SLM12-04
 50
0.000000
 41
1.052632
 51
0.000000
  7
STANDARD
  0
POINT
  8
0
 10
-227.895920
 20
93.887657
  0
POINT
  8
0
 10
-232.744797
 20
93.887657
  0
LINE
  8
0
 10
-220.744797
 20
103.687660
 11
-220.744797
 21
97.937660
  0
LINE
  8
0
 10
-222.494797
 20
103.687660
 11
-222.494797
 21
99.687660
  0
LINE
  8
0
  6
CENTER
 10
-248.618454
 20
105.187660
 11
-198.119781
 21
105.187660
  0
LINE
  8
0
  6
CENTER
 10
-232.744797
 20
130.667664
 11
-232.744797
 21
83.305214
  0
LINE
  8
0
 10
-240.822800
 20
112.917656
 11
-224.666794
 21
112.917656
  0
LINE
  8
0
 10
-239.994797
 20
98.917656
 11
-225.494797
 21
98.917656
  0
LINE
  8
0
 10
-240.444794
 20
112.138229
 11
-240.444794
 21
99.697075
  0
LINE
  8
0
 10
-225.044800
 20
112.138237
 11
-225.044800
 21
99.697083
  0
LINE
  8
0
 10
-240.444794
 20
112.138229
 11
-239.994797
 21
112.917656
  0
LINE
  8
0
 10
-225.494797
 20
98.917648
 11
-225.044800
 21
99.697075
  0
LINE
  8
0
 10
-240.444794
 20
99.697075
 11
-239.994797
 21
98.917656
  0
LINE
  8
0
 10
-225.494797
 20
112.917656
 11
-225.044800
 21
112.138237
  0
LINE
  8
0
 10
-240.444794
 20
112.138214
 11
-225.044800
 21
112.138214
  0
LINE
  8
0
 10
-240.444794
 20
99.697067
 11
-225.044800
 21
99.697067
  0
LINE
  8
0
 10
-220.744797
 20
112.437653
 11
-209.944794
 21
112.437653
  0
LINE
  8
0
 10
-220.744797
 20
112.437653
 11
-220.744797
 21
106.687660
  0
LINE
  8
0
 10
-222.494797
 20
110.687653
 11
-222.494797
 21
106.687660
  0
LINE
  8
0
 10
-225.044800
 20
110.687653
 11
-222.494797
 21
110.687653
  0
LINE
  8
0
 10
-225.044800
 20
99.687660
 11
-222.494797
 21
99.687660
  0
LINE
  8
0
 10
-222.494797
 20
99.687653
 11
-220.744797
 21
97.937653
  0
LINE
  8
0
 10
-222.494797
 20
110.687653
 11
-220.744797
 21
112.437653
  0
LINE
  8
0
 10
-220.744797
 20
97.937660
 11
-209.944794
 21
97.937660
  0
LINE
  8
0
 10
-240.822800
 20
122.417656
 11
-224.666794
 21
122.417656
  0
LINE
  8
0
 10
-224.666794
 20
122.417656
 11
-224.666794
 21
112.917656
  0
LINE
  8
0
 10
-240.822800
 20
122.417656
 11
-240.822800
 21
112.917656
  0
LINE
  8
0
 10
-236.744797
 20
122.417656
 11
-236.744797
 21
112.917656
  0
LINE
  8
0
 10
-228.744797
 20
122.417656
 11
-228.744797
 21
112.917656
  0
LINE
  8
0
  6
DASHED
 10
-237.344788
 20
114.417656
 11
-228.144806
 21
114.417656
  0
LINE
  8
0
  6
DASHED
 10
-237.594788
 20
122.417648
 11
-237.344788
 21
114.417648
  0
LINE
  8
0
  6
DASHED
 10
-227.894791
 20
122.417656
 11
-228.141418
 21
114.525810
  0
LINE
  8
0
  6
DASHED
 10
-236.994507
 20
122.417656
 11
-236.745087
 21
114.436394
  0
LINE
  8
0
  6
DASHED
 10
-228.495087
 20
122.417656
 11
-228.741119
 21
114.544548
  0
LINE
  8
0
  6
CENTER
 10
-241.127838
 20
93.887657
 11
-224.955795
 21
93.887657
  0
LINE
  8
0
 10
-238.344788
 20
97.917656
 11
-227.144806
 21
97.917656
  0
LINE
  8
0
 10
-238.344788
 20
98.917656
 11
-238.344788
 21
97.917656
  0
LINE
  8
0
 10
-227.144806
 20
98.917656
 11
-227.144806
 21
97.917656
  0
LINE
  8
0
 10
-237.444794
 20
89.917656
 11
-228.044800
 21
89.917656
  0
LINE
  8
0
 10
-237.744797
 20
97.917656
 11
-237.444794
 21
89.917656
  0
LINE
  8
0
 10
-227.744797
 20
97.917656
 11
-228.044800
 21
89.917656
  0
LINE
  8
0
 10
-237.145218
 20
97.940140
 11
-236.845215
 21
89.940140
  0
LINE
  8
0
 10
-228.344376
 20
97.940140
 11
-228.644379
 21
89.940140
  0
LINE
  8
0
 10
-208.944794
 20
112.087662
 11
-206.944794
 21
112.087662
  0
LINE
  8
0
 10
-208.944794
 20
98.287659
 11
-206.944794
 21
98.287659
  0
LINE
  8
0
 10
-209.944794
 20
110.087662
 11
-208.944794
 21
110.087662
  0
LINE
  8
0
 10
-209.944794
 20
112.437653
 11
-209.944794
 21
97.937660
  0
LINE
  8
0
 10
-206.944794
 20
112.087662
 11
-206.944794
 21
98.287659
  0
LINE
  8
0
 10
-208.944794
 20
112.087662
 11
-208.944794
 21
98.287659
  0
LINE
  8
0
 10
-209.944794
 20
100.287659
 11
-208.944794
 21
100.287659
  0
LINE
  8
0
 10
-225.044800
 20
103.687660
 11
-220.694794
 21
103.687660
  0
LINE
  8
0
 10
-225.044800
 20
106.687660
 11
-220.744797
 21
106.687660
  0
POINT
  8
0
 10
-141.395920
 20
93.887657
  0
POINT
  8
0
 10
-146.244797
 20
93.887657
  0
POINT
  8
0
 10
-146.244797
 20
105.187660
  0
LINE
  8
0
  6
CENTER
 10
-164.531998
 20
105.187660
 11
-128.885880
 21
105.187660
  0
LINE
  8
0
 10
-151.844803
 20
97.917656
 11
-140.644791
 21
97.917656
  0
LINE
  8
0
 10
-151.844803
 20
98.917656
 11
-151.844803
 21
97.917656
  0
LINE
  8
0
 10
-140.644791
 20
98.917656
 11
-140.644791
 21
97.917656
  0
LINE
  8
0
 10
-150.944794
 20
89.917656
 11
-141.544800
 21
89.917656
  0
LINE
  8
0
 10
-151.244797
 20
97.917648
 11
-150.944794
 21
89.917648
  0
LINE
  8
0
 10
-141.244781
 20
97.917656
 11
-141.544785
 21
89.917656
  0
LINE
  8
0
 10
-150.645218
 20
97.940140
 11
-150.345215
 21
89.940140
  0
LINE
  8
0
 10
-141.844360
 20
97.940140
 11
-142.144363
 21
89.940140
  0
LINE
  8
0
  6
CENTER
 10
-154.627838
 20
93.887657
 11
-138.455795
 21
93.887657
  0
LINE
  8
0
 10
-153.494797
 20
98.917656
 11
-149.884796
 21
98.917656
  0
LINE
  8
0
 10
-138.544800
 20
112.138245
 11
-138.544800
 21
99.697067
  0
LINE
  8
0
 10
-153.944794
 20
112.138245
 11
-153.944794
 21
99.697067
  0
LINE
  8
0
 10
-153.944794
 20
112.138252
 11
-153.494797
 21
112.917656
  0
LINE
  8
0
 10
-138.994797
 20
98.917656
 11
-138.544800
 21
99.697075
  0
LINE
  8
0
 10
-138.994797
 20
112.917664
 11
-138.544800
 21
112.138245
  0
LINE
  8
0
 10
-153.944794
 20
99.697067
 11
-153.494797
 21
98.917656
  0
LINE
  8
0
 10
-153.944794
 20
99.697037
 11
-150.979309
 21
99.697037
  0
LINE
  8
0
 10
-153.944794
 20
112.138245
 11
-148.306793
 21
112.138245
  0
LINE
  8
0
 10
-153.494797
 20
112.917656
 11
-138.994797
 21
112.917656
  0
LINE
  8
0
 10
-144.182800
 20
112.138245
 11
-138.544800
 21
112.138245
  0
LINE
  8
0
 10
-141.510284
 20
99.697037
 11
-138.544800
 21
99.697037
  0
LINE
  8
0
 10
-153.244797
 20
122.417656
 11
-139.244797
 21
122.417656
  0
LINE
  8
0
 10
-139.244797
 20
122.417656
 11
-139.244797
 21
112.917656
  0
LINE
  8
0
 10
-153.244797
 20
122.417656
 11
-153.244797
 21
112.917656
  0
LINE
  8
0
  6
CENTER
 10
-146.244797
 20
125.453049
 11
-146.244797
 21
82.376930
  0
LINE
  8
0
 10
-146.244797
 20
122.417656
 11
-146.244797
 21
112.917656
  0
LINE
  8
0
 10
-142.604797
 20
98.917656
 11
-138.994797
 21
98.917656
  0
CIRCLE
  8
0
 10
-146.244797
 20
105.187660
 40
6.900000
  0
CIRCLE
  8
0
 10
-146.244797
 20
105.187660
 40
7.250000
  0
CIRCLE
  8
0
 10
-146.244797
 20
105.187660
 40
4.100000
  0
POINT
  8
0
 10
-232.744797
 20
156.167664
  0
POINT
  8
0
 10
-206.944794
 20
156.167664
  0
LINE
  8
0
  6
CENTER
 10
-232.744797
 20
171.698212
 11
-232.744797
 21
143.667664
  0
LINE
  8
0
  6
CENTER
 10
-247.059814
 20
156.167664
 11
-200.112183
 21
156.167664
  0
LINE
  8
0
 10
-209.944794
 20
163.417664
 11
-209.944794
 21
148.917664
  0
LINE
  8
0
 10
-206.944794
 20
163.067657
 11
-206.944794
 21
149.267670
  0
LINE
  8
0
 10
-208.944794
 20
163.067657
 11
-208.944794
 21
149.267670
  0
LINE
  8
0
 10
-209.944794
 20
151.267670
 11
-208.944794
 21
151.267670
  0
LINE
  8
0
 10
-209.944794
 20
161.067657
 11
-208.944794
 21
161.067657
  0
LINE
  8
0
 10
-208.944794
 20
149.267670
 11
-206.944794
 21
149.267670
  0
LINE
  8
0
 10
-208.944794
 20
163.067657
 11
-206.944794
 21
163.067657
  0
LINE
  8
0
 10
-236.786255
 20
163.167664
 11
-228.703339
 21
163.167664
  0
LINE
  8
0
 10
-236.786255
 20
149.167664
 11
-228.703339
 21
149.167664
  0
LINE
  8
0
 10
-240.827698
 20
156.167664
 11
-236.786255
 21
149.167664
  0
LINE
  8
0
 10
-228.703354
 20
163.167664
 11
-224.661896
 21
156.167664
  0
LINE
  8
0
 10
-240.827698
 20
156.167664
 11
-236.786255
 21
163.167664
  0
LINE
  8
0
 10
-228.703339
 20
149.167664
 11
-224.661896
 21
156.167664
  0
LINE
  8
0
 10
-230.151062
 20
163.417664
 11
-209.944794
 21
163.417664
  0
LINE
  8
0
 10
-230.151062
 20
148.917664
 11
-209.944794
 21
148.917664
  0
LINE
  8
0
 10
-220.744797
 20
163.417664
 11
-220.744797
 21
148.917664
  0
LINE
  8
0
 10
-222.494797
 20
161.667664
 11
-222.494797
 21
150.667664
  0
LINE
  8
0
 10
-227.355927
 20
161.667664
 11
-222.494797
 21
161.667664
  0
LINE
  8
0
 10
-227.355927
 20
150.667664
 11
-222.494797
 21
150.667664
  0
LINE
  8
0
 10
-222.494812
 20
150.667648
 11
-220.744797
 21
148.917648
  0
LINE
  8
0
 10
-222.494797
 20
161.667664
 11
-220.744797
 21
163.417664
  0
ARC
  8
0
 10
-232.744797
 20
156.167664
 40
7.699998
 50
185.380081
 51
234.619904
  0
ARC
  8
0
 10
-232.744797
 20
156.167664
 40
7.699996
 50
305.380096
 51
354.620026
  0
CIRCLE
  8
0
 10
-232.744797
 20
156.167664
 40
4.850000
  0
CIRCLE
  8
0
 10
-232.744797
 20
156.167664
 40
4.250000
  0
ARC
  8
0
 10
-232.744797
 20
156.167664
 40
7.699997
 50
5.379974
 51
54.620060
  0
ARC
  8
0
 10
-232.744797
 20
156.167664
 40
7.700003
 50
245.379974
 51
294.620026
  0
ARC
  8
0
 10
-232.744797
 20
156.167664
 40
7.699996
 50
125.380096
 51
174.620026
  0
ARC
  8
0
 10
-232.744797
 20
156.167664
 40
7.700003
 50
65.379982
 51
114.620018
  0
POINT
  8
0
 10
-41.804047
 20
93.887650
  0
POINT
  8
0
 10
-48.367950
 20
93.887650
  0
LINE
  8
0
 10
-35.867950
 20
104.887650
 11
-35.867950
 21
99.137650
  0
LINE
  8
0
 10
-37.867950
 20
104.887650
 11
-37.867950
 21
100.887650
  0
LINE
  8
0
  6
DASHED
 10
-54.279327
 20
115.377647
 11
-42.571716
 21
115.377647
  0
LINE
  8
0
  6
DASHED
 10
-54.917927
 20
126.377640
 11
-54.282383
 21
115.430740
  0
LINE
  8
0
  6
DASHED
 10
-41.817932
 20
126.377640
 11
-42.574432
 21
115.337814
  0
LINE
  8
0
  6
DASHED
 10
-54.116558
 20
126.377640
 11
-53.483707
 21
115.477097
  0
LINE
  8
0
  6
DASHED
 10
-42.619804
 20
126.377640
 11
-43.372559
 21
115.392517
  0
LINE
  8
0
  6
CENTER
 10
-68.511719
 20
106.387650
 11
-14.299911
 21
106.387650
  0
LINE
  8
0
  6
CENTER
 10
-48.367950
 20
130.977646
 11
-48.367950
 21
81.819954
  0
LINE
  8
0
 10
-57.117950
 20
99.877640
 11
-39.617950
 21
99.877640
  0
LINE
  8
0
 10
-57.767952
 20
114.877640
 11
-38.967949
 21
114.877640
  0
LINE
  8
0
 10
-38.567947
 20
113.058990
 11
-38.567947
 21
101.696304
  0
LINE
  8
0
 10
-58.167953
 20
113.058975
 11
-58.167953
 21
101.696289
  0
LINE
  8
0
 10
-58.167965
 20
113.058990
 11
-57.117962
 21
114.877647
  0
LINE
  8
0
 10
-39.617962
 20
99.877647
 11
-38.567959
 21
101.696304
  0
LINE
  8
0
 10
-58.167961
 20
101.696289
 11
-57.117958
 21
99.877640
  0
LINE
  8
0
 10
-39.617947
 20
114.877640
 11
-38.567947
 21
113.058990
  0
LINE
  8
0
 10
-58.167953
 20
113.059067
 11
-38.567947
 21
113.059067
  0
LINE
  8
0
 10
-38.567947
 20
101.696411
 11
-58.167953
 21
101.696411
  0
LINE
  8
0
 10
-35.867950
 20
99.137650
 11
-23.567949
 21
99.137650
  0
LINE
  8
0
 10
-35.867950
 20
113.637650
 11
-23.567949
 21
113.637650
  0
LINE
  8
0
 10
-35.867950
 20
113.637650
 11
-35.867950
 21
107.887650
  0
LINE
  8
0
 10
-37.867950
 20
111.887650
 11
-37.867950
 21
107.887650
  0
LINE
  8
0
 10
-38.567947
 20
111.887650
 11
-37.867950
 21
111.887650
  0
LINE
  8
0
 10
-39.034836
 20
100.887650
 11
-37.867950
 21
100.887650
  0
LINE
  8
0
 10
-37.867954
 20
100.887657
 11
-35.867950
 21
99.137657
  0
LINE
  8
0
 10
-37.867950
 20
111.887657
 11
-35.867950
 21
113.637657
  0
LINE
  8
0
 10
-57.767952
 20
126.377640
 11
-38.967949
 21
126.377640
  0
LINE
  8
0
 10
-43.467957
 20
126.377640
 11
-43.467957
 21
114.877640
  0
LINE
  8
0
 10
-53.267944
 20
126.377640
 11
-53.267944
 21
114.877640
  0
LINE
  8
0
  6
CENTER
 10
-59.207184
 20
93.887650
 11
-39.043472
 21
93.887650
  0
LINE
  8
0
 10
-54.767944
 20
87.877647
 11
-41.967957
 21
87.877647
  0
LINE
  8
0
 10
-55.067944
 20
98.877640
 11
-54.767941
 21
87.877640
  0
LINE
  8
0
 10
-41.667950
 20
98.877640
 11
-41.967953
 21
87.877640
  0
LINE
  8
0
 10
-54.268230
 20
98.899467
 11
-53.968227
 21
87.899467
  0
LINE
  8
0
 10
-42.467663
 20
98.899460
 11
-42.767666
 21
87.899460
  0
LINE
  8
0
 10
-55.767944
 20
99.877640
 11
-55.767944
 21
98.877640
  0
LINE
  8
0
 10
-55.767944
 20
98.877640
 11
-40.967957
 21
98.877640
  0
LINE
  8
0
 10
-40.967957
 20
99.877640
 11
-40.967957
 21
98.877640
  0
LINE
  8
0
 10
-22.567949
 20
99.487648
 11
-20.567949
 21
99.487648
  0
LINE
  8
0
 10
-23.567949
 20
111.287651
 11
-22.567949
 21
111.287651
  0
LINE
  8
0
 10
-22.567949
 20
113.287651
 11
-20.567949
 21
113.287651
  0
LINE
  8
0
 10
-23.567949
 20
113.637650
 11
-23.567949
 21
99.137650
  0
LINE
  8
0
 10
-20.567949
 20
113.287651
 11
-20.567949
 21
99.487648
  0
LINE
  8
0
 10
-22.567949
 20
113.287651
 11
-22.567949
 21
99.487648
  0
LINE
  8
0
 10
-23.567949
 20
101.487648
 11
-22.567949
 21
101.487648
  0
LINE
  8
0
 10
-38.567947
 20
107.887650
 11
-35.867950
 21
107.887650
  0
LINE
  8
0
 10
-38.567947
 20
104.887650
 11
-35.867950
 21
104.887650
  0
LINE
  8
0
 10
-57.767952
 20
126.377640
 11
-57.767952
 21
114.877640
  0
LINE
  8
0
 10
-38.967949
 20
126.377640
 11
-38.967949
 21
114.877640
  0
POINT
  8
0
 10
50.695953
 20
93.887650
  0
POINT
  8
0
 10
44.132050
 20
93.887650
  0
POINT
  8
0
 10
44.132050
 20
106.387650
  0
LINE
  8
0
  6
CENTER
 10
33.292816
 20
93.887650
 11
53.456528
 21
93.887650
  0
LINE
  8
0
 10
37.732056
 20
87.877647
 11
50.532043
 21
87.877647
  0
LINE
  8
0
 10
37.432053
 20
98.877640
 11
37.732056
 21
87.877640
  0
LINE
  8
0
 10
50.832050
 20
98.877640
 11
50.532047
 21
87.877640
  0
LINE
  8
0
 10
38.231766
 20
98.899467
 11
38.531769
 21
87.899467
  0
LINE
  8
0
 10
50.032337
 20
98.899452
 11
49.732334
 21
87.899452
  0
LINE
  8
0
  6
CENTER
 10
24.173933
 20
106.387650
 11
63.904510
 21
106.387650
  0
LINE
  8
0
 10
36.732056
 20
98.877640
 11
51.532043
 21
98.877640
  0
LINE
  8
0
 10
51.532043
 20
99.877640
 11
51.532043
 21
98.877640
  0
LINE
  8
0
 10
36.732056
 20
99.877640
 11
36.732056
 21
98.877640
  0
LINE
  8
0
 10
35.382050
 20
114.877640
 11
52.882050
 21
114.877640
  0
LINE
  8
0
 10
35.382053
 20
99.877640
 11
40.941082
 21
99.877640
  0
LINE
  8
0
 10
53.932049
 20
113.058990
 11
53.932049
 21
101.696289
  0
LINE
  8
0
 10
34.332050
 20
113.058990
 11
34.332050
 21
101.696297
  0
LINE
  8
0
 10
34.332054
 20
113.058998
 11
35.382053
 21
114.877647
  0
LINE
  8
0
 10
52.882053
 20
99.877640
 11
53.932049
 21
101.696281
  0
LINE
  8
0
 10
34.332047
 20
101.696297
 11
35.382050
 21
99.877640
  0
LINE
  8
0
 10
52.882050
 20
114.877640
 11
53.932049
 21
113.058990
  0
LINE
  8
0
 10
34.332050
 20
113.058990
 11
41.293793
 21
113.058990
  0
LINE
  8
0
 10
34.332050
 20
101.696281
 11
38.604523
 21
101.696281
  0
LINE
  8
0
 10
46.970306
 20
113.058990
 11
53.932049
 21
113.058990
  0
LINE
  8
0
 10
49.659576
 20
101.696281
 11
53.932049
 21
101.696281
  0
LINE
  8
0
 10
35.632050
 20
126.377640
 11
52.632050
 21
126.377640
  0
LINE
  8
0
 10
35.632050
 20
126.377640
 11
35.632050
 21
114.877640
  0
LINE
  8
0
 10
52.632050
 20
126.377640
 11
52.632050
 21
114.877640
  0
LINE
  8
0
  6
CENTER
 10
44.132050
 20
133.456482
 11
44.132050
 21
81.448639
  0
LINE
  8
0
 10
44.132050
 20
126.377640
 11
44.132050
 21
114.877640
  0
LINE
  8
0
 10
47.323017
 20
99.877640
 11
52.882050
 21
99.877640
  0
CIRCLE
  8
0
 10
44.132050
 20
106.387650
 40
6.900000
  0
CIRCLE
  8
0
 10
44.132050
 20
106.387650
 40
7.250000
  0
CIRCLE
  8
0
 10
44.132050
 20
106.387650
 40
4.100000
  0
POINT
  8
0
 10
-48.367950
 20
161.577637
  0
POINT
  8
0
 10
-20.567949
 20
161.577637
  0
LINE
  8
0
  6
CENTER
 10
-68.522949
 20
161.577637
 11
-7.630775
 21
161.577637
  0
LINE
  8
0
  6
CENTER
 10
-48.367950
 20
179.977631
 11
-48.367950
 21
143.177643
  0
LINE
  8
0
 10
-23.567949
 20
168.827637
 11
-23.567949
 21
154.327637
  0
LINE
  8
0
 10
-20.567949
 20
168.477631
 11
-20.567949
 21
154.677628
  0
LINE
  8
0
 10
-22.567949
 20
168.477631
 11
-22.567949
 21
154.677628
  0
LINE
  8
0
 10
-23.567949
 20
156.677628
 11
-22.567949
 21
156.677628
  0
LINE
  8
0
 10
-23.567949
 20
166.477631
 11
-22.567949
 21
166.477631
  0
LINE
  8
0
 10
-22.567949
 20
154.677628
 11
-20.567949
 21
154.677628
  0
LINE
  8
0
 10
-22.567949
 20
168.477631
 11
-20.567949
 21
168.477631
  0
LINE
  8
0
 10
-53.275436
 20
170.077637
 11
-43.460464
 21
170.077637
  0
LINE
  8
0
 10
-53.275421
 20
153.077637
 11
-43.460480
 21
153.077637
  0
LINE
  8
0
 10
-58.182907
 20
161.577637
 11
-53.275425
 21
153.077637
  0
LINE
  8
0
 10
-43.460484
 20
170.077637
 11
-38.553005
 21
161.577637
  0
LINE
  8
0
 10
-58.182915
 20
161.577637
 11
-53.275433
 21
170.077637
  0
LINE
  8
0
 10
-43.460484
 20
153.077637
 11
-38.553005
 21
161.577637
  0
LINE
  8
0
 10
-41.774200
 20
154.327637
 11
-23.567949
 21
154.327637
  0
LINE
  8
0
 10
-41.774200
 20
168.827637
 11
-23.567949
 21
168.827637
  0
LINE
  8
0
 10
-35.867950
 20
168.827637
 11
-35.867950
 21
154.327637
  0
LINE
  8
0
 10
-37.867950
 20
167.077637
 11
-37.867950
 21
156.077637
  0
LINE
  8
0
 10
-40.256851
 20
167.077637
 11
-37.867950
 21
167.077637
  0
LINE
  8
0
 10
-40.256851
 20
156.077637
 11
-37.867950
 21
156.077637
  0
LINE
  8
0
 10
-37.867950
 20
156.077637
 11
-35.867947
 21
154.327637
  0
LINE
  8
0
 10
-37.867954
 20
167.077637
 11
-35.867950
 21
168.827637
  0
CIRCLE
  8
0
 10
-48.367950
 20
161.577637
 40
5.700000
  0
CIRCLE
  8
0
 10
-48.367950
 20
161.577637
 40
9.800000
  0
CIRCLE
  8
0
 10
-48.367950
 20
161.577637
 40
6.550000
  0
POINT
  8
0
 10
138.632050
 20
91.727638
  0
POINT
  8
0
 10
146.963043
 20
91.727638
  0
LINE
  8
0
 10
152.132050
 20
104.227638
 11
152.132050
 21
98.977638
  0
LINE
  8
0
 10
151.132050
 20
104.227638
 11
151.132050
 21
99.977638
  0
LINE
  8
0
  6
CENTER
 10
138.632050
 20
133.875916
 11
138.632050
 21
78.177643
  0
LINE
  8
0
  6
CENTER
 10
117.782051
 20
106.227638
 11
176.784546
 21
106.227638
  0
LINE
  8
0
 10
127.882050
 20
98.377640
 11
149.382050
 21
98.377640
  0
LINE
  8
0
 10
127.382050
 20
116.377640
 11
149.882050
 21
116.377640
  0
LINE
  8
0
 10
150.832047
 20
113.866165
 11
150.832047
 21
100.889114
  0
LINE
  8
0
 10
126.432053
 20
113.866165
 11
126.432053
 21
100.889114
  0
LINE
  8
0
 10
126.432045
 20
113.866165
 11
127.882050
 21
116.377640
  0
LINE
  8
0
 10
149.382065
 20
98.377640
 11
150.832062
 21
100.889114
  0
LINE
  8
0
 10
126.432045
 20
100.889114
 11
127.882050
 21
98.377640
  0
LINE
  8
0
 10
149.382050
 20
116.377640
 11
150.832062
 21
113.866165
  0
LINE
  8
0
 10
126.432053
 20
113.866158
 11
150.832047
 21
113.866158
  0
LINE
  8
0
 10
150.832047
 20
100.889114
 11
126.432053
 21
100.889114
  0
LINE
  8
0
 10
152.132050
 20
113.477638
 11
165.432053
 21
113.477638
  0
LINE
  8
0
 10
152.132050
 20
98.977638
 11
165.432053
 21
98.977638
  0
LINE
  8
0
 10
152.132050
 20
113.477638
 11
152.132050
 21
108.227638
  0
LINE
  8
0
 10
151.132050
 20
112.477638
 11
151.132050
 21
108.227638
  0
LINE
  8
0
 10
150.305817
 20
99.977638
 11
151.132050
 21
99.977638
  0
LINE
  8
0
 10
150.832047
 20
112.477638
 11
151.132050
 21
112.477638
  0
LINE
  8
0
 10
151.132050
 20
99.977646
 11
152.132050
 21
98.977646
  0
LINE
  8
0
 10
151.132050
 20
112.477646
 11
152.132050
 21
113.477646
  0
LINE
  8
0
 10
127.382050
 20
129.877640
 11
149.882050
 21
129.877640
  0
LINE
  8
0
 10
144.632050
 20
129.877640
 11
144.632050
 21
116.377640
  0
LINE
  8
0
 10
132.632050
 20
129.877640
 11
132.632050
 21
116.377640
  0
LINE
  8
0
  6
DASHED
 10
130.707047
 20
117.877640
 11
146.557053
 21
117.877640
  0
LINE
  8
0
  6
DASHED
 10
130.332047
 20
129.877640
 11
130.707047
 21
117.877640
  0
LINE
  8
0
  6
DASHED
 10
146.932053
 20
129.877640
 11
146.557053
 21
117.877640
  0
LINE
  8
0
  6
DASHED
 10
131.131653
 20
129.902634
 11
131.506653
 21
117.902626
  0
LINE
  8
0
  6
DASHED
 10
146.132446
 20
129.902634
 11
145.757446
 21
117.902634
  0
LINE
  8
0
 10
129.532043
 20
97.377640
 11
147.732056
 21
97.377640
  0
LINE
  8
0
 10
129.532043
 20
98.377640
 11
129.532043
 21
97.377640
  0
LINE
  8
0
 10
147.732056
 20
98.377640
 11
147.732056
 21
97.377640
  0
LINE
  8
0
 10
130.499481
 20
85.377640
 11
146.764618
 21
85.377640
  0
LINE
  8
0
  6
CENTER
 10
126.099380
 20
91.727638
 11
150.594070
 21
91.727638
  0
LINE
  8
0
 10
166.432053
 20
113.127640
 11
168.432053
 21
113.127640
  0
LINE
  8
0
 10
166.432053
 20
99.327637
 11
168.432053
 21
99.327637
  0
LINE
  8
0
 10
165.432053
 20
101.327637
 11
166.432053
 21
101.327637
  0
LINE
  8
0
 10
165.432053
 20
113.477638
 11
165.432053
 21
98.977638
  0
LINE
  8
0
 10
168.432053
 20
113.127640
 11
168.432053
 21
99.327637
  0
LINE
  8
0
 10
166.432053
 20
113.127640
 11
166.432053
 21
99.327637
  0
LINE
  8
0
 10
165.432053
 20
111.127640
 11
166.432053
 21
111.127640
  0
LINE
  8
0
 10
150.832047
 20
108.227638
 11
152.132050
 21
108.227638
  0
LINE
  8
0
 10
150.832047
 20
104.227638
 11
152.132050
 21
104.227638
  0
LINE
  8
0
 10
146.764618
 20
85.377640
 11
147.139618
 21
97.377640
  0
LINE
  8
0
 10
145.909454
 20
85.404366
 11
146.283615
 21
97.377640
  0
LINE
  8
0
 10
131.354660
 20
85.404366
 11
130.980484
 21
97.377640
  0
LINE
  8
0
 10
130.499481
 20
85.377640
 11
130.124481
 21
97.377640
  0
LINE
  8
0
 10
149.882050
 20
129.877640
 11
149.882050
 21
116.377640
  0
LINE
  8
0
 10
127.382050
 20
129.877640
 11
127.382050
 21
116.377640
  0
POINT
  8
0
 10
232.209778
 20
91.727638
  0
POINT
  8
0
 10
240.540787
 20
91.727638
  0
LINE
  8
0
  6
CENTER
 10
199.259766
 20
106.227638
 11
272.859772
 21
106.227638
  0
LINE
  8
0
 10
223.109772
 20
97.377640
 11
241.309784
 21
97.377640
  0
LINE
  8
0
 10
223.109772
 20
98.377640
 11
223.109772
 21
97.377640
  0
LINE
  8
0
 10
241.309784
 20
98.377640
 11
241.309784
 21
97.377640
  0
LINE
  8
0
 10
224.109772
 20
85.377640
 11
240.309784
 21
85.377640
  0
LINE
  8
0
  6
CENTER
 10
219.677109
 20
91.727638
 11
244.171799
 21
91.727638
  0
LINE
  8
0
 10
221.459778
 20
98.377640
 11
242.959778
 21
98.377640
  0
LINE
  8
0
 10
221.459778
 20
116.377640
 11
242.959778
 21
116.377640
  0
LINE
  8
0
 10
220.009781
 20
113.866165
 11
220.009781
 21
100.889107
  0
LINE
  8
0
 10
244.409775
 20
113.866165
 11
244.409775
 21
100.889091
  0
LINE
  8
0
 10
220.009796
 20
100.889107
 11
221.459793
 21
98.377640
  0
LINE
  8
0
 10
242.959793
 20
116.377640
 11
244.409790
 21
113.866173
  0
LINE
  8
0
 10
220.009781
 20
113.866165
 11
221.459778
 21
116.377640
  0
LINE
  8
0
 10
242.959793
 20
98.377640
 11
244.409775
 21
100.889091
  0
LINE
  8
0
 10
220.009781
 20
113.866165
 11
244.409775
 21
113.866165
  0
LINE
  8
0
 10
220.009781
 20
100.889183
 11
227.304337
 21
100.889183
  0
LINE
  8
0
 10
237.115219
 20
100.889183
 11
244.409775
 21
100.889183
  0
LINE
  8
0
 10
221.709778
 20
129.877640
 11
242.709778
 21
129.877640
  0
LINE
  8
0
 10
242.709778
 20
129.877640
 11
242.709778
 21
116.377640
  0
LINE
  8
0
 10
221.709778
 20
129.877640
 11
221.709778
 21
116.377640
  0
LINE
  8
0
  6
CENTER
 10
232.209778
 20
137.795090
 11
232.209778
 21
75.377640
  0
LINE
  8
0
 10
232.209778
 20
129.877640
 11
232.209778
 21
116.377640
  0
LINE
  8
0
 10
240.342346
 20
85.377640
 11
240.717346
 21
97.377640
  0
LINE
  8
0
 10
239.487183
 20
85.404366
 11
239.861343
 21
97.377640
  0
LINE
  8
0
 10
224.932404
 20
85.404366
 11
224.558228
 21
97.377640
  0
LINE
  8
0
 10
224.077240
 20
85.377640
 11
223.702240
 21
97.377640
  0
CIRCLE
  8
0
 10
232.209778
 20
106.227638
 40
6.900000
  0
CIRCLE
  8
0
 10
232.209778
 20
106.227638
 40
7.250000
  0
CIRCLE
  8
0
 10
232.209778
 20
106.227638
 40
4.100000
  0
POINT
  8
0
 10
138.632050
 20
161.577637
  0
POINT
  8
0
 10
168.432053
 20
161.577637
  0
LINE
  8
0
  6
CENTER
 10
138.632050
 20
180.777634
 11
138.632050
 21
143.177643
  0
LINE
  8
0
  6
CENTER
 10
118.782051
 20
161.577637
 11
177.774384
 21
161.577637
  0
LINE
  8
0
 10
165.432053
 20
168.827637
 11
165.432053
 21
154.327637
  0
LINE
  8
0
 10
168.432053
 20
168.477631
 11
168.432053
 21
154.677628
  0
LINE
  8
0
 10
166.432053
 20
168.477631
 11
166.432053
 21
154.677628
  0
LINE
  8
0
 10
165.432053
 20
166.477631
 11
166.432053
 21
166.477631
  0
LINE
  8
0
 10
165.432053
 20
156.677628
 11
166.432053
 21
156.677628
  0
LINE
  8
0
 10
166.432053
 20
168.477631
 11
168.432053
 21
168.477631
  0
LINE
  8
0
 10
166.432053
 20
154.677628
 11
168.432053
 21
154.677628
  0
LINE
  8
0
 10
132.569870
 20
172.077637
 11
144.694229
 21
172.077637
  0
LINE
  8
0
 10
132.569870
 20
151.077637
 11
144.694229
 21
151.077637
  0
LINE
  8
0
 10
126.507690
 20
161.577637
 11
132.569870
 21
172.077637
  0
LINE
  8
0
 10
144.694229
 20
151.077637
 11
150.756409
 21
161.577637
  0
LINE
  8
0
 10
126.507698
 20
161.577637
 11
132.569870
 21
151.077637
  0
LINE
  8
0
 10
144.694229
 20
172.077637
 11
150.756409
 21
161.577637
  0
LINE
  8
0
 10
148.444153
 20
168.827637
 11
165.432053
 21
168.827637
  0
LINE
  8
0
 10
148.444153
 20
154.327637
 11
165.432053
 21
154.327637
  0
LINE
  8
0
 10
152.132050
 20
168.827637
 11
152.132050
 21
154.327637
  0
LINE
  8
0
 10
151.132050
 20
167.827637
 11
151.132050
 21
155.327637
  0
LINE
  8
0
 10
149.109528
 20
167.827637
 11
151.132050
 21
167.827637
  0
LINE
  8
0
 10
149.109528
 20
155.327637
 11
151.132050
 21
155.327637
  0
LINE
  8
0
 10
151.132050
 20
155.327637
 11
152.132050
 21
154.327637
  0
LINE
  8
0
 10
151.132050
 20
167.827637
 11
152.132050
 21
168.827637
  0
CIRCLE
  8
0
 10
138.632050
 20
161.577637
 40
7.450000
  0
CIRCLE
  8
0
 10
138.632050
 20
161.577637
 40
12.200000
  0
CIRCLE
  8
0
 10
138.632050
 20
161.577637
 40
8.300000
  0
POINT
  8
0
 10
-188.886536
 20
-37.220268
  0
POINT
  8
0
 10
-195.450439
 20
-37.220268
  0
LINE
  8
0
 10
-180.950439
 20
-25.220268
 11
-180.950439
 21
-32.220268
  0
LINE
  8
0
 10
-168.450439
 20
-29.220268
 11
-167.250427
 21
-29.220268
  0
LINE
  8
0
  6
CENTER
 10
-218.379059
 20
-23.220268
 11
-155.441376
 21
-23.220268
  0
LINE
  8
0
  6
CENTER
 10
-195.450439
 20
2.569733
 11
-195.450439
 21
-55.430267
  0
LINE
  8
0
 10
-205.259445
 20
-16.230270
 11
-185.641434
 21
-16.230270
  0
LINE
  8
0
 10
-204.200439
 20
-31.230270
 11
-186.700439
 21
-31.230270
  0
LINE
  8
0
 10
-205.250443
 20
-18.048935
 11
-205.250443
 21
-29.411606
  0
LINE
  8
0
 10
-185.650436
 20
-18.048927
 11
-185.650436
 21
-29.411610
  0
LINE
  8
0
 10
-205.250443
 20
-18.048935
 11
-204.200439
 21
-16.230272
  0
LINE
  8
0
 10
-186.700470
 20
-31.230265
 11
-185.650467
 21
-29.411606
  0
LINE
  8
0
 10
-205.250443
 20
-29.411617
 11
-204.200439
 21
-31.230276
  0
LINE
  8
0
 10
-186.700439
 20
-16.230263
 11
-185.650436
 21
-18.048922
  0
LINE
  8
0
 10
-205.250443
 20
-18.048874
 11
-185.650436
 21
-18.048874
  0
LINE
  8
0
 10
-205.250443
 20
-29.411636
 11
-185.650436
 21
-29.411636
  0
LINE
  8
0
 10
-180.950439
 20
-32.220268
 11
-168.450439
 21
-32.220268
  0
LINE
  8
0
 10
-180.950439
 20
-14.220272
 11
-168.450439
 21
-14.220272
  0
LINE
  8
0
 10
-180.950439
 20
-14.220272
 11
-180.950439
 21
-21.220272
  0
LINE
  8
0
 10
-185.650436
 20
-29.470268
 11
-183.700439
 21
-29.470268
  0
LINE
  8
0
 10
-183.700424
 20
-29.470276
 11
-180.950439
 21
-32.220272
  0
LINE
  8
0
 10
-185.650436
 20
-25.220268
 11
-180.950439
 21
-25.220268
  0
LINE
  8
0
 10
-185.650436
 20
-21.220272
 11
-180.950439
 21
-21.220272
  0
LINE
  8
0
 10
-183.700439
 20
-25.220268
 11
-183.700439
 21
-29.470268
  0
LINE
  8
0
 10
-205.259445
 20
-4.730270
 11
-185.641434
 21
-4.730270
  0
LINE
  8
0
 10
-185.641434
 20
-4.730270
 11
-185.641434
 21
-16.230270
  0
LINE
  8
0
 10
-205.259445
 20
-4.730270
 11
-205.259445
 21
-16.230270
  0
LINE
  8
0
 10
-200.350433
 20
-4.730270
 11
-200.350433
 21
-16.230270
  0
LINE
  8
0
 10
-190.550446
 20
-4.730270
 11
-190.550446
 21
-16.230270
  0
LINE
  8
0
  6
DASHED
 10
-202.000427
 20
-4.730267
 11
-201.656677
 21
-15.730267
  0
LINE
  8
0
  6
DASHED
 10
-188.900436
 20
-4.730274
 11
-189.244186
 21
-15.730274
  0
LINE
  8
0
  6
DASHED
 10
-201.656693
 20
-15.730270
 11
-189.244186
 21
-15.730270
  0
LINE
  8
0
  6
DASHED
 10
-201.200821
 20
-4.705276
 11
-200.857071
 21
-15.705278
  0
LINE
  8
0
  6
DASHED
 10
-189.700043
 20
-4.705280
 11
-190.043793
 21
-15.705282
  0
LINE
  8
0
  6
CENTER
 10
-206.075043
 20
-37.220268
 11
-184.929520
 21
-37.220268
  0
LINE
  8
0
 10
-202.850433
 20
-32.230270
 11
-188.050446
 21
-32.230270
  0
LINE
  8
0
 10
-188.050446
 20
-31.230270
 11
-188.050446
 21
-32.230270
  0
LINE
  8
0
 10
-202.850433
 20
-31.230270
 11
-202.850433
 21
-32.230270
  0
LINE
  8
0
 10
-201.850433
 20
-43.230270
 11
-189.050446
 21
-43.230270
  0
LINE
  8
0
 10
-202.150452
 20
-32.230267
 11
-201.850449
 21
-43.230267
  0
LINE
  8
0
 10
-188.750443
 20
-32.230267
 11
-189.050446
 21
-43.230267
  0
LINE
  8
0
 10
-201.350723
 20
-32.208458
 11
-201.050720
 21
-43.208458
  0
LINE
  8
0
 10
-189.550156
 20
-32.208462
 11
-189.850159
 21
-43.208458
  0
LINE
  8
0
 10
-167.250427
 20
-31.620266
 11
-165.050430
 21
-31.620266
  0
LINE
  8
0
 10
-168.450439
 20
-17.220272
 11
-167.250427
 21
-17.220272
  0
LINE
  8
0
 10
-167.250427
 20
-14.820271
 11
-165.050430
 21
-14.820271
  0
LINE
  8
0
 10
-168.450439
 20
-14.220272
 11
-168.450439
 21
-32.220268
  0
LINE
  8
0
 10
-165.050430
 20
-14.820271
 11
-165.050430
 21
-31.620266
  0
LINE
  8
0
 10
-167.250427
 20
-14.820271
 11
-167.250427
 21
-31.620266
  0
LINE
  8
0
 10
-183.700439
 20
-21.220268
 11
-183.700439
 21
-16.970268
  0
LINE
  8
0
 10
-183.700424
 20
-16.970261
 11
-180.950424
 21
-14.220263
  0
LINE
  8
0
 10
-186.273209
 20
-16.970268
 11
-183.700439
 21
-16.970268
  0
POINT
  8
0
 10
-79.686539
 20
-37.220268
  0
POINT
  8
0
 10
-86.250443
 20
-37.220268
  0
LINE
  8
0
  6
CENTER
 10
-105.465927
 20
-23.220268
 11
-69.819809
 21
-23.220268
  0
LINE
  8
0
 10
-93.650436
 20
-32.230270
 11
-78.850449
 21
-32.230270
  0
LINE
  8
0
 10
-78.850449
 20
-31.230270
 11
-78.850449
 21
-32.230270
  0
LINE
  8
0
 10
-93.650436
 20
-31.230270
 11
-93.650436
 21
-32.230270
  0
LINE
  8
0
 10
-92.650436
 20
-43.230270
 11
-79.850449
 21
-43.230270
  0
LINE
  8
0
 10
-92.950439
 20
-32.230270
 11
-92.650436
 21
-43.230270
  0
LINE
  8
0
 10
-79.550446
 20
-32.230267
 11
-79.850449
 21
-43.230267
  0
LINE
  8
0
 10
-92.150131
 20
-32.230270
 11
-91.850723
 21
-43.208458
  0
LINE
  8
0
 10
-80.350754
 20
-32.230270
 11
-80.650162
 21
-43.208458
  0
LINE
  8
0
  6
CENTER
 10
-96.875046
 20
-37.220268
 11
-75.729523
 21
-37.220268
  0
LINE
  8
0
  6
CENTER
 10
-86.250443
 20
2.198120
 11
-86.250443
 21
-54.630264
  0
LINE
  8
0
 10
-86.250443
 20
-4.730270
 11
-86.250443
 21
-14.220268
  0
LINE
  8
0
 10
-95.000443
 20
-16.230270
 11
-91.919655
 21
-16.230270
  0
LINE
  8
0
 10
-95.000443
 20
-31.230270
 11
-90.354080
 21
-31.230270
  0
LINE
  8
0
 10
-96.050446
 20
-18.048920
 11
-96.050446
 21
-29.411617
  0
LINE
  8
0
 10
-76.450439
 20
-18.048920
 11
-76.450439
 21
-29.411621
  0
LINE
  8
0
 10
-96.050446
 20
-29.411621
 11
-95.000443
 21
-31.230272
  0
LINE
  8
0
 10
-77.500443
 20
-16.230272
 11
-76.450447
 21
-18.048918
  0
LINE
  8
0
 10
-96.050446
 20
-18.048918
 11
-95.000443
 21
-16.230270
  0
LINE
  8
0
 10
-77.500443
 20
-31.230267
 11
-76.450447
 21
-29.411617
  0
LINE
  8
0
 10
-96.050446
 20
-18.048920
 11
-93.616386
 21
-18.048920
  0
LINE
  8
0
 10
-96.050446
 20
-29.411629
 11
-92.782448
 21
-29.411629
  0
LINE
  8
0
 10
-94.750443
 20
-4.730270
 11
-77.750443
 21
-4.730270
  0
LINE
  8
0
 10
-80.581230
 20
-16.230270
 11
-77.500443
 21
-16.230270
  0
LINE
  8
0
 10
-78.884499
 20
-18.048920
 11
-76.450439
 21
-18.048920
  0
LINE
  8
0
 10
-79.718437
 20
-29.411629
 11
-76.450439
 21
-29.411629
  0
LINE
  8
0
 10
-77.750443
 20
-4.730270
 11
-77.750443
 21
-16.230270
  0
LINE
  8
0
 10
-94.750443
 20
-4.730270
 11
-94.750443
 21
-16.230270
  0
LINE
  8
0
 10
-82.146805
 20
-31.230270
 11
-77.500443
 21
-31.230270
  0
CIRCLE
  8
0
 10
-86.250443
 20
-23.220268
 40
8.400000
  0
CIRCLE
  8
0
 10
-86.250443
 20
-23.220268
 40
9.000000
  0
CIRCLE
  8
0
 10
-86.250443
 20
-23.220268
 40
5.100000
  0
POINT
  8
0
 10
-195.450439
 20
35.369736
  0
POINT
  8
0
 10
-165.050430
 20
35.369736
  0
LINE
  8
0
  6
CENTER
 10
-213.180664
 20
35.369736
 11
-155.998352
 21
35.369736
  0
LINE
  8
0
  6
CENTER
 10
-195.450439
 20
55.369736
 11
-195.450439
 21
15.769730
  0
LINE
  8
0
 10
-168.450439
 20
44.369736
 11
-168.450439
 21
26.369736
  0
LINE
  8
0
 10
-165.050430
 20
43.769730
 11
-165.050430
 21
26.969742
  0
LINE
  8
0
 10
-167.250427
 20
43.769730
 11
-167.250427
 21
26.969742
  0
LINE
  8
0
 10
-168.450439
 20
29.369736
 11
-167.250427
 21
29.369736
  0
LINE
  8
0
 10
-168.450439
 20
41.369736
 11
-167.250427
 21
41.369736
  0
LINE
  8
0
 10
-167.250427
 20
26.969742
 11
-165.050430
 21
26.969742
  0
LINE
  8
0
 10
-167.250427
 20
43.769730
 11
-165.050430
 21
43.769730
  0
LINE
  8
0
 10
-200.357925
 20
26.869736
 11
-190.542969
 21
26.869736
  0
LINE
  8
0
 10
-200.357925
 20
43.869736
 11
-190.542969
 21
43.869736
  0
LINE
  8
0
 10
-205.265396
 20
35.369747
 11
-200.357925
 21
43.869743
  0
LINE
  8
0
 10
-190.542984
 20
26.869732
 11
-185.635498
 21
35.369736
  0
LINE
  8
0
 10
-205.265396
 20
35.369728
 11
-200.357925
 21
26.869740
  0
LINE
  8
0
 10
-190.542969
 20
43.869724
 11
-185.635483
 21
35.369724
  0
LINE
  8
0
 10
-191.572296
 20
26.369736
 11
-168.450439
 21
26.369736
  0
LINE
  8
0
 10
-191.572296
 20
44.369736
 11
-168.450439
 21
44.369736
  0
LINE
  8
0
 10
-180.950439
 20
44.369736
 11
-180.950439
 21
26.369736
  0
LINE
  8
0
 10
-183.700439
 20
41.619736
 11
-183.700439
 21
29.119736
  0
LINE
  8
0
 10
-187.902100
 20
41.619736
 11
-183.700439
 21
41.619736
  0
LINE
  8
0
 10
-187.902100
 20
29.119736
 11
-183.700439
 21
29.119736
  0
LINE
  8
0
 10
-183.700439
 20
29.119736
 11
-180.950439
 21
26.369728
  0
LINE
  8
0
 10
-183.700439
 20
41.619743
 11
-180.950455
 21
44.369743
  0
CIRCLE
  8
0
 10
-195.450439
 20
35.369736
 40
5.700000
  0
CIRCLE
  8
0
 10
-195.450439
 20
35.369736
 40
9.800000
  0
CIRCLE
  8
0
 10
-195.450439
 20
35.369736
 40
6.550000
  0
POINT
  8
0
 10
80.061218
 20
-37.880264
  0
POINT
  8
0
 10
71.749557
 20
-37.880264
  0
LINE
  8
0
 10
86.749557
 20
-25.380264
 11
86.749557
 21
-32.380264
  0
LINE
  8
0
 10
64.049103
 20
-32.203609
 11
64.449097
 21
-44.203606
  0
LINE
  8
0
  6
CENTER
 10
49.377903
 20
-23.380264
 11
116.149551
 21
-23.380264
  0
LINE
  8
0
  6
CENTER
 10
71.749557
 20
4.969734
 11
71.749557
 21
-51.430267
  0
LINE
  8
0
 10
60.999557
 20
-31.230267
 11
82.499557
 21
-31.230267
  0
LINE
  8
0
 10
60.499557
 20
-13.230270
 11
82.999557
 21
-13.230270
  0
LINE
  8
0
 10
83.949554
 20
-15.741745
 11
83.949554
 21
-28.718792
  0
LINE
  8
0
 10
59.549557
 20
-15.741745
 11
59.549557
 21
-28.718792
  0
LINE
  8
0
 10
59.549557
 20
-15.741745
 11
60.999557
 21
-13.230270
  0
LINE
  8
0
 10
82.499557
 20
-31.230270
 11
83.949554
 21
-28.718796
  0
LINE
  8
0
 10
59.549561
 20
-28.718788
 11
60.999565
 21
-31.230263
  0
LINE
  8
0
 10
82.499565
 20
-13.230270
 11
83.949570
 21
-15.741745
  0
LINE
  8
0
 10
59.549557
 20
-15.741745
 11
83.949554
 21
-15.741745
  0
LINE
  8
0
 10
59.549557
 20
-28.718792
 11
83.949554
 21
-28.718792
  0
LINE
  8
0
 10
86.749565
 20
-14.380268
 11
100.749565
 21
-14.380268
  0
LINE
  8
0
 10
86.749557
 20
-32.380264
 11
100.749565
 21
-32.380264
  0
LINE
  8
0
 10
86.749557
 20
-14.380268
 11
86.749557
 21
-21.380268
  0
LINE
  8
0
 10
84.249557
 20
-17.130268
 11
84.249557
 21
-21.380268
  0
LINE
  8
0
 10
83.423317
 20
-29.630264
 11
84.249557
 21
-29.630264
  0
LINE
  8
0
 10
83.949554
 20
-17.130268
 11
84.249557
 21
-17.130268
  0
LINE
  8
0
 10
84.249557
 20
-29.630264
 11
86.749557
 21
-32.380264
  0
LINE
  8
0
 10
84.249565
 20
-17.130268
 11
86.749565
 21
-14.380268
  0
LINE
  8
0
 10
83.949554
 20
-21.380268
 11
86.749557
 21
-21.380268
  0
LINE
  8
0
 10
83.949554
 20
-25.380264
 11
86.749557
 21
-25.380264
  0
LINE
  8
0
 10
84.249557
 20
-25.380264
 11
84.249557
 21
-29.630260
  0
LINE
  8
0
 10
60.499557
 20
0.269730
 11
82.999557
 21
0.269730
  0
LINE
  8
0
 10
65.749557
 20
0.269730
 11
65.749557
 21
-13.230270
  0
LINE
  8
0
 10
77.749557
 20
0.269730
 11
77.749557
 21
-13.230270
  0
LINE
  8
0
 10
62.649555
 20
-32.230267
 11
80.849564
 21
-32.230267
  0
LINE
  8
0
 10
62.649555
 20
-31.230270
 11
62.649555
 21
-32.230270
  0
LINE
  8
0
 10
80.849564
 20
-31.230270
 11
80.849564
 21
-32.230270
  0
LINE
  8
0
 10
101.949570
 20
-14.980267
 11
104.149567
 21
-14.980267
  0
LINE
  8
0
 10
101.949570
 20
-31.780262
 11
104.149567
 21
-31.780262
  0
LINE
  8
0
 10
100.749565
 20
-29.380264
 11
101.949570
 21
-29.380264
  0
LINE
  8
0
 10
100.749557
 20
-14.380268
 11
100.749557
 21
-32.380264
  0
LINE
  8
0
 10
104.149567
 20
-14.980267
 11
104.149567
 21
-31.780262
  0
LINE
  8
0
 10
101.949570
 20
-14.980267
 11
101.949570
 21
-31.780262
  0
LINE
  8
0
 10
100.749565
 20
-17.380268
 11
101.949570
 21
-17.380268
  0
LINE
  8
0
  6
DASHED
 10
63.824558
 20
-11.730270
 11
79.674545
 21
-11.730270
  0
LINE
  8
0
  6
DASHED
 10
79.249939
 20
0.294704
 11
78.874939
 21
-11.705297
  0
LINE
  8
0
  6
DASHED
 10
63.449566
 20
0.269726
 11
63.824566
 21
-11.730274
  0
LINE
  8
0
  6
DASHED
 10
80.049568
 20
0.269749
 11
79.674568
 21
-11.730251
  0
LINE
  8
0
  6
DASHED
 10
64.249161
 20
0.294716
 11
64.624161
 21
-11.705288
  0
LINE
  8
0
 10
79.450020
 20
-32.203613
 11
79.050018
 21
-44.203617
  0
LINE
  8
0
  6
CENTER
 10
60.020924
 20
-37.880264
 11
83.631531
 21
-37.880264
  0
LINE
  8
0
 10
63.649555
 20
-44.230270
 11
79.849564
 21
-44.230270
  0
LINE
  8
0
 10
63.249554
 20
-32.230267
 11
63.649551
 21
-44.230263
  0
LINE
  8
0
 10
80.249573
 20
-32.230244
 11
79.849571
 21
-44.230247
  0
LINE
  8
0
 10
82.999557
 20
0.269730
 11
82.999557
 21
-13.230270
  0
LINE
  8
0
 10
60.499557
 20
0.269730
 11
60.499557
 21
-13.230270
  0
POINT
  8
0
 10
189.061218
 20
-37.880268
  0
POINT
  8
0
 10
180.749557
 20
-37.880268
  0
POINT
  8
0
 10
180.749557
 20
-23.380268
  0
LINE
  8
0
  6
CENTER
 10
158.934875
 20
-23.380268
 11
203.678177
 21
-23.380268
  0
LINE
  8
0
 10
171.649551
 20
-32.230267
 11
179.113235
 21
-32.230267
  0
LINE
  8
0
 10
171.649551
 20
-31.230267
 11
171.649551
 21
-32.230267
  0
LINE
  8
0
 10
189.849564
 20
-31.230267
 11
189.849564
 21
-32.230267
  0
LINE
  8
0
 10
172.649551
 20
-44.230267
 11
188.849548
 21
-44.230267
  0
LINE
  8
0
 10
172.249588
 20
-32.230267
 11
172.649582
 21
-44.230267
  0
LINE
  8
0
 10
189.249588
 20
-32.230270
 11
188.849594
 21
-44.230270
  0
LINE
  8
0
 10
173.049164
 20
-32.203613
 11
173.449158
 21
-44.203613
  0
LINE
  8
0
 10
188.450027
 20
-32.203621
 11
188.050034
 21
-44.203621
  0
LINE
  8
0
  6
CENTER
 10
169.020905
 20
-37.880268
 11
192.631531
 21
-37.880268
  0
LINE
  8
0
 10
169.999557
 20
-31.230267
 11
176.347565
 21
-31.230267
  0
LINE
  8
0
 10
169.999557
 20
-13.230270
 11
191.499557
 21
-13.230270
  0
LINE
  8
0
 10
192.949554
 20
-15.741730
 11
192.949554
 21
-28.718800
  0
LINE
  8
0
 10
168.549561
 20
-15.741737
 11
168.549561
 21
-28.718803
  0
LINE
  8
0
 10
168.549561
 20
-28.718803
 11
169.999557
 21
-31.230268
  0
LINE
  8
0
 10
191.499573
 20
-13.230270
 11
192.949570
 21
-15.741732
  0
LINE
  8
0
 10
168.549561
 20
-15.741743
 11
169.999557
 21
-13.230276
  0
LINE
  8
0
 10
191.499573
 20
-31.230272
 11
192.949570
 21
-28.718803
  0
LINE
  8
0
 10
168.549561
 20
-15.741776
 11
175.989990
 21
-15.741776
  0
LINE
  8
0
 10
168.549561
 20
-28.718822
 11
173.503876
 21
-28.718822
  0
LINE
  8
0
 10
185.509125
 20
-15.741776
 11
192.949554
 21
-15.741776
  0
LINE
  8
0
 10
187.995239
 20
-28.718822
 11
192.949554
 21
-28.718822
  0
LINE
  8
0
 10
170.249557
 20
0.269730
 11
191.249557
 21
0.269730
  0
LINE
  8
0
 10
191.249557
 20
0.269730
 11
191.249557
 21
-13.230270
  0
LINE
  8
0
 10
170.249557
 20
0.269730
 11
170.249557
 21
-13.230270
  0
LINE
  8
0
  6
CENTER
 10
180.749557
 20
8.518459
 11
180.749557
 21
-53.830269
  0
LINE
  8
0
 10
180.749557
 20
0.269730
 11
180.749557
 21
-13.230270
  0
LINE
  8
0
 10
185.151550
 20
-31.230267
 11
191.499557
 21
-31.230267
  0
LINE
  8
0
 10
182.385880
 20
-32.230267
 11
189.849548
 21
-32.230267
  0
CIRCLE
  8
0
 10
180.749557
 20
-23.380268
 40
8.400000
  0
CIRCLE
  8
0
 10
180.749557
 20
-23.380268
 40
9.000000
  0
CIRCLE
  8
0
 10
180.749557
 20
-23.380268
 40
5.100000
  0
POINT
  8
0
 10
71.749557
 20
35.369736
  0
POINT
  8
0
 10
104.149567
 20
35.369736
  0
LINE
  8
0
  6
CENTER
 10
71.749557
 20
55.769730
 11
71.749557
 21
18.169731
  0
LINE
  8
0
  6
CENTER
 10
51.791443
 20
35.369736
 11
110.149551
 21
35.369736
  0
LINE
  8
0
 10
100.749565
 20
44.369736
 11
100.749565
 21
26.369736
  0
LINE
  8
0
 10
104.149567
 20
43.769730
 11
104.149567
 21
26.969742
  0
LINE
  8
0
 10
101.949570
 20
43.769730
 11
101.949570
 21
26.969742
  0
LINE
  8
0
 10
100.749565
 20
41.369736
 11
101.949570
 21
41.369736
  0
LINE
  8
0
 10
100.749565
 20
29.369736
 11
101.949570
 21
29.369736
  0
LINE
  8
0
 10
101.949570
 20
26.969742
 11
104.149567
 21
26.969742
  0
LINE
  8
0
 10
101.949570
 20
43.769730
 11
104.149567
 21
43.769730
  0
LINE
  8
0
 10
65.687378
 20
24.869736
 11
77.811737
 21
24.869736
  0
LINE
  8
0
 10
65.687378
 20
45.869736
 11
77.811737
 21
45.869736
  0
LINE
  8
0
 10
59.625206
 20
35.369743
 11
65.687378
 21
45.869740
  0
LINE
  8
0
 10
77.811737
 20
24.869741
 11
83.873909
 21
35.369740
  0
LINE
  8
0
 10
59.625210
 20
35.369743
 11
65.687386
 21
24.869747
  0
LINE
  8
0
 10
77.811745
 20
45.869747
 11
83.873932
 21
35.369743
  0
LINE
  8
0
 10
79.986061
 20
26.369736
 11
100.749565
 21
26.369736
  0
LINE
  8
0
 10
79.986061
 20
44.369736
 11
100.749565
 21
44.369736
  0
LINE
  8
0
 10
86.749557
 20
44.369736
 11
86.749557
 21
26.369736
  0
LINE
  8
0
 10
84.249557
 20
41.619736
 11
84.249557
 21
29.119736
  0
LINE
  8
0
 10
82.227036
 20
41.619736
 11
84.249557
 21
41.619736
  0
LINE
  8
0
 10
82.227036
 20
29.119736
 11
84.249557
 21
29.119736
  0
LINE
  8
0
 10
84.249565
 20
29.119736
 11
86.749557
 21
26.369738
  0
LINE
  8
0
 10
84.249557
 20
41.619732
 11
86.749565
 21
44.369736
  0
CIRCLE
  8
0
 10
71.749557
 20
35.369736
 40
7.450000
  0
CIRCLE
  8
0
 10
71.749557
 20
35.369736
 40
12.200000
  0
CIRCLE
  8
0
 10
71.749557
 20
35.369736
 40
8.300000
  0
POINT
  8
0
 10
-187.138779
 20
-165.980270
  0
POINT
  8
0
 10
-195.450439
 20
-165.980270
  0
LINE
  8
0
 10
-178.450439
 20
-151.980270
 11
-178.450439
 21
-160.480270
  0
LINE
  8
0
 10
-164.050446
 20
-142.480270
 11
-162.450439
 21
-142.480270
  0
LINE
  8
0
  6
CENTER
 10
-227.850449
 20
-149.980270
 11
-143.850433
 21
-149.980270
  0
LINE
  8
0
  6
CENTER
 10
-195.450439
 20
-117.630264
 11
-195.450439
 21
-181.230270
  0
LINE
  8
0
  6
DASHED
 10
-203.375443
 20
-139.830261
 11
-187.525452
 21
-139.830261
  0
LINE
  8
0
  6
DASHED
 10
-203.750427
 20
-127.830261
 11
-203.375427
 21
-139.830261
  0
LINE
  8
0
  6
DASHED
 10
-187.150436
 20
-127.830261
 11
-187.525436
 21
-139.830261
  0
LINE
  8
0
  6
DASHED
 10
-202.950836
 20
-127.805283
 11
-202.575836
 21
-139.805283
  0
LINE
  8
0
  6
DASHED
 10
-187.950058
 20
-127.805290
 11
-188.325058
 21
-139.805298
  0
LINE
  8
0
 10
-207.567444
 20
-141.330261
 11
-183.333435
 21
-141.330261
  0
LINE
  8
0
 10
-206.200439
 20
-159.330261
 11
-184.700439
 21
-159.330261
  0
LINE
  8
0
 10
-183.250443
 20
-143.841736
 11
-183.250443
 21
-156.818802
  0
LINE
  8
0
 10
-207.650436
 20
-143.841736
 11
-207.650436
 21
-156.818817
  0
LINE
  8
0
 10
-207.650452
 20
-143.841721
 11
-206.200439
 21
-141.330246
  0
LINE
  8
0
 10
-184.700439
 20
-159.330276
 11
-183.250458
 21
-156.818802
  0
LINE
  8
0
 10
-207.650436
 20
-156.818817
 11
-206.200439
 21
-159.330276
  0
LINE
  8
0
 10
-184.700439
 20
-141.330276
 11
-183.250443
 21
-143.841736
  0
LINE
  8
0
 10
-207.650436
 20
-143.841705
 11
-183.250443
 21
-143.841705
  0
LINE
  8
0
 10
-207.650436
 20
-156.818756
 11
-183.250443
 21
-156.818756
  0
LINE
  8
0
 10
-178.450439
 20
-160.480270
 11
-164.050446
 21
-160.480270
  0
LINE
  8
0
 10
-178.450439
 20
-139.480270
 11
-164.050446
 21
-139.480270
  0
LINE
  8
0
 10
-178.450439
 20
-139.480270
 11
-178.450439
 21
-147.980270
  0
LINE
  8
0
 10
-181.450439
 20
-142.480270
 11
-181.450439
 21
-147.980270
  0
LINE
  8
0
 10
-183.632355
 20
-157.480270
 11
-181.450439
 21
-157.480270
  0
LINE
  8
0
 10
-181.450470
 20
-157.480286
 11
-178.450470
 21
-160.480301
  0
LINE
  8
0
 10
-181.450455
 20
-142.480240
 11
-178.450455
 21
-139.480240
  0
LINE
  8
0
 10
-207.567444
 20
-127.830269
 11
-183.333435
 21
-127.830269
  0
LINE
  8
0
 10
-183.333435
 20
-127.830269
 11
-183.333435
 21
-141.330261
  0
LINE
  8
0
 10
-207.567444
 20
-127.830269
 11
-207.567444
 21
-141.330261
  0
LINE
  8
0
 10
-189.450439
 20
-127.830269
 11
-189.450439
 21
-141.330261
  0
LINE
  8
0
 10
-201.450439
 20
-127.830269
 11
-201.450439
 21
-141.330261
  0
LINE
  8
0
 10
-183.250443
 20
-151.980270
 11
-178.450439
 21
-151.980270
  0
LINE
  8
0
 10
-183.250443
 20
-147.980270
 11
-178.450439
 21
-147.980270
  0
LINE
  8
0
 10
-181.450439
 20
-151.980270
 11
-181.450439
 21
-157.480270
  0
LINE
  8
0
 10
-204.550446
 20
-159.330261
 11
-204.550446
 21
-160.330261
  0
LINE
  8
0
  6
CENTER
 10
-207.179077
 20
-165.980270
 11
-183.568466
 21
-165.980270
  0
LINE
  8
0
 10
-203.550446
 20
-172.330276
 11
-187.350433
 21
-172.330276
  0
LINE
  8
0
 10
-203.950485
 20
-160.330276
 11
-203.550491
 21
-172.330276
  0
LINE
  8
0
 10
-186.950470
 20
-160.330261
 11
-187.350464
 21
-172.330261
  0
LINE
  8
0
 10
-203.150940
 20
-160.303635
 11
-202.750946
 21
-172.303619
  0
LINE
  8
0
 10
-187.750015
 20
-160.303619
 11
-188.150009
 21
-172.303619
  0
LINE
  8
0
 10
-204.550446
 20
-160.330261
 11
-186.350433
 21
-160.330261
  0
LINE
  8
0
 10
-186.350433
 20
-159.330261
 11
-186.350433
 21
-160.330261
  0
LINE
  8
0
 10
-162.450439
 20
-140.080261
 11
-160.250443
 21
-140.080261
  0
LINE
  8
0
 10
-164.050446
 20
-157.480270
 11
-162.450439
 21
-157.480270
  0
LINE
  8
0
 10
-162.450439
 20
-159.880280
 11
-160.250443
 21
-159.880280
  0
LINE
  8
0
 10
-164.050446
 20
-139.480270
 11
-164.050446
 21
-160.480270
  0
LINE
  8
0
 10
-160.250443
 20
-140.080261
 11
-160.250443
 21
-159.880280
  0
LINE
  8
0
 10
-162.450439
 20
-140.080261
 11
-162.450439
 21
-159.880280
  0
LINE
  8
0
 10
-181.450439
 20
-142.480270
 11
-184.036484
 21
-142.480270
  0
POINT
  8
0
 10
-77.938782
 20
-165.980270
  0
POINT
  8
0
 10
-86.250443
 20
-165.980270
  0
POINT
  8
0
 10
-86.250443
 20
-149.980270
  0
LINE
  8
0
  6
CENTER
 10
-86.250443
 20
-121.630264
 11
-86.250443
 21
-127.830269
  0
LINE
  8
0
  6
CENTER
 10
-108.065125
 20
-149.980270
 11
-62.579189
 21
-149.980270
  0
LINE
  8
0
  6
CENTER
 10
-97.979080
 20
-165.980270
 11
-74.368469
 21
-165.980270
  0
LINE
  8
0
 10
-94.350449
 20
-172.330276
 11
-78.150436
 21
-172.330276
  0
LINE
  8
0
 10
-94.750481
 20
-160.330292
 11
-94.350487
 21
-172.330276
  0
LINE
  8
0
 10
-77.750458
 20
-160.330246
 11
-78.150452
 21
-172.330246
  0
LINE
  8
0
 10
-93.950043
 20
-160.330261
 11
-93.550934
 21
-172.303619
  0
LINE
  8
0
 10
-78.550880
 20
-160.330261
 11
-78.949989
 21
-172.303619
  0
LINE
  8
0
 10
-95.350449
 20
-160.330261
 11
-88.018929
 21
-160.330261
  0
LINE
  8
0
 10
-77.150436
 20
-159.330261
 11
-77.150436
 21
-160.330261
  0
LINE
  8
0
 10
-95.350449
 20
-159.330261
 11
-95.350449
 21
-160.330261
  0
LINE
  8
0
 10
-97.000443
 20
-141.330261
 11
-92.202538
 21
-141.330261
  0
LINE
  8
0
 10
-97.000443
 20
-159.330261
 11
-91.028259
 21
-159.330261
  0
LINE
  8
0
 10
-98.450439
 20
-143.841736
 11
-98.450439
 21
-156.818802
  0
LINE
  8
0
 10
-74.050446
 20
-143.841751
 11
-74.050446
 21
-156.818787
  0
LINE
  8
0
 10
-98.450455
 20
-156.818802
 11
-97.000458
 21
-159.330276
  0
LINE
  8
0
 10
-75.500450
 20
-141.330276
 11
-74.050446
 21
-143.841751
  0
LINE
  8
0
 10
-98.450447
 20
-143.841751
 11
-97.000443
 21
-141.330276
  0
LINE
  8
0
 10
-75.500443
 20
-159.330261
 11
-74.050438
 21
-156.818787
  0
LINE
  8
0
 10
-98.450439
 20
-143.841751
 11
-94.769165
 21
-143.841751
  0
LINE
  8
0
 10
-98.450439
 20
-156.818787
 11
-94.218170
 21
-156.818787
  0
LINE
  8
0
 10
-78.282715
 20
-156.818787
 11
-74.050446
 21
-156.818787
  0
LINE
  8
0
 10
-77.731720
 20
-143.841751
 11
-74.050446
 21
-143.841751
  0
LINE
  8
0
 10
-80.298347
 20
-141.330261
 11
-75.500443
 21
-141.330261
  0
LINE
  8
0
 10
-96.750443
 20
-127.830269
 11
-75.750443
 21
-127.830269
  0
LINE
  8
0
 10
-96.750443
 20
-127.830269
 11
-96.750443
 21
-141.330261
  0
LINE
  8
0
 10
-75.750443
 20
-127.830269
 11
-75.750443
 21
-141.330261
  0
LINE
  8
0
  6
CENTER
 10
-86.250443
 20
-138.330261
 11
-86.250443
 21
-182.030273
  0
LINE
  8
0
 10
-86.250443
 20
-127.830269
 11
-86.250443
 21
-138.330261
  0
LINE
  8
0
 10
-81.472626
 20
-159.330261
 11
-75.500443
 21
-159.330261
  0
LINE
  8
0
 10
-84.481956
 20
-160.330261
 11
-77.150436
 21
-160.330261
  0
CIRCLE
  8
0
 10
-86.250443
 20
-149.980270
 40
9.900000
  0
CIRCLE
  8
0
 10
-86.250443
 20
-149.980270
 40
10.500000
  0
CIRCLE
  8
0
 10
-86.250443
 20
-149.980270
 40
6.100000
  0
POINT
  8
0
 10
-195.450439
 20
-91.430267
  0
POINT
  8
0
 10
-160.250443
 20
-91.430267
  0
LINE
  8
0
  6
CENTER
 10
-230.050446
 20
-91.430267
 11
-140.650452
 21
-91.430267
  0
LINE
  8
0
  6
CENTER
 10
-195.450439
 20
-76.578346
 11
-195.450439
 21
-111.430267
  0
LINE
  8
0
 10
-164.050446
 20
-80.930267
 11
-164.050446
 21
-101.930267
  0
LINE
  8
0
 10
-160.250443
 20
-81.530266
 11
-160.250443
 21
-101.330269
  0
LINE
  8
0
 10
-162.450439
 20
-81.530266
 11
-162.450439
 21
-101.330269
  0
LINE
  8
0
 10
-164.050446
 20
-83.930267
 11
-162.450439
 21
-83.930267
  0
LINE
  8
0
 10
-164.050446
 20
-98.930267
 11
-162.450439
 21
-98.930267
  0
LINE
  8
0
 10
-162.450439
 20
-101.330269
 11
-160.250443
 21
-101.330269
  0
LINE
  8
0
 10
-162.450439
 20
-81.530266
 11
-160.250443
 21
-81.530266
  0
LINE
  8
0
 10
-201.512619
 20
-101.930267
 11
-189.388260
 21
-101.930267
  0
LINE
  8
0
 10
-201.512619
 20
-80.930267
 11
-189.388260
 21
-80.930267
  0
LINE
  8
0
 10
-207.574799
 20
-91.430267
 11
-201.512619
 21
-80.930267
  0
LINE
  8
0
 10
-189.388275
 20
-101.930267
 11
-183.326096
 21
-91.430260
  0
LINE
  8
0
 10
-207.574799
 20
-91.430267
 11
-201.512619
 21
-101.930267
  0
LINE
  8
0
 10
-189.388275
 20
-80.930267
 11
-183.326080
 21
-91.430267
  0
LINE
  8
0
 10
-189.238358
 20
-80.930267
 11
-164.050446
 21
-80.930267
  0
LINE
  8
0
 10
-189.238358
 20
-101.930267
 11
-164.050446
 21
-101.930267
  0
LINE
  8
0
 10
-178.450439
 20
-80.930267
 11
-178.450439
 21
-101.930267
  0
LINE
  8
0
 10
-181.450439
 20
-83.930267
 11
-181.450439
 21
-98.930267
  0
LINE
  8
0
 10
-185.828064
 20
-98.930267
 11
-181.450439
 21
-98.930267
  0
LINE
  8
0
 10
-185.828064
 20
-83.930267
 11
-181.450439
 21
-83.930267
  0
LINE
  8
0
 10
-181.450455
 20
-98.930290
 11
-178.450455
 21
-101.930298
  0
LINE
  8
0
 10
-181.450455
 20
-83.930252
 11
-178.450455
 21
-80.930252
  0
CIRCLE
  8
0
 10
-195.450439
 20
-91.430267
 40
7.450000
  0
CIRCLE
  8
0
 10
-195.450439
 20
-91.430267
 40
12.200000
  0
CIRCLE
  8
0
 10
-195.450439
 20
-91.430267
 40
8.300000
  0
POINT
  8
0
 10
77.263405
 20
-165.370270
  0
POINT
  8
0
 10
66.749557
 20
-165.370270
  0
LINE
  8
0
 10
82.749557
 20
-149.870270
 11
82.749557
 21
-155.370270
  0
LINE
  8
0
  6
CENTER
 10
39.749557
 20
-147.870270
 11
117.349556
 21
-147.870270
  0
LINE
  8
0
  6
CENTER
 10
66.749557
 20
-115.051682
 11
66.749557
 21
-182.030273
  0
LINE
  8
0
 10
53.249557
 20
-159.330261
 11
80.249557
 21
-159.330261
  0
LINE
  8
0
 10
53.249557
 20
-138.330261
 11
80.249557
 21
-138.330261
  0
LINE
  8
0
 10
51.749557
 20
-140.928345
 11
51.749557
 21
-156.732193
  0
LINE
  8
0
 10
81.749557
 20
-140.928345
 11
81.749557
 21
-156.732208
  0
LINE
  8
0
 10
51.749561
 20
-140.928345
 11
53.249561
 21
-138.330276
  0
LINE
  8
0
 10
80.249565
 20
-159.330261
 11
81.749557
 21
-156.732193
  0
LINE
  8
0
 10
51.749557
 20
-156.732193
 11
53.249557
 21
-159.330261
  0
LINE
  8
0
 10
80.249557
 20
-138.330261
 11
81.749557
 21
-140.928345
  0
LINE
  8
0
 10
51.749557
 20
-140.928345
 11
81.749557
 21
-140.928345
  0
LINE
  8
0
 10
51.749557
 20
-156.732178
 11
81.749557
 21
-156.732178
  0
LINE
  8
0
 10
85.749557
 20
-158.370270
 11
101.149559
 21
-158.370270
  0
LINE
  8
0
 10
85.749557
 20
-137.370270
 11
101.149559
 21
-137.370270
  0
LINE
  8
0
 10
85.749557
 20
-137.370270
 11
85.749557
 21
-145.870270
  0
LINE
  8
0
 10
82.749557
 20
-140.370270
 11
82.749557
 21
-145.870270
  0
LINE
  8
0
 10
81.427353
 20
-140.370270
 11
82.749557
 21
-140.370270
  0
LINE
  8
0
 10
81.749557
 20
-155.370270
 11
82.749557
 21
-155.370270
  0
LINE
  8
0
 10
82.749573
 20
-155.370270
 11
85.749565
 21
-158.370270
  0
LINE
  8
0
 10
82.749573
 20
-140.370270
 11
85.749573
 21
-137.370285
  0
LINE
  8
0
 10
53.549557
 20
-121.330269
 11
79.949554
 21
-121.330269
  0
LINE
  8
0
 10
73.649559
 20
-121.330269
 11
73.649559
 21
-138.330261
  0
LINE
  8
0
 10
59.849556
 20
-121.330269
 11
59.849556
 21
-138.330261
  0
LINE
  8
0
  6
DASHED
 10
56.768307
 20
-136.330261
 11
76.730804
 21
-136.330261
  0
LINE
  8
0
  6
DASHED
 10
56.299557
 20
-121.330276
 11
56.768307
 21
-136.330276
  0
LINE
  8
0
  6
DASHED
 10
77.199554
 20
-121.330269
 11
76.730804
 21
-136.330261
  0
LINE
  8
0
  6
DASHED
 10
57.448997
 20
-121.294357
 11
57.917747
 21
-136.294357
  0
LINE
  8
0
  6
DASHED
 10
76.050117
 20
-121.294342
 11
75.581367
 21
-136.294342
  0
LINE
  8
0
  6
CENTER
 10
53.487717
 20
-165.370270
 11
81.087723
 21
-165.370270
  0
LINE
  8
0
 10
55.749557
 20
-160.530273
 11
77.749557
 21
-160.530273
  0
LINE
  8
0
 10
77.749557
 20
-159.330261
 11
77.749557
 21
-160.530273
  0
LINE
  8
0
 10
55.749557
 20
-159.330261
 11
55.749557
 21
-160.530273
  0
LINE
  8
0
 10
56.549557
 20
-173.530273
 11
76.949554
 21
-173.530273
  0
LINE
  8
0
 10
56.049549
 20
-160.530258
 11
56.549549
 21
-173.530258
  0
LINE
  8
0
 10
77.449547
 20
-160.530258
 11
76.949547
 21
-173.530258
  0
LINE
  8
0
 10
57.198708
 20
-160.486069
 11
57.698708
 21
-173.486069
  0
LINE
  8
0
 10
76.300400
 20
-160.486069
 11
75.800400
 21
-173.486069
  0
LINE
  8
0
 10
102.749565
 20
-157.770264
 11
104.949562
 21
-157.770264
  0
LINE
  8
0
 10
101.149559
 20
-155.370270
 11
102.749565
 21
-155.370270
  0
LINE
  8
0
 10
102.749565
 20
-137.970276
 11
104.949562
 21
-137.970276
  0
LINE
  8
0
 10
101.149559
 20
-137.370270
 11
101.149559
 21
-158.370270
  0
LINE
  8
0
 10
104.949562
 20
-137.970276
 11
104.949562
 21
-157.770264
  0
LINE
  8
0
 10
102.749565
 20
-137.970276
 11
102.749565
 21
-157.770264
  0
LINE
  8
0
 10
101.149559
 20
-140.370270
 11
102.749565
 21
-140.370270
  0
LINE
  8
0
 10
81.749557
 20
-149.870270
 11
85.749557
 21
-149.870270
  0
LINE
  8
0
 10
81.749557
 20
-145.870270
 11
85.749557
 21
-145.870270
  0
LINE
  8
0
 10
85.749557
 20
-149.870270
 11
85.749557
 21
-158.370270
  0
LINE
  8
0
 10
79.949554
 20
-121.330269
 11
79.949554
 21
-138.330261
  0
LINE
  8
0
 10
53.549557
 20
-121.330269
 11
53.549557
 21
-138.330261
  0
POINT
  8
0
 10
176.263397
 20
-165.370270
  0
POINT
  8
0
 10
165.749557
 20
-165.370270
  0
POINT
  8
0
 10
165.749557
 20
-147.870270
  0
LINE
  8
0
 10
153.749557
 20
-121.330269
 11
177.749557
 21
-121.330269
  0
LINE
  8
0
  6
CENTER
 10
152.487717
 20
-165.370270
 11
180.087708
 21
-165.370270
  0
LINE
  8
0
  6
CENTER
 10
138.019592
 20
-147.870270
 11
190.363800
 21
-147.870270
  0
LINE
  8
0
 10
154.749557
 20
-160.530273
 11
176.749557
 21
-160.530273
  0
LINE
  8
0
 10
176.749557
 20
-159.330261
 11
176.749557
 21
-160.530273
  0
LINE
  8
0
 10
154.749557
 20
-159.330261
 11
154.749557
 21
-160.530273
  0
LINE
  8
0
 10
155.549561
 20
-173.530273
 11
175.949554
 21
-173.530273
  0
LINE
  8
0
 10
155.049545
 20
-160.530273
 11
155.549545
 21
-173.530273
  0
LINE
  8
0
 10
176.449539
 20
-160.530273
 11
175.949539
 21
-173.530273
  0
LINE
  8
0
 10
156.198700
 20
-160.486053
 11
156.698700
 21
-173.486053
  0
LINE
  8
0
 10
175.300369
 20
-160.486053
 11
174.800369
 21
-173.486053
  0
LINE
  8
0
 10
152.249542
 20
-159.330261
 11
179.249557
 21
-159.330261
  0
LINE
  8
0
 10
152.249557
 20
-138.330261
 11
161.363403
 21
-138.330261
  0
LINE
  8
0
 10
180.749557
 20
-140.928345
 11
180.749557
 21
-156.732193
  0
LINE
  8
0
 10
150.749557
 20
-140.928345
 11
150.749557
 21
-156.732208
  0
LINE
  8
0
 10
150.749573
 20
-140.928345
 11
152.249557
 21
-138.330261
  0
LINE
  8
0
 10
179.249557
 20
-159.330276
 11
180.749557
 21
-156.732193
  0
LINE
  8
0
 10
150.749557
 20
-156.732193
 11
152.249557
 21
-159.330261
  0
LINE
  8
0
 10
179.249557
 20
-138.330261
 11
180.749557
 21
-140.928329
  0
LINE
  8
0
 10
150.749557
 20
-140.928314
 11
157.871796
 21
-140.928314
  0
LINE
  8
0
 10
150.749557
 20
-156.732239
 11
160.117889
 21
-156.732239
  0
LINE
  8
0
 10
173.627319
 20
-140.928314
 11
180.749557
 21
-140.928314
  0
LINE
  8
0
 10
171.381226
 20
-156.732239
 11
180.749557
 21
-156.732239
  0
LINE
  8
0
 10
177.749557
 20
-121.330269
 11
177.749557
 21
-138.330261
  0
LINE
  8
0
 10
153.749557
 20
-121.330269
 11
153.749557
 21
-138.330261
  0
LINE
  8
0
  6
CENTER
 10
165.749557
 20
-114.268990
 11
165.749557
 21
-181.370270
  0
LINE
  8
0
 10
165.749557
 20
-121.330269
 11
165.749557
 21
-137.370270
  0
LINE
  8
0
 10
170.135712
 20
-138.330261
 11
179.249557
 21
-138.330261
  0
CIRCLE
  8
0
 10
165.749557
 20
-147.870270
 40
10.500000
  0
CIRCLE
  8
0
 10
165.749557
 20
-147.870270
 40
9.900000
  0
CIRCLE
  8
0
 10
165.749557
 20
-147.870270
 40
6.100000
  0
POINT
  8
0
 10
66.749557
 20
-91.430267
  0
POINT
  8
0
 10
104.949562
 20
-91.430267
  0
LINE
  8
0
  6
CENTER
 10
41.532272
 20
-91.430267
 11
111.949554
 21
-91.430267
  0
LINE
  8
0
  6
CENTER
 10
66.749557
 20
-70.931747
 11
66.749557
 21
-113.830269
  0
LINE
  8
0
 10
101.149559
 20
-80.930267
 11
101.149559
 21
-101.930267
  0
LINE
  8
0
 10
104.949562
 20
-81.530266
 11
104.949562
 21
-101.330269
  0
LINE
  8
0
 10
102.749565
 20
-81.530266
 11
102.749565
 21
-101.330269
  0
LINE
  8
0
 10
101.149559
 20
-83.930267
 11
102.749565
 21
-83.930267
  0
LINE
  8
0
 10
101.149559
 20
-98.930267
 11
102.749565
 21
-98.930267
  0
LINE
  8
0
 10
102.749565
 20
-81.530266
 11
104.949562
 21
-81.530266
  0
LINE
  8
0
 10
102.749565
 20
-101.330269
 11
104.949562
 21
-101.330269
  0
LINE
  8
0
 10
59.821354
 20
-103.430267
 11
73.677765
 21
-103.430267
  0
LINE
  8
0
 10
59.821358
 20
-79.430267
 11
73.677765
 21
-79.430267
  0
LINE
  8
0
 10
52.893154
 20
-91.430267
 11
59.821358
 21
-79.430267
  0
LINE
  8
0
 10
73.677765
 20
-103.430275
 11
80.605972
 21
-91.430267
  0
LINE
  8
0
 10
52.893150
 20
-91.430267
 11
59.821354
 21
-103.430267
  0
LINE
  8
0
 10
73.677757
 20
-79.430260
 11
80.605965
 21
-91.430267
  0
LINE
  8
0
 10
77.461700
 20
-80.930267
 11
101.149559
 21
-80.930267
  0
LINE
  8
0
 10
77.461700
 20
-101.930267
 11
101.149559
 21
-101.930267
  0
LINE
  8
0
 10
85.749557
 20
-80.930267
 11
85.749557
 21
-101.930267
  0
LINE
  8
0
 10
82.749557
 20
-83.930267
 11
82.749557
 21
-98.930267
  0
LINE
  8
0
 10
79.739944
 20
-83.930267
 11
82.749557
 21
-83.930267
  0
LINE
  8
0
 10
79.739944
 20
-98.930267
 11
82.749557
 21
-98.930267
  0
LINE
  8
0
 10
82.749573
 20
-98.930260
 11
85.749573
 21
-101.930260
  0
LINE
  8
0
 10
82.749573
 20
-83.930275
 11
85.749573
 21
-80.930267
  0
ARC
  8
0
 10
66.749557
 20
-91.430267
 40
13.499998
 50
302.733948
 51
357.266052
  0
ARC
  8
0
 10
66.749557
 20
-91.430267
 40
13.500000
 50
182.733948
 51
237.266022
  0
CIRCLE
  8
0
 10
66.749557
 20
-91.430267
 40
10.700000
  0
CIRCLE
  8
0
 10
66.749557
 20
-91.430267
 40
10.200000
  0
CIRCLE
  8
0
 10
66.749557
 20
-91.430267
 40
15.000000
  0
ARC
  8
0
 10
66.749557
 20
-91.430267
 40
13.500001
 50
2.733987
 51
57.266029
  0
ARC
  8
0
 10
66.749557
 20
-91.430267
 40
13.500002
 50
242.733948
 51
297.266052
  0
ARC
  8
0
 10
66.749557
 20
-91.430267
 40
13.500001
 50
122.733955
 51
177.266083
  0
ARC
  8
0
 10
66.749557
 20
-91.430267
 40
13.500002
 50
62.733944
 51
117.266060
  0
ENDSEC
  0
EOF
