  0
SECTION
  2
HEADER
  9
$ACADVER
  1
AC1002
  9
$INSBASE
 10
0.0
 20
0.0
  9
$EXTMIN
 10
-262.2472
 20
-180.0
  9
$EXTMAX
 10
262.2472
 20
180.0
  9
$LIMMIN
 10
0.0
 20
0.0
  9
$LIMMAX
 10
12.0
 20
9.0
  9
$VIEWCTR
 10
20.22981726
 20
0.0
  9
$VIEWSIZE
 40
360.0
  9
$SNAPMODE
 70
     0
  9
$SNAPUNIT
 10
1.0
 20
1.0
  9
$SNAPBASE
 10
0.0
 20
0.0
  9
$SNAPANG
 50
0.0
  9
$SNAPSTYLE
 70
     0
  9
$SNAPISOPAIR
 70
     0
  9
$GRIDMODE
 70
     0
  9
$GRIDUNIT
 10
0.0
 20
0.0
  9
$ORTHOMODE
 70
     0
  9
$REGENMODE
 70
     1
  9
$FILLMODE
 70
     1
  9
$QTEXTMODE
 70
     0
  9
$DRAGMODE
 70
     2
  9
$LTSCALE
 40
1.0
  9
$OSMODE
 70
     0
  9
$ATTMODE
 70
     1
  9
$TEXTSIZE
 40
0.2
  9
$TRACEWID
 40
0.05
  9
$TEXTSTYLE
  7
AAA
  9
$CLAYER
  8
0
  9
$CELTYPE
  6
BYLAYER
  9
$CECOLOR
 62
   256
  9
$DIMSCALE
 40
1.0
  9
$DIMASZ
 40
0.18
  9
$DIMEXO
 40
0.0625
  9
$DIMDLI
 40
0.38
  9
$DIMRND
 40
0.0
  9
$DIMDLE
 40
0.0
  9
$DIMEXE
 40
0.18
  9
$DIMTP
 40
0.0
  9
$DIMTM
 40
0.0
  9
$DIMTXT
 40
0.18
  9
$DIMCEN
 40
0.09
  9
$DIMTSZ
 40
0.0
  9
$DIMTOL
 70
     0
  9
$DIMLIM
 70
     0
  9
$DIMTIH
 70
     1
  9
$DIMTOH
 70
     1
  9
$DIMSE1
 70
     0
  9
$DIMSE2
 70
     0
  9
$DIMTAD
 70
     0
  9
$DIMZIN
 70
     0
  9
$DIMBLK
  1

  9
$LUNITS
 70
     2
  9
$LUPREC
 70
     4
  9
$AXISMODE
 70
     0
  9
$AXISUNIT
 10
0.0
 20
0.0
  9
$SKETCHINC
 40
0.1
  9
$FILLETRAD
 40
0.0
  9
$AUNITS
 70
     0
  9
$AUPREC
 70
     0
  9
$MENU
  1
ACAD
  9
$ELEVATION
 40
0.0
  9
$THICKNESS
 40
0.0
  9
$VIEWDIR
 10
0.0
 20
0.0
 30
1.0
  9
$LIMCHECK
 70
     0
  9
$BLIPMODE
 70
     1
  9
$CHAMFERA
 40
0.0
  9
$CHAMFERB
 40
0.0
  9
$FASTZOOM
 70
     1
  9
$SKPOLY
 70
     0
  9
$TDCREATE
 40
2447820.4925231978
  9
$TDUPDATE
 40
2447820.4925231978
  9
$TDINDWG
 40
0.0026620370
  9
$TDUSRTIMER
 40
0.0026620370
  9
$USRTIMER
 70
     1
  9
$ANGBASE
 50
0.0
  9
$ANGDIR
 70
     0
  9
$PDMODE
 70
     0
  9
$PDSIZE
 40
0.0
  9
$PLINEWID
 40
0.0
  9
$COORDS
 70
     0
  9
$USERI1
 70
     0
  9
$USERI2
 70
     0
  9
$USERI3
 70
     0
  9
$USERI4
 70
     0
  9
$USERI5
 70
     0
  9
$USERR1
 40
0.0
  9
$USERR2
 40
0.0
  9
$USERR3
 40
0.0
  9
$USERR4
 40
0.0
  9
$USERR5
 40
0.0
  0
ENDSEC
  0
SECTION
  2
TABLES
  0
TABLE
  2
LTYPE
 70
     2
  0
LTYPE
  2
CONTINUOUS
 70
    64
  3
SOLID
 72
    65
 73
     0
 40
0.0
  0
LTYPE
  2
CENTER
 70
    64
  3
CENTER
 72
    65
 73
     4
 40
2.0
 49
1.25
 49
-0.25
 49
0.25
 49
-0.25
  0
ENDTAB
  0
TABLE
  2
LAYER
 70
     1
  0
LAYER
  2
0
 70
    64
 62
     7
  6
CONTINUOUS
  0
ENDTAB
  0
TABLE
  2
STYLE
 70
     2
  0
STYLE
  2
AAA
 70
     0
 40
0.0
 41
1.0
 50
0.0
 71
     0
 42
0.2
  3
TXT
  4

  0
STYLE
  2
STANDARD
 70
    64
 40
0.0
 41
1.0
 50
0.0
 71
     0
 42
0.2
  3
TXT
  4
BIGFONT
  0
ENDTAB
  0
TABLE
  2
VIEW
 70
     0
  0
ENDTAB
  0
ENDSEC
  0
SECTION
  2
BLOCKS
  0
ENDSEC
  0
SECTION
  2
ENTITIES
  0
POINT
  8
0
  6
CONTINUOUS
 62
     7
 10
-177.2472
 20
85.00002
  0
POINT
  8
0
  6
CONTINUOUS
 62
     7
 10
-174.4972
 20
85.00002
  0
POINT
  8
0
  6
CONTINUOUS
 62
     7
 10
-177.2472
 20
125.0
  0
POINT
  8
0
  6
CONTINUOUS
 62
     7
 10
-166.4472
 20
125.0
  0
POINT
  8
0
  6
CONTINUOUS
 62
     7
 10
-227.2472
 20
85.00002
  0
POINT
  8
0
  6
CONTINUOUS
 62
     7
 10
-224.4972
 20
85.00002
  0
POINT
  8
0
  6
CONTINUOUS
 62
     7
 10
-124.4972
 20
85.00002
  0
POINT
  8
0
  6
CONTINUOUS
 62
     7
 10
-127.2472
 20
85.00002
  0
POINT
  8
0
  6
CONTINUOUS
 62
     7
 10
-177.2472
 20
-35.00001
  0
POINT
  8
0
  6
CONTINUOUS
 62
     7
 10
-174.4972
 20
-35.00001
  0
POINT
  8
0
  6
CONTINUOUS
 62
     7
 10
-177.2472
 20
19.99999
  0
POINT
  8
0
  6
CONTINUOUS
 62
     7
 10
-162.1472
 20
19.99999
  0
POINT
  8
0
  6
CONTINUOUS
 62
     7
 10
-227.2472
 20
-35.00001
  0
POINT
  8
0
  6
CONTINUOUS
 62
     7
 10
-224.4972
 20
-35.00001
  0
POINT
  8
0
  6
CONTINUOUS
 62
     7
 10
-127.2472
 20
-35.00001
  0
POINT
  8
0
  6
CONTINUOUS
 62
     7
 10
-124.4972
 20
-35.00001
  0
POINT
  8
0
  6
CONTINUOUS
 62
     7
 10
-177.2472
 20
-155.0
  0
POINT
  8
0
  6
CONTINUOUS
 62
     7
 10
-173.2472
 20
-155.0
  0
POINT
  8
0
  6
CONTINUOUS
 62
     7
 10
-162.1472
 20
-100.0
  0
POINT
  8
0
  6
CONTINUOUS
 62
     7
 10
-177.2472
 20
-100.0
  0
POINT
  8
0
  6
CONTINUOUS
 62
     7
 10
-227.2472
 20
-155.0
  0
POINT
  8
0
  6
CONTINUOUS
 62
     7
 10
-223.2472
 20
-155.0
  0
POINT
  8
0
  6
CONTINUOUS
 62
     7
 10
-127.2472
 20
-155.0
  0
POINT
  8
0
  6
CONTINUOUS
 62
     7
 10
-123.2472
 20
-155.0
  0
POINT
  8
0
  6
CONTINUOUS
 62
     7
 10
-2.41574
 20
85.00003
  0
POINT
  8
0
  6
CONTINUOUS
 62
     7
 10
2.08426
 20
85.00003
  0
POINT
  8
0
  6
CONTINUOUS
 62
     7
 10
-2.41574
 20
140.0
  0
POINT
  8
0
  6
CONTINUOUS
 62
     7
 10
12.68426
 20
140.0
  0
POINT
  8
0
  6
CONTINUOUS
 62
     7
 10
-52.41574
 20
85.00003
  0
POINT
  8
0
  6
CONTINUOUS
 62
     7
 10
-47.91574
 20
85.00003
  0
POINT
  8
0
  6
CONTINUOUS
 62
     7
 10
47.58426
 20
85.00003
  0
POINT
  8
0
  6
CONTINUOUS
 62
     7
 10
52.08426
 20
85.00003
  0
POINT
  8
0
  6
CONTINUOUS
 62
     7
 10
-2.41574
 20
-35.0
  0
POINT
  8
0
  6
CONTINUOUS
 62
     7
 10
2.44826
 20
-35.0
  0
POINT
  8
0
  6
CONTINUOUS
 62
     7
 10
-2.41574
 20
19.99999
  0
POINT
  8
0
  6
CONTINUOUS
 62
     7
 10
12.68426
 20
19.99999
  0
POINT
  8
0
  6
CONTINUOUS
 62
     7
 10
-52.41574
 20
-35.0
  0
POINT
  8
0
  6
CONTINUOUS
 62
     7
 10
-47.55174
 20
-35.0
  0
POINT
  8
0
  6
CONTINUOUS
 62
     7
 10
47.58426
 20
-35.0
  0
POINT
  8
0
  6
CONTINUOUS
 62
     7
 10
52.44825
 20
-35.0
  0
POINT
  8
0
  6
CONTINUOUS
 62
     7
 10
-2.41574
 20
-155.0
  0
POINT
  8
0
  6
CONTINUOUS
 62
     7
 10
1.58426
 20
-155.0
  0
POINT
  8
0
  6
CONTINUOUS
 62
     7
 10
-2.41574
 20
-100.0
  0
POINT
  8
0
  6
CONTINUOUS
 62
     7
 10
13.58426
 20
-100.0
  0
POINT
  8
0
  6
CONTINUOUS
 62
     7
 10
-52.41574
 20
-155.0
  0
POINT
  8
0
  6
CONTINUOUS
 62
     7
 10
-48.41574
 20
-155.0
  0
POINT
  8
0
  6
CONTINUOUS
 62
     7
 10
47.58426
 20
-155.0
  0
POINT
  8
0
  6
CONTINUOUS
 62
     7
 10
51.58426
 20
-155.0
  0
POINT
  8
0
  6
CONTINUOUS
 62
     7
 10
172.4157
 20
50.00003
  0
POINT
  8
0
  6
CONTINUOUS
 62
     7
 10
176.9157
 20
50.00003
  0
POINT
  8
0
  6
CONTINUOUS
 62
     7
 10
172.4157
 20
105.0
  0
POINT
  8
0
  6
CONTINUOUS
 62
     7
 10
188.4157
 20
105.0
  0
POINT
  8
0
  6
CONTINUOUS
 62
     7
 10
122.4157
 20
50.00003
  0
POINT
  8
0
  6
CONTINUOUS
 62
     7
 10
126.9157
 20
50.00003
  0
POINT
  8
0
  6
CONTINUOUS
 62
     7
 10
222.4157
 20
50.00003
  0
POINT
  8
0
  6
CONTINUOUS
 62
     7
 10
226.9157
 20
50.00003
  0
POINT
  8
0
  6
CONTINUOUS
 62
     7
 10
172.4157
 20
-110.0
  0
POINT
  8
0
  6
CONTINUOUS
 62
     7
 10
177.2797
 20
-110.0
  0
POINT
  8
0
  6
CONTINUOUS
 62
     7
 10
172.4157
 20
-55.00002
  0
POINT
  8
0
  6
CONTINUOUS
 62
     7
 10
188.4157
 20
-55.00002
  0
POINT
  8
0
  6
CONTINUOUS
 62
     7
 10
122.4157
 20
-110.0
  0
POINT
  8
0
  6
CONTINUOUS
 62
     7
 10
127.2797
 20
-110.0
  0
POINT
  8
0
  6
CONTINUOUS
 62
     7
 10
222.4157
 20
-110.0
  0
POINT
  8
0
  6
CONTINUOUS
 62
     7
 10
227.2797
 20
-110.0
  0
LINE
  8
0
  6
CONTINUOUS
 62
     7
 10
-262.2472
 20
-180.0
 11
-262.2472
 21
180.0
  0
LINE
  8
0
  6
CONTINUOUS
 62
     7
 10
262.2472
 20
180.0
 11
262.2472
 21
-180.0
  0
LINE
  8
0
  6
CONTINUOUS
 62
     7
 10
-262.2472
 20
-180.0
 11
262.2472
 21
-180.0
  0
LINE
  8
0
  6
CONTINUOUS
 62
     7
 10
-262.2472
 20
180.0
 11
262.2472
 21
180.0
  0
LINE
  8
0
  6
CONTINUOUS
 62
     7
 10
-262.2472
 20
159.7753
 11
-154.382
 21
159.7753
  0
LINE
  8
0
  6
CONTINUOUS
 62
     7
 10
-154.382
 20
159.7753
 11
-154.382
 21
180.0
  0
LINE
  8
0
  6
CONTINUOUS
 62
     7
 10
154.382
 20
-159.7753
 11
262.2472
 21
-159.7753
  0
LINE
  8
0
  6
CONTINUOUS
 62
     7
 10
182.7034
 20
-164.6383
 11
193.0652
 21
-164.6383
  0
LINE
  8
0
  6
CONTINUOUS
 62
     7
 10
182.7034
 20
-173.8271
 11
191.5012
 21
-173.8271
  0
LINE
  8
0
  6
CONTINUOUS
 62
     7
 10
182.7034
 20
-176.1732
 11
194.6293
 21
-176.1732
  0
LINE
  8
0
  6
CONTINUOUS
 62
     7
 10
182.7034
 20
-166.9844
 11
191.5012
 21
-166.9844
  0
LINE
  8
0
  6
CONTINUOUS
 62
     7
 10
182.7034
 20
-164.6383
 11
182.7034
 21
-166.9844
  0
LINE
  8
0
  6
CONTINUOUS
 62
     7
 10
194.6293
 20
-166.2024
 11
194.6293
 21
-176.1732
  0
LINE
  8
0
  6
CONTINUOUS
 62
     7
 10
191.5012
 20
-166.9844
 11
191.5012
 21
-173.8271
  0
LINE
  8
0
  6
CONTINUOUS
 62
     7
 10
196.3888
 20
-164.6383
 11
196.3888
 21
-166.9844
  0
LINE
  8
0
  6
CONTINUOUS
 62
     7
 10
207.5326
 20
-166.9844
 11
207.5326
 21
-174.6092
  0
LINE
  8
0
  6
CONTINUOUS
 62
     7
 10
204.4045
 20
-166.9844
 11
204.4045
 21
-173.8271
  0
LINE
  8
0
  6
CONTINUOUS
 62
     7
 10
182.7034
 20
-173.8271
 11
182.7034
 21
-176.1732
  0
LINE
  8
0
  6
CONTINUOUS
 62
     7
 10
196.3888
 20
-164.6383
 11
199.4796
 21
-164.6383
  0
LINE
  8
0
  6
CONTINUOUS
 62
     7
 10
196.3888
 20
-176.1732
 11
198.8176
 21
-176.1732
  0
LINE
  8
0
  6
CONTINUOUS
 62
     7
 10
196.3887
 20
-176.1731
 11
198.8509
 21
-166.9843
  0
LINE
  8
0
  6
CONTINUOUS
 62
     7
 10
196.3888
 20
-166.9844
 11
198.8509
 21
-166.9844
  0
LINE
  8
0
  6
CONTINUOUS
 62
     7
 10
198.8178
 20
-176.1733
 11
201.2799
 21
-166.9845
  0
LINE
  8
0
  6
CONTINUOUS
 62
     7
 10
202.0584
 20
-173.8271
 11
204.4045
 21
-173.8271
  0
LINE
  8
0
  6
CONTINUOUS
 62
     7
 10
202.0583
 20
-173.8271
 11
202.6869
 21
-176.1731
  0
LINE
  8
0
  6
CONTINUOUS
 62
     7
 10
202.6871
 20
-176.1732
 11
205.9686
 21
-176.1732
  0
LINE
  8
0
  6
CONTINUOUS
 62
     7
 10
201.2798
 20
-166.9844
 11
204.4045
 21
-166.9844
  0
LINE
  8
0
  6
CONTINUOUS
 62
     7
 10
201.9084
 20
-164.6383
 11
205.1865
 21
-164.6383
  0
LINE
  8
0
  6
CONTINUOUS
 62
     7
 10
199.4796
 20
-164.6384
 11
199.9458
 21
-162.8984
  0
LINE
  8
0
  6
CONTINUOUS
 62
     7
 10
201.9082
 20
-164.6382
 11
202.3744
 21
-162.8982
  0
LINE
  8
0
  6
CONTINUOUS
 62
     7
 10
209.4877
 20
-164.6383
 11
213.2023
 21
-164.6383
  0
LINE
  8
0
  6
CONTINUOUS
 62
     7
 10
209.4877
 20
-166.9844
 11
218.6106
 21
-166.9844
  0
LINE
  8
0
  6
CONTINUOUS
 62
     7
 10
213.2023
 20
-176.1732
 11
216.3303
 21
-176.1732
  0
LINE
  8
0
  6
CONTINUOUS
 62
     7
 10
209.4877
 20
-164.6383
 11
209.4877
 21
-166.9844
  0
LINE
  8
0
  6
CONTINUOUS
 62
     7
 10
221.0225
 20
-171.2385
 11
221.0225
 21
-173.8271
  0
LINE
  8
0
  6
CONTINUOUS
 62
     7
 10
209.4875
 20
-173.827
 11
213.2022
 21
-172.0948
  0
LINE
  8
0
  6
CONTINUOUS
 62
     7
 10
209.4879
 20
-171.2387
 11
218.6108
 21
-166.9846
  0
LINE
  8
0
  6
CONTINUOUS
 62
     7
 10
209.4877
 20
-171.2385
 11
209.4877
 21
-173.8271
  0
LINE
  8
0
  6
CONTINUOUS
 62
     7
 10
216.3302
 20
-171.6391
 11
221.0225
 21
-173.827
  0
LINE
  8
0
  6
CONTINUOUS
 62
     7
 10
218.0311
 20
-169.8436
 11
221.0228
 21
-171.2387
  0
LINE
  8
0
  6
CONTINUOUS
 62
     7
 10
221.0225
 20
-166.2024
 11
221.0225
 21
-167.4519
  0
LINE
  8
0
  6
CONTINUOUS
 62
     7
 10
213.2023
 20
-162.8984
 11
213.2023
 21
-164.6383
  0
LINE
  8
0
  6
CONTINUOUS
 62
     7
 10
216.3303
 20
-162.8984
 11
216.3303
 21
-164.6383
  0
LINE
  8
0
  6
CONTINUOUS
 62
     7
 10
216.3303
 20
-164.6383
 11
219.4585
 21
-164.6383
  0
LINE
  8
0
  6
CONTINUOUS
 62
     7
 10
213.2023
 20
-172.095
 11
213.2023
 21
-176.1732
  0
LINE
  8
0
  6
CONTINUOUS
 62
     7
 10
216.3303
 20
-171.6392
 11
216.3303
 21
-176.1732
  0
LINE
  8
0
  6
CONTINUOUS
 62
     7
 10
218.031
 20
-169.8436
 11
220.1197
 21
-168.8696
  0
LINE
  8
0
  6
CONTINUOUS
 62
     7
 10
231.5798
 20
-163.6022
 11
233.9258
 21
-163.6022
  0
LINE
  8
0
  6
CONTINUOUS
 62
     7
 10
222.0001
 20
-168.4483
 11
222.0001
 21
-170.9731
  0
LINE
  8
0
  6
CONTINUOUS
 62
     7
 10
233.9258
 20
-163.6022
 11
233.9258
 21
-164.6383
  0
LINE
  8
0
  6
CONTINUOUS
 62
     7
 10
231.5798
 20
-163.6022
 11
231.5798
 21
-164.1077
  0
LINE
  8
0
  6
CONTINUOUS
 62
     7
 10
228.4517
 20
-168.4072
 11
228.4517
 21
-176.1732
  0
LINE
  8
0
  6
CONTINUOUS
 62
     7
 10
222.0001
 20
-168.4484
 11
231.0869
 21
-164.8345
  0
LINE
  8
0
  6
CONTINUOUS
 62
     7
 10
222.0001
 20
-170.9732
 11
228.4517
 21
-168.4073
  0
LINE
  8
0
  6
CONTINUOUS
 62
     7
 10
228.4517
 20
-176.1732
 11
231.5798
 21
-176.1732
  0
LINE
  8
0
  6
CONTINUOUS
 62
     7
 10
231.5798
 20
-167.1632
 11
231.5798
 21
-176.1732
  0
LINE
  8
0
  6
CONTINUOUS
 62
     7
 10
231.5801
 20
-167.1633
 11
232.4471
 21
-166.8185
  0
LINE
  8
0
  6
CONTINUOUS
 62
     7
 10
199.7572
 20
-162.8984
 11
202.3746
 21
-162.8984
  0
LINE
  8
0
  6
CONTINUOUS
 62
     7
 10
206.2618
 20
-162.8984
 11
207.2589
 21
-162.8984
  0
LINE
  8
0
  6
CONTINUOUS
 62
     7
 10
213.2023
 20
-162.8984
 11
216.3303
 21
-162.8984
  0
LINE
  8
0
  6
CONTINUOUS
 62
     7
 10
206.2618
 20
-164.4624
 11
207.2589
 21
-164.4624
  0
LINE
  8
0
  6
CONTINUOUS
 62
     7
 10
206.2618
 20
-162.8984
 11
206.2618
 21
-164.4624
  0
LINE
  8
0
  6
CONTINUOUS
 62
     7
 10
207.2589
 20
-162.8984
 11
207.2589
 21
-164.4624
  0
LINE
  8
0
  6
CONTINUOUS
 62
     7
 10
207.8454
 20
-162.8984
 11
207.8454
 21
-164.4624
  0
LINE
  8
0
  6
CONTINUOUS
 62
     7
 10
208.9598
 20
-162.8984
 11
208.9598
 21
-164.4624
  0
LINE
  8
0
  6
CONTINUOUS
 62
     7
 10
207.8454
 20
-162.8984
 11
208.9598
 21
-162.8984
  0
LINE
  8
0
  6
CONTINUOUS
 62
     7
 10
207.8454
 20
-164.4624
 11
208.9598
 21
-164.4624
  0
LINE
  8
0
  6
CONTINUOUS
 62
     7
 10
154.382
 20
159.7753
 11
262.2472
 21
159.7753
  0
LINE
  8
0
  6
CONTINUOUS
 62
     7
 10
154.382
 20
180.0
 11
154.382
 21
159.7753
  0
LINE
  8
0
  6
CONTINUOUS
 62
     7
 10
154.382
 20
-159.7753
 11
154.382
 21
-180.0
  0
LINE
  8
0
  6
CONTINUOUS
 62
     7
 10
-87.41574
 20
180.0
 11
-87.41574
 21
-180.0
  0
LINE
  8
0
  6
CONTINUOUS
 62
     7
 10
87.41574
 20
180.0
 11
87.41574
 21
-180.0
  0
LINE
  8
0
  6
CONTINUOUS
 62
     7
 10
-262.2472
 20
60.00002
 11
87.41574
 21
60.00002
  0
LINE
  8
0
  6
CONTINUOUS
 62
     7
 10
-262.2472
 20
-60.00002
 11
87.41574
 21
-60.00002
  0
LINE
  8
0
  6
CONTINUOUS
 62
     7
 10
87.41574
 20
0.0
 11
262.2472
 21
0.0
  0
LINE
  8
0
  6
CONTINUOUS
 62
     7
 10
-178.7472
 20
82.60002
 11
-175.7472
 21
82.60002
  0
LINE
  8
0
  6
CENTER
 62
     2
 10
-177.2472
 20
81.06274
 11
-177.2472
 21
106.6647
  0
LINE
  8
0
  6
CONTINUOUS
 62
     7
 10
-175.7472
 20
82.60002
 11
-175.7472
 21
85.00002
  0
LINE
  8
0
  6
CONTINUOUS
 62
     7
 10
-178.7472
 20
82.60002
 11
-178.7472
 21
85.00002
  0
LINE
  8
0
  6
CONTINUOUS
 62
     7
 10
-176.0177
 20
82.60002
 11
-176.0177
 21
85.00002
  0
LINE
  8
0
  6
CONTINUOUS
 62
     7
 10
-178.4767
 20
82.60002
 11
-178.4767
 21
85.00002
  0
LINE
  8
0
  6
CONTINUOUS
 62
     7
 10
-174.4972
 20
85.00002
 11
-174.4972
 21
87.20002
  0
LINE
  8
0
  6
CONTINUOUS
 62
     7
 10
-179.9972
 20
85.00002
 11
-179.9972
 21
87.20002
  0
LINE
  8
0
  6
CONTINUOUS
 62
     7
 10
-180.4472
 20
87.45983
 11
-180.4472
 21
97.44022
  0
LINE
  8
0
  6
CONTINUOUS
 62
     7
 10
-174.0472
 20
87.45983
 11
-174.0472
 21
97.44022
  0
LINE
  8
0
  6
CONTINUOUS
 62
     7
 10
-179.9972
 20
97.70002
 11
-174.4972
 21
97.70002
  0
LINE
  8
0
  6
CONTINUOUS
 62
     7
 10
-179.9972
 20
87.20002
 11
-174.4972
 21
87.20002
  0
LINE
  8
0
  6
CONTINUOUS
 62
     7
 10
-175.6595
 20
87.45983
 11
-175.6595
 21
97.44022
  0
LINE
  8
0
  6
CONTINUOUS
 62
     7
 10
-178.8349
 20
87.45983
 11
-178.8349
 21
97.44022
  0
LINE
  8
0
  6
CONTINUOUS
 62
     7
 10
-174.4972
 20
97.70001
 11
-174.0472
 21
97.4402
  0
LINE
  8
0
  6
CONTINUOUS
 62
     7
 10
-179.9972
 20
97.70002
 11
-180.4472
 21
97.44022
  0
LINE
  8
0
  6
CONTINUOUS
 62
     7
 10
-174.4972
 20
87.20004
 11
-174.0472
 21
87.45985
  0
LINE
  8
0
  6
CONTINUOUS
 62
     7
 10
-179.9972
 20
87.20001
 11
-180.4472
 21
87.45982
  0
LINE
  8
0
  6
CONTINUOUS
 62
     7
 10
-179.9972
 20
85.70002
 11
-174.4972
 21
85.70002
  0
LINE
  8
0
  6
CONTINUOUS
 62
     7
 10
-179.9972
 20
85.00002
 11
-174.4972
 21
85.00002
  0
LINE
  8
0
  6
CENTER
 62
     2
 10
-180.8907
 20
101.6
 11
-165.4458
 21
101.6
  0
LINE
  8
0
  6
CONTINUOUS
 62
     7
 10
-179.2472
 20
98.73303
 11
-179.2472
 21
102.15
  0
LINE
  8
0
  6
CONTINUOUS
 62
     7
 10
-179.9972
 20
97.70002
 11
-179.9972
 21
102.15
  0
LINE
  8
0
  6
CONTINUOUS
 62
     7
 10
-174.4972
 20
97.70002
 11
-174.4972
 21
104.9
  0
LINE
  8
0
  6
CONTINUOUS
 62
     7
 10
-177.2472
 20
104.15
 11
-174.9302
 21
104.15
  0
LINE
  8
0
  6
CONTINUOUS
 62
     7
 10
-179.2472
 20
98.73303
 11
-175.2472
 21
98.73303
  0
LINE
  8
0
  6
CONTINUOUS
 62
     7
 10
-175.2472
 20
99.05003
 11
-174.9302
 21
99.05003
  0
LINE
  8
0
  6
CONTINUOUS
 62
     7
 10
-175.2472
 20
98.73303
 11
-175.2472
 21
99.05003
  0
LINE
  8
0
  6
CONTINUOUS
 62
     7
 10
-177.2472
 20
101.6
 11
-175.2472
 21
99.05001
  0
LINE
  8
0
  6
CONTINUOUS
 62
     7
 10
-179.9972
 20
98.30003
 11
-179.2472
 21
98.73304
  0
LINE
  8
0
  6
CONTINUOUS
 62
     7
 10
-174.4972
 20
98.30002
 11
-175.2472
 21
98.73303
  0
LINE
  8
0
  6
CONTINUOUS
 62
     7
 10
-167.6472
 20
105.1
 11
-166.4472
 21
105.1
  0
LINE
  8
0
  6
CONTINUOUS
 62
     7
 10
-166.4472
 20
105.1
 11
-166.4472
 21
98.10001
  0
LINE
  8
0
  6
CONTINUOUS
 62
     7
 10
-167.6472
 20
105.1
 11
-167.6472
 21
98.10001
  0
LINE
  8
0
  6
CONTINUOUS
 62
     7
 10
-168.0472
 20
103.6
 11
-167.6472
 21
103.6
  0
LINE
  8
0
  6
CONTINUOUS
 62
     7
 10
-168.0472
 20
99.60002
 11
-167.6472
 21
99.60002
  0
LINE
  8
0
  6
CONTINUOUS
 62
     7
 10
-167.6472
 20
98.10002
 11
-166.4472
 21
98.10002
  0
LINE
  8
0
  6
CONTINUOUS
 62
     7
 10
-169.2472
 20
98.85002
 11
-168.0472
 21
98.85002
  0
LINE
  8
0
  6
CONTINUOUS
 62
     7
 10
-168.0472
 20
104.35
 11
-168.0472
 21
98.85002
  0
LINE
  8
0
  6
CONTINUOUS
 62
     7
 10
-169.2472
 20
104.35
 11
-168.0472
 21
104.35
  0
LINE
  8
0
  6
CONTINUOUS
 62
     7
 10
-169.2472
 20
104.35
 11
-169.2472
 21
98.85002
  0
LINE
  8
0
  6
CONTINUOUS
 62
     7
 10
-170.7472
 20
104.9
 11
-169.2472
 21
104.35
  0
LINE
  8
0
  6
CONTINUOUS
 62
     7
 10
-170.7472
 20
104.9
 11
-170.7472
 21
98.30003
  0
LINE
  8
0
  6
CONTINUOUS
 62
     7
 10
-170.7472
 20
98.30002
 11
-169.2472
 21
98.85002
  0
LINE
  8
0
  6
CONTINUOUS
 62
     7
 10
-179.9972
 20
98.30003
 11
-170.7472
 21
98.30003
  0
LINE
  8
0
  6
CONTINUOUS
 62
     7
 10
-177.2472
 20
104.9
 11
-170.7472
 21
104.9
  0
LINE
  8
0
  6
CONTINUOUS
 62
     7
 10
-174.9302
 20
104.15
 11
-174.9302
 21
99.05003
  0
LINE
  8
0
  6
CONTINUOUS
 62
     7
 10
-174.9302
 20
104.15
 11
-174.4972
 21
104.9
  0
LINE
  8
0
  6
CONTINUOUS
 62
     7
 10
-174.9302
 20
99.05001
 11
-174.4972
 21
98.30002
  0
LINE
  8
0
  6
CONTINUOUS
 62
     7
 10
-167.6472
 20
121.5
 11
-166.4472
 21
121.5
  0
LINE
  8
0
  6
CONTINUOUS
 62
     7
 10
-166.4472
 20
128.5
 11
-166.4472
 21
121.5
  0
LINE
  8
0
  6
CONTINUOUS
 62
     7
 10
-167.6472
 20
128.5
 11
-166.4472
 21
128.5
  0
LINE
  8
0
  6
CONTINUOUS
 62
     7
 10
-167.6472
 20
128.5
 11
-167.6472
 21
121.5
  0
LINE
  8
0
  6
CONTINUOUS
 62
     7
 10
-169.2472
 20
127.75
 11
-168.0472
 21
127.75
  0
LINE
  8
0
  6
CONTINUOUS
 62
     7
 10
-169.2472
 20
122.25
 11
-168.0472
 21
122.25
  0
LINE
  8
0
  6
CONTINUOUS
 62
     7
 10
-168.0472
 20
127.0
 11
-167.6472
 21
127.0
  0
LINE
  8
0
  6
CONTINUOUS
 62
     7
 10
-168.0472
 20
123.0
 11
-167.6472
 21
123.0
  0
LINE
  8
0
  6
CONTINUOUS
 62
     7
 10
-168.0472
 20
127.75
 11
-168.0472
 21
122.25
  0
LINE
  8
0
  6
CONTINUOUS
 62
     7
 10
-174.4972
 20
121.7
 11
-170.7472
 21
121.7
  0
LINE
  8
0
  6
CONTINUOUS
 62
     7
 10
-169.2472
 20
127.75
 11
-169.2472
 21
122.25
  0
LINE
  8
0
  6
CONTINUOUS
 62
     7
 10
-170.7472
 20
128.3
 11
-170.7472
 21
121.7
  0
LINE
  8
0
  6
CONTINUOUS
 62
     7
 10
-170.7472
 20
128.3
 11
-169.2472
 21
127.75
  0
LINE
  8
0
  6
CONTINUOUS
 62
     7
 10
-170.7472
 20
121.7
 11
-169.2472
 21
122.25
  0
LINE
  8
0
  6
CONTINUOUS
 62
     7
 10
-174.4972
 20
128.3
 11
-170.7472
 21
128.3
  0
LINE
  8
0
  6
CONTINUOUS
 62
     7
 10
-174.9302
 20
127.55
 11
-174.4972
 21
128.3
  0
LINE
  8
0
  6
CONTINUOUS
 62
     7
 10
-174.9302
 20
127.55
 11
-174.9302
 21
125.5
  0
LINE
  8
0
  6
CONTINUOUS
 62
     7
 10
-174.9302
 20
122.45
 11
-174.4972
 21
121.7
  0
LINE
  8
0
  6
CENTER
 62
     2
 10
-181.3855
 20
125.0
 11
-165.4458
 21
125.0
  0
LINE
  8
0
  6
CENTER
 62
     2
 10
-177.2472
 20
129.2729
 11
-177.2472
 21
120.881
  0
LINE
  8
0
  6
CONTINUOUS
 62
     7
 10
-175.6595
 20
122.25
 11
-175.47
 21
122.5782
  0
LINE
  8
0
  6
CONTINUOUS
 62
     7
 10
-175.4701
 20
127.4219
 11
-175.6595
 21
127.75
  0
LINE
  8
0
  6
CONTINUOUS
 62
     7
 10
-175.6595
 20
127.75
 11
-178.8349
 21
127.75
  0
LINE
  8
0
  6
CONTINUOUS
 62
     7
 10
-178.8349
 20
127.75
 11
-180.4227
 21
125.0
  0
LINE
  8
0
  6
CONTINUOUS
 62
     7
 10
-180.4227
 20
125.0
 11
-178.835
 21
122.25
  0
LINE
  8
0
  6
CONTINUOUS
 62
     7
 10
-178.8349
 20
122.25
 11
-175.6595
 21
122.25
  0
LINE
  8
0
  6
CONTINUOUS
 62
     7
 10
-174.4972
 20
128.3
 11
-174.4972
 21
125.5
  0
LINE
  8
0
  6
CONTINUOUS
 62
     7
 10
-177.2472
 20
123.0
 11
-174.9302
 21
122.45
  0
LINE
  8
0
  6
CONTINUOUS
 62
     7
 10
-177.2472
 20
127.0
 11
-174.9302
 21
127.55
  0
LINE
  8
0
  6
CONTINUOUS
 62
     7
 10
-179.9514
 20
125.5
 11
-174.4972
 21
125.5
  0
LINE
  8
0
  6
CONTINUOUS
 62
     7
 10
-179.9514
 20
124.5
 11
-174.4972
 21
124.5
  0
LINE
  8
0
  6
CONTINUOUS
 62
     7
 10
-174.9302
 20
122.45
 11
-174.9302
 21
124.5
  0
LINE
  8
0
  6
CONTINUOUS
 62
     7
 10
-174.4972
 20
124.5
 11
-174.4972
 21
121.7
  0
LINE
  8
0
  6
CENTER
 62
     2
 10
-227.2472
 20
81.11363
 11
-227.2472
 21
106.6288
  0
LINE
  8
0
  6
CENTER
 62
     2
 10
-223.0162
 20
101.6
 11
-231.4803
 21
101.6
  0
LINE
  8
0
  6
CONTINUOUS
 62
     7
 10
-229.9972
 20
98.30002
 11
-229.2472
 21
98.73303
  0
LINE
  8
0
  6
CONTINUOUS
 62
     7
 10
-224.4972
 20
98.30003
 11
-225.2472
 21
98.73304
  0
LINE
  8
0
  6
CONTINUOUS
 62
     7
 10
-228.7472
 20
82.60002
 11
-225.7472
 21
82.60002
  0
LINE
  8
0
  6
CONTINUOUS
 62
     7
 10
-225.7472
 20
82.60002
 11
-225.7472
 21
85.00002
  0
LINE
  8
0
  6
CONTINUOUS
 62
     7
 10
-228.7472
 20
82.60002
 11
-228.7472
 21
85.00002
  0
LINE
  8
0
  6
CONTINUOUS
 62
     7
 10
-226.0177
 20
82.60002
 11
-226.0177
 21
85.00002
  0
LINE
  8
0
  6
CONTINUOUS
 62
     7
 10
-228.4767
 20
82.60002
 11
-228.4767
 21
85.00002
  0
LINE
  8
0
  6
CONTINUOUS
 62
     7
 10
-224.4972
 20
85.00002
 11
-224.4972
 21
98.30002
  0
LINE
  8
0
  6
CONTINUOUS
 62
     7
 10
-229.9972
 20
85.00002
 11
-229.9972
 21
98.30002
  0
LINE
  8
0
  6
CONTINUOUS
 62
     7
 10
-229.9972
 20
97.70003
 11
-224.4972
 21
97.70003
  0
LINE
  8
0
  6
CONTINUOUS
 62
     7
 10
-229.9972
 20
87.20002
 11
-224.4972
 21
87.20002
  0
LINE
  8
0
  6
CONTINUOUS
 62
     7
 10
-229.9972
 20
85.00002
 11
-224.4972
 21
85.00002
  0
LINE
  8
0
  6
CONTINUOUS
 62
     7
 10
-229.9972
 20
85.70003
 11
-224.4972
 21
85.70003
  0
LINE
  8
0
  6
CONTINUOUS
 62
     7
 10
-227.2472
 20
87.45983
 11
-227.2472
 21
97.44022
  0
LINE
  8
0
  6
CONTINUOUS
 62
     7
 10
-224.4972
 20
98.30002
 11
-226.7472
 21
98.30002
  0
LINE
  8
0
  6
CONTINUOUS
 62
     7
 10
-225.2472
 20
98.73303
 11
-225.2472
 21
102.164
  0
LINE
  8
0
  6
CONTINUOUS
 62
     7
 10
-229.2472
 20
98.73303
 11
-229.2472
 21
102.164
  0
LINE
  8
0
  6
CONTINUOUS
 62
     7
 10
-229.2472
 20
98.73303
 11
-227.7472
 21
98.73303
  0
LINE
  8
0
  6
CONTINUOUS
 62
     7
 10
-226.7472
 20
98.30002
 11
-226.7472
 21
104.8619
  0
LINE
  8
0
  6
CONTINUOUS
 62
     7
 10
-227.7472
 20
98.30002
 11
-227.7472
 21
104.8619
  0
LINE
  8
0
  6
CONTINUOUS
 62
     7
 10
-227.7472
 20
98.30002
 11
-229.9972
 21
98.30002
  0
LINE
  8
0
  6
CONTINUOUS
 62
     7
 10
-226.7472
 20
98.73303
 11
-225.2472
 21
98.73303
  0
LINE
  8
0
  6
CENTER
 62
     2
 10
-127.2472
 20
106.6647
 11
-127.2472
 21
81.11363
  0
LINE
  8
0
  6
CENTER
 62
     2
 10
-131.8743
 20
101.6
 11
-122.6514
 21
101.6
  0
LINE
  8
0
  6
CONTINUOUS
 62
     7
 10
-129.9972
 20
98.30002
 11
-129.2472
 21
98.73303
  0
LINE
  8
0
  6
CONTINUOUS
 62
     7
 10
-124.4972
 20
98.30003
 11
-125.2472
 21
98.73305
  0
LINE
  8
0
  6
CONTINUOUS
 62
     7
 10
-128.7472
 20
82.60002
 11
-125.7472
 21
82.60002
  0
LINE
  8
0
  6
CONTINUOUS
 62
     7
 10
-125.7472
 20
82.60002
 11
-125.7472
 21
85.00002
  0
LINE
  8
0
  6
CONTINUOUS
 62
     7
 10
-128.7472
 20
82.60002
 11
-128.7472
 21
85.00002
  0
LINE
  8
0
  6
CONTINUOUS
 62
     7
 10
-126.0177
 20
82.60002
 11
-126.0177
 21
85.00002
  0
LINE
  8
0
  6
CONTINUOUS
 62
     7
 10
-128.4767
 20
82.60002
 11
-128.4767
 21
85.00002
  0
LINE
  8
0
  6
CONTINUOUS
 62
     7
 10
-124.4972
 20
85.00002
 11
-124.4972
 21
98.30002
  0
LINE
  8
0
  6
CONTINUOUS
 62
     7
 10
-129.9972
 20
85.00002
 11
-129.9972
 21
98.30002
  0
LINE
  8
0
  6
CONTINUOUS
 62
     7
 10
-129.9972
 20
97.70003
 11
-124.4972
 21
97.70003
  0
LINE
  8
0
  6
CONTINUOUS
 62
     7
 10
-129.9972
 20
87.20002
 11
-124.4972
 21
87.20002
  0
LINE
  8
0
  6
CONTINUOUS
 62
     7
 10
-129.9972
 20
85.00002
 11
-124.4972
 21
85.00002
  0
LINE
  8
0
  6
CONTINUOUS
 62
     7
 10
-129.9972
 20
85.70003
 11
-124.4972
 21
85.70003
  0
LINE
  8
0
  6
CONTINUOUS
 62
     7
 10
-127.2472
 20
87.45983
 11
-127.2472
 21
97.44022
  0
LINE
  8
0
  6
CONTINUOUS
 62
     7
 10
-124.4972
 20
98.30002
 11
-126.1702
 21
98.30002
  0
LINE
  8
0
  6
CONTINUOUS
 62
     7
 10
-129.2472
 20
98.73303
 11
-129.0904
 21
98.73303
  0
LINE
  8
0
  6
CONTINUOUS
 62
     7
 10
-124.2472
 20
102.1
 11
-124.2472
 21
101.1
  0
LINE
  8
0
  6
CONTINUOUS
 62
     7
 10
-130.2472
 20
102.1
 11
-130.2472
 21
101.1
  0
LINE
  8
0
  6
CONTINUOUS
 62
     7
 10
-128.3242
 20
98.30002
 11
-129.9972
 21
98.30002
  0
LINE
  8
0
  6
CONTINUOUS
 62
     7
 10
-125.404
 20
98.73303
 11
-125.2472
 21
98.73303
  0
LINE
  8
0
  6
CONTINUOUS
 62
     7
 10
-129.2472
 20
98.86395
 11
-129.2472
 21
98.73303
  0
LINE
  8
0
  6
CONTINUOUS
 62
     7
 10
-125.2472
 20
98.86395
 11
-125.2472
 21
98.73303
  0
LINE
  8
0
  6
CENTER
 62
     2
 10
-177.2472
 20
-39.69322
 11
-177.2472
 21
-7.81958
  0
LINE
  8
0
  6
CONTINUOUS
 62
     7
 10
-179.9972
 20
-32.80001
 11
-174.4972
 21
-32.80001
  0
LINE
  8
0
  6
CONTINUOUS
 62
     7
 10
-181.2472
 20
-18.70001
 11
-173.2472
 21
-18.70001
  0
LINE
  8
0
  6
CONTINUOUS
 62
     7
 10
-172.6284
 20
-19.05727
 11
-173.2472
 21
-18.70001
  0
LINE
  8
0
  6
CONTINUOUS
 62
     7
 10
-172.6284
 20
-31.19274
 11
-172.6284
 21
-19.05727
  0
LINE
  8
0
  6
CONTINUOUS
 62
     7
 10
-174.9378
 20
-31.19274
 11
-174.9378
 21
-19.15727
  0
LINE
  8
0
  6
CONTINUOUS
 62
     7
 10
-179.5566
 20
-31.19274
 11
-179.5566
 21
-19.15727
  0
LINE
  8
0
  6
CONTINUOUS
 62
     7
 10
-181.866
 20
-19.05727
 11
-181.2472
 21
-18.7
  0
LINE
  8
0
  6
CONTINUOUS
 62
     7
 10
-181.866
 20
-31.19274
 11
-181.866
 21
-19.05727
  0
LINE
  8
0
  6
CONTINUOUS
 62
     7
 10
-178.7472
 20
-37.40001
 11
-175.7472
 21
-37.40001
  0
LINE
  8
0
  6
CONTINUOUS
 62
     7
 10
-175.7472
 20
-37.40001
 11
-175.7472
 21
-35.00001
  0
LINE
  8
0
  6
CONTINUOUS
 62
     7
 10
-178.7472
 20
-37.40001
 11
-178.7472
 21
-35.00001
  0
LINE
  8
0
  6
CONTINUOUS
 62
     7
 10
-176.0177
 20
-37.40001
 11
-176.0177
 21
-35.00001
  0
LINE
  8
0
  6
CONTINUOUS
 62
     7
 10
-178.4767
 20
-37.40001
 11
-178.4767
 21
-35.00001
  0
LINE
  8
0
  6
CONTINUOUS
 62
     7
 10
-174.4972
 20
-35.00001
 11
-174.4972
 21
-32.80001
  0
LINE
  8
0
  6
CONTINUOUS
 62
     7
 10
-179.9972
 20
-35.00001
 11
-179.9972
 21
-32.80001
  0
LINE
  8
0
  6
CONTINUOUS
 62
     7
 10
-179.9972
 20
-35.00001
 11
-174.4972
 21
-35.00001
  0
LINE
  8
0
  6
CONTINUOUS
 62
     7
 10
-179.9972
 20
-34.30001
 11
-174.4972
 21
-34.30001
  0
LINE
  8
0
  6
CONTINUOUS
 62
     7
 10
-174.4972
 20
-32.80001
 11
-173.1452
 21
-31.44793
  0
LINE
  8
0
  6
CONTINUOUS
 62
     7
 10
-179.9972
 20
-32.80002
 11
-181.3493
 21
-31.44794
  0
LINE
  8
0
  6
CENTER
 62
     2
 10
-182.8527
 20
-14.40001
 11
-160.8419
 21
-14.40001
  0
LINE
  8
0
  6
CONTINUOUS
 62
     7
 10
-181.2472
 20
-18.70001
 11
-181.2472
 21
-14.10001
  0
LINE
  8
0
  6
CONTINUOUS
 62
     7
 10
-173.2472
 20
-18.70001
 11
-173.2472
 21
-17.70001
  0
LINE
  8
0
  6
CONTINUOUS
 62
     7
 10
-180.2472
 20
-17.12266
 11
-180.2472
 21
-14.10001
  0
LINE
  8
0
  6
CONTINUOUS
 62
     7
 10
-177.2472
 20
-11.10001
 11
-172.1246
 21
-11.10001
  0
LINE
  8
0
  6
CONTINUOUS
 62
     7
 10
-181.2472
 20
-17.70001
 11
-172.1246
 21
-17.70001
  0
LINE
  8
0
  6
CONTINUOUS
 62
     7
 10
-177.2472
 20
-14.40001
 11
-174.2472
 21
-17.12266
  0
LINE
  8
0
  6
CONTINUOUS
 62
     7
 10
-181.2472
 20
-17.70001
 11
-180.2472
 21
-17.12266
  0
LINE
  8
0
  6
CONTINUOUS
 62
     7
 10
-173.2472
 20
-17.70001
 11
-174.2472
 21
-17.12266
  0
LINE
  8
0
  6
CONTINUOUS
 62
     7
 10
-180.2472
 20
-17.12266
 11
-174.2472
 21
-17.12266
  0
LINE
  8
0
  6
CONTINUOUS
 62
     7
 10
-163.3472
 20
-9.50001
 11
-162.1472
 21
-9.50001
  0
LINE
  8
0
  6
CONTINUOUS
 62
     7
 10
-162.1472
 20
-9.50001
 11
-162.1472
 21
-19.30001
  0
LINE
  8
0
  6
CONTINUOUS
 62
     7
 10
-163.3472
 20
-9.50001
 11
-163.3472
 21
-19.30001
  0
LINE
  8
0
  6
CONTINUOUS
 62
     7
 10
-163.3472
 20
-19.30001
 11
-162.1472
 21
-19.30001
  0
LINE
  8
0
  6
CONTINUOUS
 62
     7
 10
-164.0472
 20
-16.90001
 11
-163.3472
 21
-16.90001
  0
LINE
  8
0
  6
CONTINUOUS
 62
     7
 10
-164.0472
 20
-11.90001
 11
-163.3472
 21
-11.90001
  0
LINE
  8
0
  6
CONTINUOUS
 62
     7
 10
-164.0472
 20
-10.40001
 11
-164.0472
 21
-18.40001
  0
LINE
  8
0
  6
CONTINUOUS
 62
     7
 10
-164.8472
 20
-10.40001
 11
-164.0472
 21
-10.40001
  0
LINE
  8
0
  6
CONTINUOUS
 62
     7
 10
-164.8472
 20
-18.40001
 11
-164.0472
 21
-18.40001
  0
LINE
  8
0
  6
CONTINUOUS
 62
     7
 10
-164.8472
 20
-10.40001
 11
-164.8472
 21
-18.40001
  0
LINE
  8
0
  6
CONTINUOUS
 62
     7
 10
-166.8472
 20
-18.70001
 11
-164.8472
 21
-18.40001
  0
LINE
  8
0
  6
CONTINUOUS
 62
     7
 10
-166.8472
 20
-10.10002
 11
-164.8472
 21
-10.40002
  0
LINE
  8
0
  6
CONTINUOUS
 62
     7
 10
-166.8472
 20
-10.10001
 11
-166.8472
 21
-18.70001
  0
LINE
  8
0
  6
CONTINUOUS
 62
     7
 10
-177.2472
 20
-10.10001
 11
-166.8472
 21
-10.10001
  0
LINE
  8
0
  6
CONTINUOUS
 62
     7
 10
-171.5472
 20
-10.10001
 11
-172.1246
 21
-11.1
  0
LINE
  8
0
  6
CONTINUOUS
 62
     7
 10
-171.5472
 20
-10.10001
 11
-171.5472
 21
-18.70001
  0
LINE
  8
0
  6
CONTINUOUS
 62
     7
 10
-172.1246
 20
-11.10001
 11
-172.1246
 21
-17.70001
  0
LINE
  8
0
  6
CONTINUOUS
 62
     7
 10
-171.5472
 20
-18.70001
 11
-172.1246
 21
-17.70001
  0
LINE
  8
0
  6
CONTINUOUS
 62
     7
 10
-171.5472
 20
-18.70001
 11
-166.8472
 21
-18.70001
  0
LINE
  8
0
  6
CONTINUOUS
 62
     7
 10
-162.1472
 20
24.89999
 11
-162.1472
 21
15.09999
  0
LINE
  8
0
  6
CONTINUOUS
 62
     7
 10
-163.3472
 20
24.89999
 11
-162.1472
 21
24.89999
  0
LINE
  8
0
  6
CONTINUOUS
 62
     7
 10
-163.3472
 20
15.09999
 11
-162.1472
 21
15.09999
  0
LINE
  8
0
  6
CONTINUOUS
 62
     7
 10
-164.0472
 20
23.99999
 11
-164.0472
 21
15.99999
  0
LINE
  8
0
  6
CONTINUOUS
 62
     7
 10
-163.3472
 20
24.89999
 11
-163.3472
 21
15.09999
  0
LINE
  8
0
  6
CONTINUOUS
 62
     7
 10
-164.8472
 20
15.99999
 11
-164.0472
 21
15.99999
  0
LINE
  8
0
  6
CONTINUOUS
 62
     7
 10
-164.8472
 20
23.99999
 11
-164.0472
 21
23.99999
  0
LINE
  8
0
  6
CONTINUOUS
 62
     7
 10
-164.0472
 20
17.49999
 11
-163.3472
 21
17.49999
  0
LINE
  8
0
  6
CONTINUOUS
 62
     7
 10
-164.0472
 20
22.49999
 11
-163.3472
 21
22.49999
  0
LINE
  8
0
  6
CONTINUOUS
 62
     7
 10
-171.5472
 20
24.3
 11
-166.8472
 21
24.3
  0
LINE
  8
0
  6
CONTINUOUS
 62
     7
 10
-171.5472
 20
15.69999
 11
-166.8472
 21
15.69999
  0
LINE
  8
0
  6
CONTINUOUS
 62
     7
 10
-164.8472
 20
23.99999
 11
-164.8472
 21
15.99999
  0
LINE
  8
0
  6
CONTINUOUS
 62
     7
 10
-171.5472
 20
24.3
 11
-171.5472
 21
20.49999
  0
LINE
  8
0
  6
CONTINUOUS
 62
     7
 10
-166.8472
 20
24.3
 11
-166.8472
 21
15.69999
  0
LINE
  8
0
  6
CONTINUOUS
 62
     7
 10
-166.8472
 20
24.29996
 11
-164.8472
 21
23.99997
  0
LINE
  8
0
  6
CONTINUOUS
 62
     7
 10
-166.8472
 20
15.69998
 11
-164.8472
 21
15.99998
  0
LINE
  8
0
  6
CONTINUOUS
 62
     7
 10
-171.5472
 20
15.69998
 11
-172.1246
 21
16.69999
  0
LINE
  8
0
  6
CONTINUOUS
 62
     7
 10
-171.5472
 20
24.3
 11
-172.1246
 21
23.3
  0
LINE
  8
0
  6
CONTINUOUS
 62
     7
 10
-172.1246
 20
23.3
 11
-172.1246
 21
20.49999
  0
LINE
  8
0
  6
CENTER
 62
     2
 10
-182.8527
 20
19.99999
 11
-160.8419
 21
19.99999
  0
LINE
  8
0
  6
CENTER
 62
     2
 10
-177.2472
 20
24.9172
 11
-177.2472
 21
15.05191
  0
LINE
  8
0
  6
CONTINUOUS
 62
     7
 10
-179.5567
 20
16.00003
 11
-174.9379
 21
16.00002
  0
LINE
  8
0
  6
CONTINUOUS
 62
     7
 10
-174.9378
 20
15.99999
 11
-174.4549
 21
16.83646
  0
LINE
  8
0
  6
CONTINUOUS
 62
     7
 10
-174.4549
 20
23.16353
 11
-174.9378
 21
24.0
  0
LINE
  8
0
  6
CONTINUOUS
 62
     7
 10
-174.9379
 20
24.00004
 11
-179.5567
 21
24.00004
  0
LINE
  8
0
  6
CONTINUOUS
 62
     7
 10
-179.5567
 20
24.00002
 11
-181.8661
 21
20.00002
  0
LINE
  8
0
  6
CONTINUOUS
 62
     7
 10
-181.8661
 20
20.00001
 11
-179.5567
 21
16.00001
  0
LINE
  8
0
  6
CONTINUOUS
 62
     7
 10
-172.1246
 20
23.3
 11
-177.2472
 21
22.99999
  0
LINE
  8
0
  6
CONTINUOUS
 62
     7
 10
-172.1246
 20
16.69999
 11
-177.2472
 21
16.99999
  0
LINE
  8
0
  6
CONTINUOUS
 62
     7
 10
-181.2159
 20
20.49999
 11
-171.5472
 21
20.49999
  0
LINE
  8
0
  6
CONTINUOUS
 62
     7
 10
-181.2159
 20
19.49999
 11
-171.5472
 21
19.49999
  0
LINE
  8
0
  6
CONTINUOUS
 62
     7
 10
-172.1246
 20
16.69999
 11
-172.1246
 21
19.49999
  0
LINE
  8
0
  6
CONTINUOUS
 62
     7
 10
-171.5472
 20
15.7
 11
-171.5472
 21
19.49999
  0
LINE
  8
0
  6
CONTINUOUS
 62
     7
 10
-223.2472
 20
-17.70001
 11
-224.2472
 21
-17.12265
  0
LINE
  8
0
  6
CENTER
 62
     2
 10
-227.2472
 20
-39.77729
 11
-227.2472
 21
-7.81958
  0
LINE
  8
0
  6
CONTINUOUS
 62
     7
 10
-229.9972
 20
-32.80001
 11
-224.4972
 21
-32.80001
  0
LINE
  8
0
  6
CONTINUOUS
 62
     7
 10
-231.2472
 20
-18.70001
 11
-223.2472
 21
-18.70001
  0
LINE
  8
0
  6
CONTINUOUS
 62
     7
 10
-223.2472
 20
-31.55001
 11
-223.2472
 21
-17.7
  0
LINE
  8
0
  6
CONTINUOUS
 62
     7
 10
-231.2472
 20
-31.55001
 11
-231.2472
 21
-17.70001
  0
LINE
  8
0
  6
CONTINUOUS
 62
     7
 10
-228.7472
 20
-37.40001
 11
-225.7472
 21
-37.40001
  0
LINE
  8
0
  6
CONTINUOUS
 62
     7
 10
-225.7472
 20
-37.40001
 11
-225.7472
 21
-35.00001
  0
LINE
  8
0
  6
CONTINUOUS
 62
     7
 10
-228.7472
 20
-37.40001
 11
-228.7472
 21
-35.00001
  0
LINE
  8
0
  6
CONTINUOUS
 62
     7
 10
-226.0177
 20
-37.40001
 11
-226.0177
 21
-35.00001
  0
LINE
  8
0
  6
CONTINUOUS
 62
     7
 10
-228.4767
 20
-37.40001
 11
-228.4767
 21
-35.00001
  0
LINE
  8
0
  6
CONTINUOUS
 62
     7
 10
-224.4972
 20
-35.00001
 11
-224.4972
 21
-32.80001
  0
LINE
  8
0
  6
CONTINUOUS
 62
     7
 10
-229.9972
 20
-35.00001
 11
-229.9972
 21
-32.80001
  0
LINE
  8
0
  6
CONTINUOUS
 62
     7
 10
-229.9972
 20
-35.00001
 11
-224.4972
 21
-35.00001
  0
LINE
  8
0
  6
CONTINUOUS
 62
     7
 10
-229.9972
 20
-34.30001
 11
-224.4972
 21
-34.30001
  0
LINE
  8
0
  6
CONTINUOUS
 62
     7
 10
-224.4972
 20
-32.80001
 11
-223.2472
 21
-31.55002
  0
LINE
  8
0
  6
CONTINUOUS
 62
     7
 10
-229.9972
 20
-32.80001
 11
-231.2472
 21
-31.55002
  0
LINE
  8
0
  6
CONTINUOUS
 62
     7
 10
-227.2472
 20
-19.05727
 11
-227.2472
 21
-31.19274
  0
LINE
  8
0
  6
CONTINUOUS
 62
     7
 10
-231.2472
 20
-17.7
 11
-227.7472
 21
-17.70001
  0
LINE
  8
0
  6
CENTER
 62
     2
 10
-233.7026
 20
-14.40001
 11
-220.914
 21
-14.40001
  0
LINE
  8
0
  6
CONTINUOUS
 62
     7
 10
-224.2472
 20
-17.12266
 11
-224.2472
 21
-14.10001
  0
LINE
  8
0
  6
CONTINUOUS
 62
     7
 10
-226.7472
 20
-17.70001
 11
-226.7472
 21
-10.12918
  0
LINE
  8
0
  6
CONTINUOUS
 62
     7
 10
-227.7472
 20
-17.70001
 11
-227.7472
 21
-10.12918
  0
LINE
  8
0
  6
CONTINUOUS
 62
     7
 10
-226.7472
 20
-17.12266
 11
-224.2472
 21
-17.12266
  0
LINE
  8
0
  6
CONTINUOUS
 62
     7
 10
-226.7472
 20
-17.70001
 11
-223.2472
 21
-17.70001
  0
LINE
  8
0
  6
CONTINUOUS
 62
     7
 10
-231.2472
 20
-17.7
 11
-230.2472
 21
-17.12266
  0
LINE
  8
0
  6
CONTINUOUS
 62
     7
 10
-230.2472
 20
-17.12266
 11
-227.7472
 21
-17.12266
  0
LINE
  8
0
  6
CONTINUOUS
 62
     7
 10
-230.2472
 20
-17.12266
 11
-230.2472
 21
-14.10001
  0
LINE
  8
0
  6
CONTINUOUS
 62
     7
 10
-123.3472
 20
-13.40001
 11
-123.3472
 21
-15.40001
  0
LINE
  8
0
  6
CONTINUOUS
 62
     7
 10
-131.1472
 20
-13.40001
 11
-131.1472
 21
-15.40001
  0
LINE
  8
0
  6
CENTER
 62
     2
 10
-132.2673
 20
-14.40001
 11
-122.049
 21
-14.40001
  0
LINE
  8
0
  6
CONTINUOUS
 62
     7
 10
-131.2472
 20
-17.7
 11
-130.6288
 21
-17.34295
  0
LINE
  8
0
  6
CENTER
 62
     2
 10
-127.2472
 20
-39.60916
 11
-127.2472
 21
-7.84367
  0
LINE
  8
0
  6
CONTINUOUS
 62
     7
 10
-129.9972
 20
-32.8
 11
-124.4972
 21
-32.80001
  0
LINE
  8
0
  6
CONTINUOUS
 62
     7
 10
-131.2472
 20
-18.70001
 11
-129.3257
 21
-18.70001
  0
LINE
  8
0
  6
CONTINUOUS
 62
     7
 10
-123.2472
 20
-31.55001
 11
-123.2472
 21
-17.7
  0
LINE
  8
0
  6
CONTINUOUS
 62
     7
 10
-131.2472
 20
-31.55
 11
-131.2472
 21
-17.70001
  0
LINE
  8
0
  6
CONTINUOUS
 62
     7
 10
-128.7472
 20
-37.4
 11
-125.7472
 21
-37.40001
  0
LINE
  8
0
  6
CONTINUOUS
 62
     7
 10
-125.7472
 20
-37.40001
 11
-125.7472
 21
-35.00001
  0
LINE
  8
0
  6
CONTINUOUS
 62
     7
 10
-128.7472
 20
-37.40001
 11
-128.7472
 21
-35.00001
  0
LINE
  8
0
  6
CONTINUOUS
 62
     7
 10
-126.0177
 20
-37.40001
 11
-126.0177
 21
-35.00001
  0
LINE
  8
0
  6
CONTINUOUS
 62
     7
 10
-128.4767
 20
-37.40001
 11
-128.4767
 21
-35.00001
  0
LINE
  8
0
  6
CONTINUOUS
 62
     7
 10
-124.4972
 20
-35.00001
 11
-124.4972
 21
-32.80001
  0
LINE
  8
0
  6
CONTINUOUS
 62
     7
 10
-129.9972
 20
-35.00001
 11
-129.9972
 21
-32.80001
  0
LINE
  8
0
  6
CONTINUOUS
 62
     7
 10
-129.9972
 20
-35.0
 11
-124.4972
 21
-35.00001
  0
LINE
  8
0
  6
CONTINUOUS
 62
     7
 10
-129.9972
 20
-34.3
 11
-124.4972
 21
-34.30001
  0
LINE
  8
0
  6
CONTINUOUS
 62
     7
 10
-124.4972
 20
-32.80001
 11
-123.2472
 21
-31.55001
  0
LINE
  8
0
  6
CONTINUOUS
 62
     7
 10
-129.9972
 20
-32.8
 11
-131.2472
 21
-31.55
  0
LINE
  8
0
  6
CONTINUOUS
 62
     7
 10
-127.2472
 20
-19.3
 11
-127.2472
 21
-31.19274
  0
LINE
  8
0
  6
CONTINUOUS
 62
     7
 10
-123.2472
 20
-17.69999
 11
-123.8657
 21
-17.34293
  0
LINE
  8
0
  6
CONTINUOUS
 62
     7
 10
-131.2472
 20
-17.7
 11
-130.3968
 21
-17.7
  0
LINE
  8
0
  6
CONTINUOUS
 62
     7
 10
-123.2472
 20
-17.70001
 11
-124.0976
 21
-17.70001
  0
LINE
  8
0
  6
CONTINUOUS
 62
     7
 10
-125.1688
 20
-18.70001
 11
-123.2472
 21
-18.70001
  0
LINE
  8
0
  6
CONTINUOUS
 62
     7
 10
-181.2472
 20
-152.7
 11
-173.2472
 21
-152.7
  0
LINE
  8
0
  6
CONTINUOUS
 62
     7
 10
-181.2472
 20
-139.7
 11
-173.2472
 21
-139.7
  0
LINE
  8
0
  6
CONTINUOUS
 62
     7
 10
-172.6284
 20
-140.0573
 11
-173.2472
 21
-139.7
  0
LINE
  8
0
  6
CONTINUOUS
 62
     7
 10
-172.6284
 20
-152.3428
 11
-172.6284
 21
-140.0573
  0
LINE
  8
0
  6
CONTINUOUS
 62
     7
 10
-174.9378
 20
-152.3428
 11
-174.9378
 21
-140.0573
  0
LINE
  8
0
  6
CONTINUOUS
 62
     7
 10
-179.5566
 20
-152.3428
 11
-179.5566
 21
-140.0573
  0
LINE
  8
0
  6
CONTINUOUS
 62
     7
 10
-172.6284
 20
-152.3428
 11
-173.2472
 21
-152.7
  0
LINE
  8
0
  6
CONTINUOUS
 62
     7
 10
-181.866
 20
-140.0573
 11
-181.2472
 21
-139.7
  0
LINE
  8
0
  6
CONTINUOUS
 62
     7
 10
-181.866
 20
-152.3428
 11
-181.2472
 21
-152.7
  0
LINE
  8
0
  6
CONTINUOUS
 62
     7
 10
-181.866
 20
-152.3428
 11
-181.866
 21
-140.0573
  0
LINE
  8
0
  6
CENTER
 62
     2
 10
-177.2472
 20
-162.59
 11
-177.2472
 21
-128.8196
  0
LINE
  8
0
  6
CENTER
 62
     2
 10
-182.8527
 20
-135.4
 11
-160.8419
 21
-135.4
  0
LINE
  8
0
  6
CONTINUOUS
 62
     7
 10
-181.2472
 20
-139.7
 11
-181.2472
 21
-135.1
  0
LINE
  8
0
  6
CONTINUOUS
 62
     7
 10
-173.2472
 20
-139.7
 11
-173.2472
 21
-138.7
  0
LINE
  8
0
  6
CONTINUOUS
 62
     7
 10
-180.2472
 20
-138.1227
 11
-180.2472
 21
-135.1
  0
LINE
  8
0
  6
CONTINUOUS
 62
     7
 10
-177.2472
 20
-132.1
 11
-172.1246
 21
-132.1
  0
LINE
  8
0
  6
CONTINUOUS
 62
     7
 10
-181.2472
 20
-138.7
 11
-172.1246
 21
-138.7
  0
LINE
  8
0
  6
CONTINUOUS
 62
     7
 10
-177.2472
 20
-135.4
 11
-174.2472
 21
-138.1227
  0
LINE
  8
0
  6
CONTINUOUS
 62
     7
 10
-181.2472
 20
-138.7
 11
-180.2472
 21
-138.1227
  0
LINE
  8
0
  6
CONTINUOUS
 62
     7
 10
-173.2472
 20
-138.7
 11
-174.2472
 21
-138.1227
  0
LINE
  8
0
  6
CONTINUOUS
 62
     7
 10
-180.2472
 20
-138.1227
 11
-174.2472
 21
-138.1227
  0
LINE
  8
0
  6
CONTINUOUS
 62
     7
 10
-163.3472
 20
-130.5
 11
-162.1472
 21
-130.5
  0
LINE
  8
0
  6
CONTINUOUS
 62
     7
 10
-162.1472
 20
-130.5
 11
-162.1472
 21
-140.3
  0
LINE
  8
0
  6
CONTINUOUS
 62
     7
 10
-163.3472
 20
-130.5
 11
-163.3472
 21
-140.3
  0
LINE
  8
0
  6
CONTINUOUS
 62
     7
 10
-163.3472
 20
-140.3
 11
-162.1472
 21
-140.3
  0
LINE
  8
0
  6
CONTINUOUS
 62
     7
 10
-164.0472
 20
-137.9
 11
-163.3472
 21
-137.9
  0
LINE
  8
0
  6
CONTINUOUS
 62
     7
 10
-164.0472
 20
-132.9
 11
-163.3472
 21
-132.9
  0
LINE
  8
0
  6
CONTINUOUS
 62
     7
 10
-164.0472
 20
-131.4
 11
-164.0472
 21
-139.4
  0
LINE
  8
0
  6
CONTINUOUS
 62
     7
 10
-164.8472
 20
-131.4
 11
-164.0472
 21
-131.4
  0
LINE
  8
0
  6
CONTINUOUS
 62
     7
 10
-164.8472
 20
-139.4
 11
-164.0472
 21
-139.4
  0
LINE
  8
0
  6
CONTINUOUS
 62
     7
 10
-164.8472
 20
-131.4
 11
-164.8472
 21
-139.4
  0
LINE
  8
0
  6
CONTINUOUS
 62
     7
 10
-166.8472
 20
-139.7
 11
-164.8472
 21
-139.4
  0
LINE
  8
0
  6
CONTINUOUS
 62
     7
 10
-166.8472
 20
-131.1
 11
-164.8472
 21
-131.4
  0
LINE
  8
0
  6
CONTINUOUS
 62
     7
 10
-166.8472
 20
-131.1
 11
-166.8472
 21
-139.7
  0
LINE
  8
0
  6
CONTINUOUS
 62
     7
 10
-177.2472
 20
-131.1
 11
-166.8472
 21
-131.1
  0
LINE
  8
0
  6
CONTINUOUS
 62
     7
 10
-171.5472
 20
-131.1
 11
-172.1246
 21
-132.1
  0
LINE
  8
0
  6
CONTINUOUS
 62
     7
 10
-171.5472
 20
-131.1
 11
-171.5472
 21
-139.7
  0
LINE
  8
0
  6
CONTINUOUS
 62
     7
 10
-172.1246
 20
-132.1
 11
-172.1246
 21
-138.7
  0
LINE
  8
0
  6
CONTINUOUS
 62
     7
 10
-171.5472
 20
-139.7
 11
-172.1246
 21
-138.7
  0
LINE
  8
0
  6
CONTINUOUS
 62
     7
 10
-171.5472
 20
-139.7
 11
-166.8472
 21
-139.7
  0
LINE
  8
0
  6
CONTINUOUS
 62
     7
 10
-179.7472
 20
-160.4
 11
-174.7472
 21
-160.4
  0
LINE
  8
0
  6
CONTINUOUS
 62
     7
 10
-179.3142
 20
-160.4
 11
-179.3142
 21
-155.0
  0
LINE
  8
0
  6
CONTINUOUS
 62
     7
 10
-179.7472
 20
-160.4
 11
-179.7472
 21
-155.0
  0
LINE
  8
0
  6
CONTINUOUS
 62
     7
 10
-174.7472
 20
-160.4
 11
-174.7472
 21
-155.0
  0
LINE
  8
0
  6
CONTINUOUS
 62
     7
 10
-175.1802
 20
-160.4
 11
-175.1802
 21
-155.0
  0
LINE
  8
0
  6
CONTINUOUS
 62
     7
 10
-181.2472
 20
-154.2
 11
-173.2472
 21
-154.2
  0
LINE
  8
0
  6
CONTINUOUS
 62
     7
 10
-181.2472
 20
-155.0
 11
-173.2472
 21
-155.0
  0
LINE
  8
0
  6
CONTINUOUS
 62
     7
 10
-173.2472
 20
-155.0
 11
-173.2472
 21
-152.7
  0
LINE
  8
0
  6
CONTINUOUS
 62
     7
 10
-181.2472
 20
-155.0
 11
-181.2472
 21
-152.7
  0
LINE
  8
0
  6
CONTINUOUS
 62
     7
 10
-162.1472
 20
-95.10004
 11
-162.1472
 21
-104.9
  0
LINE
  8
0
  6
CONTINUOUS
 62
     7
 10
-163.3472
 20
-95.10004
 11
-162.1472
 21
-95.10004
  0
LINE
  8
0
  6
CONTINUOUS
 62
     7
 10
-163.3472
 20
-104.9
 11
-162.1472
 21
-104.9
  0
LINE
  8
0
  6
CONTINUOUS
 62
     7
 10
-164.0472
 20
-96.00004
 11
-164.0472
 21
-104.0
  0
LINE
  8
0
  6
CONTINUOUS
 62
     7
 10
-163.3472
 20
-95.10004
 11
-163.3472
 21
-104.9
  0
LINE
  8
0
  6
CONTINUOUS
 62
     7
 10
-164.8472
 20
-104.0
 11
-164.0472
 21
-104.0
  0
LINE
  8
0
  6
CONTINUOUS
 62
     7
 10
-164.8472
 20
-96.00004
 11
-164.0472
 21
-96.00004
  0
LINE
  8
0
  6
CONTINUOUS
 62
     7
 10
-164.0472
 20
-102.5
 11
-163.3472
 21
-102.5
  0
LINE
  8
0
  6
CONTINUOUS
 62
     7
 10
-164.0472
 20
-97.50004
 11
-163.3472
 21
-97.50004
  0
LINE
  8
0
  6
CONTINUOUS
 62
     7
 10
-171.5472
 20
-95.70004
 11
-166.8472
 21
-95.70004
  0
LINE
  8
0
  6
CONTINUOUS
 62
     7
 10
-171.5472
 20
-104.3
 11
-166.8472
 21
-104.3
  0
LINE
  8
0
  6
CONTINUOUS
 62
     7
 10
-164.8472
 20
-96.00004
 11
-164.8472
 21
-104.0
  0
LINE
  8
0
  6
CONTINUOUS
 62
     7
 10
-171.5472
 20
-95.70004
 11
-171.5472
 21
-99.50004
  0
LINE
  8
0
  6
CONTINUOUS
 62
     7
 10
-166.8472
 20
-95.70004
 11
-166.8472
 21
-104.3
  0
LINE
  8
0
  6
CONTINUOUS
 62
     7
 10
-166.8472
 20
-95.70004
 11
-164.8472
 21
-96.00004
  0
LINE
  8
0
  6
CONTINUOUS
 62
     7
 10
-166.8472
 20
-104.3
 11
-164.8472
 21
-104.0
  0
LINE
  8
0
  6
CONTINUOUS
 62
     7
 10
-171.5472
 20
-104.3
 11
-172.1246
 21
-103.3
  0
LINE
  8
0
  6
CONTINUOUS
 62
     7
 10
-171.5472
 20
-95.70004
 11
-172.1246
 21
-96.70004
  0
LINE
  8
0
  6
CONTINUOUS
 62
     7
 10
-172.1246
 20
-96.70004
 11
-172.1246
 21
-99.50004
  0
LINE
  8
0
  6
CENTER
 62
     2
 10
-182.8527
 20
-100.0
 11
-160.8419
 21
-100.0
  0
LINE
  8
0
  6
CENTER
 62
     2
 10
-177.2472
 20
-95.08282
 11
-177.2472
 21
-104.9481
  0
LINE
  8
0
  6
CONTINUOUS
 62
     7
 10
-179.5567
 20
-104.0
 11
-174.9379
 21
-104.0
  0
LINE
  8
0
  6
CONTINUOUS
 62
     7
 10
-174.9378
 20
-104.0
 11
-174.4549
 21
-103.1636
  0
LINE
  8
0
  6
CONTINUOUS
 62
     7
 10
-174.4549
 20
-96.83651
 11
-174.9378
 21
-96.00004
  0
LINE
  8
0
  6
CONTINUOUS
 62
     7
 10
-174.9379
 20
-96.00001
 11
-179.5567
 21
-96.00001
  0
LINE
  8
0
  6
CONTINUOUS
 62
     7
 10
-179.5567
 20
-96.00005
 11
-181.8661
 21
-100.0
  0
LINE
  8
0
  6
CONTINUOUS
 62
     7
 10
-181.8661
 20
-100.0001
 11
-179.5567
 21
-104.0001
  0
LINE
  8
0
  6
CONTINUOUS
 62
     7
 10
-172.1246
 20
-96.70004
 11
-177.2472
 21
-97.00004
  0
LINE
  8
0
  6
CONTINUOUS
 62
     7
 10
-172.1246
 20
-103.3
 11
-177.2472
 21
-103.0
  0
LINE
  8
0
  6
CONTINUOUS
 62
     7
 10
-181.2159
 20
-99.50004
 11
-171.5472
 21
-99.50004
  0
LINE
  8
0
  6
CONTINUOUS
 62
     7
 10
-181.2159
 20
-100.5
 11
-171.5472
 21
-100.5
  0
LINE
  8
0
  6
CONTINUOUS
 62
     7
 10
-172.1246
 20
-103.3
 11
-172.1246
 21
-100.5
  0
LINE
  8
0
  6
CONTINUOUS
 62
     7
 10
-171.5472
 20
-104.3
 11
-171.5472
 21
-100.5
  0
LINE
  8
0
  6
CONTINUOUS
 62
     7
 10
-223.2472
 20
-138.7
 11
-224.2472
 21
-138.1227
  0
LINE
  8
0
  6
CENTER
 62
     2
 10
-227.2472
 20
-162.4823
 11
-227.2472
 21
-128.8196
  0
LINE
  8
0
  6
CONTINUOUS
 62
     7
 10
-231.2472
 20
-139.7
 11
-223.2472
 21
-139.7
  0
LINE
  8
0
  6
CONTINUOUS
 62
     7
 10
-223.2472
 20
-155.0
 11
-223.2472
 21
-138.7
  0
LINE
  8
0
  6
CONTINUOUS
 62
     7
 10
-231.2472
 20
-155.0
 11
-231.2472
 21
-138.7
  0
LINE
  8
0
  6
CONTINUOUS
 62
     7
 10
-227.2472
 20
-140.0573
 11
-227.2472
 21
-152.3428
  0
LINE
  8
0
  6
CONTINUOUS
 62
     7
 10
-231.2472
 20
-138.7
 11
-227.7472
 21
-138.7
  0
LINE
  8
0
  6
CENTER
 62
     2
 10
-233.7026
 20
-135.4
 11
-220.914
 21
-135.4
  0
LINE
  8
0
  6
CONTINUOUS
 62
     7
 10
-224.2472
 20
-138.1227
 11
-224.2472
 21
-135.1
  0
LINE
  8
0
  6
CONTINUOUS
 62
     7
 10
-226.7472
 20
-138.7
 11
-226.7472
 21
-131.1292
  0
LINE
  8
0
  6
CONTINUOUS
 62
     7
 10
-227.7472
 20
-138.7
 11
-227.7472
 21
-131.1292
  0
LINE
  8
0
  6
CONTINUOUS
 62
     7
 10
-226.7472
 20
-138.1227
 11
-224.2472
 21
-138.1227
  0
LINE
  8
0
  6
CONTINUOUS
 62
     7
 10
-226.7472
 20
-138.7
 11
-223.2472
 21
-138.7
  0
LINE
  8
0
  6
CONTINUOUS
 62
     7
 10
-231.2472
 20
-138.7
 11
-230.2472
 21
-138.1227
  0
LINE
  8
0
  6
CONTINUOUS
 62
     7
 10
-230.2472
 20
-138.1227
 11
-227.7472
 21
-138.1227
  0
LINE
  8
0
  6
CONTINUOUS
 62
     7
 10
-230.2472
 20
-138.1227
 11
-230.2472
 21
-135.1
  0
LINE
  8
0
  6
CONTINUOUS
 62
     7
 10
-229.7472
 20
-160.4
 11
-224.7472
 21
-160.4
  0
LINE
  8
0
  6
CONTINUOUS
 62
     7
 10
-229.3142
 20
-160.4
 11
-229.3142
 21
-155.0
  0
LINE
  8
0
  6
CONTINUOUS
 62
     7
 10
-229.7472
 20
-160.4
 11
-229.7472
 21
-155.0
  0
LINE
  8
0
  6
CONTINUOUS
 62
     7
 10
-224.7472
 20
-160.4
 11
-224.7472
 21
-155.0
  0
LINE
  8
0
  6
CONTINUOUS
 62
     7
 10
-225.1802
 20
-160.4
 11
-225.1802
 21
-155.0
  0
LINE
  8
0
  6
CONTINUOUS
 62
     7
 10
-231.2472
 20
-154.2
 11
-223.2472
 21
-154.2
  0
LINE
  8
0
  6
CONTINUOUS
 62
     7
 10
-231.2472
 20
-155.0
 11
-223.2472
 21
-155.0
  0
LINE
  8
0
  6
CONTINUOUS
 62
     7
 10
-231.2472
 20
-152.7
 11
-223.2472
 21
-152.7
  0
LINE
  8
0
  6
CONTINUOUS
 62
     7
 10
-124.7472
 20
-160.4
 11
-124.7472
 21
-155.0
  0
LINE
  8
0
  6
CONTINUOUS
 62
     7
 10
-129.7472
 20
-160.4
 11
-129.7472
 21
-155.0
  0
LINE
  8
0
  6
CONTINUOUS
 62
     7
 10
-131.2472
 20
-155.0
 11
-123.2472
 21
-155.0
  0
LINE
  8
0
  6
CONTINUOUS
 62
     7
 10
-131.2472
 20
-154.2
 11
-123.2472
 21
-154.2
  0
LINE
  8
0
  6
CONTINUOUS
 62
     7
 10
-125.1802
 20
-160.4
 11
-125.1802
 21
-155.0
  0
LINE
  8
0
  6
CONTINUOUS
 62
     7
 10
-129.3142
 20
-160.4
 11
-129.3142
 21
-155.0
  0
LINE
  8
0
  6
CONTINUOUS
 62
     7
 10
-129.7472
 20
-160.4
 11
-124.7472
 21
-160.4
  0
LINE
  8
0
  6
CONTINUOUS
 62
     7
 10
-123.3472
 20
-134.4
 11
-123.3472
 21
-136.4
  0
LINE
  8
0
  6
CONTINUOUS
 62
     7
 10
-131.1472
 20
-134.4
 11
-131.1472
 21
-136.4
  0
LINE
  8
0
  6
CENTER
 62
     2
 10
-132.5562
 20
-135.4
 11
-122.049
 21
-135.4
  0
LINE
  8
0
  6
CONTINUOUS
 62
     7
 10
-131.2472
 20
-138.7
 11
-130.6288
 21
-138.343
  0
LINE
  8
0
  6
CENTER
 62
     2
 10
-127.2472
 20
-162.59
 11
-127.2472
 21
-128.8437
  0
LINE
  8
0
  6
CONTINUOUS
 62
     7
 10
-131.2472
 20
-139.7
 11
-129.3257
 21
-139.7
  0
LINE
  8
0
  6
CONTINUOUS
 62
     7
 10
-123.2472
 20
-155.0
 11
-123.2472
 21
-138.7
  0
LINE
  8
0
  6
CONTINUOUS
 62
     7
 10
-131.2472
 20
-155.0
 11
-131.2472
 21
-138.7
  0
LINE
  8
0
  6
CONTINUOUS
 62
     7
 10
-127.2472
 20
-140.3
 11
-127.2472
 21
-152.3428
  0
LINE
  8
0
  6
CONTINUOUS
 62
     7
 10
-123.2472
 20
-138.7
 11
-123.8657
 21
-138.343
  0
LINE
  8
0
  6
CONTINUOUS
 62
     7
 10
-131.2472
 20
-138.7
 11
-130.3968
 21
-138.7
  0
LINE
  8
0
  6
CONTINUOUS
 62
     7
 10
-123.2472
 20
-138.7
 11
-124.0976
 21
-138.7
  0
LINE
  8
0
  6
CONTINUOUS
 62
     7
 10
-125.1688
 20
-139.7
 11
-123.2472
 21
-139.7
  0
LINE
  8
0
  6
CONTINUOUS
 62
     7
 10
-131.2472
 20
-152.7
 11
-123.2472
 21
-152.7
  0
LINE
  8
0
  6
CONTINUOUS
 62
     7
 10
-6.41574
 20
87.30003
 11
1.58426
 21
87.30003
  0
LINE
  8
0
  6
CONTINUOUS
 62
     7
 10
2.20306
 20
87.6573
 11
2.20306
 21
99.94276
  0
LINE
  8
0
  6
CONTINUOUS
 62
     7
 10
-0.10634
 20
87.6573
 11
-0.10634
 21
99.94276
  0
LINE
  8
0
  6
CONTINUOUS
 62
     7
 10
-4.72514
 20
87.6573
 11
-4.72514
 21
99.94276
  0
LINE
  8
0
  6
CONTINUOUS
 62
     7
 10
2.20306
 20
87.6573
 11
1.58426
 21
87.30003
  0
LINE
  8
0
  6
CONTINUOUS
 62
     7
 10
-7.03454
 20
87.6573
 11
-6.41574
 21
87.30003
  0
LINE
  8
0
  6
CONTINUOUS
 62
     7
 10
-7.03454
 20
87.6573
 11
-7.03454
 21
99.94277
  0
LINE
  8
0
  6
CONTINUOUS
 62
     7
 10
-6.41574
 20
85.80003
 11
-6.41574
 21
87.30003
  0
LINE
  8
0
  6
CONTINUOUS
 62
     7
 10
1.58426
 20
85.80003
 11
1.58426
 21
87.30003
  0
LINE
  8
0
  6
CONTINUOUS
 62
     7
 10
-6.41574
 20
100.3
 11
1.58426
 21
100.3
  0
LINE
  8
0
  6
CONTINUOUS
 62
     7
 10
2.20306
 20
99.94276
 11
1.58426
 21
100.3
  0
LINE
  8
0
  6
CONTINUOUS
 62
     7
 10
-7.03454
 20
99.94278
 11
-6.41574
 21
100.3
  0
LINE
  8
0
  6
CENTER
 62
     2
 10
-2.41574
 20
75.91645
 11
-2.41574
 21
111.1805
  0
LINE
  8
0
  6
CENTER
 62
     2
 10
-8.0212
 20
104.6
 11
13.98962
 21
104.6
  0
LINE
  8
0
  6
CONTINUOUS
 62
     7
 10
-6.41574
 20
100.3
 11
-6.41574
 21
104.9
  0
LINE
  8
0
  6
CONTINUOUS
 62
     7
 10
1.58426
 20
100.3
 11
1.58426
 21
101.3
  0
LINE
  8
0
  6
CONTINUOUS
 62
     7
 10
-5.41574
 20
101.8774
 11
-5.41574
 21
104.9
  0
LINE
  8
0
  6
CONTINUOUS
 62
     7
 10
-2.41574
 20
107.9
 11
2.70691
 21
107.9
  0
LINE
  8
0
  6
CONTINUOUS
 62
     7
 10
-6.41574
 20
101.3
 11
2.70691
 21
101.3
  0
LINE
  8
0
  6
CONTINUOUS
 62
     7
 10
-2.41574
 20
104.6
 11
0.58425
 21
101.8774
  0
LINE
  8
0
  6
CONTINUOUS
 62
     7
 10
-6.41574
 20
101.3
 11
-5.41574
 21
101.8774
  0
LINE
  8
0
  6
CONTINUOUS
 62
     7
 10
1.58426
 20
101.3
 11
0.58426
 21
101.8774
  0
LINE
  8
0
  6
CONTINUOUS
 62
     7
 10
-5.41574
 20
101.8774
 11
0.58426
 21
101.8774
  0
LINE
  8
0
  6
CONTINUOUS
 62
     7
 10
11.48426
 20
109.5
 11
12.68426
 21
109.5
  0
LINE
  8
0
  6
CONTINUOUS
 62
     7
 10
12.68426
 20
109.5
 11
12.68426
 21
99.70003
  0
LINE
  8
0
  6
CONTINUOUS
 62
     7
 10
11.48426
 20
109.5
 11
11.48426
 21
99.70003
  0
LINE
  8
0
  6
CONTINUOUS
 62
     7
 10
11.48426
 20
99.70003
 11
12.68426
 21
99.70003
  0
LINE
  8
0
  6
CONTINUOUS
 62
     7
 10
10.78426
 20
102.1
 11
11.48426
 21
102.1
  0
LINE
  8
0
  6
CONTINUOUS
 62
     7
 10
10.78426
 20
107.1
 11
11.48426
 21
107.1
  0
LINE
  8
0
  6
CONTINUOUS
 62
     7
 10
10.78426
 20
108.6
 11
10.78426
 21
100.6
  0
LINE
  8
0
  6
CONTINUOUS
 62
     7
 10
9.98426
 20
108.6
 11
10.78426
 21
108.6
  0
LINE
  8
0
  6
CONTINUOUS
 62
     7
 10
9.98425
 20
100.6
 11
10.78426
 21
100.6
  0
LINE
  8
0
  6
CONTINUOUS
 62
     7
 10
9.98426
 20
108.6
 11
9.98426
 21
100.6
  0
LINE
  8
0
  6
CONTINUOUS
 62
     7
 10
7.98426
 20
100.3
 11
9.98426
 21
100.6
  0
LINE
  8
0
  6
CONTINUOUS
 62
     7
 10
7.98426
 20
108.9
 11
9.98426
 21
108.6
  0
LINE
  8
0
  6
CONTINUOUS
 62
     7
 10
7.98426
 20
108.9
 11
7.98426
 21
100.3
  0
LINE
  8
0
  6
CONTINUOUS
 62
     7
 10
-2.41574
 20
108.9
 11
7.98426
 21
108.9
  0
LINE
  8
0
  6
CONTINUOUS
 62
     7
 10
3.28426
 20
108.9
 11
2.70691
 21
107.9
  0
LINE
  8
0
  6
CONTINUOUS
 62
     7
 10
3.28426
 20
108.9
 11
3.28426
 21
100.3
  0
LINE
  8
0
  6
CONTINUOUS
 62
     7
 10
2.70691
 20
107.9
 11
2.70691
 21
101.3
  0
LINE
  8
0
  6
CONTINUOUS
 62
     7
 10
3.28426
 20
100.3
 11
2.70691
 21
101.3
  0
LINE
  8
0
  6
CONTINUOUS
 62
     7
 10
3.28426
 20
100.3
 11
7.98426
 21
100.3
  0
LINE
  8
0
  6
CONTINUOUS
 62
     7
 10
-6.91574
 20
85.80003
 11
2.08426
 21
85.80003
  0
LINE
  8
0
  6
CONTINUOUS
 62
     7
 10
-6.91574
 20
85.00003
 11
2.08426
 21
85.00003
  0
LINE
  8
0
  6
CONTINUOUS
 62
     7
 10
-6.91574
 20
85.00003
 11
-6.91574
 21
85.80003
  0
LINE
  8
0
  6
CONTINUOUS
 62
     7
 10
2.08426
 20
85.00003
 11
2.08426
 21
85.80003
  0
LINE
  8
0
  6
CONTINUOUS
 62
     7
 10
0.58426
 20
78.60003
 11
0.58426
 21
85.00003
  0
LINE
  8
0
  6
CONTINUOUS
 62
     7
 10
0.04276
 20
78.60003
 11
0.04276
 21
85.00003
  0
LINE
  8
0
  6
CONTINUOUS
 62
     7
 10
-5.41574
 20
78.60003
 11
0.58426
 21
78.60003
  0
LINE
  8
0
  6
CONTINUOUS
 62
     7
 10
-4.87424
 20
78.60003
 11
-4.87424
 21
85.00003
  0
LINE
  8
0
  6
CONTINUOUS
 62
     7
 10
-5.41574
 20
78.60003
 11
-5.41574
 21
85.00003
  0
LINE
  8
0
  6
CONTINUOUS
 62
     7
 10
12.68426
 20
144.9
 11
12.68426
 21
135.1
  0
LINE
  8
0
  6
CONTINUOUS
 62
     7
 10
11.48426
 20
144.9
 11
12.68426
 21
144.9
  0
LINE
  8
0
  6
CONTINUOUS
 62
     7
 10
11.48426
 20
135.1
 11
12.68426
 21
135.1
  0
LINE
  8
0
  6
CONTINUOUS
 62
     7
 10
10.78426
 20
144.0
 11
10.78426
 21
136.0
  0
LINE
  8
0
  6
CONTINUOUS
 62
     7
 10
11.48426
 20
144.9
 11
11.48426
 21
135.1
  0
LINE
  8
0
  6
CONTINUOUS
 62
     7
 10
9.98425
 20
136.0
 11
10.78426
 21
136.0
  0
LINE
  8
0
  6
CONTINUOUS
 62
     7
 10
9.98426
 20
144.0
 11
10.78426
 21
144.0
  0
LINE
  8
0
  6
CONTINUOUS
 62
     7
 10
10.78426
 20
137.5
 11
11.48426
 21
137.5
  0
LINE
  8
0
  6
CONTINUOUS
 62
     7
 10
10.78426
 20
142.5
 11
11.48426
 21
142.5
  0
LINE
  8
0
  6
CONTINUOUS
 62
     7
 10
3.28426
 20
144.3
 11
7.98426
 21
144.3
  0
LINE
  8
0
  6
CONTINUOUS
 62
     7
 10
3.28426
 20
135.7
 11
7.98426
 21
135.7
  0
LINE
  8
0
  6
CONTINUOUS
 62
     7
 10
9.98426
 20
144.0
 11
9.98426
 21
136.0
  0
LINE
  8
0
  6
CONTINUOUS
 62
     7
 10
3.28426
 20
144.3
 11
3.28426
 21
140.5
  0
LINE
  8
0
  6
CONTINUOUS
 62
     7
 10
7.98426
 20
144.3
 11
7.98426
 21
135.7
  0
LINE
  8
0
  6
CONTINUOUS
 62
     7
 10
7.98425
 20
144.3
 11
9.98425
 21
144.0
  0
LINE
  8
0
  6
CONTINUOUS
 62
     7
 10
7.98426
 20
135.7
 11
9.98426
 21
136.0
  0
LINE
  8
0
  6
CONTINUOUS
 62
     7
 10
3.28425
 20
135.7
 11
2.7069
 21
136.7
  0
LINE
  8
0
  6
CONTINUOUS
 62
     7
 10
3.28426
 20
144.3
 11
2.70691
 21
143.3
  0
LINE
  8
0
  6
CONTINUOUS
 62
     7
 10
2.70691
 20
143.3
 11
2.70691
 21
140.5
  0
LINE
  8
0
  6
CENTER
 62
     2
 10
-8.0212
 20
140.0
 11
13.98962
 21
140.0
  0
LINE
  8
0
  6
CENTER
 62
     2
 10
-2.41574
 20
144.9172
 11
-2.41574
 21
135.0519
  0
LINE
  8
0
  6
CONTINUOUS
 62
     7
 10
-4.72515
 20
136.0001
 11
-0.10635
 21
136.0001
  0
LINE
  8
0
  6
CONTINUOUS
 62
     7
 10
-0.10634
 20
136.0
 11
0.3766
 21
136.8365
  0
LINE
  8
0
  6
CONTINUOUS
 62
     7
 10
0.37661
 20
143.1636
 11
-0.10633
 21
144.0
  0
LINE
  8
0
  6
CONTINUOUS
 62
     7
 10
-0.10634
 20
144.0001
 11
-4.72514
 21
144.0001
  0
LINE
  8
0
  6
CONTINUOUS
 62
     7
 10
-4.72519
 20
144.0001
 11
-7.03459
 21
140.0001
  0
LINE
  8
0
  6
CONTINUOUS
 62
     7
 10
-7.03453
 20
140.0001
 11
-4.72514
 21
136.0001
  0
LINE
  8
0
  6
CONTINUOUS
 62
     7
 10
2.70691
 20
143.3
 11
-2.41574
 21
143.0
  0
LINE
  8
0
  6
CONTINUOUS
 62
     7
 10
2.70691
 20
136.7
 11
-2.41574
 21
137.0
  0
LINE
  8
0
  6
CONTINUOUS
 62
     7
 10
-6.38437
 20
140.5
 11
3.28426
 21
140.5
  0
LINE
  8
0
  6
CONTINUOUS
 62
     7
 10
-6.38437
 20
139.5
 11
3.28426
 21
139.5
  0
LINE
  8
0
  6
CONTINUOUS
 62
     7
 10
2.70691
 20
136.7
 11
2.70691
 21
139.5
  0
LINE
  8
0
  6
CONTINUOUS
 62
     7
 10
3.28426
 20
135.7
 11
3.28426
 21
139.5
  0
LINE
  8
0
  6
CONTINUOUS
 62
     7
 10
-48.41574
 20
101.3
 11
-49.41574
 21
101.8774
  0
LINE
  8
0
  6
CENTER
 62
     2
 10
-52.41574
 20
76.00249
 11
-52.41574
 21
111.1805
  0
LINE
  8
0
  6
CONTINUOUS
 62
     7
 10
-56.41574
 20
100.3
 11
-48.41574
 21
100.3
  0
LINE
  8
0
  6
CONTINUOUS
 62
     7
 10
-48.41574
 20
85.80003
 11
-48.41574
 21
101.3
  0
LINE
  8
0
  6
CONTINUOUS
 62
     7
 10
-56.41574
 20
85.80003
 11
-56.41574
 21
101.3
  0
LINE
  8
0
  6
CONTINUOUS
 62
     7
 10
-52.41574
 20
99.94276
 11
-52.41574
 21
87.6573
  0
LINE
  8
0
  6
CONTINUOUS
 62
     7
 10
-56.41574
 20
101.3
 11
-52.91574
 21
101.3
  0
LINE
  8
0
  6
CENTER
 62
     2
 10
-58.8711
 20
104.6
 11
-46.08257
 21
104.6
  0
LINE
  8
0
  6
CONTINUOUS
 62
     7
 10
-49.41574
 20
101.8774
 11
-49.41574
 21
104.9
  0
LINE
  8
0
  6
CONTINUOUS
 62
     7
 10
-51.91574
 20
101.3
 11
-51.91574
 21
108.8709
  0
LINE
  8
0
  6
CONTINUOUS
 62
     7
 10
-52.91574
 20
101.3
 11
-52.91574
 21
108.8709
  0
LINE
  8
0
  6
CONTINUOUS
 62
     7
 10
-51.91574
 20
101.8774
 11
-49.41574
 21
101.8774
  0
LINE
  8
0
  6
CONTINUOUS
 62
     7
 10
-51.91574
 20
101.3
 11
-48.41574
 21
101.3
  0
LINE
  8
0
  6
CONTINUOUS
 62
     7
 10
-56.41574
 20
101.3
 11
-55.41574
 21
101.8774
  0
LINE
  8
0
  6
CONTINUOUS
 62
     7
 10
-55.41574
 20
101.8774
 11
-52.91574
 21
101.8774
  0
LINE
  8
0
  6
CONTINUOUS
 62
     7
 10
-55.41574
 20
101.8774
 11
-55.41574
 21
104.9
  0
LINE
  8
0
  6
CONTINUOUS
 62
     7
 10
-56.41574
 20
87.30003
 11
-48.41574
 21
87.30003
  0
LINE
  8
0
  6
CONTINUOUS
 62
     7
 10
-56.91574
 20
85.80003
 11
-47.91574
 21
85.80003
  0
LINE
  8
0
  6
CONTINUOUS
 62
     7
 10
-56.91574
 20
85.00003
 11
-47.91574
 21
85.00003
  0
LINE
  8
0
  6
CONTINUOUS
 62
     7
 10
-56.91574
 20
85.00003
 11
-56.91574
 21
85.80003
  0
LINE
  8
0
  6
CONTINUOUS
 62
     7
 10
-47.91574
 20
85.00003
 11
-47.91574
 21
85.80003
  0
LINE
  8
0
  6
CONTINUOUS
 62
     7
 10
-49.41574
 20
78.60003
 11
-49.41574
 21
85.00003
  0
LINE
  8
0
  6
CONTINUOUS
 62
     7
 10
-49.95724
 20
78.60003
 11
-49.95724
 21
85.00003
  0
LINE
  8
0
  6
CONTINUOUS
 62
     7
 10
-55.41574
 20
78.60003
 11
-49.41574
 21
78.60003
  0
LINE
  8
0
  6
CONTINUOUS
 62
     7
 10
-54.87424
 20
78.60003
 11
-54.87424
 21
85.00003
  0
LINE
  8
0
  6
CONTINUOUS
 62
     7
 10
-55.41574
 20
78.60003
 11
-55.41574
 21
85.00003
  0
LINE
  8
0
  6
CONTINUOUS
 62
     7
 10
43.08426
 20
85.00003
 11
52.08426
 21
85.00003
  0
LINE
  8
0
  6
CONTINUOUS
 62
     7
 10
43.08426
 20
85.80003
 11
52.08426
 21
85.80003
  0
LINE
  8
0
  6
CONTINUOUS
 62
     7
 10
52.08426
 20
85.00003
 11
52.08426
 21
85.80003
  0
LINE
  8
0
  6
CONTINUOUS
 62
     7
 10
43.08426
 20
85.00003
 11
43.08426
 21
85.80003
  0
LINE
  8
0
  6
CONTINUOUS
 62
     7
 10
44.58426
 20
78.60003
 11
50.58426
 21
78.60003
  0
LINE
  8
0
  6
CONTINUOUS
 62
     7
 10
44.58426
 20
78.60003
 11
44.58426
 21
85.00003
  0
LINE
  8
0
  6
CONTINUOUS
 62
     7
 10
50.58426
 20
78.60003
 11
50.58426
 21
85.00003
  0
LINE
  8
0
  6
CONTINUOUS
 62
     7
 10
45.12576
 20
78.60003
 11
45.12576
 21
85.00003
  0
LINE
  8
0
  6
CONTINUOUS
 62
     7
 10
50.04276
 20
78.60003
 11
50.04276
 21
85.00003
  0
LINE
  8
0
  6
CONTINUOUS
 62
     7
 10
51.48426
 20
105.6
 11
51.48426
 21
103.6
  0
LINE
  8
0
  6
CONTINUOUS
 62
     7
 10
43.68426
 20
105.6
 11
43.68426
 21
103.6
  0
LINE
  8
0
  6
CENTER
 62
     2
 10
42.56419
 20
104.6
 11
52.7825
 21
104.6
  0
LINE
  8
0
  6
CONTINUOUS
 62
     7
 10
43.58427
 20
101.3
 11
44.2027
 21
101.6571
  0
LINE
  8
0
  6
CENTER
 62
     2
 10
47.58426
 20
75.91644
 11
47.58427
 21
111.1564
  0
LINE
  8
0
  6
CONTINUOUS
 62
     7
 10
43.58426
 20
100.3
 11
45.5058
 21
100.3
  0
LINE
  8
0
  6
CONTINUOUS
 62
     7
 10
51.58426
 20
85.80003
 11
51.58426
 21
101.3
  0
LINE
  8
0
  6
CONTINUOUS
 62
     7
 10
43.58426
 20
85.80003
 11
43.58426
 21
101.3
  0
LINE
  8
0
  6
CONTINUOUS
 62
     7
 10
47.58426
 20
99.70003
 11
47.58426
 21
87.6573
  0
LINE
  8
0
  6
CONTINUOUS
 62
     7
 10
51.58429
 20
101.3001
 11
50.96585
 21
101.6571
  0
LINE
  8
0
  6
CONTINUOUS
 62
     7
 10
43.58426
 20
101.3
 11
44.43465
 21
101.3
  0
LINE
  8
0
  6
CONTINUOUS
 62
     7
 10
51.58426
 20
101.3
 11
50.73386
 21
101.3
  0
LINE
  8
0
  6
CONTINUOUS
 62
     7
 10
49.66272
 20
100.3
 11
51.58426
 21
100.3
  0
LINE
  8
0
  6
CONTINUOUS
 62
     7
 10
43.58426
 20
87.30003
 11
51.58426
 21
87.30003
  0
LINE
  8
0
  6
CONTINUOUS
 62
     7
 10
-7.41574
 20
-31.0
 11
2.58426
 21
-31.0
  0
LINE
  8
0
  6
CONTINUOUS
 62
     7
 10
-7.41574
 20
-17.3
 11
2.58426
 21
-17.3
  0
LINE
  8
0
  6
CONTINUOUS
 62
     7
 10
3.35776
 20
-30.55342
 11
3.35776
 21
-17.74658
  0
LINE
  8
0
  6
CONTINUOUS
 62
     7
 10
0.47101
 20
-30.55342
 11
0.47101
 21
-17.74658
  0
LINE
  8
0
  6
CONTINUOUS
 62
     7
 10
3.35776
 20
-17.74658
 11
2.58426
 21
-17.3
  0
LINE
  8
0
  6
CONTINUOUS
 62
     7
 10
-5.30249
 20
-30.55342
 11
-5.30249
 21
-17.74658
  0
LINE
  8
0
  6
CONTINUOUS
 62
     7
 10
3.35776
 20
-30.55342
 11
2.58426
 21
-31.0
  0
LINE
  8
0
  6
CONTINUOUS
 62
     7
 10
-8.18925
 20
-17.74657
 11
-7.41575
 21
-17.29999
  0
LINE
  8
0
  6
CONTINUOUS
 62
     7
 10
-8.18925
 20
-30.55342
 11
-7.41574
 21
-31.0
  0
LINE
  8
0
  6
CONTINUOUS
 62
     7
 10
-8.18924
 20
-30.55342
 11
-8.18924
 21
-17.74658
  0
LINE
  8
0
  6
CENTER
 62
     2
 10
-2.41574
 20
-41.77876
 11
-2.41574
 21
-6.41957
  0
LINE
  8
0
  6
CENTER
 62
     2
 10
-8.0212
 20
-13.0
 11
13.98962
 21
-13.0
  0
LINE
  8
0
  6
CONTINUOUS
 62
     7
 10
-6.41574
 20
-17.3
 11
-6.41574
 21
-12.7
  0
LINE
  8
0
  6
CONTINUOUS
 62
     7
 10
1.58426
 20
-17.3
 11
1.58426
 21
-16.3
  0
LINE
  8
0
  6
CONTINUOUS
 62
     7
 10
-5.41574
 20
-15.72265
 11
-5.41574
 21
-12.7
  0
LINE
  8
0
  6
CONTINUOUS
 62
     7
 10
-2.41574
 20
-9.7
 11
2.70691
 21
-9.7
  0
LINE
  8
0
  6
CONTINUOUS
 62
     7
 10
-6.41574
 20
-16.3
 11
2.70691
 21
-16.3
  0
LINE
  8
0
  6
CONTINUOUS
 62
     7
 10
-2.41575
 20
-13.00001
 11
0.58425
 21
-15.72266
  0
LINE
  8
0
  6
CONTINUOUS
 62
     7
 10
-6.41574
 20
-16.3
 11
-5.41574
 21
-15.72265
  0
LINE
  8
0
  6
CONTINUOUS
 62
     7
 10
1.58425
 20
-16.3
 11
0.58425
 21
-15.72266
  0
LINE
  8
0
  6
CONTINUOUS
 62
     7
 10
-5.41574
 20
-15.72265
 11
0.58426
 21
-15.72265
  0
LINE
  8
0
  6
CONTINUOUS
 62
     7
 10
11.48426
 20
-8.1
 11
12.68426
 21
-8.1
  0
LINE
  8
0
  6
CONTINUOUS
 62
     7
 10
12.68426
 20
-8.1
 11
12.68426
 21
-17.9
  0
LINE
  8
0
  6
CONTINUOUS
 62
     7
 10
11.48426
 20
-8.1
 11
11.48426
 21
-17.9
  0
LINE
  8
0
  6
CONTINUOUS
 62
     7
 10
11.48426
 20
-17.9
 11
12.68426
 21
-17.9
  0
LINE
  8
0
  6
CONTINUOUS
 62
     7
 10
10.78426
 20
-15.5
 11
11.48426
 21
-15.5
  0
LINE
  8
0
  6
CONTINUOUS
 62
     7
 10
10.78426
 20
-10.5
 11
11.48426
 21
-10.5
  0
LINE
  8
0
  6
CONTINUOUS
 62
     7
 10
10.78426
 20
-9.0
 11
10.78426
 21
-17.0
  0
LINE
  8
0
  6
CONTINUOUS
 62
     7
 10
9.98426
 20
-9.0
 11
10.78426
 21
-9.0
  0
LINE
  8
0
  6
CONTINUOUS
 62
     7
 10
9.98425
 20
-17.0
 11
10.78426
 21
-17.0
  0
LINE
  8
0
  6
CONTINUOUS
 62
     7
 10
9.98426
 20
-9.0
 11
9.98426
 21
-17.0
  0
LINE
  8
0
  6
CONTINUOUS
 62
     7
 10
7.98426
 20
-17.3
 11
9.98426
 21
-17.00001
  0
LINE
  8
0
  6
CONTINUOUS
 62
     7
 10
7.98426
 20
-8.70002
 11
9.98426
 21
-9.00002
  0
LINE
  8
0
  6
CONTINUOUS
 62
     7
 10
7.98426
 20
-8.7
 11
7.98426
 21
-17.3
  0
LINE
  8
0
  6
CONTINUOUS
 62
     7
 10
-2.41574
 20
-8.7
 11
7.98426
 21
-8.7
  0
LINE
  8
0
  6
CONTINUOUS
 62
     7
 10
3.28426
 20
-8.7
 11
2.70691
 21
-9.7
  0
LINE
  8
0
  6
CONTINUOUS
 62
     7
 10
3.28426
 20
-8.7
 11
3.28426
 21
-17.3
  0
LINE
  8
0
  6
CONTINUOUS
 62
     7
 10
2.70691
 20
-9.7
 11
2.70691
 21
-16.3
  0
LINE
  8
0
  6
CONTINUOUS
 62
     7
 10
3.28425
 20
-17.3
 11
2.7069
 21
-16.3
  0
LINE
  8
0
  6
CONTINUOUS
 62
     7
 10
3.28426
 20
-17.3
 11
7.98426
 21
-17.3
  0
LINE
  8
0
  6
CONTINUOUS
 62
     7
 10
-6.57304
 20
-39.0
 11
-6.82445
 21
-31.0
  0
LINE
  8
0
  6
CONTINUOUS
 62
     7
 10
-7.15404
 20
-39.0
 11
-7.40545
 21
-31.0
  0
LINE
  8
0
  6
CONTINUOUS
 62
     7
 10
2.32255
 20
-39.0
 11
2.57396
 21
-31.0
  0
LINE
  8
0
  6
CONTINUOUS
 62
     7
 10
1.74155
 20
-39.0
 11
1.99296
 21
-31.0
  0
LINE
  8
0
  6
CONTINUOUS
 62
     7
 10
-7.15404
 20
-39.0
 11
2.32255
 21
-39.0
  0
LINE
  8
0
  6
CONTINUOUS
 62
     7
 10
12.68426
 20
24.89999
 11
12.68426
 21
15.09999
  0
LINE
  8
0
  6
CONTINUOUS
 62
     7
 10
11.48426
 20
24.89999
 11
12.68426
 21
24.89999
  0
LINE
  8
0
  6
CONTINUOUS
 62
     7
 10
11.48426
 20
15.09999
 11
12.68426
 21
15.09999
  0
LINE
  8
0
  6
CONTINUOUS
 62
     7
 10
10.78426
 20
23.99999
 11
10.78426
 21
15.99999
  0
LINE
  8
0
  6
CONTINUOUS
 62
     7
 10
11.48426
 20
24.89999
 11
11.48426
 21
15.09999
  0
LINE
  8
0
  6
CONTINUOUS
 62
     7
 10
9.98425
 20
15.99999
 11
10.78426
 21
15.99999
  0
LINE
  8
0
  6
CONTINUOUS
 62
     7
 10
9.98426
 20
23.99999
 11
10.78426
 21
23.99999
  0
LINE
  8
0
  6
CONTINUOUS
 62
     7
 10
10.78426
 20
17.49999
 11
11.48426
 21
17.49999
  0
LINE
  8
0
  6
CONTINUOUS
 62
     7
 10
10.78426
 20
22.49999
 11
11.48426
 21
22.49999
  0
LINE
  8
0
  6
CONTINUOUS
 62
     7
 10
3.28426
 20
24.29999
 11
7.98426
 21
24.29999
  0
LINE
  8
0
  6
CONTINUOUS
 62
     7
 10
3.28426
 20
15.69999
 11
7.98426
 21
15.69999
  0
LINE
  8
0
  6
CONTINUOUS
 62
     7
 10
9.98426
 20
23.99999
 11
9.98426
 21
15.99999
  0
LINE
  8
0
  6
CONTINUOUS
 62
     7
 10
3.28426
 20
24.29999
 11
3.28426
 21
20.49999
  0
LINE
  8
0
  6
CONTINUOUS
 62
     7
 10
7.98426
 20
24.29999
 11
7.98426
 21
15.69999
  0
LINE
  8
0
  6
CONTINUOUS
 62
     7
 10
7.98425
 20
24.29996
 11
9.98425
 21
23.99996
  0
LINE
  8
0
  6
CONTINUOUS
 62
     7
 10
7.98426
 20
15.69997
 11
9.98426
 21
15.99997
  0
LINE
  8
0
  6
CONTINUOUS
 62
     7
 10
3.28425
 20
15.69999
 11
2.7069
 21
16.69999
  0
LINE
  8
0
  6
CONTINUOUS
 62
     7
 10
3.28426
 20
24.29999
 11
2.70691
 21
23.29999
  0
LINE
  8
0
  6
CONTINUOUS
 62
     7
 10
2.70691
 20
23.3
 11
2.70691
 21
20.49999
  0
LINE
  8
0
  6
CENTER
 62
     2
 10
-9.82872
 20
19.99999
 11
13.98962
 21
19.99999
  0
LINE
  8
0
  6
CENTER
 62
     2
 10
-2.41574
 20
26.53588
 11
-2.41574
 21
13.43067
  0
LINE
  8
0
  6
CONTINUOUS
 62
     7
 10
2.70691
 20
23.3
 11
-2.41574
 21
22.99999
  0
LINE
  8
0
  6
CONTINUOUS
 62
     7
 10
2.70691
 20
16.69999
 11
-2.41574
 21
16.99999
  0
LINE
  8
0
  6
CONTINUOUS
 62
     7
 10
-6.38437
 20
20.49999
 11
3.28426
 21
20.49999
  0
LINE
  8
0
  6
CONTINUOUS
 62
     7
 10
-6.38437
 20
19.49999
 11
3.28426
 21
19.49999
  0
LINE
  8
0
  6
CONTINUOUS
 62
     7
 10
2.70691
 20
16.69999
 11
2.70691
 21
19.49999
  0
LINE
  8
0
  6
CONTINUOUS
 62
     7
 10
3.28426
 20
15.69999
 11
3.28426
 21
19.49999
  0
LINE
  8
0
  6
CONTINUOUS
 62
     7
 10
0.47101
 20
14.99999
 11
1.49353
 21
16.77105
  0
LINE
  8
0
  6
CONTINUOUS
 62
     7
 10
-5.30249
 20
15.00004
 11
0.47101
 21
15.00004
  0
LINE
  8
0
  6
CONTINUOUS
 62
     7
 10
-8.18923
 20
20.00001
 11
-5.30247
 21
15.00001
  0
LINE
  8
0
  6
CONTINUOUS
 62
     7
 10
-5.30253
 20
25.00003
 11
-8.18929
 21
20.00002
  0
LINE
  8
0
  6
CONTINUOUS
 62
     7
 10
0.47101
 20
25.00006
 11
-5.30249
 21
25.00006
  0
LINE
  8
0
  6
CONTINUOUS
 62
     7
 10
1.49354
 20
23.22894
 11
0.47102
 21
25.0
  0
LINE
  8
0
  6
CONTINUOUS
 62
     7
 10
-48.41574
 20
-16.3
 11
-49.41574
 21
-15.72265
  0
LINE
  8
0
  6
CENTER
 62
     2
 10
-52.41574
 20
-41.77876
 11
-52.41574
 21
-6.41957
  0
LINE
  8
0
  6
CONTINUOUS
 62
     7
 10
-56.41574
 20
-16.3
 11
-52.91574
 21
-16.3
  0
LINE
  8
0
  6
CENTER
 62
     2
 10
-58.8711
 20
-13.0
 11
-46.08257
 21
-13.0
  0
LINE
  8
0
  6
CONTINUOUS
 62
     7
 10
-49.41574
 20
-15.72265
 11
-49.41574
 21
-12.7
  0
LINE
  8
0
  6
CONTINUOUS
 62
     7
 10
-51.91574
 20
-16.3
 11
-51.91574
 21
-8.72917
  0
LINE
  8
0
  6
CONTINUOUS
 62
     7
 10
-52.91574
 20
-16.3
 11
-52.91574
 21
-8.72917
  0
LINE
  8
0
  6
CONTINUOUS
 62
     7
 10
-51.91574
 20
-15.72265
 11
-49.41574
 21
-15.72265
  0
LINE
  8
0
  6
CONTINUOUS
 62
     7
 10
-51.91574
 20
-16.3
 11
-48.41574
 21
-16.3
  0
LINE
  8
0
  6
CONTINUOUS
 62
     7
 10
-56.41574
 20
-16.29999
 11
-55.41574
 21
-15.72264
  0
LINE
  8
0
  6
CONTINUOUS
 62
     7
 10
-55.41574
 20
-15.72265
 11
-52.91574
 21
-15.72265
  0
LINE
  8
0
  6
CONTINUOUS
 62
     7
 10
-55.41574
 20
-15.72265
 11
-55.41574
 21
-12.7
  0
LINE
  8
0
  6
CONTINUOUS
 62
     7
 10
-48.41574
 20
-17.3
 11
-48.41574
 21
-16.3
  0
LINE
  8
0
  6
CONTINUOUS
 62
     7
 10
-57.15404
 20
-39.0
 11
-47.67744
 21
-39.0
  0
LINE
  8
0
  6
CONTINUOUS
 62
     7
 10
-56.57305
 20
-39.0
 11
-56.82446
 21
-31.0
  0
LINE
  8
0
  6
CONTINUOUS
 62
     7
 10
-57.15406
 20
-39.0
 11
-57.40547
 21
-31.0
  0
LINE
  8
0
  6
CONTINUOUS
 62
     7
 10
-48.25844
 20
-39.0
 11
-48.00703
 21
-31.0
  0
LINE
  8
0
  6
CONTINUOUS
 62
     7
 10
-47.67744
 20
-39.0
 11
-47.42603
 21
-31.0
  0
LINE
  8
0
  6
CONTINUOUS
 62
     7
 10
-57.41574
 20
-31.0
 11
-47.41574
 21
-31.0
  0
LINE
  8
0
  6
CONTINUOUS
 62
     7
 10
-52.41574
 20
-30.55342
 11
-52.41574
 21
-17.74658
  0
LINE
  8
0
  6
CONTINUOUS
 62
     7
 10
-57.41574
 20
-31.0
 11
-57.41574
 21
-17.3
  0
LINE
  8
0
  6
CONTINUOUS
 62
     7
 10
-57.41574
 20
-17.3
 11
-47.41574
 21
-17.3
  0
LINE
  8
0
  6
CONTINUOUS
 62
     7
 10
-56.41574
 20
-17.3
 11
-56.41574
 21
-16.3
  0
LINE
  8
0
  6
CONTINUOUS
 62
     7
 10
-47.41574
 20
-31.0
 11
-47.41574
 21
-17.3
  0
LINE
  8
0
  6
CONTINUOUS
 62
     7
 10
42.84596
 20
-39.0
 11
52.32256
 21
-39.0
  0
LINE
  8
0
  6
CONTINUOUS
 62
     7
 10
52.32253
 20
-39.0
 11
52.57394
 21
-31.0
  0
LINE
  8
0
  6
CONTINUOUS
 62
     7
 10
51.74153
 20
-38.99999
 11
51.99294
 21
-30.99999
  0
LINE
  8
0
  6
CONTINUOUS
 62
     7
 10
42.84598
 20
-39.0
 11
42.59457
 21
-31.0
  0
LINE
  8
0
  6
CONTINUOUS
 62
     7
 10
43.42698
 20
-39.0
 11
43.17556
 21
-31.0
  0
LINE
  8
0
  6
CONTINUOUS
 62
     7
 10
51.48426
 20
-12.0
 11
51.48426
 21
-14.0
  0
LINE
  8
0
  6
CONTINUOUS
 62
     7
 10
43.68426
 20
-12.0
 11
43.68426
 21
-14.0
  0
LINE
  8
0
  6
CENTER
 62
     2
 10
42.56419
 20
-13.0
 11
52.7825
 21
-13.0
  0
LINE
  8
0
  6
CONTINUOUS
 62
     7
 10
43.58426
 20
-16.3
 11
44.2027
 21
-15.94294
  0
LINE
  8
0
  6
CENTER
 62
     2
 10
47.58426
 20
-41.89577
 11
47.58427
 21
-6.44367
  0
LINE
  8
0
  6
CONTINUOUS
 62
     7
 10
51.5843
 20
-16.29996
 11
50.96586
 21
-15.9429
  0
LINE
  8
0
  6
CONTINUOUS
 62
     7
 10
43.58426
 20
-16.3
 11
44.43465
 21
-16.3
  0
LINE
  8
0
  6
CONTINUOUS
 62
     7
 10
51.58426
 20
-16.3
 11
50.73386
 21
-16.3
  0
LINE
  8
0
  6
CONTINUOUS
 62
     7
 10
43.58426
 20
-17.3
 11
43.58426
 21
-16.3
  0
LINE
  8
0
  6
CONTINUOUS
 62
     7
 10
42.58426
 20
-31.0
 11
52.58426
 21
-31.0
  0
LINE
  8
0
  6
CONTINUOUS
 62
     7
 10
42.58426
 20
-17.3
 11
45.5058
 21
-17.3
  0
LINE
  8
0
  6
CONTINUOUS
 62
     7
 10
52.58426
 20
-31.0
 11
52.58426
 21
-17.3
  0
LINE
  8
0
  6
CONTINUOUS
 62
     7
 10
47.58426
 20
-30.55342
 11
47.58426
 21
-17.9
  0
LINE
  8
0
  6
CONTINUOUS
 62
     7
 10
42.58426
 20
-31.0
 11
42.58426
 21
-17.3
  0
LINE
  8
0
  6
CONTINUOUS
 62
     7
 10
51.58426
 20
-17.3
 11
51.58426
 21
-16.3
  0
LINE
  8
0
  6
CONTINUOUS
 62
     7
 10
49.66272
 20
-17.3
 11
52.58426
 21
-17.3
  0
LINE
  8
0
  6
CENTER
 62
     2
 10
-2.41574
 20
-162.0
 11
-2.41574
 21
-124.3452
  0
LINE
  8
0
  6
CONTINUOUS
 62
     7
 10
0.08426
 20
-157.9
 11
0.08426
 21
-155.0
  0
LINE
  8
0
  6
CONTINUOUS
 62
     7
 10
-4.91574
 20
-157.9
 11
-4.91574
 21
-155.0
  0
LINE
  8
0
  6
CONTINUOUS
 62
     7
 10
-0.34874
 20
-157.9
 11
-0.34874
 21
-155.0
  0
LINE
  8
0
  6
CONTINUOUS
 62
     7
 10
-4.48274
 20
-157.9
 11
-4.48274
 21
-155.0
  0
LINE
  8
0
  6
CONTINUOUS
 62
     7
 10
-4.91574
 20
-157.9
 11
0.08426
 21
-157.9
  0
LINE
  8
0
  6
CONTINUOUS
 62
     7
 10
-6.41574
 20
-152.7
 11
1.58426
 21
-152.7
  0
LINE
  8
0
  6
CONTINUOUS
 62
     7
 10
-6.41574
 20
-137.2
 11
1.58426
 21
-137.2
  0
LINE
  8
0
  6
CONTINUOUS
 62
     7
 10
2.20307
 20
-137.5573
 11
1.58426
 21
-137.2
  0
LINE
  8
0
  6
CONTINUOUS
 62
     7
 10
2.20306
 20
-152.3428
 11
2.20306
 21
-137.5573
  0
LINE
  8
0
  6
CONTINUOUS
 62
     7
 10
-0.10634
 20
-152.3428
 11
-0.10634
 21
-137.5573
  0
LINE
  8
0
  6
CONTINUOUS
 62
     7
 10
-4.72514
 20
-152.3428
 11
-4.72514
 21
-137.5573
  0
LINE
  8
0
  6
CONTINUOUS
 62
     7
 10
2.20305
 20
-152.3428
 11
1.58425
 21
-152.7
  0
LINE
  8
0
  6
CONTINUOUS
 62
     7
 10
-7.03455
 20
-137.5573
 11
-6.41575
 21
-137.2
  0
LINE
  8
0
  6
CONTINUOUS
 62
     7
 10
-7.03454
 20
-152.3428
 11
-6.41574
 21
-152.7
  0
LINE
  8
0
  6
CONTINUOUS
 62
     7
 10
-7.03454
 20
-152.3428
 11
-7.03454
 21
-137.5573
  0
LINE
  8
0
  6
CONTINUOUS
 62
     7
 10
-6.41574
 20
-154.2
 11
1.58426
 21
-154.2
  0
LINE
  8
0
  6
CONTINUOUS
 62
     7
 10
-6.41574
 20
-155.0
 11
1.58426
 21
-155.0
  0
LINE
  8
0
  6
CONTINUOUS
 62
     7
 10
1.58426
 20
-155.0
 11
1.58426
 21
-152.7
  0
LINE
  8
0
  6
CONTINUOUS
 62
     7
 10
-6.41574
 20
-155.0
 11
-6.41574
 21
-152.7
  0
LINE
  8
0
  6
CENTER
 62
     2
 10
-8.24126
 20
-131.9
 11
15.57062
 21
-131.9
  0
LINE
  8
0
  6
CONTINUOUS
 62
     7
 10
-6.41574
 20
-130.9139
 11
-6.41574
 21
-137.2
  0
LINE
  8
0
  6
CONTINUOUS
 62
     7
 10
1.58426
 20
-136.4
 11
1.58426
 21
-137.2
  0
LINE
  8
0
  6
CONTINUOUS
 62
     7
 10
-5.41574
 20
-135.8227
 11
-5.41574
 21
-130.9128
  0
LINE
  8
0
  6
CONTINUOUS
 62
     7
 10
-5.41574
 20
-135.8227
 11
0.58426
 21
-135.8227
  0
LINE
  8
0
  6
CONTINUOUS
 62
     7
 10
-6.41574
 20
-136.4
 11
1.58426
 21
-136.4
  0
LINE
  8
0
  6
CONTINUOUS
 62
     7
 10
-2.74792
 20
-126.9277
 11
3.58426
 21
-126.4
  0
LINE
  8
0
  6
CONTINUOUS
 62
     7
 10
1.58425
 20
-136.4
 11
0.58426
 21
-135.8227
  0
LINE
  8
0
  6
CONTINUOUS
 62
     7
 10
12.38426
 20
-126.0
 11
13.58426
 21
-126.0
  0
LINE
  8
0
  6
CONTINUOUS
 62
     7
 10
13.58426
 20
-126.0
 11
13.58426
 21
-137.8
  0
LINE
  8
0
  6
CONTINUOUS
 62
     7
 10
12.38426
 20
-126.0
 11
12.38426
 21
-137.8
  0
LINE
  8
0
  6
CONTINUOUS
 62
     7
 10
12.38426
 20
-137.8
 11
13.58426
 21
-137.8
  0
LINE
  8
0
  6
CONTINUOUS
 62
     7
 10
11.58426
 20
-135.4
 11
12.38426
 21
-135.4
  0
LINE
  8
0
  6
CONTINUOUS
 62
     7
 10
11.58426
 20
-128.4
 11
12.38426
 21
-128.4
  0
LINE
  8
0
  6
CONTINUOUS
 62
     7
 10
11.58426
 20
-126.9
 11
11.58426
 21
-136.9
  0
LINE
  8
0
  6
CONTINUOUS
 62
     7
 10
10.58426
 20
-126.9
 11
11.58426
 21
-126.9
  0
LINE
  8
0
  6
CONTINUOUS
 62
     7
 10
10.58427
 20
-136.9
 11
11.58426
 21
-136.9
  0
LINE
  8
0
  6
CONTINUOUS
 62
     7
 10
10.58426
 20
-126.9
 11
10.58426
 21
-136.9
  0
LINE
  8
0
  6
CONTINUOUS
 62
     7
 10
8.58426
 20
-137.4001
 11
10.58426
 21
-136.9001
  0
LINE
  8
0
  6
CONTINUOUS
 62
     7
 10
8.58426
 20
-126.4
 11
10.58426
 21
-126.9
  0
LINE
  8
0
  6
CONTINUOUS
 62
     7
 10
8.58426
 20
-126.4
 11
8.58426
 21
-137.4
  0
LINE
  8
0
  6
CONTINUOUS
 62
     7
 10
3.58426
 20
-126.4
 11
8.58426
 21
-126.4
  0
LINE
  8
0
  6
CONTINUOUS
 62
     7
 10
3.58426
 20
-137.4
 11
8.58426
 21
-137.4
  0
LINE
  8
0
  6
CONTINUOUS
 62
     7
 10
3.58426
 20
-126.4
 11
3.58426
 21
-137.4
  0
LINE
  8
0
  6
CONTINUOUS
 62
     7
 10
3.00691
 20
-127.4
 11
3.00691
 21
-136.4
  0
LINE
  8
0
  6
CONTINUOUS
 62
     7
 10
3.58426
 20
-137.4001
 11
3.00691
 21
-136.4001
  0
LINE
  8
0
  6
CONTINUOUS
 62
     7
 10
3.58426
 20
-126.4
 11
3.00691
 21
-127.4
  0
LINE
  8
0
  6
CONTINUOUS
 62
     7
 10
-2.69119
 20
-127.9254
 11
3.00691
 21
-127.4
  0
LINE
  8
0
  6
CONTINUOUS
 62
     7
 10
1.31387
 20
-136.2439
 11
3.00691
 21
-136.4
  0
LINE
  8
0
  6
CONTINUOUS
 62
     7
 10
-2.41574
 20
-135.2541
 11
0.58426
 21
-135.8227
  0
LINE
  8
0
  6
CONTINUOUS
 62
     7
 10
-2.41574
 20
-127.9
 11
-2.41574
 21
-135.2541
  0
LINE
  8
0
  6
CONTINUOUS
 62
     7
 10
-6.41574
 20
-136.4
 11
-5.41575
 21
-135.8227
  0
LINE
  8
0
  6
CONTINUOUS
 62
     7
 10
13.58426
 20
-94.10004
 11
13.58426
 21
-105.9
  0
LINE
  8
0
  6
CONTINUOUS
 62
     7
 10
12.38426
 20
-94.10004
 11
12.38426
 21
-105.9
  0
LINE
  8
0
  6
CONTINUOUS
 62
     7
 10
12.38426
 20
-105.9
 11
13.58426
 21
-105.9
  0
LINE
  8
0
  6
CONTINUOUS
 62
     7
 10
12.38426
 20
-94.10004
 11
13.58426
 21
-94.10004
  0
LINE
  8
0
  6
CONTINUOUS
 62
     7
 10
11.58426
 20
-95.00004
 11
11.58426
 21
-105.0
  0
LINE
  8
0
  6
CONTINUOUS
 62
     7
 10
10.58427
 20
-105.0
 11
11.58426
 21
-105.0
  0
LINE
  8
0
  6
CONTINUOUS
 62
     7
 10
10.58426
 20
-95.00004
 11
11.58426
 21
-95.00004
  0
LINE
  8
0
  6
CONTINUOUS
 62
     7
 10
11.58426
 20
-96.50004
 11
12.38426
 21
-96.50004
  0
LINE
  8
0
  6
CONTINUOUS
 62
     7
 10
11.58426
 20
-103.5
 11
12.38426
 21
-103.5
  0
LINE
  8
0
  6
CONTINUOUS
 62
     7
 10
3.58426
 20
-94.50004
 11
8.58426
 21
-94.50004
  0
LINE
  8
0
  6
CONTINUOUS
 62
     7
 10
10.58426
 20
-95.00004
 11
10.58426
 21
-105.0
  0
LINE
  8
0
  6
CONTINUOUS
 62
     7
 10
8.58426
 20
-94.50004
 11
8.58426
 21
-105.5
  0
LINE
  8
0
  6
CONTINUOUS
 62
     7
 10
3.58426
 20
-94.50004
 11
3.58426
 21
-105.5
  0
LINE
  8
0
  6
CONTINUOUS
 62
     7
 10
8.58427
 20
-94.50002
 11
10.58426
 21
-95.00002
  0
LINE
  8
0
  6
CONTINUOUS
 62
     7
 10
8.58426
 20
-105.5
 11
10.58426
 21
-105.0
  0
LINE
  8
0
  6
CONTINUOUS
 62
     7
 10
3.58426
 20
-105.5
 11
8.58426
 21
-105.5
  0
LINE
  8
0
  6
CONTINUOUS
 62
     7
 10
3.58426
 20
-94.50003
 11
3.00691
 21
-95.50004
  0
LINE
  8
0
  6
CONTINUOUS
 62
     7
 10
3.58427
 20
-105.5
 11
3.00692
 21
-104.5
  0
LINE
  8
0
  6
CONTINUOUS
 62
     7
 10
3.00691
 20
-95.50004
 11
3.00691
 21
-99.50004
  0
LINE
  8
0
  6
CENTER
 62
     2
 10
-8.24126
 20
-100.0
 11
15.57062
 21
-100.0
  0
LINE
  8
0
  6
CONTINUOUS
 62
     7
 10
-2.41574
 20
-96.00004
 11
3.00691
 21
-95.50004
  0
LINE
  8
0
  6
CONTINUOUS
 62
     7
 10
-2.41574
 20
-104.0
 11
3.00691
 21
-104.5
  0
LINE
  8
0
  6
CENTER
 62
     2
 10
-2.41574
 20
-94.32816
 11
-2.41574
 21
-105.0927
  0
LINE
  8
0
  6
CONTINUOUS
 62
     7
 10
-3.02976
 20
-97.06355
 11
-2.41574
 21
-96.00004
  0
LINE
  8
0
  6
CONTINUOUS
 62
     7
 10
-3.02975
 20
-97.06356
 11
-2.52029
 21
-99.50005
  0
LINE
  8
0
  6
CONTINUOUS
 62
     7
 10
-2.41574
 20
-96.00003
 11
-2.41574
 21
-99.50004
  0
LINE
  8
0
  6
CONTINUOUS
 62
     7
 10
-2.41574
 20
-104.0
 11
-2.41574
 21
-100.5
  0
LINE
  8
0
  6
CONTINUOUS
 62
     7
 10
-3.02976
 20
-102.9365
 11
-2.52029
 21
-100.5
  0
LINE
  8
0
  6
CONTINUOUS
 62
     7
 10
-3.02976
 20
-102.9365
 11
-2.41574
 21
-104.0
  0
LINE
  8
0
  6
CONTINUOUS
 62
     7
 10
-4.72522
 20
-96.00005
 11
-7.03462
 21
-100.0
  0
LINE
  8
0
  6
CONTINUOUS
 62
     7
 10
-7.03453
 20
-100.0001
 11
-4.72512
 21
-104.0001
  0
LINE
  8
0
  6
CONTINUOUS
 62
     7
 10
-4.72514
 20
-104.0
 11
-2.41576
 21
-104.0
  0
LINE
  8
0
  6
CONTINUOUS
 62
     7
 10
-2.41579
 20
-95.99996
 11
-4.72514
 21
-95.99996
  0
LINE
  8
0
  6
CONTINUOUS
 62
     7
 10
-6.38437
 20
-100.5
 11
3.58426
 21
-100.5
  0
LINE
  8
0
  6
CONTINUOUS
 62
     7
 10
-6.38437
 20
-99.50004
 11
3.58426
 21
-99.50004
  0
LINE
  8
0
  6
CONTINUOUS
 62
     7
 10
3.00691
 20
-100.5
 11
3.00691
 21
-104.5
  0
LINE
  8
0
  6
CENTER
 62
     2
 10
-52.41574
 20
-161.6667
 11
-52.41574
 21
-124.2739
  0
LINE
  8
0
  6
CONTINUOUS
 62
     7
 10
-56.41574
 20
-137.2
 11
-48.41574
 21
-137.2
  0
LINE
  8
0
  6
CONTINUOUS
 62
     7
 10
-48.41574
 20
-155.0
 11
-48.41574
 21
-136.4
  0
LINE
  8
0
  6
CONTINUOUS
 62
     7
 10
-56.41574
 20
-155.0
 11
-56.41574
 21
-136.4
  0
LINE
  8
0
  6
CONTINUOUS
 62
     7
 10
-52.41574
 20
-137.5573
 11
-52.41574
 21
-152.3428
  0
LINE
  8
0
  6
CENTER
 62
     2
 10
-58.87111
 20
-131.9
 11
-46.08257
 21
-131.9
  0
LINE
  8
0
  6
CONTINUOUS
 62
     7
 10
-54.91574
 20
-157.9
 11
-49.91574
 21
-157.9
  0
LINE
  8
0
  6
CONTINUOUS
 62
     7
 10
-54.48274
 20
-157.9
 11
-54.48274
 21
-155.0
  0
LINE
  8
0
  6
CONTINUOUS
 62
     7
 10
-54.91574
 20
-157.9
 11
-54.91574
 21
-155.0
  0
LINE
  8
0
  6
CONTINUOUS
 62
     7
 10
-49.91574
 20
-157.9
 11
-49.91574
 21
-155.0
  0
LINE
  8
0
  6
CONTINUOUS
 62
     7
 10
-50.34874
 20
-157.9
 11
-50.34874
 21
-155.0
  0
LINE
  8
0
  6
CONTINUOUS
 62
     7
 10
-56.41574
 20
-154.2
 11
-48.41574
 21
-154.2
  0
LINE
  8
0
  6
CONTINUOUS
 62
     7
 10
-56.41574
 20
-155.0
 11
-48.41574
 21
-155.0
  0
LINE
  8
0
  6
CONTINUOUS
 62
     7
 10
-56.41574
 20
-152.7
 11
-48.41574
 21
-152.7
  0
LINE
  8
0
  6
CONTINUOUS
 62
     7
 10
-56.41574
 20
-136.4
 11
-55.41574
 21
-135.8227
  0
LINE
  8
0
  6
CONTINUOUS
 62
     7
 10
-49.41574
 20
-135.8227
 11
-49.41574
 21
-130.9953
  0
LINE
  8
0
  6
CONTINUOUS
 62
     7
 10
-55.41574
 20
-135.8227
 11
-55.41574
 21
-130.9953
  0
LINE
  8
0
  6
CONTINUOUS
 62
     7
 10
-56.41574
 20
-136.4
 11
-48.41574
 21
-136.4
  0
LINE
  8
0
  6
CONTINUOUS
 62
     7
 10
-48.41574
 20
-136.4
 11
-49.41574
 21
-135.8227
  0
LINE
  8
0
  6
CONTINUOUS
 62
     7
 10
-51.91574
 20
-135.8227
 11
-49.41574
 21
-135.8227
  0
LINE
  8
0
  6
CONTINUOUS
 62
     7
 10
-51.91574
 20
-136.4
 11
-51.91574
 21
-126.4228
  0
LINE
  8
0
  6
CONTINUOUS
 62
     7
 10
-52.91574
 20
-136.4
 11
-52.91574
 21
-126.4228
  0
LINE
  8
0
  6
CONTINUOUS
 62
     7
 10
-52.91574
 20
-135.8227
 11
-55.41574
 21
-135.8227
  0
LINE
  8
0
  6
CENTER
 62
     2
 10
47.58426
 20
-162.3334
 11
47.58426
 21
-124.2739
  0
LINE
  8
0
  6
CONTINUOUS
 62
     7
 10
43.58427
 20
-137.2
 11
45.23479
 21
-137.2
  0
LINE
  8
0
  6
CONTINUOUS
 62
     7
 10
51.58426
 20
-155.0
 11
51.58426
 21
-136.4
  0
LINE
  8
0
  6
CONTINUOUS
 62
     7
 10
43.58426
 20
-155.0
 11
43.58427
 21
-136.4
  0
LINE
  8
0
  6
CONTINUOUS
 62
     7
 10
47.58427
 20
-137.8
 11
47.58426
 21
-152.3428
  0
LINE
  8
0
  6
CENTER
 62
     2
 10
41.1289
 20
-131.9
 11
53.91743
 21
-131.9
  0
LINE
  8
0
  6
CONTINUOUS
 62
     7
 10
45.08426
 20
-157.9
 11
50.08426
 21
-157.9
  0
LINE
  8
0
  6
CONTINUOUS
 62
     7
 10
45.51726
 20
-157.9
 11
45.51726
 21
-155.0
  0
LINE
  8
0
  6
CONTINUOUS
 62
     7
 10
45.08426
 20
-157.9
 11
45.08426
 21
-155.0
  0
LINE
  8
0
  6
CONTINUOUS
 62
     7
 10
50.08426
 20
-157.9
 11
50.08426
 21
-155.0
  0
LINE
  8
0
  6
CONTINUOUS
 62
     7
 10
49.65126
 20
-157.9
 11
49.65126
 21
-155.0
  0
LINE
  8
0
  6
CONTINUOUS
 62
     7
 10
43.58426
 20
-154.2
 11
51.58426
 21
-154.2
  0
LINE
  8
0
  6
CONTINUOUS
 62
     7
 10
43.58426
 20
-155.0
 11
51.58426
 21
-155.0
  0
LINE
  8
0
  6
CONTINUOUS
 62
     7
 10
43.58426
 20
-152.7
 11
51.58426
 21
-152.7
  0
LINE
  8
0
  6
CONTINUOUS
 62
     7
 10
43.58427
 20
-136.4
 11
43.9513
 21
-136.1881
  0
LINE
  8
0
  6
CONTINUOUS
 62
     7
 10
43.58427
 20
-136.4
 11
44.15498
 21
-136.4
  0
LINE
  8
0
  6
CONTINUOUS
 62
     7
 10
51.58427
 20
-136.4
 11
51.21723
 21
-136.1881
  0
LINE
  8
0
  6
CONTINUOUS
 62
     7
 10
42.68426
 20
-130.9
 11
42.68426
 21
-132.9
  0
LINE
  8
0
  6
CONTINUOUS
 62
     7
 10
52.48426
 20
-130.9
 11
52.48426
 21
-132.9
  0
LINE
  8
0
  6
CONTINUOUS
 62
     7
 10
51.58426
 20
-136.4
 11
51.01355
 21
-136.4
  0
LINE
  8
0
  6
CONTINUOUS
 62
     7
 10
51.58425
 20
-137.2
 11
49.93373
 21
-137.2
  0
LINE
  8
0
  6
CENTER
 62
     2
 10
172.4157
 20
44.14602
 11
172.4157
 21
80.6549
  0
LINE
  8
0
  6
CONTINUOUS
 62
     7
 10
168.4157
 20
52.30003
 11
176.4157
 21
52.30003
  0
LINE
  8
0
  6
CONTINUOUS
 62
     7
 10
168.4157
 20
67.80003
 11
176.4157
 21
67.80003
  0
LINE
  8
0
  6
CONTINUOUS
 62
     7
 10
177.0346
 20
67.44277
 11
176.4158
 21
67.80004
  0
LINE
  8
0
  6
CONTINUOUS
 62
     7
 10
177.0345
 20
52.6573
 11
177.0345
 21
67.44276
  0
LINE
  8
0
  6
CONTINUOUS
 62
     7
 10
174.7251
 20
52.74339
 11
174.7251
 21
67.44276
  0
LINE
  8
0
  6
CONTINUOUS
 62
     7
 10
170.1063
 20
52.6573
 11
170.1063
 21
67.44276
  0
LINE
  8
0
  6
CONTINUOUS
 62
     7
 10
177.0346
 20
52.6573
 11
176.4158
 21
52.30004
  0
LINE
  8
0
  6
CONTINUOUS
 62
     7
 10
167.797
 20
67.44278
 11
168.4158
 21
67.80005
  0
LINE
  8
0
  6
CONTINUOUS
 62
     7
 10
167.7969
 20
52.6573
 11
168.4157
 21
52.30004
  0
LINE
  8
0
  6
CONTINUOUS
 62
     7
 10
167.7969
 20
52.6573
 11
167.7969
 21
67.44276
  0
LINE
  8
0
  6
CONTINUOUS
 62
     7
 10
176.4157
 20
50.80003
 11
176.4157
 21
52.30003
  0
LINE
  8
0
  6
CONTINUOUS
 62
     7
 10
168.4157
 20
50.80003
 11
168.4157
 21
52.30003
  0
LINE
  8
0
  6
CENTER
 62
     2
 10
166.5902
 20
73.10003
 11
190.4021
 21
73.10003
  0
LINE
  8
0
  6
CONTINUOUS
 62
     7
 10
168.4157
 20
74.08617
 11
168.4157
 21
67.80003
  0
LINE
  8
0
  6
CONTINUOUS
 62
     7
 10
176.4157
 20
68.60003
 11
176.4157
 21
67.80003
  0
LINE
  8
0
  6
CONTINUOUS
 62
     7
 10
169.4157
 20
69.17738
 11
169.4157
 21
74.0873
  0
LINE
  8
0
  6
CONTINUOUS
 62
     7
 10
169.4157
 20
69.17738
 11
175.4157
 21
69.17738
  0
LINE
  8
0
  6
CONTINUOUS
 62
     7
 10
168.4157
 20
68.60003
 11
176.4157
 21
68.60003
  0
LINE
  8
0
  6
CONTINUOUS
 62
     7
 10
172.0836
 20
78.07236
 11
178.4157
 21
78.60004
  0
LINE
  8
0
  6
CONTINUOUS
 62
     7
 10
176.4157
 20
68.60002
 11
175.4157
 21
69.17738
  0
LINE
  8
0
  6
CONTINUOUS
 62
     7
 10
187.2157
 20
79.00003
 11
188.4157
 21
79.00003
  0
LINE
  8
0
  6
CONTINUOUS
 62
     7
 10
188.4157
 20
79.00003
 11
188.4157
 21
67.20003
  0
LINE
  8
0
  6
CONTINUOUS
 62
     7
 10
187.2157
 20
79.00003
 11
187.2157
 21
67.20003
  0
LINE
  8
0
  6
CONTINUOUS
 62
     7
 10
187.2157
 20
67.20003
 11
188.4157
 21
67.20003
  0
LINE
  8
0
  6
CONTINUOUS
 62
     7
 10
186.4157
 20
69.60003
 11
187.2157
 21
69.60003
  0
LINE
  8
0
  6
CONTINUOUS
 62
     7
 10
186.4157
 20
76.60003
 11
187.2157
 21
76.60003
  0
LINE
  8
0
  6
CONTINUOUS
 62
     7
 10
186.4157
 20
78.10003
 11
186.4157
 21
68.10003
  0
LINE
  8
0
  6
CONTINUOUS
 62
     7
 10
185.4157
 20
78.10003
 11
186.4157
 21
78.10003
  0
LINE
  8
0
  6
CONTINUOUS
 62
     7
 10
185.4158
 20
68.10003
 11
186.4157
 21
68.10003
  0
LINE
  8
0
  6
CONTINUOUS
 62
     7
 10
185.4157
 20
78.10003
 11
185.4157
 21
68.10003
  0
LINE
  8
0
  6
CONTINUOUS
 62
     7
 10
183.4158
 20
67.60004
 11
185.4158
 21
68.10004
  0
LINE
  8
0
  6
CONTINUOUS
 62
     7
 10
183.4158
 20
78.60004
 11
185.4158
 21
78.10004
  0
LINE
  8
0
  6
CONTINUOUS
 62
     7
 10
183.4157
 20
78.60003
 11
183.4157
 21
67.60003
  0
LINE
  8
0
  6
CONTINUOUS
 62
     7
 10
178.4157
 20
78.60003
 11
183.4157
 21
78.60003
  0
LINE
  8
0
  6
CONTINUOUS
 62
     7
 10
178.4157
 20
67.60003
 11
183.4157
 21
67.60003
  0
LINE
  8
0
  6
CONTINUOUS
 62
     7
 10
178.4157
 20
78.60003
 11
178.4157
 21
67.60003
  0
LINE
  8
0
  6
CONTINUOUS
 62
     7
 10
177.8384
 20
77.60003
 11
177.8384
 21
68.60003
  0
LINE
  8
0
  6
CONTINUOUS
 62
     7
 10
178.4158
 20
67.60004
 11
177.8384
 21
68.60004
  0
LINE
  8
0
  6
CONTINUOUS
 62
     7
 10
178.4157
 20
78.60003
 11
177.8384
 21
77.60002
  0
LINE
  8
0
  6
CONTINUOUS
 62
     7
 10
172.1403
 20
77.07462
 11
177.8384
 21
77.60002
  0
LINE
  8
0
  6
CONTINUOUS
 62
     7
 10
176.1454
 20
68.75613
 11
177.8384
 21
68.60002
  0
LINE
  8
0
  6
CONTINUOUS
 62
     7
 10
172.4157
 20
69.74593
 11
175.4158
 21
69.17738
  0
LINE
  8
0
  6
CONTINUOUS
 62
     7
 10
172.4157
 20
77.10003
 11
172.4157
 21
69.74593
  0
LINE
  8
0
  6
CONTINUOUS
 62
     7
 10
175.4157
 20
46.10003
 11
175.4157
 21
50.00003
  0
LINE
  8
0
  6
CONTINUOUS
 62
     7
 10
174.8742
 20
46.10003
 11
174.8742
 21
50.00003
  0
LINE
  8
0
  6
CONTINUOUS
 62
     7
 10
169.4157
 20
46.10003
 11
175.4157
 21
46.10003
  0
LINE
  8
0
  6
CONTINUOUS
 62
     7
 10
169.9572
 20
46.10003
 11
169.9572
 21
50.00003
  0
LINE
  8
0
  6
CONTINUOUS
 62
     7
 10
169.4157
 20
46.10003
 11
169.4157
 21
50.00003
  0
LINE
  8
0
  6
CONTINUOUS
 62
     7
 10
168.4158
 20
68.60004
 11
169.4158
 21
69.1774
  0
LINE
  8
0
  6
CONTINUOUS
 62
     7
 10
167.9157
 20
50.00003
 11
167.9157
 21
50.80003
  0
LINE
  8
0
  6
CONTINUOUS
 62
     7
 10
167.9157
 20
50.00003
 11
176.9157
 21
50.00003
  0
LINE
  8
0
  6
CONTINUOUS
 62
     7
 10
167.9157
 20
50.80003
 11
176.9157
 21
50.80003
  0
LINE
  8
0
  6
CONTINUOUS
 62
     7
 10
176.9157
 20
50.00003
 11
176.9157
 21
50.80003
  0
LINE
  8
0
  6
CONTINUOUS
 62
     7
 10
188.4157
 20
110.9
 11
188.4157
 21
99.10002
  0
LINE
  8
0
  6
CONTINUOUS
 62
     7
 10
187.2157
 20
110.9
 11
187.2157
 21
99.10002
  0
LINE
  8
0
  6
CONTINUOUS
 62
     7
 10
187.2157
 20
99.10002
 11
188.4157
 21
99.10002
  0
LINE
  8
0
  6
CONTINUOUS
 62
     7
 10
187.2157
 20
110.9
 11
188.4157
 21
110.9
  0
LINE
  8
0
  6
CONTINUOUS
 62
     7
 10
186.4157
 20
110.0
 11
186.4157
 21
100.0
  0
LINE
  8
0
  6
CONTINUOUS
 62
     7
 10
185.4158
 20
100.0
 11
186.4157
 21
100.0
  0
LINE
  8
0
  6
CONTINUOUS
 62
     7
 10
185.4157
 20
110.0
 11
186.4157
 21
110.0
  0
LINE
  8
0
  6
CONTINUOUS
 62
     7
 10
186.4157
 20
108.5
 11
187.2157
 21
108.5
  0
LINE
  8
0
  6
CONTINUOUS
 62
     7
 10
186.4157
 20
101.5
 11
187.2157
 21
101.5
  0
LINE
  8
0
  6
CONTINUOUS
 62
     7
 10
178.4157
 20
110.5
 11
183.4157
 21
110.5
  0
LINE
  8
0
  6
CONTINUOUS
 62
     7
 10
185.4157
 20
110.0
 11
185.4157
 21
100.0
  0
LINE
  8
0
  6
CONTINUOUS
 62
     7
 10
183.4157
 20
110.5
 11
183.4157
 21
99.50002
  0
LINE
  8
0
  6
CONTINUOUS
 62
     7
 10
178.4157
 20
110.5
 11
178.4157
 21
99.50002
  0
LINE
  8
0
  6
CONTINUOUS
 62
     7
 10
183.4158
 20
110.5001
 11
185.4158
 21
110.0001
  0
LINE
  8
0
  6
CONTINUOUS
 62
     7
 10
183.4158
 20
99.50004
 11
185.4158
 21
100.0
  0
LINE
  8
0
  6
CONTINUOUS
 62
     7
 10
178.4157
 20
99.50002
 11
183.4157
 21
99.50002
  0
LINE
  8
0
  6
CONTINUOUS
 62
     7
 10
178.4157
 20
110.5
 11
177.8384
 21
109.5
  0
LINE
  8
0
  6
CONTINUOUS
 62
     7
 10
178.4158
 20
99.50004
 11
177.8384
 21
100.5
  0
LINE
  8
0
  6
CONTINUOUS
 62
     7
 10
177.8384
 20
109.5
 11
177.8384
 21
105.5
  0
LINE
  8
0
  6
CENTER
 62
     2
 10
166.5902
 20
105.0
 11
190.4021
 21
105.0
  0
LINE
  8
0
  6
CONTINUOUS
 62
     7
 10
172.4157
 20
109.0
 11
177.8384
 21
109.5
  0
LINE
  8
0
  6
CONTINUOUS
 62
     7
 10
172.4157
 20
101.0
 11
177.8384
 21
100.5
  0
LINE
  8
0
  6
CENTER
 62
     2
 10
172.4157
 20
110.6719
 11
172.4157
 21
99.90739
  0
LINE
  8
0
  6
CONTINUOUS
 62
     7
 10
171.8017
 20
107.9365
 11
172.4157
 21
109.0
  0
LINE
  8
0
  6
CONTINUOUS
 62
     7
 10
171.8017
 20
107.9365
 11
172.3112
 21
105.5
  0
LINE
  8
0
  6
CONTINUOUS
 62
     7
 10
172.4157
 20
109.0
 11
172.4157
 21
105.5
  0
LINE
  8
0
  6
CONTINUOUS
 62
     7
 10
172.4157
 20
101.0
 11
172.4157
 21
104.5
  0
LINE
  8
0
  6
CONTINUOUS
 62
     7
 10
171.8017
 20
102.0635
 11
172.3112
 21
104.5
  0
LINE
  8
0
  6
CONTINUOUS
 62
     7
 10
171.8017
 20
102.0635
 11
172.4157
 21
101.0
  0
LINE
  8
0
  6
CONTINUOUS
 62
     7
 10
170.1064
 20
109.0001
 11
167.7969
 21
105.0001
  0
LINE
  8
0
  6
CONTINUOUS
 62
     7
 10
167.797
 20
105.0001
 11
170.1064
 21
101.0001
  0
LINE
  8
0
  6
CONTINUOUS
 62
     7
 10
170.1064
 20
101.0001
 11
172.4158
 21
101.0001
  0
LINE
  8
0
  6
CONTINUOUS
 62
     7
 10
172.4158
 20
109.0002
 11
170.1064
 21
109.0002
  0
LINE
  8
0
  6
CONTINUOUS
 62
     7
 10
168.4471
 20
104.5
 11
178.4157
 21
104.5
  0
LINE
  8
0
  6
CONTINUOUS
 62
     7
 10
168.4471
 20
105.5
 11
178.4157
 21
105.5
  0
LINE
  8
0
  6
CONTINUOUS
 62
     7
 10
177.8384
 20
104.5
 11
177.8384
 21
100.5
  0
LINE
  8
0
  6
CENTER
 62
     2
 10
122.4157
 20
44.20052
 11
122.4157
 21
80.72618
  0
LINE
  8
0
  6
CONTINUOUS
 62
     7
 10
118.4157
 20
67.80003
 11
126.4157
 21
67.80003
  0
LINE
  8
0
  6
CONTINUOUS
 62
     7
 10
126.4157
 20
50.80003
 11
126.4157
 21
68.60003
  0
LINE
  8
0
  6
CONTINUOUS
 62
     7
 10
118.4157
 20
50.80003
 11
118.4157
 21
68.60003
  0
LINE
  8
0
  6
CONTINUOUS
 62
     7
 10
122.4157
 20
67.44276
 11
122.4157
 21
52.6573
  0
LINE
  8
0
  6
CENTER
 62
     2
 10
115.9604
 20
73.10003
 11
128.7489
 21
73.10003
  0
LINE
  8
0
  6
CONTINUOUS
 62
     7
 10
118.4157
 20
52.30003
 11
126.4157
 21
52.30003
  0
LINE
  8
0
  6
CONTINUOUS
 62
     7
 10
118.4158
 20
68.60005
 11
119.4157
 21
69.1774
  0
LINE
  8
0
  6
CONTINUOUS
 62
     7
 10
125.4157
 20
69.17738
 11
125.4157
 21
74.00473
  0
LINE
  8
0
  6
CONTINUOUS
 62
     7
 10
119.4157
 20
69.17738
 11
119.4157
 21
74.00473
  0
LINE
  8
0
  6
CONTINUOUS
 62
     7
 10
118.4157
 20
68.60003
 11
126.4157
 21
68.60003
  0
LINE
  8
0
  6
CONTINUOUS
 62
     7
 10
126.4157
 20
68.60004
 11
125.4157
 21
69.17738
  0
LINE
  8
0
  6
CONTINUOUS
 62
     7
 10
122.9157
 20
69.17738
 11
125.4157
 21
69.17738
  0
LINE
  8
0
  6
CONTINUOUS
 62
     7
 10
122.9157
 20
68.60003
 11
122.9157
 21
78.57726
  0
LINE
  8
0
  6
CONTINUOUS
 62
     7
 10
121.9157
 20
68.60003
 11
121.9157
 21
78.57726
  0
LINE
  8
0
  6
CONTINUOUS
 62
     7
 10
121.9157
 20
69.17738
 11
119.4157
 21
69.17738
  0
LINE
  8
0
  6
CONTINUOUS
 62
     7
 10
125.4157
 20
46.10003
 11
125.4157
 21
50.00003
  0
LINE
  8
0
  6
CONTINUOUS
 62
     7
 10
124.8742
 20
46.10003
 11
124.8742
 21
50.00003
  0
LINE
  8
0
  6
CONTINUOUS
 62
     7
 10
119.4157
 20
46.10003
 11
125.4157
 21
46.10003
  0
LINE
  8
0
  6
CONTINUOUS
 62
     7
 10
119.9572
 20
46.10003
 11
119.9572
 21
50.00003
  0
LINE
  8
0
  6
CONTINUOUS
 62
     7
 10
119.4157
 20
46.10003
 11
119.4157
 21
50.00003
  0
LINE
  8
0
  6
CONTINUOUS
 62
     7
 10
117.9157
 20
50.00003
 11
117.9157
 21
50.80003
  0
LINE
  8
0
  6
CONTINUOUS
 62
     7
 10
117.9157
 20
50.00003
 11
126.9157
 21
50.00003
  0
LINE
  8
0
  6
CONTINUOUS
 62
     7
 10
117.9157
 20
50.80003
 11
126.9157
 21
50.80003
  0
LINE
  8
0
  6
CONTINUOUS
 62
     7
 10
126.9157
 20
50.00003
 11
126.9157
 21
50.80003
  0
LINE
  8
0
  6
CENTER
 62
     2
 10
222.4157
 20
44.0915
 11
222.4157
 21
80.72617
  0
LINE
  8
0
  6
CONTINUOUS
 62
     7
 10
218.4157
 20
67.80003
 11
220.0663
 21
67.80003
  0
LINE
  8
0
  6
CONTINUOUS
 62
     7
 10
226.4157
 20
50.80003
 11
226.4157
 21
68.60003
  0
LINE
  8
0
  6
CONTINUOUS
 62
     7
 10
218.4157
 20
50.80003
 11
218.4157
 21
68.60002
  0
LINE
  8
0
  6
CONTINUOUS
 62
     7
 10
222.4157
 20
67.20002
 11
222.4157
 21
52.94398
  0
LINE
  8
0
  6
CENTER
 62
     2
 10
215.9604
 20
73.10003
 11
228.7489
 21
73.10003
  0
LINE
  8
0
  6
CONTINUOUS
 62
     7
 10
217.9157
 20
50.80003
 11
226.9157
 21
50.80003
  0
LINE
  8
0
  6
CONTINUOUS
 62
     7
 10
217.9157
 20
50.00003
 11
226.9157
 21
50.00003
  0
LINE
  8
0
  6
CONTINUOUS
 62
     7
 10
218.4157
 20
52.30003
 11
226.4157
 21
52.30003
  0
LINE
  8
0
  6
CONTINUOUS
 62
     7
 10
218.4158
 20
68.60003
 11
218.7828
 21
68.81193
  0
LINE
  8
0
  6
CONTINUOUS
 62
     7
 10
218.4157
 20
68.60003
 11
218.9865
 21
68.60003
  0
LINE
  8
0
  6
CONTINUOUS
 62
     7
 10
226.4157
 20
68.60003
 11
226.0487
 21
68.81194
  0
LINE
  8
0
  6
CONTINUOUS
 62
     7
 10
217.5157
 20
74.10003
 11
217.5157
 21
72.10003
  0
LINE
  8
0
  6
CONTINUOUS
 62
     7
 10
227.3157
 20
74.10003
 11
227.3157
 21
72.10003
  0
LINE
  8
0
  6
CONTINUOUS
 62
     7
 10
226.4157
 20
68.60003
 11
225.845
 21
68.60004
  0
LINE
  8
0
  6
CONTINUOUS
 62
     7
 10
226.4157
 20
67.80003
 11
224.7652
 21
67.80003
  0
LINE
  8
0
  6
CONTINUOUS
 62
     7
 10
219.4157
 20
46.10003
 11
225.4157
 21
46.10003
  0
LINE
  8
0
  6
CONTINUOUS
 62
     7
 10
219.4157
 20
46.10003
 11
219.4157
 21
50.00003
  0
LINE
  8
0
  6
CONTINUOUS
 62
     7
 10
225.4157
 20
46.10003
 11
225.4157
 21
50.00003
  0
LINE
  8
0
  6
CONTINUOUS
 62
     7
 10
219.9572
 20
46.10003
 11
219.9572
 21
50.00003
  0
LINE
  8
0
  6
CONTINUOUS
 62
     7
 10
224.8742
 20
46.10003
 11
224.8742
 21
50.00003
  0
LINE
  8
0
  6
CONTINUOUS
 62
     7
 10
217.9157
 20
50.00003
 11
217.9157
 21
50.80003
  0
LINE
  8
0
  6
CONTINUOUS
 62
     7
 10
226.9157
 20
50.00003
 11
226.9157
 21
50.80003
  0
LINE
  8
0
  6
CONTINUOUS
 62
     7
 10
167.4157
 20
-106.0
 11
177.4157
 21
-106.0
  0
LINE
  8
0
  6
CONTINUOUS
 62
     7
 10
167.4157
 20
-89.80002
 11
177.4157
 21
-89.80002
  0
LINE
  8
0
  6
CONTINUOUS
 62
     7
 10
178.1892
 20
-105.5534
 11
178.1892
 21
-90.2466
  0
LINE
  8
0
  6
CONTINUOUS
 62
     7
 10
175.3025
 20
-105.5534
 11
175.3025
 21
-90.2466
  0
LINE
  8
0
  6
CONTINUOUS
 62
     7
 10
178.1893
 20
-90.2466
 11
177.4158
 21
-89.80002
  0
LINE
  8
0
  6
CONTINUOUS
 62
     7
 10
169.529
 20
-105.5534
 11
169.529
 21
-90.2466
  0
LINE
  8
0
  6
CONTINUOUS
 62
     7
 10
178.1893
 20
-105.5534
 11
177.4158
 21
-106.0
  0
LINE
  8
0
  6
CONTINUOUS
 62
     7
 10
166.6422
 20
-90.24659
 11
167.4157
 21
-89.8
  0
LINE
  8
0
  6
CONTINUOUS
 62
     7
 10
166.6423
 20
-105.5534
 11
167.4158
 21
-106.0
  0
LINE
  8
0
  6
CONTINUOUS
 62
     7
 10
166.6422
 20
-105.5534
 11
166.6422
 21
-90.2466
  0
LINE
  8
0
  6
CENTER
 62
     2
 10
172.4157
 20
-117.2952
 11
172.4157
 21
-76.9637
  0
LINE
  8
0
  6
CONTINUOUS
 62
     7
 10
168.2585
 20
-114.0
 11
168.007
 21
-106.0
  0
LINE
  8
0
  6
CONTINUOUS
 62
     7
 10
167.6774
 20
-114.0
 11
167.426
 21
-106.0
  0
LINE
  8
0
  6
CONTINUOUS
 62
     7
 10
177.154
 20
-114.0
 11
177.4054
 21
-106.0
  0
LINE
  8
0
  6
CONTINUOUS
 62
     7
 10
176.573
 20
-114.0
 11
176.8244
 21
-106.0
  0
LINE
  8
0
  6
CONTINUOUS
 62
     7
 10
167.6774
 20
-114.0
 11
177.154
 21
-114.0
  0
LINE
  8
0
  6
CENTER
 62
     2
 10
166.6116
 20
-84.50002
 11
190.4235
 21
-84.50002
  0
LINE
  8
0
  6
CONTINUOUS
 62
     7
 10
168.4157
 20
-83.51388
 11
168.4157
 21
-89.80002
  0
LINE
  8
0
  6
CONTINUOUS
 62
     7
 10
176.4157
 20
-89.00002
 11
176.4157
 21
-89.80002
  0
LINE
  8
0
  6
CONTINUOUS
 62
     7
 10
169.4157
 20
-88.42266
 11
169.4157
 21
-83.51274
  0
LINE
  8
0
  6
CONTINUOUS
 62
     7
 10
169.4157
 20
-88.42267
 11
175.4157
 21
-88.42267
  0
LINE
  8
0
  6
CONTINUOUS
 62
     7
 10
168.4157
 20
-89.00002
 11
176.4157
 21
-89.00002
  0
LINE
  8
0
  6
CONTINUOUS
 62
     7
 10
172.0836
 20
-79.52765
 11
178.4158
 21
-78.99997
  0
LINE
  8
0
  6
CONTINUOUS
 62
     7
 10
176.4157
 20
-89.00002
 11
175.4157
 21
-88.42267
  0
LINE
  8
0
  6
CONTINUOUS
 62
     7
 10
187.2157
 20
-78.60001
 11
188.4157
 21
-78.60001
  0
LINE
  8
0
  6
CONTINUOUS
 62
     7
 10
188.4157
 20
-78.60001
 11
188.4157
 21
-90.40002
  0
LINE
  8
0
  6
CONTINUOUS
 62
     7
 10
187.2157
 20
-78.60001
 11
187.2157
 21
-90.40002
  0
LINE
  8
0
  6
CONTINUOUS
 62
     7
 10
187.2157
 20
-90.40002
 11
188.4157
 21
-90.40002
  0
LINE
  8
0
  6
CONTINUOUS
 62
     7
 10
186.4157
 20
-88.00002
 11
187.2157
 21
-88.00002
  0
LINE
  8
0
  6
CONTINUOUS
 62
     7
 10
186.4157
 20
-81.00002
 11
187.2157
 21
-81.00002
  0
LINE
  8
0
  6
CONTINUOUS
 62
     7
 10
186.4157
 20
-79.50002
 11
186.4157
 21
-89.50002
  0
LINE
  8
0
  6
CONTINUOUS
 62
     7
 10
185.4157
 20
-79.50002
 11
186.4157
 21
-79.50002
  0
LINE
  8
0
  6
CONTINUOUS
 62
     7
 10
185.4157
 20
-89.50002
 11
186.4157
 21
-89.50002
  0
LINE
  8
0
  6
CONTINUOUS
 62
     7
 10
185.4157
 20
-79.50002
 11
185.4157
 21
-89.50002
  0
LINE
  8
0
  6
CONTINUOUS
 62
     7
 10
183.4157
 20
-90.0
 11
185.4158
 21
-89.49999
  0
LINE
  8
0
  6
CONTINUOUS
 62
     7
 10
183.4158
 20
-78.99997
 11
185.4158
 21
-79.49997
  0
LINE
  8
0
  6
CONTINUOUS
 62
     7
 10
183.4157
 20
-79.00002
 11
183.4157
 21
-90.00002
  0
LINE
  8
0
  6
CONTINUOUS
 62
     7
 10
178.4157
 20
-79.00002
 11
183.4157
 21
-79.00002
  0
LINE
  8
0
  6
CONTINUOUS
 62
     7
 10
178.4157
 20
-90.00002
 11
183.4157
 21
-90.00002
  0
LINE
  8
0
  6
CONTINUOUS
 62
     7
 10
178.4157
 20
-79.00002
 11
178.4157
 21
-90.00002
  0
LINE
  8
0
  6
CONTINUOUS
 62
     7
 10
177.8384
 20
-80.00002
 11
177.8384
 21
-89.00002
  0
LINE
  8
0
  6
CONTINUOUS
 62
     7
 10
178.4158
 20
-90.00002
 11
177.8384
 21
-89.00001
  0
LINE
  8
0
  6
CONTINUOUS
 62
     7
 10
178.4157
 20
-79.00002
 11
177.8384
 21
-80.00002
  0
LINE
  8
0
  6
CONTINUOUS
 62
     7
 10
172.1403
 20
-80.52544
 11
177.8384
 21
-80.00005
  0
LINE
  8
0
  6
CONTINUOUS
 62
     7
 10
176.1453
 20
-88.84392
 11
177.8384
 21
-89.00002
  0
LINE
  8
0
  6
CONTINUOUS
 62
     7
 10
172.4157
 20
-87.85413
 11
175.4158
 21
-88.42267
  0
LINE
  8
0
  6
CONTINUOUS
 62
     7
 10
172.4157
 20
-80.50002
 11
172.4157
 21
-87.85412
  0
LINE
  8
0
  6
CONTINUOUS
 62
     7
 10
168.4157
 20
-88.99998
 11
169.4157
 21
-88.42263
  0
LINE
  8
0
  6
CENTER
 62
     2
 10
165.1623
 20
-55.00002
 11
189.7957
 21
-55.00002
  0
LINE
  8
0
  6
CENTER
 62
     2
 10
172.4157
 20
-48.81252
 11
172.4157
 21
-61.09013
  0
LINE
  8
0
  6
CONTINUOUS
 62
     7
 10
175.3025
 20
-60.00003
 11
175.7047
 21
-59.30331
  0
LINE
  8
0
  6
CONTINUOUS
 62
     7
 10
169.529
 20
-59.99998
 11
175.3025
 21
-59.99998
  0
LINE
  8
0
  6
CONTINUOUS
 62
     7
 10
166.6423
 20
-55.00002
 11
169.5291
 21
-60.00002
  0
LINE
  8
0
  6
CONTINUOUS
 62
     7
 10
169.529
 20
-50.00001
 11
166.6422
 21
-55.00001
  0
LINE
  8
0
  6
CONTINUOUS
 62
     7
 10
175.3025
 20
-49.99997
 11
169.529
 21
-49.99997
  0
LINE
  8
0
  6
CONTINUOUS
 62
     7
 10
175.7048
 20
-50.69677
 11
175.3025
 21
-50.00002
  0
LINE
  8
0
  6
CONTINUOUS
 62
     7
 10
188.4157
 20
-49.10002
 11
188.4157
 21
-60.90002
  0
LINE
  8
0
  6
CONTINUOUS
 62
     7
 10
187.2157
 20
-49.10002
 11
187.2157
 21
-60.90002
  0
LINE
  8
0
  6
CONTINUOUS
 62
     7
 10
187.2157
 20
-60.90002
 11
188.4157
 21
-60.90002
  0
LINE
  8
0
  6
CONTINUOUS
 62
     7
 10
187.2157
 20
-49.10002
 11
188.4157
 21
-49.10002
  0
LINE
  8
0
  6
CONTINUOUS
 62
     7
 10
186.4157
 20
-50.00002
 11
186.4157
 21
-60.00002
  0
LINE
  8
0
  6
CONTINUOUS
 62
     7
 10
185.4157
 20
-60.00002
 11
186.4157
 21
-60.00002
  0
LINE
  8
0
  6
CONTINUOUS
 62
     7
 10
185.4157
 20
-50.00002
 11
186.4157
 21
-50.00002
  0
LINE
  8
0
  6
CONTINUOUS
 62
     7
 10
186.4157
 20
-51.50002
 11
187.2157
 21
-51.50002
  0
LINE
  8
0
  6
CONTINUOUS
 62
     7
 10
186.4157
 20
-58.50002
 11
187.2157
 21
-58.50002
  0
LINE
  8
0
  6
CONTINUOUS
 62
     7
 10
178.4157
 20
-49.50002
 11
183.4157
 21
-49.50002
  0
LINE
  8
0
  6
CONTINUOUS
 62
     7
 10
185.4157
 20
-50.00002
 11
185.4157
 21
-60.00002
  0
LINE
  8
0
  6
CONTINUOUS
 62
     7
 10
183.4157
 20
-49.50002
 11
183.4157
 21
-60.50002
  0
LINE
  8
0
  6
CONTINUOUS
 62
     7
 10
178.4157
 20
-49.50002
 11
178.4157
 21
-60.50002
  0
LINE
  8
0
  6
CONTINUOUS
 62
     7
 10
183.4158
 20
-49.49994
 11
185.4158
 21
-49.99994
  0
LINE
  8
0
  6
CONTINUOUS
 62
     7
 10
183.4157
 20
-60.49998
 11
185.4157
 21
-59.99998
  0
LINE
  8
0
  6
CONTINUOUS
 62
     7
 10
178.4157
 20
-60.50002
 11
183.4157
 21
-60.50002
  0
LINE
  8
0
  6
CONTINUOUS
 62
     7
 10
178.4158
 20
-49.50002
 11
177.8384
 21
-50.50002
  0
LINE
  8
0
  6
CONTINUOUS
 62
     7
 10
178.4158
 20
-60.50003
 11
177.8385
 21
-59.50002
  0
LINE
  8
0
  6
CONTINUOUS
 62
     7
 10
177.8384
 20
-50.50002
 11
177.8384
 21
-54.50002
  0
LINE
  8
0
  6
CONTINUOUS
 62
     7
 10
172.4157
 20
-51.00006
 11
177.8384
 21
-50.50006
  0
LINE
  8
0
  6
CONTINUOUS
 62
     7
 10
172.4157
 20
-59.00005
 11
177.8384
 21
-59.50005
  0
LINE
  8
0
  6
CONTINUOUS
 62
     7
 10
171.8017
 20
-52.06352
 11
172.4158
 21
-51.00002
  0
LINE
  8
0
  6
CONTINUOUS
 62
     7
 10
171.8017
 20
-52.06353
 11
172.3112
 21
-54.50003
  0
LINE
  8
0
  6
CONTINUOUS
 62
     7
 10
172.4157
 20
-51.00002
 11
172.4157
 21
-54.50002
  0
LINE
  8
0
  6
CONTINUOUS
 62
     7
 10
172.4157
 20
-59.00002
 11
172.4157
 21
-55.50002
  0
LINE
  8
0
  6
CONTINUOUS
 62
     7
 10
171.8017
 20
-57.93652
 11
172.3112
 21
-55.50003
  0
LINE
  8
0
  6
CONTINUOUS
 62
     7
 10
171.8017
 20
-57.93652
 11
172.4157
 21
-59.00004
  0
LINE
  8
0
  6
CONTINUOUS
 62
     7
 10
168.4471
 20
-55.50002
 11
178.4157
 21
-55.50002
  0
LINE
  8
0
  6
CONTINUOUS
 62
     7
 10
168.4471
 20
-54.50002
 11
178.4157
 21
-54.50002
  0
LINE
  8
0
  6
CONTINUOUS
 62
     7
 10
177.8384
 20
-55.50002
 11
177.8384
 21
-59.50002
  0
LINE
  8
0
  6
CENTER
 62
     2
 10
122.4157
 20
-116.6286
 11
122.4157
 21
-76.9637
  0
LINE
  8
0
  6
CONTINUOUS
 62
     7
 10
117.6774
 20
-114.0
 11
127.154
 21
-114.0
  0
LINE
  8
0
  6
CONTINUOUS
 62
     7
 10
118.2584
 20
-114.0
 11
118.007
 21
-106.0
  0
LINE
  8
0
  6
CONTINUOUS
 62
     7
 10
117.6774
 20
-114.0
 11
117.426
 21
-106.0
  0
LINE
  8
0
  6
CONTINUOUS
 62
     7
 10
126.573
 20
-114.0
 11
126.8245
 21
-106.0
  0
LINE
  8
0
  6
CONTINUOUS
 62
     7
 10
127.154
 20
-114.0
 11
127.4054
 21
-106.0
  0
LINE
  8
0
  6
CONTINUOUS
 62
     7
 10
117.4157
 20
-106.0
 11
127.4157
 21
-106.0
  0
LINE
  8
0
  6
CONTINUOUS
 62
     7
 10
122.4157
 20
-105.5534
 11
122.4157
 21
-90.2466
  0
LINE
  8
0
  6
CONTINUOUS
 62
     7
 10
117.4157
 20
-106.0
 11
117.4157
 21
-89.80002
  0
LINE
  8
0
  6
CONTINUOUS
 62
     7
 10
117.4157
 20
-89.80002
 11
127.4157
 21
-89.80002
  0
LINE
  8
0
  6
CONTINUOUS
 62
     7
 10
127.4157
 20
-106.0
 11
127.4157
 21
-89.80002
  0
LINE
  8
0
  6
CENTER
 62
     2
 10
115.9818
 20
-84.50002
 11
128.7703
 21
-84.50002
  0
LINE
  8
0
  6
CONTINUOUS
 62
     7
 10
125.4157
 20
-88.42266
 11
125.4157
 21
-83.59531
  0
LINE
  8
0
  6
CONTINUOUS
 62
     7
 10
119.4157
 20
-88.42266
 11
119.4157
 21
-83.59531
  0
LINE
  8
0
  6
CONTINUOUS
 62
     7
 10
122.9157
 20
-89.00002
 11
122.9157
 21
-79.02279
  0
LINE
  8
0
  6
CONTINUOUS
 62
     7
 10
121.9157
 20
-89.00002
 11
121.9157
 21
-79.02279
  0
LINE
  8
0
  6
CONTINUOUS
 62
     7
 10
126.4157
 20
-89.80002
 11
126.4157
 21
-89.00002
  0
LINE
  8
0
  6
CONTINUOUS
 62
     7
 10
118.4157
 20
-89.80002
 11
118.4157
 21
-89.00002
  0
LINE
  8
0
  6
CONTINUOUS
 62
     7
 10
118.4157
 20
-89.00002
 11
126.4157
 21
-89.00002
  0
LINE
  8
0
  6
CONTINUOUS
 62
     7
 10
118.4157
 20
-88.99998
 11
119.4157
 21
-88.42263
  0
LINE
  8
0
  6
CONTINUOUS
 62
     7
 10
126.4157
 20
-89.00001
 11
125.4157
 21
-88.42266
  0
LINE
  8
0
  6
CONTINUOUS
 62
     7
 10
122.9157
 20
-88.42267
 11
125.4157
 21
-88.42267
  0
LINE
  8
0
  6
CONTINUOUS
 62
     7
 10
121.9157
 20
-88.42267
 11
119.4157
 21
-88.42267
  0
LINE
  8
0
  6
CONTINUOUS
 62
     7
 10
217.6774
 20
-114.0
 11
227.154
 21
-114.0
  0
LINE
  8
0
  6
CONTINUOUS
 62
     7
 10
227.154
 20
-114.0
 11
227.4054
 21
-106.0
  0
LINE
  8
0
  6
CONTINUOUS
 62
     7
 10
226.573
 20
-114.0
 11
226.8244
 21
-106.0
  0
LINE
  8
0
  6
CONTINUOUS
 62
     7
 10
217.6775
 20
-114.0
 11
217.4261
 21
-106.0
  0
LINE
  8
0
  6
CONTINUOUS
 62
     7
 10
218.2585
 20
-114.0
 11
218.0071
 21
-106.0
  0
LINE
  8
0
  6
CENTER
 62
     2
 10
222.4157
 20
-116.9619
 11
222.4157
 21
-76.89397
  0
LINE
  8
0
  6
CONTINUOUS
 62
     7
 10
217.4157
 20
-106.0
 11
227.4157
 21
-106.0
  0
LINE
  8
0
  6
CONTINUOUS
 62
     7
 10
217.4157
 20
-89.80002
 11
220.0663
 21
-89.80002
  0
LINE
  8
0
  6
CONTINUOUS
 62
     7
 10
227.4157
 20
-106.0
 11
227.4157
 21
-89.80002
  0
LINE
  8
0
  6
CONTINUOUS
 62
     7
 10
222.4157
 20
-105.5534
 11
222.4157
 21
-90.40002
  0
LINE
  8
0
  6
CONTINUOUS
 62
     7
 10
217.4157
 20
-106.0
 11
217.4157
 21
-89.80002
  0
LINE
  8
0
  6
CONTINUOUS
 62
     7
 10
224.7652
 20
-89.80002
 11
227.4157
 21
-89.80002
  0
LINE
  8
0
  6
CENTER
 62
     2
 10
215.9818
 20
-84.50002
 11
228.7703
 21
-84.50002
  0
LINE
  8
0
  6
CONTINUOUS
 62
     7
 10
218.4157
 20
-89.0
 11
218.7828
 21
-88.78809
  0
LINE
  8
0
  6
CONTINUOUS
 62
     7
 10
218.4157
 20
-89.00002
 11
218.9865
 21
-89.00002
  0
LINE
  8
0
  6
CONTINUOUS
 62
     7
 10
226.4157
 20
-89.00001
 11
226.0487
 21
-88.78811
  0
LINE
  8
0
  6
CONTINUOUS
 62
     7
 10
217.5157
 20
-83.50002
 11
217.5157
 21
-85.50002
  0
LINE
  8
0
  6
CONTINUOUS
 62
     7
 10
227.3158
 20
-83.50002
 11
227.3158
 21
-85.50002
  0
LINE
  8
0
  6
CONTINUOUS
 62
     7
 10
226.4157
 20
-89.80002
 11
226.4157
 21
-89.00002
  0
LINE
  8
0
  6
CONTINUOUS
 62
     7
 10
218.4157
 20
-89.80002
 11
218.4157
 21
-89.00002
  0
LINE
  8
0
  6
CONTINUOUS
 62
     7
 10
226.4158
 20
-89.00002
 11
225.845
 21
-89.00002
  0
ARC
  8
0
  6
CONTINUOUS
 62
     7
 10
193.0652
 20
-166.2024
 40
1.56404
 50
0.0
 51
89.99999
  0
ARC
  8
0
  6
CONTINUOUS
 62
     7
 10
205.9686
 20
-174.6092
 40
1.56404
 50
270.0
 51
0.0
  0
ARC
  8
0
  6
CONTINUOUS
 62
     7
 10
205.1865
 20
-166.9844
 40
2.34607
 50
0.0
 51
89.99999
  0
ARC
  8
0
  6
CONTINUOUS
 62
     7
 10
219.4585
 20
-166.2024
 40
1.56404
 50
0.0
 51
89.99999
  0
ARC
  8
0
  6
CONTINUOUS
 62
     7
 10
219.4585
 20
-167.4519
 40
1.56405
 50
295.0
 51
0.0
  0
ARC
  8
0
  6
CONTINUOUS
 62
     7
 10
231.5798
 20
-164.6383
 40
2.34607
 50
291.6882
 51
0.0
  0
ARC
  8
0
  6
CONTINUOUS
 62
     7
 10
230.7978
 20
-164.1077
 40
0.78203
 50
291.688
 51
0.0
  0
ARC
  8
0
  6
CONTINUOUS
 62
     7
 10
-177.2472
 20
92.71877
 40
4.98125
 50
71.41344
 51
108.5865
  0
ARC
  8
0
  6
CONTINUOUS
 62
     7
 10
-174.8534
 20
96.31945
 40
1.38058
 50
89.99999
 51
125.7265
  0
ARC
  8
0
  6
CONTINUOUS
 62
     7
 10
-179.6411
 20
96.31945
 40
1.38057
 50
54.27354
 51
89.99999
  0
ARC
  8
0
  6
CONTINUOUS
 62
     7
 10
-174.8534
 20
88.5806
 40
1.38057
 50
234.2735
 51
270.0
  0
ARC
  8
0
  6
CONTINUOUS
 62
     7
 10
-179.6411
 20
88.5806
 40
1.38058
 50
270.0
 51
305.7264
  0
ARC
  8
0
  6
CONTINUOUS
 62
     7
 10
-177.2472
 20
92.18127
 40
4.98125
 50
251.4133
 51
288.5865
  0
ARC
  8
0
  6
CONTINUOUS
 62
     7
 10
-177.2472
 20
102.15
 40
2.0
 50
89.99999
 51
180.0
  0
ARC
  8
0
  6
CONTINUOUS
 62
     7
 10
-177.2472
 20
102.15
 40
2.75
 50
89.99999
 51
180.0
  0
ARC
  8
0
  6
CONTINUOUS
 62
     7
 10
-177.2472
 20
125.0
 40
2.75
 50
58.39437
 51
301.6056
  0
ARC
  8
0
  6
CONTINUOUS
 62
     7
 10
-177.2472
 20
125.0
 40
2.0
 50
89.99999
 51
165.5225
  0
ARC
  8
0
  6
CONTINUOUS
 62
     7
 10
-177.2472
 20
125.0
 40
2.0
 50
194.4775
 51
270.0
  0
ARC
  8
0
  6
CONTINUOUS
 62
     7
 10
-227.2472
 20
102.1
 40
3.0
 50
33.13858
 51
146.8614
  0
ARC
  8
0
  6
CONTINUOUS
 62
     7
 10
-227.2472
 20
101.6
 40
2.55
 50
321.6572
 51
78.69229
  0
ARC
  8
0
  6
CONTINUOUS
 62
     7
 10
-225.8722
 20
90.96841
 40
3.76839
 50
248.6
 51
291.4
  0
ARC
  8
0
  6
CONTINUOUS
 62
     7
 10
-228.6222
 20
90.96841
 40
3.76839
 50
248.6
 51
291.4
  0
ARC
  8
0
  6
CONTINUOUS
 62
     7
 10
-225.8722
 20
93.93163
 40
3.76839
 50
68.59998
 51
111.4
  0
ARC
  8
0
  6
CONTINUOUS
 62
     7
 10
-228.6222
 20
93.93163
 40
3.76839
 50
68.59998
 51
111.4
  0
ARC
  8
0
  6
CONTINUOUS
 62
     7
 10
-227.2472
 20
101.6
 40
3.3
 50
307.3052
 51
232.6948
  0
ARC
  8
0
  6
CONTINUOUS
 62
     7
 10
-227.2472
 20
101.6
 40
2.55
 50
101.3077
 51
218.3427
  0
ARC
  8
0
  6
CONTINUOUS
 62
     7
 10
-227.2472
 20
102.164
 40
2.0
 50
104.4775
 51
180.0
  0
ARC
  8
0
  6
CONTINUOUS
 62
     7
 10
-227.2472
 20
102.164
 40
2.0
 50
0.0
 51
75.52249
  0
CIRCLE
  8
0
  6
CONTINUOUS
 62
     7
 10
-127.2472
 20
101.6
 40
1.5
  0
ARC
  8
0
  6
CONTINUOUS
 62
     7
 10
-125.8722
 20
90.96841
 40
3.76839
 50
248.6
 51
291.4
  0
ARC
  8
0
  6
CONTINUOUS
 62
     7
 10
-128.6222
 20
90.96841
 40
3.76839
 50
248.6
 51
291.3998
  0
ARC
  8
0
  6
CONTINUOUS
 62
     7
 10
-125.8722
 20
93.93163
 40
3.76839
 50
68.59998
 51
111.3999
  0
ARC
  8
0
  6
CONTINUOUS
 62
     7
 10
-128.6222
 20
93.93163
 40
3.76839
 50
68.59998
 51
111.4
  0
ARC
  8
0
  6
CONTINUOUS
 62
     7
 10
-127.2472
 20
101.6
 40
3.3
 50
319.5726
 51
40.42741
  0
ARC
  8
0
  6
CONTINUOUS
 62
     7
 10
-127.2472
 20
102.1
 40
3.0
 50
0.0
 51
180.0
  0
ARC
  8
0
  6
CONTINUOUS
 62
     7
 10
-127.2472
 20
101.1
 40
3.0
 50
180.0
 51
0.0
  0
ARC
  8
0
  6
CONTINUOUS
 62
     7
 10
-127.2472
 20
101.6
 40
3.3
 50
139.5726
 51
220.4274
  0
ARC
  8
0
  6
CONTINUOUS
 62
     7
 10
-177.2472
 20
-26.34274
 40
7.64274
 50
72.41204
 51
107.588
  0
ARC
  8
0
  6
CONTINUOUS
 62
     7
 10
-173.7831
 20
-20.74467
 40
2.04466
 50
89.99999
 51
124.384
  0
ARC
  8
0
  6
CONTINUOUS
 62
     7
 10
-173.7831
 20
-29.50535
 40
2.04465
 50
235.6159
 51
304.384
  0
ARC
  8
0
  6
CONTINUOUS
 62
     7
 10
-180.7113
 20
-20.74467
 40
2.04466
 50
55.61557
 51
89.99999
  0
ARC
  8
0
  6
CONTINUOUS
 62
     7
 10
-180.7113
 20
-29.50535
 40
2.04466
 50
235.616
 51
304.384
  0
ARC
  8
0
  6
CONTINUOUS
 62
     7
 10
-177.2472
 20
-23.90727
 40
7.64273
 50
252.412
 51
287.588
  0
ARC
  8
0
  6
CONTINUOUS
 62
     7
 10
-177.2472
 20
-14.10001
 40
3.0
 50
89.99999
 51
180.0
  0
ARC
  8
0
  6
CONTINUOUS
 62
     7
 10
-177.2472
 20
-14.10001
 40
4.0
 50
89.99999
 51
185.7391
  0
ARC
  8
0
  6
CONTINUOUS
 62
     7
 10
-177.2472
 20
19.99999
 40
4.0
 50
51.83093
 51
308.1689
  0
ARC
  8
0
  6
CONTINUOUS
 62
     7
 10
-177.2472
 20
19.99999
 40
3.0
 50
89.99971
 51
170.406
  0
ARC
  8
0
  6
CONTINUOUS
 62
     7
 10
-177.2472
 20
19.99999
 40
3.0
 50
189.594
 51
270.0
  0
ARC
  8
0
  6
CONTINUOUS
 62
     7
 10
-225.2472
 20
-24.47673
 40
5.77672
 50
69.74387
 51
110.2561
  0
ARC
  8
0
  6
CONTINUOUS
 62
     7
 10
-225.2472
 20
-25.77329
 40
5.77672
 50
249.7439
 51
290.2561
  0
ARC
  8
0
  6
CONTINUOUS
 62
     7
 10
-229.2472
 20
-24.47672
 40
5.77672
 50
69.74387
 51
110.2561
  0
ARC
  8
0
  6
CONTINUOUS
 62
     7
 10
-229.2472
 20
-25.77329
 40
5.77672
 50
249.7439
 51
290.2561
  0
ARC
  8
0
  6
CONTINUOUS
 62
     7
 10
-227.2472
 20
-14.40001
 40
3.3
 50
335.38
 51
81.28526
  0
ARC
  8
0
  6
CONTINUOUS
 62
     7
 10
-227.2472
 20
-14.40001
 40
4.3
 50
318.4919
 51
221.5081
  0
ARC
  8
0
  6
CONTINUOUS
 62
     7
 10
-227.2472
 20
-14.10001
 40
3.0
 50
0.0
 51
80.40593
  0
ARC
  8
0
  6
CONTINUOUS
 62
     7
 10
-227.2472
 20
-14.40001
 40
3.3
 50
98.71474
 51
204.6199
  0
ARC
  8
0
  6
CONTINUOUS
 62
     7
 10
-227.2472
 20
-14.10001
 40
3.0
 50
99.59407
 51
180.0
  0
ARC
  8
0
  6
CONTINUOUS
 62
     7
 10
-127.2472
 20
-13.40001
 40
3.9
 50
0.0
 51
180.0
  0
ARC
  8
0
  6
CONTINUOUS
 62
     7
 10
-127.2472
 20
-15.40001
 40
3.89999
 50
180.0
 51
359.9999
  0
CIRCLE
  8
0
  6
CONTINUOUS
 62
     7
 10
-127.2472
 20
-14.40001
 40
2.0
  0
ARC
  8
0
  6
CONTINUOUS
 62
     7
 10
-129.2472
 20
-25.77329
 40
5.77672
 50
249.7439
 51
290.256
  0
ARC
  8
0
  6
CONTINUOUS
 62
     7
 10
-129.2472
 20
-24.47672
 40
5.77672
 50
90.77005
 51
110.2561
  0
ARC
  8
0
  6
CONTINUOUS
 62
     7
 10
-125.2472
 20
-24.47673
 40
5.77672
 50
69.74387
 51
89.23002
  0
ARC
  8
0
  6
CONTINUOUS
 62
     7
 10
-125.2472
 20
-25.77329
 40
5.77672
 50
249.7439
 51
290.2561
  0
ARC
  8
0
  6
CONTINUOUS
 62
     7
 10
-127.2472
 20
-14.40001
 40
4.3
 50
150.1539
 51
209.8461
  0
ARC
  8
0
  6
CONTINUOUS
 62
     7
 10
-127.2472
 20
-14.40001
 40
4.3
 50
330.1538
 51
29.84605
  0
ARC
  8
0
  6
CONTINUOUS
 62
     7
 10
-177.2472
 20
-147.3428
 40
7.64273
 50
72.41202
 51
107.5879
  0
ARC
  8
0
  6
CONTINUOUS
 62
     7
 10
-173.7831
 20
-141.7447
 40
2.04466
 50
89.99999
 51
124.3841
  0
ARC
  8
0
  6
CONTINUOUS
 62
     7
 10
-173.7831
 20
-150.6554
 40
2.04465
 50
235.6159
 51
270.0
  0
ARC
  8
0
  6
CONTINUOUS
 62
     7
 10
-180.7113
 20
-141.7447
 40
2.04466
 50
55.61557
 51
89.99999
  0
ARC
  8
0
  6
CONTINUOUS
 62
     7
 10
-180.7113
 20
-150.6554
 40
2.04466
 50
270.0
 51
304.3841
  0
ARC
  8
0
  6
CONTINUOUS
 62
     7
 10
-177.2472
 20
-145.0573
 40
7.64273
 50
252.412
 51
287.5879
  0
ARC
  8
0
  6
CONTINUOUS
 62
     7
 10
-177.2472
 20
-135.1
 40
3.0
 50
89.99999
 51
180.0
  0
ARC
  8
0
  6
CONTINUOUS
 62
     7
 10
-177.2472
 20
-135.1
 40
4.0
 50
89.99999
 51
185.7391
  0
ARC
  8
0
  6
CONTINUOUS
 62
     7
 10
-177.2472
 20
-100.0
 40
4.00001
 50
51.83094
 51
308.1689
  0
ARC
  8
0
  6
CONTINUOUS
 62
     7
 10
-177.2472
 20
-100.0
 40
3.0
 50
89.99971
 51
170.4059
  0
ARC
  8
0
  6
CONTINUOUS
 62
     7
 10
-177.2472
 20
-100.0
 40
3.0
 50
189.5939
 51
270.0
  0
ARC
  8
0
  6
CONTINUOUS
 62
     7
 10
-225.2472
 20
-145.4767
 40
5.77671
 50
69.74386
 51
110.2561
  0
ARC
  8
0
  6
CONTINUOUS
 62
     7
 10
-229.2472
 20
-145.4767
 40
5.77671
 50
69.74386
 51
110.2561
  0
ARC
  8
0
  6
CONTINUOUS
 62
     7
 10
-227.2472
 20
-135.4
 40
3.3
 50
335.38
 51
81.28526
  0
ARC
  8
0
  6
CONTINUOUS
 62
     7
 10
-227.2472
 20
-135.4
 40
4.30001
 50
318.4918
 51
221.5082
  0
ARC
  8
0
  6
CONTINUOUS
 62
     7
 10
-227.2472
 20
-135.1
 40
3.0
 50
0.0
 51
80.40593
  0
ARC
  8
0
  6
CONTINUOUS
 62
     7
 10
-227.2472
 20
-135.4
 40
3.3
 50
98.71474
 51
204.6199
  0
ARC
  8
0
  6
CONTINUOUS
 62
     7
 10
-227.2472
 20
-135.1
 40
3.0
 50
99.59407
 51
180.0
  0
ARC
  8
0
  6
CONTINUOUS
 62
     7
 10
-229.2472
 20
-146.9233
 40
5.77671
 50
249.7438
 51
290.2561
  0
ARC
  8
0
  6
CONTINUOUS
 62
     7
 10
-225.2472
 20
-146.9233
 40
5.77671
 50
249.7438
 51
290.2561
  0
ARC
  8
0
  6
CONTINUOUS
 62
     7
 10
-127.2472
 20
-134.4
 40
3.9
 50
0.0
 51
180.0
  0
ARC
  8
0
  6
CONTINUOUS
 62
     7
 10
-127.2472
 20
-136.4
 40
3.89999
 50
180.0
 51
0.0
  0
CIRCLE
  8
0
  6
CONTINUOUS
 62
     7
 10
-127.2472
 20
-135.4
 40
2.0
  0
ARC
  8
0
  6
CONTINUOUS
 62
     7
 10
-129.2472
 20
-145.4767
 40
5.77672
 50
90.77005
 51
110.2561
  0
ARC
  8
0
  6
CONTINUOUS
 62
     7
 10
-125.2472
 20
-145.4767
 40
5.77671
 50
69.74386
 51
89.23002
  0
ARC
  8
0
  6
CONTINUOUS
 62
     7
 10
-127.2472
 20
-135.4
 40
4.30001
 50
150.1538
 51
209.846
  0
ARC
  8
0
  6
CONTINUOUS
 62
     7
 10
-127.2472
 20
-135.4
 40
4.3
 50
330.1537
 51
29.84601
  0
ARC
  8
0
  6
CONTINUOUS
 62
     7
 10
-129.2472
 20
-146.9233
 40
5.77671
 50
249.7438
 51
290.2561
  0
ARC
  8
0
  6
CONTINUOUS
 62
     7
 10
-125.2472
 20
-146.9233
 40
5.77671
 50
249.7438
 51
290.2561
  0
ARC
  8
0
  6
CONTINUOUS
 62
     7
 10
-2.41574
 20
92.6573
 40
7.64274
 50
72.41203
 51
107.5879
  0
ARC
  8
0
  6
CONTINUOUS
 62
     7
 10
1.04836
 20
98.25537
 40
2.04466
 50
89.99998
 51
124.3842
  0
ARC
  8
0
  6
CONTINUOUS
 62
     7
 10
1.04836
 20
89.34469
 40
2.04466
 50
235.6157
 51
269.9999
  0
ARC
  8
0
  6
CONTINUOUS
 62
     7
 10
-5.87984
 20
98.25537
 40
2.04466
 50
55.6157
 51
89.99992
  0
ARC
  8
0
  6
CONTINUOUS
 62
     7
 10
-5.87984
 20
89.34469
 40
2.04466
 50
269.9999
 51
304.3842
  0
ARC
  8
0
  6
CONTINUOUS
 62
     7
 10
-2.41574
 20
94.94276
 40
7.64274
 50
252.412
 51
287.5879
  0
ARC
  8
0
  6
CONTINUOUS
 62
     7
 10
-2.41574
 20
104.9
 40
3.0
 50
89.99998
 51
180.0
  0
ARC
  8
0
  6
CONTINUOUS
 62
     7
 10
-2.41574
 20
104.9
 40
4.0
 50
89.99998
 51
185.7392
  0
ARC
  8
0
  6
CONTINUOUS
 62
     7
 10
-2.41574
 20
140.0
 40
4.0
 50
51.83096
 51
308.169
  0
ARC
  8
0
  6
CONTINUOUS
 62
     7
 10
-2.41574
 20
140.0
 40
3.0
 50
89.99982
 51
170.4059
  0
ARC
  8
0
  6
CONTINUOUS
 62
     7
 10
-2.41574
 20
140.0
 40
3.0
 50
189.5941
 51
270.0001
  0
ARC
  8
0
  6
CONTINUOUS
 62
     7
 10
-2.41574
 20
140.0
 40
4.5
 50
45.07439
 51
57.26554
  0
ARC
  8
0
  6
CONTINUOUS
 62
     7
 10
-2.41574
 20
140.0
 40
4.50001
 50
122.7345
 51
177.2654
  0
ARC
  8
0
  6
CONTINUOUS
 62
     7
 10
-2.41574
 20
140.0
 40
4.5
 50
182.7346
 51
237.2655
  0
ARC
  8
0
  6
CONTINUOUS
 62
     7
 10
-2.41574
 20
140.0
 40
4.5
 50
242.7345
 51
297.2655
  0
ARC
  8
0
  6
CONTINUOUS
 62
     7
 10
-2.41574
 20
140.0
 40
4.50001
 50
302.7345
 51
314.9256
  0
ARC
  8
0
  6
CONTINUOUS
 62
     7
 10
-2.41574
 20
140.0
 40
4.5
 50
62.73442
 51
117.2655
  0
ARC
  8
0
  6
CONTINUOUS
 62
     7
 10
-50.41574
 20
94.52332
 40
5.77672
 50
69.74389
 51
110.2561
  0
ARC
  8
0
  6
CONTINUOUS
 62
     7
 10
-54.41574
 20
94.52332
 40
5.77672
 50
69.74379
 51
110.256
  0
ARC
  8
0
  6
CONTINUOUS
 62
     7
 10
-52.41574
 20
104.6
 40
3.3
 50
335.38
 51
81.28526
  0
ARC
  8
0
  6
CONTINUOUS
 62
     7
 10
-52.41574
 20
104.6
 40
4.3
 50
318.4919
 51
221.5081
  0
ARC
  8
0
  6
CONTINUOUS
 62
     7
 10
-52.41574
 20
104.9
 40
3.0
 50
0.0
 51
80.40593
  0
ARC
  8
0
  6
CONTINUOUS
 62
     7
 10
-52.41574
 20
104.6
 40
3.3
 50
98.71474
 51
204.6199
  0
ARC
  8
0
  6
CONTINUOUS
 62
     7
 10
-52.41574
 20
104.9
 40
3.0
 50
99.59407
 51
180.0
  0
ARC
  8
0
  6
CONTINUOUS
 62
     7
 10
-54.41574
 20
93.07675
 40
5.77672
 50
249.7439
 51
290.2561
  0
ARC
  8
0
  6
CONTINUOUS
 62
     7
 10
-50.41574
 20
93.07675
 40
5.77672
 50
249.7439
 51
290.2561
  0
ARC
  8
0
  6
CONTINUOUS
 62
     7
 10
47.58426
 20
105.6
 40
3.9
 50
0.0
 51
180.0
  0
ARC
  8
0
  6
CONTINUOUS
 62
     7
 10
47.58426
 20
103.6
 40
3.9
 50
180.0
 51
0.0
  0
CIRCLE
  8
0
  6
CONTINUOUS
 62
     7
 10
47.58426
 20
104.6
 40
2.0
  0
ARC
  8
0
  6
CONTINUOUS
 62
     7
 10
45.58426
 20
94.52332
 40
5.77672
 50
90.77005
 51
110.256
  0
ARC
  8
0
  6
CONTINUOUS
 62
     7
 10
49.58426
 20
94.52332
 40
5.77672
 50
69.74389
 51
89.22998
  0
ARC
  8
0
  6
CONTINUOUS
 62
     7
 10
47.58426
 20
104.6
 40
4.3
 50
150.1539
 51
209.8461
  0
ARC
  8
0
  6
CONTINUOUS
 62
     7
 10
47.58426
 20
104.6
 40
4.3
 50
330.1539
 51
29.84604
  0
ARC
  8
0
  6
CONTINUOUS
 62
     7
 10
45.58426
 20
93.07675
 40
5.77672
 50
249.7439
 51
290.2561
  0
ARC
  8
0
  6
CONTINUOUS
 62
     7
 10
49.58426
 20
93.07675
 40
5.77672
 50
249.7439
 51
290.2561
  0
ARC
  8
0
  6
CONTINUOUS
 62
     7
 10
1.91439
 20
-19.85583
 40
2.55582
 50
89.99998
 51
124.0894
  0
ARC
  8
0
  6
CONTINUOUS
 62
     7
 10
-2.41574
 20
-26.85342
 40
9.55342
 50
72.41204
 51
107.5879
  0
ARC
  8
0
  6
CONTINUOUS
 62
     7
 10
1.91439
 20
-28.44418
 40
2.55582
 50
235.9105
 51
269.9999
  0
ARC
  8
0
  6
CONTINUOUS
 62
     7
 10
-6.74587
 20
-19.85583
 40
2.55582
 50
55.91051
 51
89.99992
  0
ARC
  8
0
  6
CONTINUOUS
 62
     7
 10
-6.74587
 20
-28.44418
 40
2.55582
 50
270.0
 51
304.0894
  0
ARC
  8
0
  6
CONTINUOUS
 62
     7
 10
-2.41574
 20
-21.44658
 40
9.55342
 50
252.412
 51
287.5879
  0
ARC
  8
0
  6
CONTINUOUS
 62
     7
 10
-2.41574
 20
-12.7
 40
3.0
 50
89.99998
 51
180.0
  0
ARC
  8
0
  6
CONTINUOUS
 62
     7
 10
-2.41574
 20
-12.7
 40
4.0
 50
89.99998
 51
185.7391
  0
ARC
  8
0
  6
CONTINUOUS
 62
     7
 10
-2.41574
 20
19.99999
 40
4.0
 50
51.83101
 51
308.1689
  0
ARC
  8
0
  6
CONTINUOUS
 62
     7
 10
-2.41574
 20
19.99999
 40
3.0
 50
89.99982
 51
170.406
  0
ARC
  8
0
  6
CONTINUOUS
 62
     7
 10
-2.41574
 20
19.99999
 40
3.0
 50
189.594
 51
270.0001
  0
ARC
  8
0
  6
CONTINUOUS
 62
     7
 10
-2.41574
 20
19.99999
 40
5.0
 50
40.14807
 51
319.8519
  0
ARC
  8
0
  6
CONTINUOUS
 62
     7
 10
-52.41574
 20
-13.0
 40
3.3
 50
335.38
 51
81.28526
  0
ARC
  8
0
  6
CONTINUOUS
 62
     7
 10
-52.41574
 20
-13.0
 40
4.3
 50
318.4918
 51
221.5081
  0
ARC
  8
0
  6
CONTINUOUS
 62
     7
 10
-52.41574
 20
-12.7
 40
3.0
 50
0.0
 51
80.40593
  0
ARC
  8
0
  6
CONTINUOUS
 62
     7
 10
-52.41574
 20
-13.0
 40
3.3
 50
98.71474
 51
204.6199
  0
ARC
  8
0
  6
CONTINUOUS
 62
     7
 10
-52.41574
 20
-12.7
 40
3.0
 50
99.59407
 51
180.0
  0
ARC
  8
0
  6
CONTINUOUS
 62
     7
 10
-49.91574
 20
-23.77909
 40
7.22091
 50
249.7439
 51
290.2561
  0
ARC
  8
0
  6
CONTINUOUS
 62
     7
 10
-54.91574
 20
-23.77909
 40
7.22091
 50
249.7438
 51
290.256
  0
ARC
  8
0
  6
CONTINUOUS
 62
     7
 10
-54.91574
 20
-24.52091
 40
7.22091
 50
69.74395
 51
110.2561
  0
ARC
  8
0
  6
CONTINUOUS
 62
     7
 10
-49.91574
 20
-24.52091
 40
7.22091
 50
69.74389
 51
110.256
  0
ARC
  8
0
  6
CONTINUOUS
 62
     7
 10
47.58426
 20
-12.0
 40
3.9
 50
0.0
 51
180.0
  0
ARC
  8
0
  6
CONTINUOUS
 62
     7
 10
47.58426
 20
-14.0
 40
3.9
 50
180.0
 51
359.9999
  0
CIRCLE
  8
0
  6
CONTINUOUS
 62
     7
 10
47.58426
 20
-13.0
 40
2.0
  0
ARC
  8
0
  6
CONTINUOUS
 62
     7
 10
47.58426
 20
-13.0
 40
4.3
 50
150.1539
 51
209.8461
  0
ARC
  8
0
  6
CONTINUOUS
 62
     7
 10
47.58426
 20
-13.0
 40
4.3
 50
330.1538
 51
29.84608
  0
ARC
  8
0
  6
CONTINUOUS
 62
     7
 10
45.08426
 20
-23.77909
 40
7.22091
 50
249.7438
 51
290.256
  0
ARC
  8
0
  6
CONTINUOUS
 62
     7
 10
50.08426
 20
-24.52091
 40
7.22091
 50
69.74389
 51
93.51989
  0
ARC
  8
0
  6
CONTINUOUS
 62
     7
 10
45.08426
 20
-24.52091
 40
7.22091
 50
86.4801
 51
110.2561
  0
ARC
  8
0
  6
CONTINUOUS
 62
     7
 10
50.08426
 20
-23.77909
 40
7.22091
 50
249.7439
 51
290.2561
  0
ARC
  8
0
  6
CONTINUOUS
 62
     7
 10
-2.41574
 20
-144.8428
 40
7.64273
 50
72.41202
 51
107.5879
  0
ARC
  8
0
  6
CONTINUOUS
 62
     7
 10
1.04836
 20
-139.2447
 40
2.04466
 50
89.99998
 51
124.3842
  0
ARC
  8
0
  6
CONTINUOUS
 62
     7
 10
1.04836
 20
-150.6554
 40
2.04466
 50
235.6157
 51
269.9999
  0
ARC
  8
0
  6
CONTINUOUS
 62
     7
 10
-5.87984
 20
-139.2447
 40
2.04466
 50
55.6157
 51
89.99992
  0
ARC
  8
0
  6
CONTINUOUS
 62
     7
 10
-5.87984
 20
-150.6554
 40
2.04466
 50
269.9999
 51
304.3842
  0
ARC
  8
0
  6
CONTINUOUS
 62
     7
 10
-2.41574
 20
-145.0573
 40
7.64273
 50
252.412
 51
287.5879
  0
ARC
  8
0
  6
CONTINUOUS
 62
     7
 10
-2.41574
 20
-130.9128
 40
3.0
 50
95.26813
 51
180.0
  0
ARC
  8
0
  6
CONTINUOUS
 62
     7
 10
-2.41574
 20
-130.9139
 40
4.0
 50
94.76366
 51
180.0
  0
ARC
  8
0
  6
CONTINUOUS
 62
     7
 10
8.20235
 20
-131.5771
 40
11.23675
 50
160.899
 51
199.101
  0
ARC
  8
0
  6
CONTINUOUS
 62
     7
 10
-2.41574
 20
-100.0
 40
3.0
 50
101.8104
 51
170.4059
  0
ARC
  8
0
  6
CONTINUOUS
 62
     7
 10
-2.41574
 20
-100.0
 40
4.0
 50
90.00015
 51
270.0001
  0
ARC
  8
0
  6
CONTINUOUS
 62
     7
 10
-2.41574
 20
-100.0
 40
3.0
 50
189.5939
 51
258.1896
  0
ARC
  8
0
  6
CONTINUOUS
 62
     7
 10
-52.41574
 20
-130.9953
 40
3.0
 50
0.0
 51
80.40593
  0
ARC
  8
0
  6
CONTINUOUS
 62
     7
 10
-50.41574
 20
-142.9767
 40
5.77671
 50
69.74386
 51
110.2561
  0
ARC
  8
0
  6
CONTINUOUS
 62
     7
 10
-54.41574
 20
-142.9767
 40
5.77672
 50
69.74379
 51
110.2561
  0
ARC
  8
0
  6
CONTINUOUS
 62
     7
 10
-54.41574
 20
-146.9233
 40
5.77671
 50
249.7438
 51
290.2561
  0
ARC
  8
0
  6
CONTINUOUS
 62
     7
 10
-50.41574
 20
-146.9233
 40
5.77671
 50
249.7438
 51
290.2561
  0
ARC
  8
0
  6
CONTINUOUS
 62
     7
 10
-52.41574
 20
-131.9
 40
5.5
 50
309.8224
 51
230.1774
  0
ARC
  8
0
  6
CONTINUOUS
 62
     7
 10
-52.41574
 20
-131.9
 40
4.5
 50
311.8104
 51
83.62064
  0
ARC
  8
0
  6
CONTINUOUS
 62
     7
 10
-52.41574
 20
-130.9
 40
4.9
 50
32.32309
 51
147.6769
  0
ARC
  8
0
  6
CONTINUOUS
 62
     7
 10
-52.41574
 20
-131.9
 40
4.5
 50
96.37936
 51
228.1896
  0
ARC
  8
0
  6
CONTINUOUS
 62
     7
 10
-52.41574
 20
-130.9953
 40
3.0
 50
99.59407
 51
180.0
  0
ARC
  8
0
  6
CONTINUOUS
 62
     7
 10
45.58426
 20
-142.9767
 40
5.77672
 50
93.29396
 51
110.2561
  0
ARC
  8
0
  6
CONTINUOUS
 62
     7
 10
45.58426
 20
-146.9233
 40
5.77671
 50
249.7438
 51
290.2561
  0
ARC
  8
0
  6
CONTINUOUS
 62
     7
 10
49.58426
 20
-146.9233
 40
5.77671
 50
249.7438
 51
290.2561
  0
ARC
  8
0
  6
CONTINUOUS
 62
     7
 10
47.58426
 20
-131.9
 40
5.5
 50
138.8389
 51
221.1611
  0
ARC
  8
0
  6
CONTINUOUS
 62
     7
 10
47.58426
 20
-132.9
 40
4.9
 50
180.0
 51
0.0
  0
CIRCLE
  8
0
  6
CONTINUOUS
 62
     7
 10
47.58426
 20
-131.9
 40
3.0
  0
ARC
  8
0
  6
CONTINUOUS
 62
     7
 10
47.58426
 20
-131.9
 40
5.49999
 50
318.8389
 51
41.16107
  0
ARC
  8
0
  6
CONTINUOUS
 62
     7
 10
49.58425
 20
-142.9767
 40
5.77671
 50
69.74386
 51
86.70595
  0
ARC
  8
0
  6
CONTINUOUS
 62
     7
 10
47.58426
 20
-130.9
 40
4.9
 50
0.0
 51
180.0
  0
ARC
  8
0
  6
CONTINUOUS
 62
     7
 10
172.4157
 20
60.1573
 40
7.64274
 50
72.41204
 51
107.588
  0
ARC
  8
0
  6
CONTINUOUS
 62
     7
 10
175.8798
 20
65.75537
 40
2.04466
 50
89.99999
 51
124.3841
  0
ARC
  8
0
  6
CONTINUOUS
 62
     7
 10
175.8798
 20
54.34469
 40
2.04465
 50
235.6159
 51
270.0
  0
ARC
  8
0
  6
CONTINUOUS
 62
     7
 10
168.9516
 20
65.75537
 40
2.04466
 50
55.61557
 51
89.99999
  0
ARC
  8
0
  6
CONTINUOUS
 62
     7
 10
168.9516
 20
54.34469
 40
2.04466
 50
270.0
 51
304.3841
  0
ARC
  8
0
  6
CONTINUOUS
 62
     7
 10
172.4157
 20
59.94276
 40
7.64274
 50
252.412
 51
287.588
  0
ARC
  8
0
  6
CONTINUOUS
 62
     7
 10
172.4157
 20
74.0873
 40
3.0
 50
95.26815
 51
180.0
  0
ARC
  8
0
  6
CONTINUOUS
 62
     7
 10
172.4157
 20
74.08617
 40
4.0
 50
94.76367
 51
180.0
  0
ARC
  8
0
  6
CONTINUOUS
 62
     7
 10
183.0338
 20
73.42298
 40
11.23675
 50
160.899
 51
199.101
  0
ARC
  8
0
  6
CONTINUOUS
 62
     7
 10
172.4157
 20
105.0
 40
3.0
 50
101.8102
 51
170.4059
  0
ARC
  8
0
  6
CONTINUOUS
 62
     7
 10
172.4157
 20
105.0
 40
4.0
 50
90.00021
 51
270.0002
  0
ARC
  8
0
  6
CONTINUOUS
 62
     7
 10
172.4157
 20
105.0
 40
3.0
 50
189.5939
 51
258.1895
  0
ARC
  8
0
  6
CONTINUOUS
 62
     7
 10
172.4157
 20
105.0
 40
4.49999
 50
182.7338
 51
237.2662
  0
ARC
  8
0
  6
CONTINUOUS
 62
     7
 10
172.4157
 20
105.0
 40
4.5
 50
242.7337
 51
292.4638
  0
ARC
  8
0
  6
CONTINUOUS
 62
     7
 10
172.4157
 20
105.0
 40
4.5
 50
67.53616
 51
117.2661
  0
ARC
  8
0
  6
CONTINUOUS
 62
     7
 10
172.4157
 20
105.0
 40
4.5
 50
122.7339
 51
177.2661
  0
ARC
  8
0
  6
CONTINUOUS
 62
     7
 10
122.4157
 20
74.00473
 40
3.0
 50
0.0
 51
80.40593
  0
ARC
  8
0
  6
CONTINUOUS
 62
     7
 10
124.4157
 20
62.02331
 40
5.77672
 50
69.74387
 51
110.2561
  0
ARC
  8
0
  6
CONTINUOUS
 62
     7
 10
120.4157
 20
62.02332
 40
5.77672
 50
69.74379
 51
110.256
  0
ARC
  8
0
  6
CONTINUOUS
 62
     7
 10
120.4157
 20
58.07675
 40
5.77672
 50
249.7439
 51
290.2561
  0
ARC
  8
0
  6
CONTINUOUS
 62
     7
 10
124.4157
 20
58.07675
 40
5.77672
 50
249.7439
 51
290.2561
  0
ARC
  8
0
  6
CONTINUOUS
 62
     7
 10
122.4157
 20
73.10003
 40
5.5
 50
309.8225
 51
230.1775
  0
ARC
  8
0
  6
CONTINUOUS
 62
     7
 10
122.4157
 20
73.10003
 40
4.5
 50
311.8103
 51
83.62064
  0
ARC
  8
0
  6
CONTINUOUS
 62
     7
 10
122.4157
 20
74.10003
 40
4.9
 50
32.3231
 51
147.6768
  0
ARC
  8
0
  6
CONTINUOUS
 62
     7
 10
122.4157
 20
73.10003
 40
4.5
 50
96.37936
 51
228.1897
  0
ARC
  8
0
  6
CONTINUOUS
 62
     7
 10
122.4157
 20
74.00473
 40
3.0
 50
99.59407
 51
180.0
  0
ARC
  8
0
  6
CONTINUOUS
 62
     7
 10
220.4157
 20
62.02332
 40
5.77672
 50
93.29397
 51
110.2561
  0
ARC
  8
0
  6
CONTINUOUS
 62
     7
 10
220.4157
 20
58.07675
 40
5.77672
 50
249.7439
 51
290.2561
  0
ARC
  8
0
  6
CONTINUOUS
 62
     7
 10
224.4157
 20
58.07675
 40
5.77672
 50
249.7439
 51
290.2561
  0
ARC
  8
0
  6
CONTINUOUS
 62
     7
 10
222.4157
 20
73.10003
 40
5.5
 50
138.8389
 51
221.161
  0
ARC
  8
0
  6
CONTINUOUS
 62
     7
 10
222.4157
 20
72.10003
 40
4.89999
 50
180.0
 51
359.9999
  0
CIRCLE
  8
0
  6
CONTINUOUS
 62
     7
 10
222.4157
 20
73.10003
 40
3.0
  0
ARC
  8
0
  6
CONTINUOUS
 62
     7
 10
222.4157
 20
73.10003
 40
5.5
 50
318.8388
 51
41.16104
  0
ARC
  8
0
  6
CONTINUOUS
 62
     7
 10
224.4157
 20
62.02331
 40
5.77672
 50
69.74387
 51
86.70588
  0
ARC
  8
0
  6
CONTINUOUS
 62
     7
 10
222.4157
 20
74.10003
 40
4.89999
 50
0.0
 51
180.0
  0
ARC
  8
0
  6
CONTINUOUS
 62
     7
 10
176.7459
 20
-92.35584
 40
2.55582
 50
89.99999
 51
124.0896
  0
ARC
  8
0
  6
CONTINUOUS
 62
     7
 10
172.4157
 20
-99.35344
 40
9.55342
 50
72.41206
 51
107.5879
  0
ARC
  8
0
  6
CONTINUOUS
 62
     7
 10
176.7459
 20
-103.4442
 40
2.55583
 50
235.9104
 51
270.0
  0
ARC
  8
0
  6
CONTINUOUS
 62
     7
 10
168.0856
 20
-92.35584
 40
2.55583
 50
55.91042
 51
89.99999
  0
ARC
  8
0
  6
CONTINUOUS
 62
     7
 10
168.0856
 20
-103.4442
 40
2.55582
 50
270.0
 51
304.0892
  0
ARC
  8
0
  6
CONTINUOUS
 62
     7
 10
172.4157
 20
-96.44659
 40
9.55342
 50
252.412
 51
287.5879
  0
ARC
  8
0
  6
CONTINUOUS
 62
     7
 10
172.4157
 20
-83.51274
 40
3.0
 50
95.26815
 51
180.0
  0
ARC
  8
0
  6
CONTINUOUS
 62
     7
 10
172.4157
 20
-83.51389
 40
4.0
 50
94.76367
 51
180.0
  0
ARC
  8
0
  6
CONTINUOUS
 62
     7
 10
183.0338
 20
-84.17707
 40
11.23675
 50
160.899
 51
199.101
  0
ARC
  8
0
  6
CONTINUOUS
 62
     7
 10
172.4157
 20
-55.00002
 40
5.0
 50
58.07644
 51
301.9229
  0
ARC
  8
0
  6
CONTINUOUS
 62
     7
 10
172.4157
 20
-55.00002
 40
3.0
 50
101.8102
 51
170.4059
  0
ARC
  8
0
  6
CONTINUOUS
 62
     7
 10
172.4157
 20
-55.00002
 40
4.0
 50
90.00021
 51
270.0002
  0
ARC
  8
0
  6
CONTINUOUS
 62
     7
 10
172.4157
 20
-55.00002
 40
3.0
 50
189.594
 51
258.1895
  0
ARC
  8
0
  6
CONTINUOUS
 62
     7
 10
122.4157
 20
-84.50002
 40
4.5
 50
96.37936
 51
228.1897
  0
ARC
  8
0
  6
CONTINUOUS
 62
     7
 10
122.4157
 20
-83.59531
 40
3.0
 50
99.59407
 51
180.0
  0
ARC
  8
0
  6
CONTINUOUS
 62
     7
 10
124.9157
 20
-98.77911
 40
7.22091
 50
249.7439
 51
290.2561
  0
ARC
  8
0
  6
CONTINUOUS
 62
     7
 10
119.9157
 20
-98.7791
 40
7.22091
 50
249.7438
 51
290.256
  0
ARC
  8
0
  6
CONTINUOUS
 62
     7
 10
119.9157
 20
-97.02093
 40
7.22091
 50
69.74397
 51
110.2561
  0
ARC
  8
0
  6
CONTINUOUS
 62
     7
 10
124.9157
 20
-97.02093
 40
7.22091
 50
69.74391
 51
110.256
  0
ARC
  8
0
  6
CONTINUOUS
 62
     7
 10
122.4157
 20
-83.59531
 40
3.0
 50
0.0
 51
80.40593
  0
ARC
  8
0
  6
CONTINUOUS
 62
     7
 10
122.4157
 20
-84.50002
 40
5.5
 50
309.8225
 51
230.1775
  0
ARC
  8
0
  6
CONTINUOUS
 62
     7
 10
122.4157
 20
-84.50002
 40
4.5
 50
311.8103
 51
83.62064
  0
ARC
  8
0
  6
CONTINUOUS
 62
     7
 10
122.4157
 20
-83.50002
 40
4.9
 50
32.3231
 51
147.6768
  0
CIRCLE
  8
0
  6
CONTINUOUS
 62
     7
 10
222.4157
 20
-84.50002
 40
3.0
  0
ARC
  8
0
  6
CONTINUOUS
 62
     7
 10
222.4157
 20
-84.50002
 40
5.5
 50
318.8388
 51
41.16104
  0
ARC
  8
0
  6
CONTINUOUS
 62
     7
 10
222.4157
 20
-85.50002
 40
4.89999
 50
180.0
 51
359.9999
  0
ARC
  8
0
  6
CONTINUOUS
 62
     7
 10
222.4157
 20
-83.50002
 40
4.89999
 50
0.0
 51
180.0
  0
ARC
  8
0
  6
CONTINUOUS
 62
     7
 10
219.9157
 20
-98.7791
 40
7.22091
 50
249.7439
 51
290.2559
  0
ARC
  8
0
  6
CONTINUOUS
 62
     7
 10
224.9157
 20
-97.02093
 40
7.22091
 50
69.74391
 51
91.21822
  0
ARC
  8
0
  6
CONTINUOUS
 62
     7
 10
219.9157
 20
-97.02093
 40
7.22091
 50
88.78178
 51
110.2561
  0
ARC
  8
0
  6
CONTINUOUS
 62
     7
 10
224.9157
 20
-98.77911
 40
7.22091
 50
249.7439
 51
290.2561
  0
ARC
  8
0
  6
CONTINUOUS
 62
     7
 10
222.4157
 20
-84.50002
 40
5.5
 50
138.8389
 51
221.161
  0
TEXT
  8
0
  6
CONTINUOUS
 62
     7
 10
161.9774
 20
167.0677
 40
6.0
  1
DATE : AUG ,1988
 41
0.8
  7
STANDARD
  0
TEXT
  8
0
  6
CONTINUOUS
 62
     7
 10
-258.1775
 20
166.5977
 40
7.0
  1
QUICK FITTING,TLLM
 41
0.64516
  7
STANDARD
  0
TEXT
  8
0
  6
CONTINUOUS
 62
     7
 10
-244.3975
 20
146.7101
 40
7.0
  1
MODEL : TLL3-M3M
 41
0.8
  7
STANDARD
  0
TEXT
  8
0
  6
CONTINUOUS
 62
     7
 10
105.2655
 20
146.7101
 40
7.0
  1
MODEL : TLL6-M6M
 41
0.8
  7
STANDARD
  0
TEXT
  8
0
  6
CONTINUOUS
 62
     7
 10
-244.3975
 20
-73.29002
 40
7.0
  1
MODEL : TLL4-M5M
 41
0.8
  7
STANDARD
  0
TEXT
  8
0
  6
CONTINUOUS
 62
     7
 10
105.2655
 20
-13.29
 40
7.0
  1
MODEL : TLL6-01M
 41
0.8
  7
STANDARD
  0
TEXT
  8
0
  6
CONTINUOUS
 62
     7
 10
-244.3975
 20
46.71001
 40
7.0
  1
MODEL : TLL4-M3M
 41
0.8
  7
STANDARD
  0
TEXT
  8
0
  6
CONTINUOUS
 62
     7
 10
-69.56601
 20
166.7101
 40
7.0
  1
MODEL : TLL4-M6M
 41
0.8
  7
STANDARD
  0
TEXT
  8
0
  6
CONTINUOUS
 62
     7
 10
-69.56601
 20
46.71001
 40
7.0
  1
MODEL : TLL4-01M
 41
0.8
  7
STANDARD
  0
TEXT
  8
0
  6
CONTINUOUS
 62
     7
 10
-69.56601
 20
-73.29002
 40
7.0
  1
MODEL : TLL6-M5M
 41
0.8
  7
STANDARD
  0
ENDSEC
  0
EOF
