  0
SECTION
  2
HEADER
  9
$ACADVER
  1
AC1002
  9
$INSBASE
 10
0.0
 20
0.0
  9
$EXTMIN
 10
-370.8736
 20
-254.5585
  9
$EXTMAX
 10
370.8736
 20
254.5585
  9
$LIMMIN
 10
0.0
 20
0.0
  9
$LIMMAX
 10
12.0
 20
9.0
  9
$VIEWCTR
 10
28.6093211
 20
0.0
  9
$VIEWSIZE
 40
509.117
  9
$SNAPMODE
 70
     0
  9
$SNAPUNIT
 10
1.0
 20
1.0
  9
$SNAPBASE
 10
0.0
 20
0.0
  9
$SNAPANG
 50
0.0
  9
$SNAPSTYLE
 70
     0
  9
$SNAPISOPAIR
 70
     0
  9
$GRIDMODE
 70
     0
  9
$GRIDUNIT
 10
0.0
 20
0.0
  9
$ORTHOMODE
 70
     0
  9
$REGENMODE
 70
     1
  9
$FILLMODE
 70
     1
  9
$QTEXTMODE
 70
     0
  9
$DRAGMODE
 70
     2
  9
$LTSCALE
 40
1.0
  9
$OSMODE
 70
     0
  9
$ATTMODE
 70
     1
  9
$TEXTSIZE
 40
0.2
  9
$TRACEWID
 40
0.05
  9
$TEXTSTYLE
  7
AAA
  9
$CLAYER
  8
0
  9
$CELTYPE
  6
BYLAYER
  9
$CECOLOR
 62
   256
  9
$DIMSCALE
 40
1.0
  9
$DIMASZ
 40
0.18
  9
$DIMEXO
 40
0.0625
  9
$DIMDLI
 40
0.38
  9
$DIMRND
 40
0.0
  9
$DIMDLE
 40
0.0
  9
$DIMEXE
 40
0.18
  9
$DIMTP
 40
0.0
  9
$DIMTM
 40
0.0
  9
$DIMTXT
 40
0.18
  9
$DIMCEN
 40
0.09
  9
$DIMTSZ
 40
0.0
  9
$DIMTOL
 70
     0
  9
$DIMLIM
 70
     0
  9
$DIMTIH
 70
     1
  9
$DIMTOH
 70
     1
  9
$DIMSE1
 70
     0
  9
$DIMSE2
 70
     0
  9
$DIMTAD
 70
     0
  9
$DIMZIN
 70
     0
  9
$DIMBLK
  1

  9
$LUNITS
 70
     2
  9
$LUPREC
 70
     4
  9
$AXISMODE
 70
     0
  9
$AXISUNIT
 10
0.0
 20
0.0
  9
$SKETCHINC
 40
0.1
  9
$FILLETRAD
 40
0.0
  9
$AUNITS
 70
     0
  9
$AUPREC
 70
     0
  9
$MENU
  1
ACAD
  9
$ELEVATION
 40
0.0
  9
$THICKNESS
 40
0.0
  9
$VIEWDIR
 10
0.0
 20
0.0
 30
1.0
  9
$LIMCHECK
 70
     0
  9
$BLIPMODE
 70
     1
  9
$CHAMFERA
 40
0.0
  9
$CHAMFERB
 40
0.0
  9
$FASTZOOM
 70
     1
  9
$SKPOLY
 70
     0
  9
$TDCREATE
 40
2447819.6252778272
  9
$TDUPDATE
 40
2447819.6252778272
  9
$TDINDWG
 40
0.0015162037
  9
$TDUSRTIMER
 40
0.0015162037
  9
$USRTIMER
 70
     1
  9
$ANGBASE
 50
0.0
  9
$ANGDIR
 70
     0
  9
$PDMODE
 70
     0
  9
$PDSIZE
 40
0.0
  9
$PLINEWID
 40
0.0
  9
$COORDS
 70
     0
  9
$USERI1
 70
     0
  9
$USERI2
 70
     0
  9
$USERI3
 70
     0
  9
$USERI4
 70
     0
  9
$USERI5
 70
     0
  9
$USERR1
 40
0.0
  9
$USERR2
 40
0.0
  9
$USERR3
 40
0.0
  9
$USERR4
 40
0.0
  9
$USERR5
 40
0.0
  0
ENDSEC
  0
SECTION
  2
TABLES
  0
TABLE
  2
LTYPE
 70
     2
  0
LTYPE
  2
CONTINUOUS
 70
    64
  3
SOLID
 72
    65
 73
     0
 40
0.0
  0
LTYPE
  2
CENTER
 70
    64
  3
CENTER
 72
    65
 73
     4
 40
2.0
 49
1.25
 49
-0.25
 49
0.25
 49
-0.25
  0
ENDTAB
  0
TABLE
  2
LAYER
 70
     1
  0
LAYER
  2
0
 70
    64
 62
     7
  6
CONTINUOUS
  0
ENDTAB
  0
TABLE
  2
STYLE
 70
     2
  0
STYLE
  2
AAA
 70
     0
 40
0.0
 41
1.0
 50
0.0
 71
     0
 42
0.2
  3
TXT
  4

  0
STYLE
  2
STANDARD
 70
    64
 40
0.0
 41
1.0
 50
0.0
 71
     0
 42
0.2
  3
TXT
  4
BIGFONT
  0
ENDTAB
  0
TABLE
  2
VIEW
 70
     0
  0
ENDTAB
  0
ENDSEC
  0
SECTION
  2
BLOCKS
  0
ENDSEC
  0
SECTION
  2
ENTITIES
  0
POINT
  8
0
  6
CONTINUOUS
 62
     7
 10
-89.95
 20
-3.0
  0
POINT
  8
0
  6
CONTINUOUS
 62
     7
 10
-266.974
 20
170.7351
  0
POINT
  8
0
  6
CONTINUOUS
 62
     7
 10
-262.974
 20
170.7351
  0
POINT
  8
0
  6
CONTINUOUS
 62
     7
 10
-266.974
 20
205.7351
  0
POINT
  8
0
  6
CONTINUOUS
 62
     7
 10
-261.974
 20
205.7351
  0
POINT
  8
0
  6
CONTINUOUS
 62
     7
 10
-326.4238
 20
170.7351
  0
POINT
  8
0
  6
CONTINUOUS
 62
     7
 10
-322.4238
 20
170.7351
  0
POINT
  8
0
  6
CONTINUOUS
 62
     7
 10
-266.974
 20
84.51379
  0
POINT
  8
0
  6
CONTINUOUS
 62
     7
 10
-262.974
 20
84.51379
  0
POINT
  8
0
  6
CONTINUOUS
 62
     7
 10
-266.974
 20
119.5138
  0
POINT
  8
0
  6
CONTINUOUS
 62
     7
 10
-261.2005
 20
119.5138
  0
POINT
  8
0
  6
CONTINUOUS
 62
     7
 10
-326.4238
 20
84.51379
  0
POINT
  8
0
  6
CONTINUOUS
 62
     7
 10
-322.4238
 20
84.51379
  0
POINT
  8
0
  6
CONTINUOUS
 62
     7
 10
-266.974
 20
-17.3096
  0
POINT
  8
0
  6
CONTINUOUS
 62
     7
 10
-262.474
 20
-17.3096
  0
POINT
  8
0
  6
CONTINUOUS
 62
     7
 10
-266.974
 20
17.6904
  0
POINT
  8
0
  6
CONTINUOUS
 62
     7
 10
-261.2005
 20
17.6904
  0
POINT
  8
0
  6
CONTINUOUS
 62
     7
 10
-326.4238
 20
-17.3096
  0
POINT
  8
0
  6
CONTINUOUS
 62
     7
 10
-321.9238
 20
-17.3096
  0
POINT
  8
0
  6
CONTINUOUS
 62
     7
 10
-266.974
 20
-119.133
  0
POINT
  8
0
  6
CONTINUOUS
 62
     7
 10
-262.11
 20
-119.133
  0
POINT
  8
0
  6
CONTINUOUS
 62
     7
 10
-266.974
 20
-84.133
  0
POINT
  8
0
  6
CONTINUOUS
 62
     7
 10
-261.2005
 20
-84.133
  0
POINT
  8
0
  6
CONTINUOUS
 62
     7
 10
-321.5598
 20
-119.133
  0
POINT
  8
0
  6
CONTINUOUS
 62
     7
 10
-326.4238
 20
-119.133
  0
POINT
  8
0
  6
CONTINUOUS
 62
     7
 10
-266.974
 20
-220.9564
  0
POINT
  8
0
  6
CONTINUOUS
 62
     7
 10
-260.3955
 20
-220.9564
  0
POINT
  8
0
  6
CONTINUOUS
 62
     7
 10
-266.974
 20
-185.9564
  0
POINT
  8
0
  6
CONTINUOUS
 62
     7
 10
-258.8911
 20
-185.9564
  0
POINT
  8
0
  6
CONTINUOUS
 62
     7
 10
-326.4238
 20
-220.9564
  0
POINT
  8
0
  6
CONTINUOUS
 62
     7
 10
-319.8453
 20
-220.9564
  0
POINT
  8
0
  6
CONTINUOUS
 62
     7
 10
-123.6245
 20
166.3372
  0
POINT
  8
0
  6
CONTINUOUS
 62
     7
 10
-119.6245
 20
166.3372
  0
POINT
  8
0
  6
CONTINUOUS
 62
     7
 10
-123.6245
 20
211.3372
  0
POINT
  8
0
  6
CONTINUOUS
 62
     7
 10
-116.6963
 20
211.3372
  0
POINT
  8
0
  6
CONTINUOUS
 62
     7
 10
-183.0743
 20
166.3372
  0
POINT
  8
0
  6
CONTINUOUS
 62
     7
 10
-179.0743
 20
166.3372
  0
POINT
  8
0
  6
CONTINUOUS
 62
     7
 10
-123.6245
 20
39.05795
  0
POINT
  8
0
  6
CONTINUOUS
 62
     7
 10
-118.7605
 20
39.05795
  0
POINT
  8
0
  6
CONTINUOUS
 62
     7
 10
-123.6245
 20
84.05795
  0
POINT
  8
0
  6
CONTINUOUS
 62
     7
 10
-116.6964
 20
84.05795
  0
POINT
  8
0
  6
CONTINUOUS
 62
     7
 10
-178.2103
 20
39.05795
  0
POINT
  8
0
  6
CONTINUOUS
 62
     7
 10
-183.0743
 20
39.05795
  0
POINT
  8
0
  6
CONTINUOUS
 62
     7
 10
-123.6245
 20
-88.2213
  0
POINT
  8
0
  6
CONTINUOUS
 62
     7
 10
-117.046
 20
-88.2213
  0
POINT
  8
0
  6
CONTINUOUS
 62
     7
 10
-123.6245
 20
-43.2213
  0
POINT
  8
0
  6
CONTINUOUS
 62
     7
 10
-115.5416
 20
-43.2213
  0
POINT
  8
0
  6
CONTINUOUS
 62
     7
 10
-176.4958
 20
-88.2213
  0
POINT
  8
0
  6
CONTINUOUS
 62
     7
 10
-183.0743
 20
-88.2213
  0
POINT
  8
0
  6
CONTINUOUS
 62
     7
 10
-123.6245
 20
-215.5005
  0
POINT
  8
0
  6
CONTINUOUS
 62
     7
 10
-115.2935
 20
-215.5005
  0
POINT
  8
0
  6
CONTINUOUS
 62
     7
 10
-123.6245
 20
-170.5005
  0
POINT
  8
0
  6
CONTINUOUS
 62
     7
 10
-113.8096
 20
-170.5005
  0
POINT
  8
0
  6
CONTINUOUS
 62
     7
 10
-174.7433
 20
-215.5005
  0
POINT
  8
0
  6
CONTINUOUS
 62
     7
 10
-183.0743
 20
-215.5005
  0
POINT
  8
0
  6
CONTINUOUS
 62
     7
 10
24.72488
 20
146.3372
  0
POINT
  8
0
  6
CONTINUOUS
 62
     7
 10
29.58889
 20
146.3372
  0
POINT
  8
0
  6
CONTINUOUS
 62
     7
 10
24.72488
 20
196.3372
  0
POINT
  8
0
  6
CONTINUOUS
 62
     7
 10
32.8078
 20
196.3372
  0
POINT
  8
0
  6
CONTINUOUS
 62
     7
 10
-34.72491
 20
146.3372
  0
POINT
  8
0
  6
CONTINUOUS
 62
     7
 10
-29.86091
 20
146.3372
  0
POINT
  8
0
  6
CONTINUOUS
 62
     7
 10
24.72488
 20
-23.36848
  0
POINT
  8
0
  6
CONTINUOUS
 62
     7
 10
31.30338
 20
-23.36848
  0
POINT
  8
0
  6
CONTINUOUS
 62
     7
 10
24.72488
 20
26.63152
  0
POINT
  8
0
  6
CONTINUOUS
 62
     7
 10
32.80779
 20
26.63152
  0
POINT
  8
0
  6
CONTINUOUS
 62
     7
 10
-28.14642
 20
-23.36848
  0
POINT
  8
0
  6
CONTINUOUS
 62
     7
 10
-34.72491
 20
-23.36848
  0
POINT
  8
0
  6
CONTINUOUS
 62
     7
 10
24.72488
 20
-193.0741
  0
POINT
  8
0
  6
CONTINUOUS
 62
     7
 10
33.05588
 20
-193.0741
  0
POINT
  8
0
  6
CONTINUOUS
 62
     7
 10
24.72488
 20
-143.0741
  0
POINT
  8
0
  6
CONTINUOUS
 62
     7
 10
34.53984
 20
-143.0741
  0
POINT
  8
0
  6
CONTINUOUS
 62
     7
 10
-34.72491
 20
-193.0741
  0
POINT
  8
0
  6
CONTINUOUS
 62
     7
 10
-26.39392
 20
-193.0741
  0
POINT
  8
0
  6
CONTINUOUS
 62
     7
 10
173.0743
 20
146.3372
  0
POINT
  8
0
  6
CONTINUOUS
 62
     7
 10
179.6528
 20
146.3372
  0
POINT
  8
0
  6
CONTINUOUS
 62
     7
 10
182.8893
 20
196.3372
  0
POINT
  8
0
  6
CONTINUOUS
 62
     7
 10
173.0743
 20
196.3372
  0
POINT
  8
0
  6
CONTINUOUS
 62
     7
 10
113.6245
 20
146.3372
  0
POINT
  8
0
  6
CONTINUOUS
 62
     7
 10
120.203
 20
146.3372
  0
POINT
  8
0
  6
CONTINUOUS
 62
     7
 10
173.0743
 20
-23.36848
  0
POINT
  8
0
  6
CONTINUOUS
 62
     7
 10
181.4053
 20
-23.36848
  0
POINT
  8
0
  6
CONTINUOUS
 62
     7
 10
182.8893
 20
26.63152
  0
POINT
  8
0
  6
CONTINUOUS
 62
     7
 10
173.0743
 20
26.63152
  0
POINT
  8
0
  6
CONTINUOUS
 62
     7
 10
113.6245
 20
-23.36848
  0
POINT
  8
0
  6
CONTINUOUS
 62
     7
 10
121.9555
 20
-23.36848
  0
POINT
  8
0
  6
CONTINUOUS
 62
     7
 10
173.0743
 20
-193.0741
  0
POINT
  8
0
  6
CONTINUOUS
 62
     7
 10
183.5516
 20
-193.0741
  0
POINT
  8
0
  6
CONTINUOUS
 62
     7
 10
185.1987
 20
-143.0741
  0
POINT
  8
0
  6
CONTINUOUS
 62
     7
 10
173.0743
 20
-143.0741
  0
POINT
  8
0
  6
CONTINUOUS
 62
     7
 10
113.6245
 20
-193.0741
  0
POINT
  8
0
  6
CONTINUOUS
 62
     7
 10
124.1018
 20
-193.0741
  0
POINT
  8
0
  6
CONTINUOUS
 62
     7
 10
321.4237
 20
127.7351
  0
POINT
  8
0
  6
CONTINUOUS
 62
     7
 10
328.0022
 20
127.7351
  0
POINT
  8
0
  6
CONTINUOUS
 62
     7
 10
321.4237
 20
177.7351
  0
POINT
  8
0
  6
CONTINUOUS
 62
     7
 10
333.5481
 20
177.7351
  0
POINT
  8
0
  6
CONTINUOUS
 62
     7
 10
261.9739
 20
127.7351
  0
POINT
  8
0
  6
CONTINUOUS
 62
     7
 10
268.5524
 20
127.7351
  0
POINT
  8
0
  6
CONTINUOUS
 62
     7
 10
321.4237
 20
-23.36848
  0
POINT
  8
0
  6
CONTINUOUS
 62
     7
 10
329.7547
 20
-23.36848
  0
POINT
  8
0
  6
CONTINUOUS
 62
     7
 10
321.4237
 20
26.63152
  0
POINT
  8
0
  6
CONTINUOUS
 62
     7
 10
333.5481
 20
26.63152
  0
POINT
  8
0
  6
CONTINUOUS
 62
     7
 10
261.9739
 20
-23.36848
  0
POINT
  8
0
  6
CONTINUOUS
 62
     7
 10
270.3049
 20
-23.36848
  0
POINT
  8
0
  6
CONTINUOUS
 62
     7
 10
321.4237
 20
-193.0741
  0
POINT
  8
0
  6
CONTINUOUS
 62
     7
 10
331.9011
 20
-193.0741
  0
POINT
  8
0
  6
CONTINUOUS
 62
     7
 10
333.5481
 20
-143.0741
  0
POINT
  8
0
  6
CONTINUOUS
 62
     7
 10
321.4237
 20
-143.0741
  0
POINT
  8
0
  6
CONTINUOUS
 62
     7
 10
261.9739
 20
-193.0741
  0
POINT
  8
0
  6
CONTINUOUS
 62
     7
 10
272.4513
 20
-193.0741
  0
LINE
  8
0
  6
CONTINUOUS
 62
     7
 10
218.3292
 20
-225.9564
 11
370.8736
 21
-225.9564
  0
LINE
  8
0
  6
CONTINUOUS
 62
     7
 10
-218.3292
 20
225.9564
 11
-218.3292
 21
254.5585
  0
LINE
  8
0
  6
CONTINUOUS
 62
     7
 10
-370.8736
 20
225.9564
 11
-218.3292
 21
225.9564
  0
LINE
  8
0
  6
CONTINUOUS
 62
     7
 10
-370.8736
 20
254.5585
 11
370.8736
 21
254.5585
  0
LINE
  8
0
  6
CONTINUOUS
 62
     7
 10
-370.8736
 20
-254.5585
 11
370.8736
 21
-254.5585
  0
LINE
  8
0
  6
CONTINUOUS
 62
     7
 10
370.8736
 20
254.5585
 11
370.8736
 21
-254.5585
  0
LINE
  8
0
  6
CONTINUOUS
 62
     7
 10
-370.8736
 20
-254.5585
 11
-370.8736
 21
254.5585
  0
LINE
  8
0
  6
CONTINUOUS
 62
     7
 10
218.3292
 20
-225.9564
 11
218.3292
 21
-254.5585
  0
LINE
  8
0
  6
CONTINUOUS
 62
     7
 10
218.3292
 20
254.5585
 11
218.3292
 21
225.9564
  0
LINE
  8
0
  6
CONTINUOUS
 62
     7
 10
218.3292
 20
225.9564
 11
370.8736
 21
225.9564
  0
LINE
  8
0
  6
CONTINUOUS
 62
     7
 10
258.3816
 20
-232.8337
 11
258.3816
 21
-236.1516
  0
LINE
  8
0
  6
CONTINUOUS
 62
     7
 10
258.3816
 20
-236.1516
 11
270.8235
 21
-236.1516
  0
LINE
  8
0
  6
CONTINUOUS
 62
     7
 10
258.3816
 20
-249.1465
 11
275.2473
 21
-249.1465
  0
LINE
  8
0
  6
CONTINUOUS
 62
     7
 10
258.3816
 20
-245.8286
 11
270.8235
 21
-245.8286
  0
LINE
  8
0
  6
CONTINUOUS
 62
     7
 10
258.3816
 20
-232.8337
 11
273.0354
 21
-232.8337
  0
LINE
  8
0
  6
CONTINUOUS
 62
     7
 10
270.8235
 20
-236.1516
 11
270.8235
 21
-245.8286
  0
LINE
  8
0
  6
CONTINUOUS
 62
     7
 10
275.2473
 20
-235.0457
 11
275.2473
 21
-249.1465
  0
LINE
  8
0
  6
CONTINUOUS
 62
     7
 10
258.3816
 20
-245.8286
 11
258.3816
 21
-249.1465
  0
LINE
  8
0
  6
CONTINUOUS
 62
     7
 10
293.4954
 20
-236.1516
 11
293.4954
 21
-246.9346
  0
LINE
  8
0
  6
CONTINUOUS
 62
     7
 10
277.7357
 20
-232.8337
 11
277.7357
 21
-236.1516
  0
LINE
  8
0
  6
CONTINUOUS
 62
     7
 10
293.9378
 20
-232.585
 11
295.5138
 21
-232.585
  0
LINE
  8
0
  6
CONTINUOUS
 62
     7
 10
293.9378
 20
-230.373
 11
295.5138
 21
-230.373
  0
LINE
  8
0
  6
CONTINUOUS
 62
     7
 10
295.5138
 20
-230.373
 11
295.5138
 21
-232.585
  0
LINE
  8
0
  6
CONTINUOUS
 62
     7
 10
293.9378
 20
-230.373
 11
293.9378
 21
-232.585
  0
LINE
  8
0
  6
CONTINUOUS
 62
     7
 10
293.1083
 20
-230.373
 11
293.1083
 21
-232.585
  0
LINE
  8
0
  6
CONTINUOUS
 62
     7
 10
282.7661
 20
-230.373
 11
286.2009
 21
-230.373
  0
LINE
  8
0
  6
CONTINUOUS
 62
     7
 10
285.5413
 20
-232.8335
 11
286.2006
 21
-230.3727
  0
LINE
  8
0
  6
CONTINUOUS
 62
     7
 10
282.1067
 20
-232.8337
 11
282.766
 21
-230.373
  0
LINE
  8
0
  6
CONTINUOUS
 62
     7
 10
285.5416
 20
-232.8337
 11
290.1776
 21
-232.8337
  0
LINE
  8
0
  6
CONTINUOUS
 62
     7
 10
284.6526
 20
-236.1516
 11
289.0716
 21
-236.1516
  0
LINE
  8
0
  6
CONTINUOUS
 62
     7
 10
286.6429
 20
-249.1465
 11
291.2836
 21
-249.1465
  0
LINE
  8
0
  6
CONTINUOUS
 62
     7
 10
285.7537
 20
-245.8286
 11
286.6427
 21
-249.1463
  0
LINE
  8
0
  6
CONTINUOUS
 62
     7
 10
285.7538
 20
-245.8286
 11
289.0716
 21
-245.8286
  0
LINE
  8
0
  6
CONTINUOUS
 62
     7
 10
281.1707
 20
-249.1466
 11
284.6527
 21
-236.1517
  0
LINE
  8
0
  6
CONTINUOUS
 62
     7
 10
277.7357
 20
-236.1516
 11
281.2177
 21
-236.1516
  0
LINE
  8
0
  6
CONTINUOUS
 62
     7
 10
277.7354
 20
-249.1462
 11
281.2175
 21
-236.1513
  0
LINE
  8
0
  6
CONTINUOUS
 62
     7
 10
277.7357
 20
-249.1465
 11
281.1706
 21
-249.1465
  0
LINE
  8
0
  6
CONTINUOUS
 62
     7
 10
277.7357
 20
-232.8337
 11
282.1067
 21
-232.8337
  0
LINE
  8
0
  6
CONTINUOUS
 62
     7
 10
289.0716
 20
-236.1516
 11
289.0716
 21
-245.8286
  0
LINE
  8
0
  6
CONTINUOUS
 62
     7
 10
291.5323
 20
-230.373
 11
293.1083
 21
-230.373
  0
LINE
  8
0
  6
CONTINUOUS
 62
     7
 10
291.5323
 20
-232.585
 11
293.1083
 21
-232.585
  0
LINE
  8
0
  6
CONTINUOUS
 62
     7
 10
291.5323
 20
-230.373
 11
291.5323
 21
-232.585
  0
LINE
  8
0
  6
CONTINUOUS
 62
     7
 10
301.5135
 20
-230.373
 11
305.9373
 21
-230.373
  0
LINE
  8
0
  6
CONTINUOUS
 62
     7
 10
308.3423
 20
-240.1951
 11
311.2962
 21
-238.8176
  0
LINE
  8
0
  6
CONTINUOUS
 62
     7
 10
305.9373
 20
-242.7344
 11
305.9373
 21
-249.1465
  0
LINE
  8
0
  6
CONTINUOUS
 62
     7
 10
301.5135
 20
-243.379
 11
301.5135
 21
-249.1465
  0
LINE
  8
0
  6
CONTINUOUS
 62
     7
 10
305.9373
 20
-232.8337
 11
310.3611
 21
-232.8337
  0
LINE
  8
0
  6
CONTINUOUS
 62
     7
 10
305.9373
 20
-230.373
 11
305.9373
 21
-232.8337
  0
LINE
  8
0
  6
CONTINUOUS
 62
     7
 10
301.5135
 20
-230.373
 11
301.5135
 21
-232.8337
  0
LINE
  8
0
  6
CONTINUOUS
 62
     7
 10
312.573
 20
-235.0457
 11
312.573
 21
-236.8128
  0
LINE
  8
0
  6
CONTINUOUS
 62
     7
 10
308.3424
 20
-240.195
 11
312.5734
 21
-242.168
  0
LINE
  8
0
  6
CONTINUOUS
 62
     7
 10
305.9373
 20
-242.7343
 11
312.5731
 21
-245.8286
  0
LINE
  8
0
  6
CONTINUOUS
 62
     7
 10
296.2603
 20
-242.1678
 11
296.2603
 21
-245.8286
  0
LINE
  8
0
  6
CONTINUOUS
 62
     7
 10
296.2607
 20
-242.1682
 11
309.1626
 21
-236.1519
  0
LINE
  8
0
  6
CONTINUOUS
 62
     7
 10
296.2603
 20
-245.8286
 11
301.5136
 21
-243.3789
  0
LINE
  8
0
  6
CONTINUOUS
 62
     7
 10
312.573
 20
-242.1678
 11
312.573
 21
-245.8286
  0
LINE
  8
0
  6
CONTINUOUS
 62
     7
 10
296.2603
 20
-232.8337
 11
296.2603
 21
-236.1516
  0
LINE
  8
0
  6
CONTINUOUS
 62
     7
 10
301.5135
 20
-249.1465
 11
305.9373
 21
-249.1465
  0
LINE
  8
0
  6
CONTINUOUS
 62
     7
 10
296.2603
 20
-236.1516
 11
309.1621
 21
-236.1516
  0
LINE
  8
0
  6
CONTINUOUS
 62
     7
 10
296.2603
 20
-232.8337
 11
301.5135
 21
-232.8337
  0
LINE
  8
0
  6
CONTINUOUS
 62
     7
 10
327.504
 20
-236.4047
 11
328.73
 21
-235.9171
  0
LINE
  8
0
  6
CONTINUOUS
 62
     7
 10
327.5034
 20
-236.4044
 11
327.5034
 21
-249.1465
  0
LINE
  8
0
  6
CONTINUOUS
 62
     7
 10
323.0795
 20
-249.1465
 11
327.5034
 21
-249.1465
  0
LINE
  8
0
  6
CONTINUOUS
 62
     7
 10
313.9553
 20
-241.7925
 11
323.0794
 21
-238.1637
  0
LINE
  8
0
  6
CONTINUOUS
 62
     7
 10
313.9555
 20
-238.222
 11
326.8062
 21
-233.1111
  0
LINE
  8
0
  6
CONTINUOUS
 62
     7
 10
323.0795
 20
-238.1638
 11
323.0795
 21
-249.1465
  0
LINE
  8
0
  6
CONTINUOUS
 62
     7
 10
327.5034
 20
-231.3684
 11
327.5034
 21
-232.0834
  0
LINE
  8
0
  6
CONTINUOUS
 62
     7
 10
330.8211
 20
-231.3684
 11
330.8211
 21
-232.8338
  0
LINE
  8
0
  6
CONTINUOUS
 62
     7
 10
313.9554
 20
-238.2219
 11
313.9554
 21
-241.7925
  0
LINE
  8
0
  6
CONTINUOUS
 62
     7
 10
327.5034
 20
-231.3684
 11
330.8211
 21
-231.3684
  0
LINE
  8
0
  6
CONTINUOUS
 62
     7
 10
-222.5241
 20
-254.5585
 11
-222.5241
 21
225.9564
  0
LINE
  8
0
  6
CONTINUOUS
 62
     7
 10
-74.17471
 20
-254.5585
 11
-74.17471
 21
254.5585
  0
LINE
  8
0
  6
CONTINUOUS
 62
     7
 10
74.17471
 20
-254.5585
 11
74.17471
 21
254.5585
  0
LINE
  8
0
  6
CONTINUOUS
 62
     7
 10
222.5241
 20
-225.9564
 11
222.5241
 21
225.9564
  0
LINE
  8
0
  6
CONTINUOUS
 62
     7
 10
370.8736
 20
84.85283
 11
-74.17471
 21
84.85283
  0
LINE
  8
0
  6
CONTINUOUS
 62
     7
 10
370.8736
 20
-84.85283
 11
-74.17471
 21
-84.85283
  0
LINE
  8
0
  6
CONTINUOUS
 62
     7
 10
-222.5241
 20
-152.7351
 11
-370.8736
 21
-152.7351
  0
LINE
  8
0
  6
CONTINUOUS
 62
     7
 10
-222.5241
 20
-50.9117
 11
-370.8736
 21
-50.9117
  0
LINE
  8
0
  6
CONTINUOUS
 62
     7
 10
-222.5241
 20
50.9117
 11
-370.8736
 21
50.9117
  0
LINE
  8
0
  6
CONTINUOUS
 62
     7
 10
-222.5241
 20
152.7351
 11
-370.8736
 21
152.7351
  0
LINE
  8
0
  6
CONTINUOUS
 62
     7
 10
-74.17471
 20
127.2792
 11
-222.5241
 21
127.2792
  0
LINE
  8
0
  6
CONTINUOUS
 62
     7
 10
-74.17471
 20
0.0
 11
-222.5241
 21
0.0
  0
LINE
  8
0
  6
CONTINUOUS
 62
     7
 10
-74.17471
 20
-127.2792
 11
-222.5241
 21
-127.2792
  0
LINE
  8
0
  6
CENTER
 62
     2
 10
-266.974
 20
165.9234
 11
-266.974
 21
193.2993
  0
LINE
  8
0
  6
CONTINUOUS
 62
     7
 10
-270.974
 20
172.8351
 11
-262.974
 21
172.8351
  0
LINE
  8
0
  6
CONTINUOUS
 62
     7
 10
-262.3552
 20
173.1924
 11
-262.3552
 21
177.8351
  0
LINE
  8
0
  6
CONTINUOUS
 62
     7
 10
-264.6646
 20
173.1924
 11
-264.6646
 21
177.8351
  0
LINE
  8
0
  6
CONTINUOUS
 62
     7
 10
-269.2834
 20
173.1924
 11
-269.2834
 21
177.8351
  0
LINE
  8
0
  6
CONTINUOUS
 62
     7
 10
-262.3552
 20
173.1924
 11
-262.974
 21
172.8351
  0
LINE
  8
0
  6
CONTINUOUS
 62
     7
 10
-271.5927
 20
173.1924
 11
-270.9739
 21
172.8351
  0
LINE
  8
0
  6
CONTINUOUS
 62
     7
 10
-271.5928
 20
173.1924
 11
-271.5928
 21
177.8351
  0
LINE
  8
0
  6
CONTINUOUS
 62
     7
 10
-269.474
 20
167.3351
 11
-264.474
 21
167.3351
  0
LINE
  8
0
  6
CONTINUOUS
 62
     7
 10
-270.974
 20
171.3351
 11
-262.974
 21
171.3351
  0
LINE
  8
0
  6
CONTINUOUS
 62
     7
 10
-262.974
 20
170.7351
 11
-262.974
 21
172.8351
  0
LINE
  8
0
  6
CONTINUOUS
 62
     7
 10
-270.974
 20
170.7351
 11
-270.974
 21
172.8351
  0
LINE
  8
0
  6
CONTINUOUS
 62
     7
 10
-271.824
 20
177.8351
 11
-271.824
 21
186.8351
  0
LINE
  8
0
  6
CONTINUOUS
 62
     7
 10
-271.824
 20
177.8351
 11
-262.124
 21
177.8351
  0
LINE
  8
0
  6
CONTINUOUS
 62
     7
 10
-271.824
 20
186.8351
 11
-262.124
 21
186.8351
  0
LINE
  8
0
  6
CONTINUOUS
 62
     7
 10
-262.124
 20
177.8351
 11
-262.124
 21
186.8351
  0
LINE
  8
0
  6
CONTINUOUS
 62
     7
 10
-269.574
 20
188.3351
 11
-269.574
 21
189.2351
  0
LINE
  8
0
  6
CONTINUOUS
 62
     7
 10
-264.374
 20
188.3351
 11
-264.374
 21
189.2351
  0
LINE
  8
0
  6
CONTINUOUS
 62
     7
 10
-270.674
 20
188.3351
 11
-263.274
 21
188.3351
  0
LINE
  8
0
  6
CONTINUOUS
 62
     7
 10
-263.274
 20
186.8351
 11
-263.274
 21
188.3351
  0
LINE
  8
0
  6
CONTINUOUS
 62
     7
 10
-270.674
 20
186.8351
 11
-270.674
 21
188.3351
  0
LINE
  8
0
  6
CONTINUOUS
 62
     7
 10
-271.974
 20
189.2351
 11
-261.974
 21
189.2351
  0
LINE
  8
0
  6
CONTINUOUS
 62
     7
 10
-271.974
 20
189.2351
 11
-271.974
 21
190.8351
  0
LINE
  8
0
  6
CONTINUOUS
 62
     7
 10
-271.974
 20
190.8351
 11
-261.974
 21
190.8351
  0
LINE
  8
0
  6
CONTINUOUS
 62
     7
 10
-261.974
 20
189.2351
 11
-261.974
 21
190.8351
  0
LINE
  8
0
  6
CONTINUOUS
 62
     7
 10
-264.474
 20
167.3351
 11
-264.474
 21
170.7351
  0
LINE
  8
0
  6
CONTINUOUS
 62
     7
 10
-264.907
 20
167.3351
 11
-264.907
 21
170.7351
  0
LINE
  8
0
  6
CONTINUOUS
 62
     7
 10
-269.041
 20
167.3351
 11
-269.041
 21
170.7351
  0
LINE
  8
0
  6
CONTINUOUS
 62
     7
 10
-269.474
 20
167.3351
 11
-269.474
 21
170.7351
  0
LINE
  8
0
  6
CONTINUOUS
 62
     7
 10
-270.974
 20
170.7351
 11
-262.974
 21
170.7351
  0
LINE
  8
0
  6
CENTER
 62
     2
 10
-266.974
 20
212.2351
 11
-266.974
 21
199.2351
  0
LINE
  8
0
  6
CENTER
 62
     2
 10
-273.474
 20
205.7351
 11
-260.474
 21
205.7351
  0
LINE
  8
0
  6
CONTINUOUS
 62
     7
 10
-326.4238
 20
173.1924
 11
-326.4238
 21
177.8351
  0
LINE
  8
0
  6
CENTER
 62
     2
 10
-326.4238
 20
165.9234
 11
-326.4238
 21
193.2993
  0
LINE
  8
0
  6
CONTINUOUS
 62
     7
 10
-330.4238
 20
172.8351
 11
-322.4238
 21
172.8351
  0
LINE
  8
0
  6
CONTINUOUS
 62
     7
 10
-328.9238
 20
167.3351
 11
-323.9238
 21
167.3351
  0
LINE
  8
0
  6
CONTINUOUS
 62
     7
 10
-330.4238
 20
171.3351
 11
-322.4238
 21
171.3351
  0
LINE
  8
0
  6
CONTINUOUS
 62
     7
 10
-322.4238
 20
170.7351
 11
-322.4238
 21
177.8351
  0
LINE
  8
0
  6
CONTINUOUS
 62
     7
 10
-330.4238
 20
170.7351
 11
-330.4238
 21
177.8351
  0
LINE
  8
0
  6
CONTINUOUS
 62
     7
 10
-323.9238
 20
167.3351
 11
-323.9238
 21
170.7351
  0
LINE
  8
0
  6
CONTINUOUS
 62
     7
 10
-328.9238
 20
167.3351
 11
-328.9238
 21
170.7351
  0
LINE
  8
0
  6
CONTINUOUS
 62
     7
 10
-324.3568
 20
167.3351
 11
-324.3568
 21
170.7351
  0
LINE
  8
0
  6
CONTINUOUS
 62
     7
 10
-328.4908
 20
167.3351
 11
-328.4908
 21
170.7351
  0
LINE
  8
0
  6
CONTINUOUS
 62
     7
 10
-331.4238
 20
190.8351
 11
-321.4238
 21
190.8351
  0
LINE
  8
0
  6
CONTINUOUS
 62
     7
 10
-330.1238
 20
188.3351
 11
-322.7238
 21
188.3351
  0
LINE
  8
0
  6
CONTINUOUS
 62
     7
 10
-331.2738
 20
186.8351
 11
-321.5738
 21
186.8351
  0
LINE
  8
0
  6
CONTINUOUS
 62
     7
 10
-331.2738
 20
177.8351
 11
-321.5738
 21
177.8351
  0
LINE
  8
0
  6
CONTINUOUS
 62
     7
 10
-321.5738
 20
177.8351
 11
-321.5738
 21
186.8351
  0
LINE
  8
0
  6
CONTINUOUS
 62
     7
 10
-331.2738
 20
177.8351
 11
-331.2738
 21
186.8351
  0
LINE
  8
0
  6
CONTINUOUS
 62
     7
 10
-323.8238
 20
188.3351
 11
-323.8238
 21
189.2351
  0
LINE
  8
0
  6
CONTINUOUS
 62
     7
 10
-322.7238
 20
186.8351
 11
-322.7238
 21
188.3351
  0
LINE
  8
0
  6
CONTINUOUS
 62
     7
 10
-331.4238
 20
189.2351
 11
-321.4238
 21
189.2351
  0
LINE
  8
0
  6
CONTINUOUS
 62
     7
 10
-321.4238
 20
189.2351
 11
-321.4238
 21
190.8351
  0
LINE
  8
0
  6
CONTINUOUS
 62
     7
 10
-331.4238
 20
189.2351
 11
-331.4238
 21
190.8351
  0
LINE
  8
0
  6
CONTINUOUS
 62
     7
 10
-330.1238
 20
186.8351
 11
-330.1238
 21
188.3351
  0
LINE
  8
0
  6
CONTINUOUS
 62
     7
 10
-329.0238
 20
188.3351
 11
-329.0238
 21
189.2351
  0
LINE
  8
0
  6
CONTINUOUS
 62
     7
 10
-330.4238
 20
170.7351
 11
-322.4238
 21
170.7351
  0
LINE
  8
0
  6
CONTINUOUS
 62
     7
 10
-271.974
 20
97.61379
 11
-261.974
 21
97.61379
  0
LINE
  8
0
  6
CENTER
 62
     2
 10
-266.974
 20
79.04559
 11
-266.974
 21
103.7514
  0
LINE
  8
0
  6
CONTINUOUS
 62
     7
 10
-261.2005
 20
91.56037
 11
-261.2005
 21
97.1672
  0
LINE
  8
0
  6
CONTINUOUS
 62
     7
 10
-264.0872
 20
91.56038
 11
-264.0872
 21
97.16721
  0
LINE
  8
0
  6
CONTINUOUS
 62
     7
 10
-261.2005
 20
97.16721
 11
-261.974
 21
97.61379
  0
LINE
  8
0
  6
CONTINUOUS
 62
     7
 10
-269.8607
 20
91.56037
 11
-269.8607
 21
97.16721
  0
LINE
  8
0
  6
CONTINUOUS
 62
     7
 10
-261.2005
 20
91.56039
 11
-261.974
 21
91.1138
  0
LINE
  8
0
  6
CONTINUOUS
 62
     7
 10
-272.7475
 20
97.16723
 11
-271.974
 21
97.61382
  0
LINE
  8
0
  6
CONTINUOUS
 62
     7
 10
-272.7475
 20
91.56036
 11
-271.974
 21
91.11378
  0
LINE
  8
0
  6
CONTINUOUS
 62
     7
 10
-272.7475
 20
91.56037
 11
-272.7475
 21
97.16722
  0
LINE
  8
0
  6
CONTINUOUS
 62
     7
 10
-271.974
 20
91.11379
 11
-261.974
 21
91.11379
  0
LINE
  8
0
  6
CONTINUOUS
 62
     7
 10
-269.474
 20
81.11379
 11
-264.474
 21
81.11379
  0
LINE
  8
0
  6
CONTINUOUS
 62
     7
 10
-264.474
 20
81.11379
 11
-264.474
 21
84.51379
  0
LINE
  8
0
  6
CONTINUOUS
 62
     7
 10
-264.907
 20
81.11379
 11
-264.907
 21
84.51379
  0
LINE
  8
0
  6
CONTINUOUS
 62
     7
 10
-269.041
 20
81.11379
 11
-269.041
 21
84.51379
  0
LINE
  8
0
  6
CONTINUOUS
 62
     7
 10
-269.474
 20
81.11379
 11
-269.474
 21
84.51379
  0
LINE
  8
0
  6
CONTINUOUS
 62
     7
 10
-261.974
 20
86.61379
 11
-261.974
 21
91.11379
  0
LINE
  8
0
  6
CONTINUOUS
 62
     7
 10
-271.974
 20
86.61379
 11
-271.974
 21
91.11379
  0
LINE
  8
0
  6
CONTINUOUS
 62
     7
 10
-271.974
 20
86.61379
 11
-261.974
 21
86.61379
  0
LINE
  8
0
  6
CONTINUOUS
 62
     7
 10
-270.974
 20
84.51379
 11
-270.974
 21
86.61379
  0
LINE
  8
0
  6
CONTINUOUS
 62
     7
 10
-262.974
 20
84.51379
 11
-262.974
 21
86.61379
  0
LINE
  8
0
  6
CONTINUOUS
 62
     7
 10
-270.974
 20
85.11379
 11
-262.974
 21
85.11379
  0
LINE
  8
0
  6
CONTINUOUS
 62
     7
 10
-270.674
 20
97.61379
 11
-270.674
 21
99.11379
  0
LINE
  8
0
  6
CONTINUOUS
 62
     7
 10
-270.674
 20
99.11379
 11
-263.274
 21
99.11379
  0
LINE
  8
0
  6
CONTINUOUS
 62
     7
 10
-269.574
 20
99.11379
 11
-269.574
 21
100.0138
  0
LINE
  8
0
  6
CONTINUOUS
 62
     7
 10
-264.374
 20
99.11379
 11
-264.374
 21
100.0138
  0
LINE
  8
0
  6
CONTINUOUS
 62
     7
 10
-263.274
 20
97.61379
 11
-263.274
 21
99.11379
  0
LINE
  8
0
  6
CONTINUOUS
 62
     7
 10
-271.974
 20
100.0138
 11
-261.974
 21
100.0138
  0
LINE
  8
0
  6
CONTINUOUS
 62
     7
 10
-261.974
 20
100.0138
 11
-261.974
 21
101.6138
  0
LINE
  8
0
  6
CONTINUOUS
 62
     7
 10
-271.974
 20
101.6138
 11
-261.974
 21
101.6138
  0
LINE
  8
0
  6
CONTINUOUS
 62
     7
 10
-271.974
 20
100.0138
 11
-271.974
 21
101.6138
  0
LINE
  8
0
  6
CONTINUOUS
 62
     7
 10
-270.974
 20
84.51379
 11
-262.974
 21
84.51379
  0
LINE
  8
0
  6
CENTER
 62
     2
 10
-266.974
 20
113.0138
 11
-266.974
 21
126.0138
  0
LINE
  8
0
  6
CENTER
 62
     2
 10
-273.474
 20
119.5138
 11
-260.474
 21
119.5138
  0
LINE
  8
0
  6
CONTINUOUS
 62
     7
 10
-264.0872
 20
114.5138
 11
-261.2004
 21
119.5138
  0
LINE
  8
0
  6
CONTINUOUS
 62
     7
 10
-261.2005
 20
119.5138
 11
-264.0872
 21
124.5138
  0
LINE
  8
0
  6
CONTINUOUS
 62
     7
 10
-264.0872
 20
124.5138
 11
-269.8607
 21
124.5138
  0
LINE
  8
0
  6
CONTINUOUS
 62
     7
 10
-269.8607
 20
124.5138
 11
-272.7475
 21
119.5138
  0
LINE
  8
0
  6
CONTINUOUS
 62
     7
 10
-272.7475
 20
119.5138
 11
-269.8607
 21
114.5138
  0
LINE
  8
0
  6
CONTINUOUS
 62
     7
 10
-269.8607
 20
114.5138
 11
-264.0872
 21
114.5138
  0
LINE
  8
0
  6
CONTINUOUS
 62
     7
 10
-331.4238
 20
97.61379
 11
-321.4238
 21
97.61379
  0
LINE
  8
0
  6
CENTER
 62
     2
 10
-326.4238
 20
78.99844
 11
-326.4238
 21
103.7985
  0
LINE
  8
0
  6
CONTINUOUS
 62
     7
 10
-331.4238
 20
91.11379
 11
-321.4238
 21
91.11379
  0
LINE
  8
0
  6
CONTINUOUS
 62
     7
 10
-321.4238
 20
86.61379
 11
-321.4238
 21
97.61379
  0
LINE
  8
0
  6
CONTINUOUS
 62
     7
 10
-326.4238
 20
91.56037
 11
-326.4238
 21
97.16721
  0
LINE
  8
0
  6
CONTINUOUS
 62
     7
 10
-331.4238
 20
86.61379
 11
-331.4238
 21
97.61379
  0
LINE
  8
0
  6
CONTINUOUS
 62
     7
 10
-331.4238
 20
86.61379
 11
-321.4238
 21
86.61379
  0
LINE
  8
0
  6
CONTINUOUS
 62
     7
 10
-328.9238
 20
81.11379
 11
-323.9238
 21
81.11379
  0
LINE
  8
0
  6
CONTINUOUS
 62
     7
 10
-323.9238
 20
81.11379
 11
-323.9238
 21
84.51379
  0
LINE
  8
0
  6
CONTINUOUS
 62
     7
 10
-328.9238
 20
81.11379
 11
-328.9238
 21
84.51379
  0
LINE
  8
0
  6
CONTINUOUS
 62
     7
 10
-324.3568
 20
81.11379
 11
-324.3568
 21
84.51379
  0
LINE
  8
0
  6
CONTINUOUS
 62
     7
 10
-328.4908
 20
81.11379
 11
-328.4908
 21
84.51379
  0
LINE
  8
0
  6
CONTINUOUS
 62
     7
 10
-330.4238
 20
85.11379
 11
-322.4238
 21
85.11379
  0
LINE
  8
0
  6
CONTINUOUS
 62
     7
 10
-322.4238
 20
84.51379
 11
-322.4238
 21
86.61379
  0
LINE
  8
0
  6
CONTINUOUS
 62
     7
 10
-330.4238
 20
84.51379
 11
-330.4238
 21
86.61379
  0
LINE
  8
0
  6
CONTINUOUS
 62
     7
 10
-331.4238
 20
101.6138
 11
-321.4238
 21
101.6138
  0
LINE
  8
0
  6
CONTINUOUS
 62
     7
 10
-330.1238
 20
99.11379
 11
-322.7238
 21
99.11379
  0
LINE
  8
0
  6
CONTINUOUS
 62
     7
 10
-323.8238
 20
99.11379
 11
-323.8238
 21
100.0138
  0
LINE
  8
0
  6
CONTINUOUS
 62
     7
 10
-322.7238
 20
97.61379
 11
-322.7238
 21
99.11379
  0
LINE
  8
0
  6
CONTINUOUS
 62
     7
 10
-331.4238
 20
100.0138
 11
-321.4238
 21
100.0138
  0
LINE
  8
0
  6
CONTINUOUS
 62
     7
 10
-321.4238
 20
100.0138
 11
-321.4238
 21
101.6138
  0
LINE
  8
0
  6
CONTINUOUS
 62
     7
 10
-331.4238
 20
100.0138
 11
-331.4238
 21
101.6138
  0
LINE
  8
0
  6
CONTINUOUS
 62
     7
 10
-330.1238
 20
97.61379
 11
-330.1238
 21
99.11379
  0
LINE
  8
0
  6
CONTINUOUS
 62
     7
 10
-329.0238
 20
99.11379
 11
-329.0238
 21
100.0138
  0
LINE
  8
0
  6
CONTINUOUS
 62
     7
 10
-330.4238
 20
84.51379
 11
-322.4238
 21
84.51379
  0
LINE
  8
0
  6
CONTINUOUS
 62
     7
 10
-271.974
 20
-4.2096
 11
-261.974
 21
-4.2096
  0
LINE
  8
0
  6
CENTER
 62
     2
 10
-266.974
 20
-22.7778
 11
-266.974
 21
1.928
  0
LINE
  8
0
  6
CONTINUOUS
 62
     7
 10
-261.2005
 20
-8.76303
 11
-261.2005
 21
-4.65619
  0
LINE
  8
0
  6
CONTINUOUS
 62
     7
 10
-264.0872
 20
-8.76302
 11
-264.0872
 21
-4.65618
  0
LINE
  8
0
  6
CONTINUOUS
 62
     7
 10
-261.2005
 20
-4.65619
 11
-261.974
 21
-4.20961
  0
LINE
  8
0
  6
CONTINUOUS
 62
     7
 10
-269.8607
 20
-8.76302
 11
-269.8607
 21
-4.65618
  0
LINE
  8
0
  6
CONTINUOUS
 62
     7
 10
-261.2005
 20
-8.76302
 11
-261.974
 21
-9.20961
  0
LINE
  8
0
  6
CONTINUOUS
 62
     7
 10
-272.7475
 20
-4.65617
 11
-271.974
 21
-4.20958
  0
LINE
  8
0
  6
CONTINUOUS
 62
     7
 10
-272.7475
 20
-8.76303
 11
-271.974
 21
-9.20961
  0
LINE
  8
0
  6
CONTINUOUS
 62
     7
 10
-272.7475
 20
-8.76305
 11
-272.7475
 21
-4.65617
  0
LINE
  8
0
  6
CONTINUOUS
 62
     7
 10
-271.974
 20
-9.2096
 11
-261.974
 21
-9.2096
  0
LINE
  8
0
  6
CONTINUOUS
 62
     7
 10
-261.974
 20
-15.2096
 11
-261.974
 21
-9.2096
  0
LINE
  8
0
  6
CONTINUOUS
 62
     7
 10
-271.974
 20
-15.2096
 11
-271.974
 21
-9.12025
  0
LINE
  8
0
  6
CONTINUOUS
 62
     7
 10
-271.974
 20
-15.2096
 11
-261.974
 21
-15.2096
  0
LINE
  8
0
  6
CONTINUOUS
 62
     7
 10
-270.674
 20
-4.2096
 11
-270.674
 21
-2.7096
  0
LINE
  8
0
  6
CONTINUOUS
 62
     7
 10
-270.674
 20
-2.7096
 11
-263.274
 21
-2.7096
  0
LINE
  8
0
  6
CONTINUOUS
 62
     7
 10
-269.574
 20
-2.7096
 11
-269.574
 21
-1.8096
  0
LINE
  8
0
  6
CONTINUOUS
 62
     7
 10
-264.374
 20
-2.7096
 11
-264.374
 21
-1.8096
  0
LINE
  8
0
  6
CONTINUOUS
 62
     7
 10
-263.274
 20
-4.2096
 11
-263.274
 21
-2.7096
  0
LINE
  8
0
  6
CONTINUOUS
 62
     7
 10
-271.974
 20
-1.8096
 11
-261.974
 21
-1.8096
  0
LINE
  8
0
  6
CONTINUOUS
 62
     7
 10
-261.974
 20
-1.8096
 11
-261.974
 21
-0.2096
  0
LINE
  8
0
  6
CONTINUOUS
 62
     7
 10
-271.974
 20
-0.2096
 11
-261.974
 21
-0.2096
  0
LINE
  8
0
  6
CONTINUOUS
 62
     7
 10
-271.974
 20
-1.8096
 11
-271.974
 21
-0.2096
  0
LINE
  8
0
  6
CONTINUOUS
 62
     7
 10
-269.974
 20
-21.7096
 11
-269.974
 21
-17.3096
  0
LINE
  8
0
  6
CONTINUOUS
 62
     7
 10
-269.4325
 20
-21.7096
 11
-269.4325
 21
-17.3096
  0
LINE
  8
0
  6
CONTINUOUS
 62
     7
 10
-263.974
 20
-21.7096
 11
-263.974
 21
-17.3096
  0
LINE
  8
0
  6
CONTINUOUS
 62
     7
 10
-264.5155
 20
-21.7096
 11
-264.5155
 21
-17.3096
  0
LINE
  8
0
  6
CONTINUOUS
 62
     7
 10
-269.974
 20
-21.7096
 11
-263.974
 21
-21.7096
  0
LINE
  8
0
  6
CONTINUOUS
 62
     7
 10
-271.474
 20
-17.3096
 11
-271.474
 21
-15.2096
  0
LINE
  8
0
  6
CONTINUOUS
 62
     7
 10
-271.474
 20
-16.7096
 11
-262.474
 21
-16.7096
  0
LINE
  8
0
  6
CONTINUOUS
 62
     7
 10
-262.474
 20
-17.3096
 11
-262.474
 21
-15.2096
  0
LINE
  8
0
  6
CONTINUOUS
 62
     7
 10
-271.474
 20
-17.3096
 11
-262.474
 21
-17.3096
  0
LINE
  8
0
  6
CENTER
 62
     2
 10
-266.974
 20
11.1904
 11
-266.974
 21
24.1904
  0
LINE
  8
0
  6
CENTER
 62
     2
 10
-273.474
 20
17.6904
 11
-260.474
 21
17.6904
  0
LINE
  8
0
  6
CONTINUOUS
 62
     7
 10
-264.0872
 20
12.6904
 11
-261.2004
 21
17.69039
  0
LINE
  8
0
  6
CONTINUOUS
 62
     7
 10
-261.2005
 20
17.69041
 11
-264.0872
 21
22.6904
  0
LINE
  8
0
  6
CONTINUOUS
 62
     7
 10
-264.0872
 20
22.6904
 11
-269.8607
 21
22.6904
  0
LINE
  8
0
  6
CONTINUOUS
 62
     7
 10
-269.8607
 20
22.6904
 11
-272.7475
 21
17.69041
  0
LINE
  8
0
  6
CONTINUOUS
 62
     7
 10
-272.7475
 20
17.69039
 11
-269.8607
 21
12.6904
  0
LINE
  8
0
  6
CONTINUOUS
 62
     7
 10
-269.8607
 20
12.6904
 11
-264.0872
 21
12.69039
  0
LINE
  8
0
  6
CONTINUOUS
 62
     7
 10
-331.4238
 20
-4.2096
 11
-321.4238
 21
-4.2096
  0
LINE
  8
0
  6
CENTER
 62
     2
 10
-326.4238
 20
-22.82495
 11
-326.4238
 21
1.97515
  0
LINE
  8
0
  6
CONTINUOUS
 62
     7
 10
-331.4238
 20
-9.2096
 11
-321.4238
 21
-9.2096
  0
LINE
  8
0
  6
CONTINUOUS
 62
     7
 10
-321.4238
 20
-15.2096
 11
-321.4238
 21
-4.2096
  0
LINE
  8
0
  6
CONTINUOUS
 62
     7
 10
-326.4238
 20
-8.76302
 11
-326.4238
 21
-4.65618
  0
LINE
  8
0
  6
CONTINUOUS
 62
     7
 10
-331.4238
 20
-15.2096
 11
-331.4238
 21
-4.2096
  0
LINE
  8
0
  6
CONTINUOUS
 62
     7
 10
-331.4238
 20
-15.2096
 11
-321.4238
 21
-15.2096
  0
LINE
  8
0
  6
CONTINUOUS
 62
     7
 10
-331.4238
 20
-0.2096
 11
-321.4238
 21
-0.2096
  0
LINE
  8
0
  6
CONTINUOUS
 62
     7
 10
-330.1238
 20
-2.7096
 11
-322.7238
 21
-2.7096
  0
LINE
  8
0
  6
CONTINUOUS
 62
     7
 10
-323.8238
 20
-2.7096
 11
-323.8238
 21
-1.8096
  0
LINE
  8
0
  6
CONTINUOUS
 62
     7
 10
-322.7238
 20
-4.2096
 11
-322.7238
 21
-2.7096
  0
LINE
  8
0
  6
CONTINUOUS
 62
     7
 10
-331.4238
 20
-1.8096
 11
-321.4238
 21
-1.8096
  0
LINE
  8
0
  6
CONTINUOUS
 62
     7
 10
-321.4238
 20
-1.8096
 11
-321.4238
 21
-0.2096
  0
LINE
  8
0
  6
CONTINUOUS
 62
     7
 10
-331.4238
 20
-1.8096
 11
-331.4238
 21
-0.2096
  0
LINE
  8
0
  6
CONTINUOUS
 62
     7
 10
-330.1238
 20
-4.2096
 11
-330.1238
 21
-2.7096
  0
LINE
  8
0
  6
CONTINUOUS
 62
     7
 10
-329.0238
 20
-2.7096
 11
-329.0238
 21
-1.8096
  0
LINE
  8
0
  6
CONTINUOUS
 62
     7
 10
-330.9238
 20
-16.7096
 11
-321.9238
 21
-16.7096
  0
LINE
  8
0
  6
CONTINUOUS
 62
     7
 10
-329.4238
 20
-21.7096
 11
-323.4238
 21
-21.7096
  0
LINE
  8
0
  6
CONTINUOUS
 62
     7
 10
-329.4238
 20
-21.7096
 11
-329.4238
 21
-17.3096
  0
LINE
  8
0
  6
CONTINUOUS
 62
     7
 10
-330.9238
 20
-17.3096
 11
-330.9238
 21
-15.2096
  0
LINE
  8
0
  6
CONTINUOUS
 62
     7
 10
-328.8823
 20
-21.7096
 11
-328.8823
 21
-17.3096
  0
LINE
  8
0
  6
CONTINUOUS
 62
     7
 10
-321.9238
 20
-17.3096
 11
-321.9238
 21
-15.2096
  0
LINE
  8
0
  6
CONTINUOUS
 62
     7
 10
-323.4238
 20
-21.7096
 11
-323.4238
 21
-17.3096
  0
LINE
  8
0
  6
CONTINUOUS
 62
     7
 10
-323.9653
 20
-21.7096
 11
-323.9653
 21
-17.3096
  0
LINE
  8
0
  6
CONTINUOUS
 62
     7
 10
-330.9238
 20
-17.3096
 11
-321.9238
 21
-17.3096
  0
LINE
  8
0
  6
CONTINUOUS
 62
     7
 10
-271.974
 20
-106.133
 11
-261.974
 21
-106.133
  0
LINE
  8
0
  6
CENTER
 62
     2
 10
-266.974
 20
-124.9585
 11
-266.974
 21
-100.538
  0
LINE
  8
0
  6
CONTINUOUS
 62
     7
 10
-271.974
 20
-115.133
 11
-261.974
 21
-115.133
  0
LINE
  8
0
  6
CONTINUOUS
 62
     7
 10
-261.2005
 20
-114.6864
 11
-261.2005
 21
-106.5796
  0
LINE
  8
0
  6
CONTINUOUS
 62
     7
 10
-264.0872
 20
-114.6864
 11
-264.0872
 21
-106.5796
  0
LINE
  8
0
  6
CONTINUOUS
 62
     7
 10
-269.8607
 20
-114.6864
 11
-269.8607
 21
-106.5796
  0
LINE
  8
0
  6
CONTINUOUS
 62
     7
 10
-261.2005
 20
-114.6864
 11
-261.974
 21
-115.133
  0
LINE
  8
0
  6
CONTINUOUS
 62
     7
 10
-272.7475
 20
-106.5796
 11
-271.974
 21
-106.133
  0
LINE
  8
0
  6
CONTINUOUS
 62
     7
 10
-272.7475
 20
-114.6865
 11
-271.974
 21
-115.133
  0
LINE
  8
0
  6
CONTINUOUS
 62
     7
 10
-272.7475
 20
-114.6864
 11
-272.7475
 21
-106.5796
  0
LINE
  8
0
  6
CONTINUOUS
 62
     7
 10
-261.2005
 20
-106.5796
 11
-261.9739
 21
-106.133
  0
LINE
  8
0
  6
CONTINUOUS
 62
     7
 10
-271.974
 20
-102.133
 11
-261.974
 21
-102.133
  0
LINE
  8
0
  6
CONTINUOUS
 62
     7
 10
-271.974
 20
-103.733
 11
-271.974
 21
-102.133
  0
LINE
  8
0
  6
CONTINUOUS
 62
     7
 10
-271.974
 20
-103.733
 11
-261.974
 21
-103.733
  0
LINE
  8
0
  6
CONTINUOUS
 62
     7
 10
-270.674
 20
-104.633
 11
-263.274
 21
-104.633
  0
LINE
  8
0
  6
CONTINUOUS
 62
     7
 10
-270.674
 20
-106.133
 11
-270.674
 21
-104.633
  0
LINE
  8
0
  6
CONTINUOUS
 62
     7
 10
-269.574
 20
-104.633
 11
-269.574
 21
-103.733
  0
LINE
  8
0
  6
CONTINUOUS
 62
     7
 10
-264.374
 20
-104.633
 11
-264.374
 21
-103.733
  0
LINE
  8
0
  6
CONTINUOUS
 62
     7
 10
-263.274
 20
-106.133
 11
-263.274
 21
-104.633
  0
LINE
  8
0
  6
CONTINUOUS
 62
     7
 10
-261.974
 20
-103.733
 11
-261.974
 21
-102.133
  0
LINE
  8
0
  6
CONTINUOUS
 62
     7
 10
-271.1313
 20
-123.133
 11
-271.3827
 21
-115.133
  0
LINE
  8
0
  6
CONTINUOUS
 62
     7
 10
-271.7123
 20
-123.133
 11
-271.9637
 21
-115.133
  0
LINE
  8
0
  6
CONTINUOUS
 62
     7
 10
-262.8167
 20
-123.133
 11
-262.5652
 21
-115.133
  0
LINE
  8
0
  6
CONTINUOUS
 62
     7
 10
-262.2357
 20
-123.133
 11
-261.9843
 21
-115.133
  0
LINE
  8
0
  6
CONTINUOUS
 62
     7
 10
-271.7123
 20
-123.133
 11
-262.2357
 21
-123.133
  0
LINE
  8
0
  6
CENTER
 62
     2
 10
-266.974
 20
-90.633
 11
-266.974
 21
-77.633
  0
LINE
  8
0
  6
CENTER
 62
     2
 10
-273.474
 20
-84.133
 11
-260.474
 21
-84.133
  0
LINE
  8
0
  6
CONTINUOUS
 62
     7
 10
-264.0872
 20
-89.133
 11
-261.2005
 21
-84.133
  0
LINE
  8
0
  6
CONTINUOUS
 62
     7
 10
-261.2005
 20
-84.133
 11
-264.0872
 21
-79.133
  0
LINE
  8
0
  6
CONTINUOUS
 62
     7
 10
-264.0872
 20
-79.133
 11
-269.8607
 21
-79.133
  0
LINE
  8
0
  6
CONTINUOUS
 62
     7
 10
-269.8607
 20
-79.133
 11
-272.7475
 21
-84.133
  0
LINE
  8
0
  6
CONTINUOUS
 62
     7
 10
-272.7475
 20
-84.133
 11
-269.8607
 21
-89.133
  0
LINE
  8
0
  6
CONTINUOUS
 62
     7
 10
-269.8607
 20
-89.133
 11
-264.0872
 21
-89.133
  0
LINE
  8
0
  6
CONTINUOUS
 62
     7
 10
-330.5811
 20
-123.133
 11
-330.8325
 21
-115.133
  0
LINE
  8
0
  6
CONTINUOUS
 62
     7
 10
-331.1621
 20
-123.133
 11
-331.4135
 21
-115.133
  0
LINE
  8
0
  6
CONTINUOUS
 62
     7
 10
-321.6855
 20
-123.133
 11
-321.4341
 21
-115.133
  0
LINE
  8
0
  6
CONTINUOUS
 62
     7
 10
-322.2664
 20
-123.133
 11
-322.015
 21
-115.133
  0
LINE
  8
0
  6
CONTINUOUS
 62
     7
 10
-331.4238
 20
-115.133
 11
-331.4238
 21
-106.133
  0
LINE
  8
0
  6
CONTINUOUS
 62
     7
 10
-326.4238
 20
-114.6864
 11
-326.4238
 21
-106.5796
  0
LINE
  8
0
  6
CONTINUOUS
 62
     7
 10
-331.4238
 20
-106.133
 11
-321.4238
 21
-106.133
  0
LINE
  8
0
  6
CENTER
 62
     2
 10
-326.4238
 20
-124.9585
 11
-326.4238
 21
-100.538
  0
LINE
  8
0
  6
CONTINUOUS
 62
     7
 10
-331.4238
 20
-115.133
 11
-321.4238
 21
-115.133
  0
LINE
  8
0
  6
CONTINUOUS
 62
     7
 10
-321.4238
 20
-115.133
 11
-321.4238
 21
-106.133
  0
LINE
  8
0
  6
CONTINUOUS
 62
     7
 10
-331.4238
 20
-102.133
 11
-321.4238
 21
-102.133
  0
LINE
  8
0
  6
CONTINUOUS
 62
     7
 10
-330.1238
 20
-104.633
 11
-322.7238
 21
-104.633
  0
LINE
  8
0
  6
CONTINUOUS
 62
     7
 10
-323.8238
 20
-104.633
 11
-323.8238
 21
-103.733
  0
LINE
  8
0
  6
CONTINUOUS
 62
     7
 10
-322.7238
 20
-106.133
 11
-322.7238
 21
-104.633
  0
LINE
  8
0
  6
CONTINUOUS
 62
     7
 10
-331.4238
 20
-103.733
 11
-321.4238
 21
-103.733
  0
LINE
  8
0
  6
CONTINUOUS
 62
     7
 10
-321.4238
 20
-103.733
 11
-321.4238
 21
-102.133
  0
LINE
  8
0
  6
CONTINUOUS
 62
     7
 10
-331.4238
 20
-103.733
 11
-331.4238
 21
-102.133
  0
LINE
  8
0
  6
CONTINUOUS
 62
     7
 10
-330.1238
 20
-106.133
 11
-330.1238
 21
-104.633
  0
LINE
  8
0
  6
CONTINUOUS
 62
     7
 10
-329.0238
 20
-104.633
 11
-329.0238
 21
-103.733
  0
LINE
  8
0
  6
CONTINUOUS
 62
     7
 10
-331.1621
 20
-123.133
 11
-321.6855
 21
-123.133
  0
LINE
  8
0
  6
CENTER
 62
     2
 10
-266.974
 20
-229.7064
 11
-266.974
 21
-202.4064
  0
LINE
  8
0
  6
CONTINUOUS
 62
     7
 10
-273.974
 20
-215.9564
 11
-259.974
 21
-215.9564
  0
LINE
  8
0
  6
CONTINUOUS
 62
     7
 10
-275.0569
 20
-215.3312
 11
-275.0569
 21
-211.5816
  0
LINE
  8
0
  6
CONTINUOUS
 62
     7
 10
-271.0154
 20
-215.3312
 11
-271.0154
 21
-211.5816
  0
LINE
  8
0
  6
CONTINUOUS
 62
     7
 10
-262.9325
 20
-215.3312
 11
-262.9325
 21
-211.5816
  0
LINE
  8
0
  6
CONTINUOUS
 62
     7
 10
-258.8911
 20
-215.3312
 11
-258.8911
 21
-211.5816
  0
LINE
  8
0
  6
CONTINUOUS
 62
     7
 10
-273.3649
 20
-226.9564
 11
-273.7087
 21
-215.9564
  0
LINE
  8
0
  6
CONTINUOUS
 62
     7
 10
-272.509
 20
-226.9564
 11
-272.8527
 21
-215.9564
  0
LINE
  8
0
  6
CONTINUOUS
 62
     7
 10
-261.439
 20
-226.9564
 11
-261.0952
 21
-215.9564
  0
LINE
  8
0
  6
CONTINUOUS
 62
     7
 10
-260.583
 20
-226.9564
 11
-260.2392
 21
-215.9564
  0
LINE
  8
0
  6
CONTINUOUS
 62
     7
 10
-273.365
 20
-226.9564
 11
-260.583
 21
-226.9564
  0
LINE
  8
0
  6
CONTINUOUS
 62
     7
 10
-275.0569
 20
-215.3312
 11
-273.974
 21
-215.9564
  0
LINE
  8
0
  6
CONTINUOUS
 62
     7
 10
-258.891
 20
-215.3311
 11
-259.974
 21
-215.9564
  0
LINE
  8
0
  6
CONTINUOUS
 62
     7
 10
-271.474
 20
-209.9564
 11
-262.474
 21
-209.9564
  0
LINE
  8
0
  6
CONTINUOUS
 62
     7
 10
-270.674
 20
-209.9564
 11
-270.674
 21
-208.4564
  0
LINE
  8
0
  6
CONTINUOUS
 62
     7
 10
-270.674
 20
-208.4564
 11
-263.274
 21
-208.4564
  0
LINE
  8
0
  6
CONTINUOUS
 62
     7
 10
-269.574
 20
-208.4564
 11
-269.574
 21
-207.5564
  0
LINE
  8
0
  6
CONTINUOUS
 62
     7
 10
-271.974
 20
-207.5564
 11
-261.974
 21
-207.5564
  0
LINE
  8
0
  6
CONTINUOUS
 62
     7
 10
-271.974
 20
-207.5564
 11
-271.974
 21
-205.9564
  0
LINE
  8
0
  6
CONTINUOUS
 62
     7
 10
-271.974
 20
-205.9564
 11
-261.974
 21
-205.9564
  0
LINE
  8
0
  6
CONTINUOUS
 62
     7
 10
-261.974
 20
-207.5564
 11
-261.974
 21
-205.9564
  0
LINE
  8
0
  6
CONTINUOUS
 62
     7
 10
-264.374
 20
-208.4564
 11
-264.374
 21
-207.5564
  0
LINE
  8
0
  6
CONTINUOUS
 62
     7
 10
-263.274
 20
-209.9564
 11
-263.274
 21
-208.4564
  0
LINE
  8
0
  6
CONTINUOUS
 62
     7
 10
-262.474
 20
-209.9564
 11
-258.8911
 21
-211.5816
  0
LINE
  8
0
  6
CONTINUOUS
 62
     7
 10
-271.474
 20
-209.9564
 11
-275.0569
 21
-211.5816
  0
LINE
  8
0
  6
CONTINUOUS
 62
     7
 10
-262.9325
 20
-192.9564
 11
-258.8911
 21
-185.9564
  0
LINE
  8
0
  6
CONTINUOUS
 62
     7
 10
-258.8911
 20
-185.9564
 11
-262.9325
 21
-178.9564
  0
LINE
  8
0
  6
CONTINUOUS
 62
     7
 10
-262.9325
 20
-178.9564
 11
-271.0154
 21
-178.9564
  0
LINE
  8
0
  6
CONTINUOUS
 62
     7
 10
-271.0154
 20
-178.9564
 11
-275.0569
 21
-185.9564
  0
LINE
  8
0
  6
CONTINUOUS
 62
     7
 10
-275.0569
 20
-185.9564
 11
-271.0154
 21
-192.9564
  0
LINE
  8
0
  6
CONTINUOUS
 62
     7
 10
-271.0154
 20
-192.9564
 11
-262.9325
 21
-192.9564
  0
LINE
  8
0
  6
CENTER
 62
     2
 10
-266.974
 20
-194.9564
 11
-266.974
 21
-176.9564
  0
LINE
  8
0
  6
CENTER
 62
     2
 10
-275.974
 20
-185.9564
 11
-257.974
 21
-185.9564
  0
LINE
  8
0
  6
CENTER
 62
     2
 10
-326.4238
 20
-229.5897
 11
-326.4238
 21
-202.2897
  0
LINE
  8
0
  6
CONTINUOUS
 62
     7
 10
-333.4238
 20
-215.9564
 11
-319.4238
 21
-215.9564
  0
LINE
  8
0
  6
CONTINUOUS
 62
     7
 10
-319.4238
 20
-215.9564
 11
-319.4238
 21
-211.5816
  0
LINE
  8
0
  6
CONTINUOUS
 62
     7
 10
-326.4238
 20
-215.3312
 11
-326.4238
 21
-211.5816
  0
LINE
  8
0
  6
CONTINUOUS
 62
     7
 10
-333.4238
 20
-215.9564
 11
-333.4238
 21
-211.5816
  0
LINE
  8
0
  6
CONTINUOUS
 62
     7
 10
-332.8148
 20
-226.9564
 11
-333.1585
 21
-215.9564
  0
LINE
  8
0
  6
CONTINUOUS
 62
     7
 10
-331.9587
 20
-226.9564
 11
-332.3025
 21
-215.9564
  0
LINE
  8
0
  6
CONTINUOUS
 62
     7
 10
-320.8888
 20
-226.9564
 11
-320.545
 21
-215.9564
  0
LINE
  8
0
  6
CONTINUOUS
 62
     7
 10
-320.0328
 20
-226.9564
 11
-319.689
 21
-215.9564
  0
LINE
  8
0
  6
CONTINUOUS
 62
     7
 10
-332.8148
 20
-226.9564
 11
-320.0328
 21
-226.9564
  0
LINE
  8
0
  6
CONTINUOUS
 62
     7
 10
-331.4238
 20
-205.9564
 11
-321.4238
 21
-205.9564
  0
LINE
  8
0
  6
CONTINUOUS
 62
     7
 10
-330.1238
 20
-208.4564
 11
-322.7238
 21
-208.4564
  0
LINE
  8
0
  6
CONTINUOUS
 62
     7
 10
-330.9238
 20
-209.9564
 11
-321.9238
 21
-209.9564
  0
LINE
  8
0
  6
CONTINUOUS
 62
     7
 10
-323.8238
 20
-208.4564
 11
-323.8238
 21
-207.5564
  0
LINE
  8
0
  6
CONTINUOUS
 62
     7
 10
-322.7238
 20
-209.9564
 11
-322.7238
 21
-208.4564
  0
LINE
  8
0
  6
CONTINUOUS
 62
     7
 10
-331.4238
 20
-207.5564
 11
-321.4238
 21
-207.5564
  0
LINE
  8
0
  6
CONTINUOUS
 62
     7
 10
-321.4238
 20
-207.5564
 11
-321.4238
 21
-205.9564
  0
LINE
  8
0
  6
CONTINUOUS
 62
     7
 10
-331.4238
 20
-207.5564
 11
-331.4238
 21
-205.9564
  0
LINE
  8
0
  6
CONTINUOUS
 62
     7
 10
-330.1238
 20
-209.9564
 11
-330.1238
 21
-208.4564
  0
LINE
  8
0
  6
CONTINUOUS
 62
     7
 10
-329.0238
 20
-208.4564
 11
-329.0238
 21
-207.5564
  0
LINE
  8
0
  6
CONTINUOUS
 62
     7
 10
-321.9237
 20
-209.9564
 11
-319.4237
 21
-211.5816
  0
LINE
  8
0
  6
CONTINUOUS
 62
     7
 10
-330.9237
 20
-209.9564
 11
-333.4237
 21
-211.5816
  0
LINE
  8
0
  6
CENTER
 62
     2
 10
-123.6245
 20
161.5255
 11
-123.6245
 21
188.9014
  0
LINE
  8
0
  6
CONTINUOUS
 62
     7
 10
-126.1245
 20
162.9372
 11
-121.1245
 21
162.9372
  0
LINE
  8
0
  6
CONTINUOUS
 62
     7
 10
-121.1245
 20
162.9372
 11
-121.1245
 21
166.3372
  0
LINE
  8
0
  6
CONTINUOUS
 62
     7
 10
-121.5575
 20
162.9372
 11
-121.5575
 21
166.3372
  0
LINE
  8
0
  6
CONTINUOUS
 62
     7
 10
-125.6915
 20
162.9372
 11
-125.6915
 21
166.3372
  0
LINE
  8
0
  6
CONTINUOUS
 62
     7
 10
-126.1245
 20
162.9372
 11
-126.1245
 21
166.3372
  0
LINE
  8
0
  6
CONTINUOUS
 62
     7
 10
-127.6245
 20
166.9372
 11
-119.6245
 21
166.9372
  0
LINE
  8
0
  6
CONTINUOUS
 62
     7
 10
-129.5245
 20
184.9372
 11
-117.7245
 21
184.9372
  0
LINE
  8
0
  6
CONTINUOUS
 62
     7
 10
-128.3245
 20
181.9372
 11
-118.9245
 21
181.9372
  0
LINE
  8
0
  6
CONTINUOUS
 62
     7
 10
-129.6245
 20
179.9372
 11
-117.6245
 21
179.9372
  0
LINE
  8
0
  6
CONTINUOUS
 62
     7
 10
-129.6245
 20
168.4372
 11
-117.6245
 21
168.4372
  0
LINE
  8
0
  6
CONTINUOUS
 62
     7
 10
-130.5528
 20
179.4013
 11
-130.5528
 21
168.9731
  0
LINE
  8
0
  6
CONTINUOUS
 62
     7
 10
-127.0887
 20
179.4013
 11
-127.0887
 21
168.9731
  0
LINE
  8
0
  6
CONTINUOUS
 62
     7
 10
-120.1604
 20
179.4013
 11
-120.1604
 21
168.9731
  0
LINE
  8
0
  6
CONTINUOUS
 62
     7
 10
-116.6963
 20
179.4013
 11
-116.6963
 21
168.9731
  0
LINE
  8
0
  6
CONTINUOUS
 62
     7
 10
-117.6245
 20
179.9372
 11
-116.6963
 21
179.4013
  0
LINE
  8
0
  6
CONTINUOUS
 62
     7
 10
-129.6245
 20
179.9372
 11
-130.5527
 21
179.4013
  0
LINE
  8
0
  6
CONTINUOUS
 62
     7
 10
-129.6245
 20
168.4372
 11
-130.5527
 21
168.9731
  0
LINE
  8
0
  6
CONTINUOUS
 62
     7
 10
-117.6245
 20
168.4372
 11
-116.6963
 21
168.9731
  0
LINE
  8
0
  6
CONTINUOUS
 62
     7
 10
-129.5245
 20
183.1372
 11
-117.7245
 21
183.1372
  0
LINE
  8
0
  6
CONTINUOUS
 62
     7
 10
-117.7245
 20
183.1372
 11
-117.7245
 21
184.9372
  0
LINE
  8
0
  6
CONTINUOUS
 62
     7
 10
-119.6245
 20
166.3372
 11
-119.6245
 21
168.4372
  0
LINE
  8
0
  6
CONTINUOUS
 62
     7
 10
-129.5245
 20
183.1372
 11
-129.5245
 21
184.9372
  0
LINE
  8
0
  6
CONTINUOUS
 62
     7
 10
-127.6245
 20
166.3372
 11
-127.6245
 21
168.4372
  0
LINE
  8
0
  6
CONTINUOUS
 62
     7
 10
-119.3245
 20
181.9372
 11
-119.3245
 21
183.1372
  0
LINE
  8
0
  6
CONTINUOUS
 62
     7
 10
-118.9245
 20
179.9372
 11
-118.9245
 21
181.9372
  0
LINE
  8
0
  6
CONTINUOUS
 62
     7
 10
-127.9245
 20
181.9372
 11
-127.9245
 21
183.1372
  0
LINE
  8
0
  6
CONTINUOUS
 62
     7
 10
-128.3245
 20
179.9372
 11
-128.3245
 21
181.9372
  0
LINE
  8
0
  6
CONTINUOUS
 62
     7
 10
-127.6245
 20
166.3372
 11
-119.6245
 21
166.3372
  0
LINE
  8
0
  6
CONTINUOUS
 62
     7
 10
-127.0887
 20
205.3373
 11
-120.1605
 21
205.3373
  0
LINE
  8
0
  6
CONTINUOUS
 62
     7
 10
-120.1604
 20
205.3372
 11
-116.6964
 21
211.3372
  0
LINE
  8
0
  6
CONTINUOUS
 62
     7
 10
-116.6963
 20
211.3372
 11
-120.1604
 21
217.3372
  0
LINE
  8
0
  6
CONTINUOUS
 62
     7
 10
-120.1605
 20
217.3373
 11
-127.0887
 21
217.3373
  0
LINE
  8
0
  6
CONTINUOUS
 62
     7
 10
-127.0887
 20
217.3373
 11
-130.5528
 21
211.3373
  0
LINE
  8
0
  6
CONTINUOUS
 62
     7
 10
-130.5528
 20
211.3373
 11
-127.0887
 21
205.3372
  0
LINE
  8
0
  6
CENTER
 62
     2
 10
-132.1245
 20
211.3372
 11
-115.1245
 21
211.3372
  0
LINE
  8
0
  6
CENTER
 62
     2
 10
-123.6245
 20
219.8372
 11
-123.6245
 21
202.8372
  0
LINE
  8
0
  6
CENTER
 62
     2
 10
-183.0743
 20
161.5255
 11
-183.0743
 21
188.9014
  0
LINE
  8
0
  6
CONTINUOUS
 62
     7
 10
-185.5743
 20
162.9372
 11
-180.5743
 21
162.9372
  0
LINE
  8
0
  6
CONTINUOUS
 62
     7
 10
-180.5743
 20
162.9372
 11
-180.5743
 21
166.3372
  0
LINE
  8
0
  6
CONTINUOUS
 62
     7
 10
-185.5743
 20
162.9372
 11
-185.5743
 21
166.3372
  0
LINE
  8
0
  6
CONTINUOUS
 62
     7
 10
-181.0073
 20
162.9372
 11
-181.0073
 21
166.3372
  0
LINE
  8
0
  6
CONTINUOUS
 62
     7
 10
-185.1413
 20
162.9372
 11
-185.1413
 21
166.3372
  0
LINE
  8
0
  6
CONTINUOUS
 62
     7
 10
-187.0743
 20
166.9372
 11
-179.0743
 21
166.9372
  0
LINE
  8
0
  6
CONTINUOUS
 62
     7
 10
-188.9743
 20
184.9372
 11
-177.1743
 21
184.9372
  0
LINE
  8
0
  6
CONTINUOUS
 62
     7
 10
-187.7743
 20
181.9372
 11
-178.3743
 21
181.9372
  0
LINE
  8
0
  6
CONTINUOUS
 62
     7
 10
-189.0743
 20
179.9372
 11
-177.0743
 21
179.9372
  0
LINE
  8
0
  6
CONTINUOUS
 62
     7
 10
-189.0743
 20
168.4372
 11
-177.0743
 21
168.4372
  0
LINE
  8
0
  6
CONTINUOUS
 62
     7
 10
-188.9743
 20
183.1372
 11
-177.1743
 21
183.1372
  0
LINE
  8
0
  6
CONTINUOUS
 62
     7
 10
-177.1743
 20
183.1372
 11
-177.1743
 21
184.9372
  0
LINE
  8
0
  6
CONTINUOUS
 62
     7
 10
-179.0743
 20
166.3372
 11
-179.0743
 21
168.4372
  0
LINE
  8
0
  6
CONTINUOUS
 62
     7
 10
-188.9743
 20
183.1372
 11
-188.9743
 21
184.9372
  0
LINE
  8
0
  6
CONTINUOUS
 62
     7
 10
-187.0743
 20
166.3372
 11
-187.0743
 21
168.4372
  0
LINE
  8
0
  6
CONTINUOUS
 62
     7
 10
-178.7743
 20
181.9372
 11
-178.7743
 21
183.1372
  0
LINE
  8
0
  6
CONTINUOUS
 62
     7
 10
-178.3743
 20
179.9372
 11
-178.3743
 21
181.9372
  0
LINE
  8
0
  6
CONTINUOUS
 62
     7
 10
-187.3743
 20
181.9372
 11
-187.3743
 21
183.1372
  0
LINE
  8
0
  6
CONTINUOUS
 62
     7
 10
-187.7743
 20
179.9372
 11
-187.7743
 21
181.9372
  0
LINE
  8
0
  6
CONTINUOUS
 62
     7
 10
-189.0743
 20
179.9372
 11
-189.0743
 21
168.4372
  0
LINE
  8
0
  6
CONTINUOUS
 62
     7
 10
-177.0743
 20
179.9372
 11
-177.0743
 21
168.4372
  0
LINE
  8
0
  6
CONTINUOUS
 62
     7
 10
-183.0743
 20
168.9731
 11
-183.0743
 21
179.4013
  0
LINE
  8
0
  6
CONTINUOUS
 62
     7
 10
-187.0743
 20
166.3372
 11
-179.0743
 21
166.3372
  0
LINE
  8
0
  6
CENTER
 62
     2
 10
-123.6245
 20
33.23242
 11
-123.6245
 21
59.94128
  0
LINE
  8
0
  6
CONTINUOUS
 62
     7
 10
-127.7819
 20
35.05795
 11
-128.0333
 21
43.05795
  0
LINE
  8
0
  6
CONTINUOUS
 62
     7
 10
-128.3629
 20
35.05795
 11
-128.6143
 21
43.05795
  0
LINE
  8
0
  6
CONTINUOUS
 62
     7
 10
-119.4672
 20
35.05795
 11
-119.2158
 21
43.05794
  0
LINE
  8
0
  6
CONTINUOUS
 62
     7
 10
-118.8862
 20
35.05795
 11
-118.6348
 21
43.05794
  0
LINE
  8
0
  6
CONTINUOUS
 62
     7
 10
-128.3628
 20
35.05795
 11
-118.8862
 21
35.05795
  0
LINE
  8
0
  6
CONTINUOUS
 62
     7
 10
-129.5245
 20
57.55795
 11
-117.7245
 21
57.55795
  0
LINE
  8
0
  6
CONTINUOUS
 62
     7
 10
-128.3245
 20
54.55795
 11
-118.9245
 21
54.55795
  0
LINE
  8
0
  6
CONTINUOUS
 62
     7
 10
-129.6245
 20
52.55795
 11
-117.6245
 21
52.55795
  0
LINE
  8
0
  6
CONTINUOUS
 62
     7
 10
-129.6245
 20
43.05795
 11
-117.6245
 21
43.05795
  0
LINE
  8
0
  6
CONTINUOUS
 62
     7
 10
-130.5528
 20
52.02203
 11
-130.5528
 21
43.59385
  0
LINE
  8
0
  6
CONTINUOUS
 62
     7
 10
-127.0887
 20
52.02205
 11
-127.0887
 21
43.59384
  0
LINE
  8
0
  6
CONTINUOUS
 62
     7
 10
-120.1604
 20
52.02205
 11
-120.1604
 21
43.59384
  0
LINE
  8
0
  6
CONTINUOUS
 62
     7
 10
-116.6963
 20
52.02205
 11
-116.6963
 21
43.59384
  0
LINE
  8
0
  6
CONTINUOUS
 62
     7
 10
-117.6245
 20
52.55796
 11
-116.6963
 21
52.02206
  0
LINE
  8
0
  6
CONTINUOUS
 62
     7
 10
-129.6245
 20
52.55793
 11
-130.5527
 21
52.02203
  0
LINE
  8
0
  6
CONTINUOUS
 62
     7
 10
-129.6245
 20
43.05795
 11
-130.5527
 21
43.59385
  0
LINE
  8
0
  6
CONTINUOUS
 62
     7
 10
-117.6245
 20
43.05795
 11
-116.6963
 21
43.59385
  0
LINE
  8
0
  6
CONTINUOUS
 62
     7
 10
-129.5245
 20
55.75795
 11
-117.7245
 21
55.75795
  0
LINE
  8
0
  6
CONTINUOUS
 62
     7
 10
-117.7245
 20
55.75795
 11
-117.7245
 21
57.55795
  0
LINE
  8
0
  6
CONTINUOUS
 62
     7
 10
-129.5245
 20
55.75795
 11
-129.5245
 21
57.55795
  0
LINE
  8
0
  6
CONTINUOUS
 62
     7
 10
-119.3245
 20
54.55795
 11
-119.3245
 21
55.75795
  0
LINE
  8
0
  6
CONTINUOUS
 62
     7
 10
-118.9245
 20
52.55795
 11
-118.9245
 21
54.55795
  0
LINE
  8
0
  6
CONTINUOUS
 62
     7
 10
-127.9245
 20
54.55795
 11
-127.9245
 21
55.75795
  0
LINE
  8
0
  6
CONTINUOUS
 62
     7
 10
-128.3245
 20
52.55795
 11
-128.3245
 21
54.55795
  0
LINE
  8
0
  6
CONTINUOUS
 62
     7
 10
-127.0887
 20
78.05803
 11
-120.1605
 21
78.05802
  0
LINE
  8
0
  6
CONTINUOUS
 62
     7
 10
-120.1604
 20
78.05795
 11
-116.6963
 21
84.05795
  0
LINE
  8
0
  6
CONTINUOUS
 62
     7
 10
-116.6963
 20
84.05796
 11
-120.1604
 21
90.05795
  0
LINE
  8
0
  6
CONTINUOUS
 62
     7
 10
-120.1605
 20
90.05805
 11
-127.0887
 21
90.05806
  0
LINE
  8
0
  6
CONTINUOUS
 62
     7
 10
-127.0888
 20
90.05802
 11
-130.5529
 21
84.05802
  0
LINE
  8
0
  6
CONTINUOUS
 62
     7
 10
-130.5528
 20
84.05798
 11
-127.0887
 21
78.05797
  0
LINE
  8
0
  6
CENTER
 62
     2
 10
-132.1245
 20
84.05795
 11
-115.1245
 21
84.05795
  0
LINE
  8
0
  6
CENTER
 62
     2
 10
-123.6245
 20
92.55795
 11
-123.6245
 21
75.55795
  0
LINE
  8
0
  6
CENTER
 62
     2
 10
-183.0743
 20
33.23242
 11
-183.0743
 21
59.94128
  0
LINE
  8
0
  6
CONTINUOUS
 62
     7
 10
-178.917
 20
35.05795
 11
-178.6656
 21
43.05795
  0
LINE
  8
0
  6
CONTINUOUS
 62
     7
 10
-178.336
 20
35.05795
 11
-178.0846
 21
43.05794
  0
LINE
  8
0
  6
CONTINUOUS
 62
     7
 10
-187.8127
 20
35.05795
 11
-188.0641
 21
43.05795
  0
LINE
  8
0
  6
CONTINUOUS
 62
     7
 10
-187.2317
 20
35.05795
 11
-187.4831
 21
43.05795
  0
LINE
  8
0
  6
CONTINUOUS
 62
     7
 10
-187.8127
 20
35.05795
 11
-178.336
 21
35.05795
  0
LINE
  8
0
  6
CONTINUOUS
 62
     7
 10
-188.9743
 20
57.55795
 11
-177.1743
 21
57.55795
  0
LINE
  8
0
  6
CONTINUOUS
 62
     7
 10
-187.7743
 20
54.55795
 11
-178.3743
 21
54.55795
  0
LINE
  8
0
  6
CONTINUOUS
 62
     7
 10
-189.0743
 20
52.55795
 11
-177.0743
 21
52.55795
  0
LINE
  8
0
  6
CONTINUOUS
 62
     7
 10
-189.0743
 20
43.05795
 11
-177.0743
 21
43.05795
  0
LINE
  8
0
  6
CONTINUOUS
 62
     7
 10
-188.9743
 20
55.75795
 11
-177.1743
 21
55.75795
  0
LINE
  8
0
  6
CONTINUOUS
 62
     7
 10
-177.1743
 20
55.75795
 11
-177.1743
 21
57.55795
  0
LINE
  8
0
  6
CONTINUOUS
 62
     7
 10
-188.9743
 20
55.75795
 11
-188.9743
 21
57.55795
  0
LINE
  8
0
  6
CONTINUOUS
 62
     7
 10
-178.7743
 20
54.55795
 11
-178.7743
 21
55.75795
  0
LINE
  8
0
  6
CONTINUOUS
 62
     7
 10
-178.3743
 20
52.55795
 11
-178.3743
 21
54.55795
  0
LINE
  8
0
  6
CONTINUOUS
 62
     7
 10
-187.3743
 20
54.55795
 11
-187.3743
 21
55.75795
  0
LINE
  8
0
  6
CONTINUOUS
 62
     7
 10
-187.7743
 20
52.55795
 11
-187.7743
 21
54.55795
  0
LINE
  8
0
  6
CONTINUOUS
 62
     7
 10
-189.0743
 20
52.55795
 11
-189.0743
 21
43.05795
  0
LINE
  8
0
  6
CONTINUOUS
 62
     7
 10
-177.0743
 20
52.55795
 11
-177.0743
 21
43.05795
  0
LINE
  8
0
  6
CONTINUOUS
 62
     7
 10
-183.0743
 20
43.59384
 11
-183.0743
 21
52.02205
  0
LINE
  8
0
  6
CENTER
 62
     2
 10
-123.6245
 20
-96.9713
 11
-123.6245
 21
-67.90788
  0
LINE
  8
0
  6
CONTINUOUS
 62
     7
 10
-130.6245
 20
-83.2213
 11
-116.6245
 21
-83.2213
  0
LINE
  8
0
  6
CONTINUOUS
 62
     7
 10
-131.7074
 20
-82.59608
 11
-131.7074
 21
-76.34653
  0
LINE
  8
0
  6
CONTINUOUS
 62
     7
 10
-127.666
 20
-82.59608
 11
-127.666
 21
-76.34652
  0
LINE
  8
0
  6
CONTINUOUS
 62
     7
 10
-119.5831
 20
-82.59608
 11
-119.5831
 21
-76.34652
  0
LINE
  8
0
  6
CONTINUOUS
 62
     7
 10
-115.5416
 20
-82.59608
 11
-115.5416
 21
-76.34653
  0
LINE
  8
0
  6
CONTINUOUS
 62
     7
 10
-130.0155
 20
-94.2213
 11
-130.3593
 21
-83.22129
  0
LINE
  8
0
  6
CONTINUOUS
 62
     7
 10
-129.1595
 20
-94.2213
 11
-129.5033
 21
-83.2213
  0
LINE
  8
0
  6
CONTINUOUS
 62
     7
 10
-118.0895
 20
-94.2213
 11
-117.7458
 21
-83.2213
  0
LINE
  8
0
  6
CONTINUOUS
 62
     7
 10
-117.2335
 20
-94.2213
 11
-116.8898
 21
-83.2213
  0
LINE
  8
0
  6
CONTINUOUS
 62
     7
 10
-130.0155
 20
-94.2213
 11
-117.2336
 21
-94.2213
  0
LINE
  8
0
  6
CONTINUOUS
 62
     7
 10
-131.7074
 20
-82.59608
 11
-130.6245
 21
-83.2213
  0
LINE
  8
0
  6
CONTINUOUS
 62
     7
 10
-115.5416
 20
-82.59608
 11
-116.6245
 21
-83.22129
  0
LINE
  8
0
  6
CONTINUOUS
 62
     7
 10
-128.6246
 20
-74.72131
 11
-131.7075
 21
-76.34653
  0
LINE
  8
0
  6
CONTINUOUS
 62
     7
 10
-118.6245
 20
-74.7213
 11
-115.5416
 21
-76.34653
  0
LINE
  8
0
  6
CONTINUOUS
 62
     7
 10
-128.6245
 20
-74.7213
 11
-118.6245
 21
-74.7213
  0
LINE
  8
0
  6
CONTINUOUS
 62
     7
 10
-128.3245
 20
-74.7213
 11
-128.3245
 21
-72.7213
  0
LINE
  8
0
  6
CONTINUOUS
 62
     7
 10
-128.3245
 20
-72.7213
 11
-118.9245
 21
-72.7213
  0
LINE
  8
0
  6
CONTINUOUS
 62
     7
 10
-127.9245
 20
-72.7213
 11
-127.9245
 21
-71.5213
  0
LINE
  8
0
  6
CONTINUOUS
 62
     7
 10
-129.5245
 20
-71.5213
 11
-117.7245
 21
-71.5213
  0
LINE
  8
0
  6
CONTINUOUS
 62
     7
 10
-129.5245
 20
-71.5213
 11
-129.5245
 21
-69.7213
  0
LINE
  8
0
  6
CONTINUOUS
 62
     7
 10
-129.5245
 20
-69.7213
 11
-117.7245
 21
-69.7213
  0
LINE
  8
0
  6
CONTINUOUS
 62
     7
 10
-117.7245
 20
-71.5213
 11
-117.7245
 21
-69.7213
  0
LINE
  8
0
  6
CONTINUOUS
 62
     7
 10
-119.3245
 20
-72.7213
 11
-119.3245
 21
-71.5213
  0
LINE
  8
0
  6
CONTINUOUS
 62
     7
 10
-118.9245
 20
-74.7213
 11
-118.9245
 21
-72.7213
  0
LINE
  8
0
  6
CONTINUOUS
 62
     7
 10
-119.5831
 20
-50.2213
 11
-115.5416
 21
-43.22131
  0
LINE
  8
0
  6
CONTINUOUS
 62
     7
 10
-115.5416
 20
-43.2213
 11
-119.5831
 21
-36.2213
  0
LINE
  8
0
  6
CONTINUOUS
 62
     7
 10
-119.5831
 20
-36.22129
 11
-127.666
 21
-36.22129
  0
LINE
  8
0
  6
CONTINUOUS
 62
     7
 10
-127.666
 20
-36.22129
 11
-131.7075
 21
-43.22129
  0
LINE
  8
0
  6
CONTINUOUS
 62
     7
 10
-131.7075
 20
-43.2213
 11
-127.666
 21
-50.2213
  0
LINE
  8
0
  6
CONTINUOUS
 62
     7
 10
-127.666
 20
-50.2213
 11
-119.5831
 21
-50.2213
  0
LINE
  8
0
  6
CENTER
 62
     2
 10
-123.6245
 20
-52.2213
 11
-123.6245
 21
-34.2213
  0
LINE
  8
0
  6
CENTER
 62
     2
 10
-132.6245
 20
-43.2213
 11
-114.6245
 21
-43.2213
  0
LINE
  8
0
  6
CENTER
 62
     2
 10
-183.0743
 20
-96.85463
 11
-183.0743
 21
-67.95728
  0
LINE
  8
0
  6
CONTINUOUS
 62
     7
 10
-190.0743
 20
-83.2213
 11
-176.0743
 21
-83.2213
  0
LINE
  8
0
  6
CONTINUOUS
 62
     7
 10
-176.0743
 20
-83.2213
 11
-176.0743
 21
-76.34651
  0
LINE
  8
0
  6
CONTINUOUS
 62
     7
 10
-183.0743
 20
-82.59608
 11
-183.0743
 21
-76.34651
  0
LINE
  8
0
  6
CONTINUOUS
 62
     7
 10
-190.0743
 20
-83.2213
 11
-190.0743
 21
-76.34651
  0
LINE
  8
0
  6
CONTINUOUS
 62
     7
 10
-189.4653
 20
-94.2213
 11
-189.8091
 21
-83.2213
  0
LINE
  8
0
  6
CONTINUOUS
 62
     7
 10
-188.6093
 20
-94.22131
 11
-188.9531
 21
-83.2213
  0
LINE
  8
0
  6
CONTINUOUS
 62
     7
 10
-177.5393
 20
-94.2213
 11
-177.1956
 21
-83.2213
  0
LINE
  8
0
  6
CONTINUOUS
 62
     7
 10
-176.6833
 20
-94.22131
 11
-176.3396
 21
-83.22131
  0
LINE
  8
0
  6
CONTINUOUS
 62
     7
 10
-189.4653
 20
-94.2213
 11
-176.6833
 21
-94.2213
  0
LINE
  8
0
  6
CONTINUOUS
 62
     7
 10
-188.0743
 20
-74.7213
 11
-178.0743
 21
-74.7213
  0
LINE
  8
0
  6
CONTINUOUS
 62
     7
 10
-188.9743
 20
-69.7213
 11
-177.1743
 21
-69.7213
  0
LINE
  8
0
  6
CONTINUOUS
 62
     7
 10
-187.7743
 20
-72.7213
 11
-178.3743
 21
-72.7213
  0
LINE
  8
0
  6
CONTINUOUS
 62
     7
 10
-188.9743
 20
-71.5213
 11
-177.1743
 21
-71.5213
  0
LINE
  8
0
  6
CONTINUOUS
 62
     7
 10
-177.1743
 20
-71.5213
 11
-177.1743
 21
-69.7213
  0
LINE
  8
0
  6
CONTINUOUS
 62
     7
 10
-188.9743
 20
-71.5213
 11
-188.9743
 21
-69.7213
  0
LINE
  8
0
  6
CONTINUOUS
 62
     7
 10
-178.7743
 20
-72.7213
 11
-178.7743
 21
-71.5213
  0
LINE
  8
0
  6
CONTINUOUS
 62
     7
 10
-178.3743
 20
-74.7213
 11
-178.3743
 21
-72.7213
  0
LINE
  8
0
  6
CONTINUOUS
 62
     7
 10
-187.3743
 20
-72.7213
 11
-187.3743
 21
-71.5213
  0
LINE
  8
0
  6
CONTINUOUS
 62
     7
 10
-187.7743
 20
-74.7213
 11
-187.7743
 21
-72.7213
  0
LINE
  8
0
  6
CONTINUOUS
 62
     7
 10
-176.0743
 20
-76.34651
 11
-178.0743
 21
-74.7213
  0
LINE
  8
0
  6
CONTINUOUS
 62
     7
 10
-190.0743
 20
-76.34651
 11
-188.0743
 21
-74.7213
  0
LINE
  8
0
  6
CENTER
 62
     2
 10
-123.6245
 20
-225.7505
 11
-123.6245
 21
-196.6871
  0
LINE
  8
0
  6
CONTINUOUS
 62
     7
 10
-128.3245
 20
-201.5005
 11
-118.9245
 21
-201.5005
  0
LINE
  8
0
  6
CONTINUOUS
 62
     7
 10
-127.9245
 20
-201.5005
 11
-127.9245
 21
-200.3006
  0
LINE
  8
0
  6
CONTINUOUS
 62
     7
 10
-129.5245
 20
-200.3006
 11
-117.7245
 21
-200.3006
  0
LINE
  8
0
  6
CONTINUOUS
 62
     7
 10
-129.5245
 20
-200.3006
 11
-129.5245
 21
-198.5005
  0
LINE
  8
0
  6
CONTINUOUS
 62
     7
 10
-129.5245
 20
-198.5005
 11
-117.7245
 21
-198.5005
  0
LINE
  8
0
  6
CONTINUOUS
 62
     7
 10
-117.7245
 20
-200.3006
 11
-117.7245
 21
-198.5005
  0
LINE
  8
0
  6
CONTINUOUS
 62
     7
 10
-119.3245
 20
-201.5005
 11
-119.3245
 21
-200.3006
  0
LINE
  8
0
  6
CONTINUOUS
 62
     7
 10
-128.532
 20
-204.7597
 11
-128.532
 21
-209.2414
  0
LINE
  8
0
  6
CONTINUOUS
 62
     7
 10
-118.7171
 20
-204.7597
 11
-118.7171
 21
-209.2414
  0
LINE
  8
0
  6
CONTINUOUS
 62
     7
 10
-113.8096
 20
-204.7597
 11
-113.8096
 21
-209.2414
  0
LINE
  8
0
  6
CONTINUOUS
 62
     7
 10
-115.1245
 20
-210.0006
 11
-113.8096
 21
-209.2414
  0
LINE
  8
0
  6
CONTINUOUS
 62
     7
 10
-132.1245
 20
-210.0005
 11
-133.4395
 21
-209.2413
  0
LINE
  8
0
  6
CONTINUOUS
 62
     7
 10
-118.6245
 20
-203.5005
 11
-113.8096
 21
-204.7597
  0
LINE
  8
0
  6
CONTINUOUS
 62
     7
 10
-128.6245
 20
-203.5005
 11
-133.4395
 21
-204.7597
  0
LINE
  8
0
  6
CONTINUOUS
 62
     7
 10
-133.4395
 20
-204.7597
 11
-133.4395
 21
-209.2414
  0
LINE
  8
0
  6
CONTINUOUS
 62
     7
 10
-128.3245
 20
-203.5005
 11
-128.3245
 21
-201.5005
  0
LINE
  8
0
  6
CONTINUOUS
 62
     7
 10
-128.6245
 20
-203.5005
 11
-118.6245
 21
-203.5005
  0
LINE
  8
0
  6
CONTINUOUS
 62
     7
 10
-118.9245
 20
-203.5005
 11
-118.9245
 21
-201.5005
  0
LINE
  8
0
  6
CONTINUOUS
 62
     7
 10
-131.7524
 20
-222.0005
 11
-115.4967
 21
-222.0005
  0
LINE
  8
0
  6
CONTINUOUS
 62
     7
 10
-130.8964
 20
-222.0005
 11
-131.2714
 21
-210.0005
  0
LINE
  8
0
  6
CONTINUOUS
 62
     7
 10
-131.7524
 20
-222.0005
 11
-132.1274
 21
-210.0005
  0
LINE
  8
0
  6
CONTINUOUS
 62
     7
 10
-116.3527
 20
-222.0006
 11
-115.9777
 21
-210.0005
  0
LINE
  8
0
  6
CONTINUOUS
 62
     7
 10
-115.4967
 20
-222.0005
 11
-115.1217
 21
-210.0005
  0
LINE
  8
0
  6
CONTINUOUS
 62
     7
 10
-132.1274
 20
-210.0005
 11
-115.1217
 21
-210.0005
  0
LINE
  8
0
  6
CONTINUOUS
 62
     7
 10
-128.532
 20
-179.0006
 11
-118.7171
 21
-179.0006
  0
LINE
  8
0
  6
CONTINUOUS
 62
     7
 10
-118.7171
 20
-179.0005
 11
-113.8096
 21
-170.5005
  0
LINE
  8
0
  6
CONTINUOUS
 62
     7
 10
-113.8096
 20
-170.5006
 11
-118.7171
 21
-162.0006
  0
LINE
  8
0
  6
CONTINUOUS
 62
     7
 10
-118.7171
 20
-162.0005
 11
-128.532
 21
-162.0005
  0
LINE
  8
0
  6
CONTINUOUS
 62
     7
 10
-128.5321
 20
-162.0005
 11
-133.4396
 21
-170.5005
  0
LINE
  8
0
  6
CONTINUOUS
 62
     7
 10
-133.4395
 20
-170.5006
 11
-128.5321
 21
-179.0006
  0
LINE
  8
0
  6
CENTER
 62
     2
 10
-134.6245
 20
-170.5005
 11
-112.6245
 21
-170.5005
  0
LINE
  8
0
  6
CENTER
 62
     2
 10
-123.6245
 20
-159.5005
 11
-123.6245
 21
-181.5005
  0
LINE
  8
0
  6
CENTER
 62
     2
 10
-183.0743
 20
-225.6339
 11
-183.0743
 21
-196.7365
  0
LINE
  8
0
  6
CONTINUOUS
 62
     7
 10
-188.9743
 20
-198.5005
 11
-177.1743
 21
-198.5005
  0
LINE
  8
0
  6
CONTINUOUS
 62
     7
 10
-187.7743
 20
-201.5005
 11
-178.3743
 21
-201.5005
  0
LINE
  8
0
  6
CONTINUOUS
 62
     7
 10
-188.9743
 20
-200.3006
 11
-177.1743
 21
-200.3006
  0
LINE
  8
0
  6
CONTINUOUS
 62
     7
 10
-177.1743
 20
-200.3006
 11
-177.1743
 21
-198.5005
  0
LINE
  8
0
  6
CONTINUOUS
 62
     7
 10
-188.9743
 20
-200.3006
 11
-188.9743
 21
-198.5005
  0
LINE
  8
0
  6
CONTINUOUS
 62
     7
 10
-178.7743
 20
-201.5005
 11
-178.7743
 21
-200.3006
  0
LINE
  8
0
  6
CONTINUOUS
 62
     7
 10
-187.3743
 20
-201.5005
 11
-187.3743
 21
-200.3006
  0
LINE
  8
0
  6
CONTINUOUS
 62
     7
 10
-188.0743
 20
-203.5005
 11
-178.0743
 21
-203.5005
  0
LINE
  8
0
  6
CONTINUOUS
 62
     7
 10
-178.3743
 20
-203.5005
 11
-178.3743
 21
-201.5005
  0
LINE
  8
0
  6
CONTINUOUS
 62
     7
 10
-187.7743
 20
-203.5005
 11
-187.7743
 21
-201.5005
  0
LINE
  8
0
  6
CONTINUOUS
 62
     7
 10
-174.5743
 20
-204.7597
 11
-174.5743
 21
-210.0928
  0
LINE
  8
0
  6
CONTINUOUS
 62
     7
 10
-191.5743
 20
-204.7597
 11
-191.5743
 21
-210.0928
  0
LINE
  8
0
  6
CONTINUOUS
 62
     7
 10
-183.0743
 20
-204.7597
 11
-183.0743
 21
-209.2414
  0
LINE
  8
0
  6
CONTINUOUS
 62
     7
 10
-178.0743
 20
-203.5005
 11
-174.5743
 21
-204.7597
  0
LINE
  8
0
  6
CONTINUOUS
 62
     7
 10
-188.0743
 20
-203.5005
 11
-191.5743
 21
-204.7597
  0
LINE
  8
0
  6
CONTINUOUS
 62
     7
 10
-191.2022
 20
-222.0005
 11
-174.9465
 21
-222.0005
  0
LINE
  8
0
  6
CONTINUOUS
 62
     7
 10
-191.2022
 20
-222.0005
 11
-191.5743
 21
-210.0928
  0
LINE
  8
0
  6
CONTINUOUS
 62
     7
 10
-190.3462
 20
-222.0006
 11
-190.7212
 21
-210.0006
  0
LINE
  8
0
  6
CONTINUOUS
 62
     7
 10
-191.5743
 20
-210.0005
 11
-174.5743
 21
-210.0005
  0
LINE
  8
0
  6
CONTINUOUS
 62
     7
 10
-175.8025
 20
-222.0005
 11
-175.4275
 21
-210.0005
  0
LINE
  8
0
  6
CONTINUOUS
 62
     7
 10
-174.9465
 20
-222.0005
 11
-174.5743
 21
-210.0928
  0
LINE
  8
0
  6
CENTER
 62
     2
 10
24.72488
 20
140.5117
 11
24.72488
 21
171.9011
  0
LINE
  8
0
  6
CONTINUOUS
 62
     7
 10
20.56758
 20
142.3372
 11
20.31617
 21
150.3372
  0
LINE
  8
0
  6
CONTINUOUS
 62
     7
 10
19.98658
 20
142.3372
 11
19.73517
 21
150.3372
  0
LINE
  8
0
  6
CONTINUOUS
 62
     7
 10
28.88218
 20
142.3372
 11
29.13359
 21
150.3372
  0
LINE
  8
0
  6
CONTINUOUS
 62
     7
 10
29.46318
 20
142.3372
 11
29.71459
 21
150.3372
  0
LINE
  8
0
  6
CONTINUOUS
 62
     7
 10
19.98658
 20
142.3372
 11
29.46318
 21
142.3372
  0
LINE
  8
0
  6
CONTINUOUS
 62
     7
 10
17.7249
 20
150.3372
 11
31.72489
 21
150.3372
  0
LINE
  8
0
  6
CONTINUOUS
 62
     7
 10
16.64198
 20
150.9624
 11
16.64198
 21
163.712
  0
LINE
  8
0
  6
CONTINUOUS
 62
     7
 10
20.68343
 20
150.9624
 11
20.68343
 21
163.712
  0
LINE
  8
0
  6
CONTINUOUS
 62
     7
 10
28.76634
 20
150.9624
 11
28.76634
 21
163.712
  0
LINE
  8
0
  6
CONTINUOUS
 62
     7
 10
32.80779
 20
150.9624
 11
32.80779
 21
163.712
  0
LINE
  8
0
  6
CONTINUOUS
 62
     7
 10
16.64198
 20
150.9624
 11
17.72489
 21
150.3372
  0
LINE
  8
0
  6
CONTINUOUS
 62
     7
 10
32.80779
 20
150.9624
 11
31.72488
 21
150.3372
  0
LINE
  8
0
  6
CONTINUOUS
 62
     7
 10
17.7249
 20
164.3372
 11
31.7249
 21
164.3372
  0
LINE
  8
0
  6
CONTINUOUS
 62
     7
 10
16.64198
 20
163.712
 11
17.72489
 21
164.3372
  0
LINE
  8
0
  6
CONTINUOUS
 62
     7
 10
32.80779
 20
163.712
 11
31.72488
 21
164.3372
  0
LINE
  8
0
  6
CONTINUOUS
 62
     7
 10
17.82488
 20
167.3372
 11
17.82488
 21
169.3372
  0
LINE
  8
0
  6
CONTINUOUS
 62
     7
 10
17.82488
 20
167.3372
 11
31.62488
 21
167.3372
  0
LINE
  8
0
  6
CONTINUOUS
 62
     7
 10
17.82488
 20
169.3372
 11
31.62488
 21
169.3372
  0
LINE
  8
0
  6
CONTINUOUS
 62
     7
 10
19.12488
 20
164.3372
 11
19.12488
 21
166.8372
  0
LINE
  8
0
  6
CONTINUOUS
 62
     7
 10
19.12488
 20
166.8372
 11
30.32488
 21
166.8372
  0
LINE
  8
0
  6
CONTINUOUS
 62
     7
 10
19.97488
 20
166.8372
 11
19.97488
 21
167.3372
  0
LINE
  8
0
  6
CONTINUOUS
 62
     7
 10
29.47488
 20
166.8372
 11
29.47488
 21
167.3372
  0
LINE
  8
0
  6
CONTINUOUS
 62
     7
 10
30.32488
 20
164.3372
 11
30.32488
 21
166.8372
  0
LINE
  8
0
  6
CONTINUOUS
 62
     7
 10
31.62488
 20
167.3372
 11
31.62488
 21
169.3372
  0
LINE
  8
0
  6
CONTINUOUS
 62
     7
 10
28.76634
 20
189.3372
 11
32.80779
 21
196.3372
  0
LINE
  8
0
  6
CONTINUOUS
 62
     7
 10
32.80779
 20
196.3372
 11
28.76635
 21
203.3372
  0
LINE
  8
0
  6
CONTINUOUS
 62
     7
 10
28.76634
 20
203.3372
 11
20.68344
 21
203.3372
  0
LINE
  8
0
  6
CONTINUOUS
 62
     7
 10
20.68342
 20
203.3372
 11
16.64197
 21
196.3372
  0
LINE
  8
0
  6
CONTINUOUS
 62
     7
 10
16.64199
 20
196.3372
 11
20.68344
 21
189.3372
  0
LINE
  8
0
  6
CONTINUOUS
 62
     7
 10
20.68343
 20
189.3372
 11
28.76633
 21
189.3372
  0
LINE
  8
0
  6
CENTER
 62
     2
 10
24.72488
 20
187.3372
 11
24.72488
 21
205.3372
  0
LINE
  8
0
  6
CENTER
 62
     2
 10
15.72488
 20
196.3372
 11
33.72488
 21
196.3372
  0
LINE
  8
0
  6
CENTER
 62
     2
 10
-34.72491
 20
140.5117
 11
-34.72491
 21
171.818
  0
LINE
  8
0
  6
CONTINUOUS
 62
     7
 10
-30.5676
 20
142.3372
 11
-30.31619
 21
150.3372
  0
LINE
  8
0
  6
CONTINUOUS
 62
     7
 10
-29.98661
 20
142.3372
 11
-29.7352
 21
150.3372
  0
LINE
  8
0
  6
CONTINUOUS
 62
     7
 10
-39.46324
 20
142.3372
 11
-39.71465
 21
150.3372
  0
LINE
  8
0
  6
CONTINUOUS
 62
     7
 10
-38.88223
 20
142.3372
 11
-39.13364
 21
150.3372
  0
LINE
  8
0
  6
CONTINUOUS
 62
     7
 10
-39.46322
 20
142.3372
 11
-29.98662
 21
142.3372
  0
LINE
  8
0
  6
CONTINUOUS
 62
     7
 10
-41.72491
 20
150.3372
 11
-27.72491
 21
150.3372
  0
LINE
  8
0
  6
CONTINUOUS
 62
     7
 10
-34.72491
 20
150.9624
 11
-34.72491
 21
163.712
  0
LINE
  8
0
  6
CONTINUOUS
 62
     7
 10
-41.72491
 20
150.3372
 11
-41.72491
 21
164.3372
  0
LINE
  8
0
  6
CONTINUOUS
 62
     7
 10
-41.62492
 20
169.3372
 11
-27.82491
 21
169.3372
  0
LINE
  8
0
  6
CONTINUOUS
 62
     7
 10
-41.62492
 20
167.3372
 11
-27.82491
 21
167.3372
  0
LINE
  8
0
  6
CONTINUOUS
 62
     7
 10
-40.32491
 20
166.8372
 11
-29.12491
 21
166.8372
  0
LINE
  8
0
  6
CONTINUOUS
 62
     7
 10
-27.82491
 20
167.3372
 11
-27.82491
 21
169.3372
  0
LINE
  8
0
  6
CONTINUOUS
 62
     7
 10
-29.12491
 20
164.3372
 11
-29.12491
 21
166.8372
  0
LINE
  8
0
  6
CONTINUOUS
 62
     7
 10
-40.32491
 20
164.3372
 11
-40.32491
 21
166.8372
  0
LINE
  8
0
  6
CONTINUOUS
 62
     7
 10
-41.62492
 20
167.3372
 11
-41.62492
 21
169.3372
  0
LINE
  8
0
  6
CONTINUOUS
 62
     7
 10
-29.97491
 20
166.8372
 11
-29.97491
 21
167.3372
  0
LINE
  8
0
  6
CONTINUOUS
 62
     7
 10
-39.47491
 20
166.8372
 11
-39.47491
 21
167.3372
  0
LINE
  8
0
  6
CONTINUOUS
 62
     7
 10
-41.72491
 20
164.3372
 11
-27.72491
 21
164.3372
  0
LINE
  8
0
  6
CONTINUOUS
 62
     7
 10
-27.72492
 20
150.3372
 11
-27.72492
 21
164.3372
  0
LINE
  8
0
  6
CENTER
 62
     2
 10
24.72488
 20
-32.90182
 11
24.72488
 21
3.19543
  0
LINE
  8
0
  6
CONTINUOUS
 62
     7
 10
17.7249
 20
-18.36848
 11
31.72489
 21
-18.36848
  0
LINE
  8
0
  6
CONTINUOUS
 62
     7
 10
16.64198
 20
-17.74326
 11
16.64198
 21
-8.99371
  0
LINE
  8
0
  6
CONTINUOUS
 62
     7
 10
20.68343
 20
-17.74327
 11
20.68343
 21
-8.9937
  0
LINE
  8
0
  6
CONTINUOUS
 62
     7
 10
28.76634
 20
-17.74327
 11
28.76634
 21
-8.9937
  0
LINE
  8
0
  6
CONTINUOUS
 62
     7
 10
32.80779
 20
-17.74327
 11
32.80779
 21
-11.49371
  0
LINE
  8
0
  6
CONTINUOUS
 62
     7
 10
16.64198
 20
-17.74326
 11
17.72489
 21
-18.36848
  0
LINE
  8
0
  6
CONTINUOUS
 62
     7
 10
32.80779
 20
-17.74327
 11
31.72488
 21
-18.36849
  0
LINE
  8
0
  6
CONTINUOUS
 62
     7
 10
17.7249
 20
-8.36848
 11
31.7249
 21
-8.36848
  0
LINE
  8
0
  6
CONTINUOUS
 62
     7
 10
16.64199
 20
-8.99372
 11
17.7249
 21
-8.3685
  0
LINE
  8
0
  6
CONTINUOUS
 62
     7
 10
32.80779
 20
-8.9937
 11
32.80779
 21
-15.24326
  0
LINE
  8
0
  6
CONTINUOUS
 62
     7
 10
32.8078
 20
-8.99369
 11
31.72489
 21
-8.36847
  0
LINE
  8
0
  6
CONTINUOUS
 62
     7
 10
17.82488
 20
-5.36848
 11
17.82488
 21
-3.36848
  0
LINE
  8
0
  6
CONTINUOUS
 62
     7
 10
17.82488
 20
-5.36848
 11
31.62488
 21
-5.36848
  0
LINE
  8
0
  6
CONTINUOUS
 62
     7
 10
17.82488
 20
-3.36848
 11
31.62488
 21
-3.36848
  0
LINE
  8
0
  6
CONTINUOUS
 62
     7
 10
19.12488
 20
-8.36848
 11
19.12488
 21
-5.86848
  0
LINE
  8
0
  6
CONTINUOUS
 62
     7
 10
19.12488
 20
-5.86848
 11
30.32488
 21
-5.86848
  0
LINE
  8
0
  6
CONTINUOUS
 62
     7
 10
19.97488
 20
-5.86848
 11
19.97488
 21
-5.36848
  0
LINE
  8
0
  6
CONTINUOUS
 62
     7
 10
29.47488
 20
-5.86848
 11
29.47488
 21
-5.36848
  0
LINE
  8
0
  6
CONTINUOUS
 62
     7
 10
30.32488
 20
-8.36848
 11
30.32488
 21
-5.86848
  0
LINE
  8
0
  6
CONTINUOUS
 62
     7
 10
31.62488
 20
-5.36848
 11
31.62488
 21
-3.36848
  0
LINE
  8
0
  6
CONTINUOUS
 62
     7
 10
18.3339
 20
-29.36848
 11
17.99013
 21
-18.36848
  0
LINE
  8
0
  6
CONTINUOUS
 62
     7
 10
19.18989
 20
-29.36849
 11
18.84613
 21
-18.36849
  0
LINE
  8
0
  6
CONTINUOUS
 62
     7
 10
30.25987
 20
-29.36848
 11
30.60364
 21
-18.36848
  0
LINE
  8
0
  6
CONTINUOUS
 62
     7
 10
31.11587
 20
-29.36848
 11
31.45963
 21
-18.36849
  0
LINE
  8
0
  6
CONTINUOUS
 62
     7
 10
18.33389
 20
-29.36848
 11
31.11588
 21
-29.36848
  0
LINE
  8
0
  6
CONTINUOUS
 62
     7
 10
28.76634
 20
19.63152
 11
32.80779
 21
26.63151
  0
LINE
  8
0
  6
CONTINUOUS
 62
     7
 10
32.8078
 20
26.63153
 11
28.76635
 21
33.63152
  0
LINE
  8
0
  6
CONTINUOUS
 62
     7
 10
28.76633
 20
33.63152
 11
20.68343
 21
33.63152
  0
LINE
  8
0
  6
CONTINUOUS
 62
     7
 10
20.68341
 20
33.63154
 11
16.64196
 21
26.63154
  0
LINE
  8
0
  6
CONTINUOUS
 62
     7
 10
16.64199
 20
26.63153
 11
20.68344
 21
19.63153
  0
LINE
  8
0
  6
CONTINUOUS
 62
     7
 10
20.68343
 20
19.63151
 11
28.76633
 21
19.63151
  0
LINE
  8
0
  6
CENTER
 62
     2
 10
24.72488
 20
17.63152
 11
24.72488
 21
35.63152
  0
LINE
  8
0
  6
CENTER
 62
     2
 10
15.72488
 20
26.63152
 11
33.72488
 21
26.63152
  0
LINE
  8
0
  6
CENTER
 62
     2
 10
-34.72491
 20
-32.76849
 11
-34.72491
 21
3.11234
  0
LINE
  8
0
  6
CONTINUOUS
 62
     7
 10
-41.72491
 20
-18.36848
 11
-27.72491
 21
-18.36848
  0
LINE
  8
0
  6
CONTINUOUS
 62
     7
 10
-34.72491
 20
-17.74327
 11
-34.72491
 21
-8.9937
  0
LINE
  8
0
  6
CONTINUOUS
 62
     7
 10
-41.72491
 20
-18.36848
 11
-41.72491
 21
-8.36848
  0
LINE
  8
0
  6
CONTINUOUS
 62
     7
 10
-41.62492
 20
-3.36848
 11
-27.82491
 21
-3.36848
  0
LINE
  8
0
  6
CONTINUOUS
 62
     7
 10
-41.62492
 20
-5.36848
 11
-27.82491
 21
-5.36848
  0
LINE
  8
0
  6
CONTINUOUS
 62
     7
 10
-40.32491
 20
-5.86848
 11
-29.12491
 21
-5.86848
  0
LINE
  8
0
  6
CONTINUOUS
 62
     7
 10
-27.82491
 20
-5.36848
 11
-27.82491
 21
-3.36848
  0
LINE
  8
0
  6
CONTINUOUS
 62
     7
 10
-29.12491
 20
-8.36848
 11
-29.12491
 21
-5.86848
  0
LINE
  8
0
  6
CONTINUOUS
 62
     7
 10
-40.32491
 20
-8.36848
 11
-40.32491
 21
-5.86848
  0
LINE
  8
0
  6
CONTINUOUS
 62
     7
 10
-41.62492
 20
-5.36848
 11
-41.62492
 21
-3.36848
  0
LINE
  8
0
  6
CONTINUOUS
 62
     7
 10
-29.97491
 20
-5.86848
 11
-29.97491
 21
-5.36848
  0
LINE
  8
0
  6
CONTINUOUS
 62
     7
 10
-39.47491
 20
-5.86848
 11
-39.47491
 21
-5.36848
  0
LINE
  8
0
  6
CONTINUOUS
 62
     7
 10
-41.72491
 20
-8.36848
 11
-27.72491
 21
-8.36848
  0
LINE
  8
0
  6
CONTINUOUS
 62
     7
 10
-27.72492
 20
-18.36848
 11
-27.72492
 21
-8.36848
  0
LINE
  8
0
  6
CONTINUOUS
 62
     7
 10
-41.11589
 20
-29.36848
 11
-41.45966
 21
-18.36849
  0
LINE
  8
0
  6
CONTINUOUS
 62
     7
 10
-40.25989
 20
-29.36849
 11
-40.60366
 21
-18.36849
  0
LINE
  8
0
  6
CONTINUOUS
 62
     7
 10
-29.18992
 20
-29.36848
 11
-28.84615
 21
-18.36848
  0
LINE
  8
0
  6
CONTINUOUS
 62
     7
 10
-28.33393
 20
-29.36849
 11
-27.99016
 21
-18.36849
  0
LINE
  8
0
  6
CONTINUOUS
 62
     7
 10
-41.11591
 20
-29.36848
 11
-28.33393
 21
-29.36848
  0
LINE
  8
0
  6
CENTER
 62
     2
 10
24.72488
 20
-203.3241
 11
24.72488
 21
-174.2607
  0
LINE
  8
0
  6
CONTINUOUS
 62
     7
 10
16.222
 20
-187.5741
 11
33.22776
 21
-187.5741
  0
LINE
  8
0
  6
CONTINUOUS
 62
     7
 10
19.81738
 20
-182.3333
 11
19.81738
 21
-186.815
  0
LINE
  8
0
  6
CONTINUOUS
 62
     7
 10
34.53984
 20
-182.3333
 11
34.53984
 21
-186.815
  0
LINE
  8
0
  6
CONTINUOUS
 62
     7
 10
33.22488
 20
-187.5741
 11
34.53983
 21
-186.815
  0
LINE
  8
0
  6
CONTINUOUS
 62
     7
 10
16.22488
 20
-187.5741
 11
14.90993
 21
-186.8149
  0
LINE
  8
0
  6
CONTINUOUS
 62
     7
 10
14.90993
 20
-182.3333
 11
14.90993
 21
-186.815
  0
LINE
  8
0
  6
CONTINUOUS
 62
     7
 10
17.82488
 20
-178.0741
 11
17.82488
 21
-176.0741
  0
LINE
  8
0
  6
CONTINUOUS
 62
     7
 10
17.82488
 20
-178.0741
 11
31.62489
 21
-178.0741
  0
LINE
  8
0
  6
CONTINUOUS
 62
     7
 10
17.82488
 20
-176.0741
 11
31.62489
 21
-176.0741
  0
LINE
  8
0
  6
CONTINUOUS
 62
     7
 10
19.12489
 20
-181.0741
 11
19.12489
 21
-178.5741
  0
LINE
  8
0
  6
CONTINUOUS
 62
     7
 10
19.12489
 20
-178.5741
 11
30.32488
 21
-178.5741
  0
LINE
  8
0
  6
CONTINUOUS
 62
     7
 10
19.97488
 20
-178.5741
 11
19.97488
 21
-178.0741
  0
LINE
  8
0
  6
CONTINUOUS
 62
     7
 10
29.47488
 20
-178.5741
 11
29.47488
 21
-178.0741
  0
LINE
  8
0
  6
CONTINUOUS
 62
     7
 10
30.32488
 20
-181.0741
 11
30.32488
 21
-178.5741
  0
LINE
  8
0
  6
CONTINUOUS
 62
     7
 10
31.62489
 20
-178.0741
 11
31.62489
 21
-176.0741
  0
LINE
  8
0
  6
CONTINUOUS
 62
     7
 10
30.92488
 20
-181.0741
 11
34.53984
 21
-182.3333
  0
LINE
  8
0
  6
CONTINUOUS
 62
     7
 10
18.52488
 20
-181.0742
 11
14.90993
 21
-182.3333
  0
LINE
  8
0
  6
CONTINUOUS
 62
     7
 10
29.63239
 20
-182.3333
 11
29.63239
 21
-186.815
  0
LINE
  8
0
  6
CONTINUOUS
 62
     7
 10
18.52489
 20
-181.0741
 11
30.92488
 21
-181.0741
  0
LINE
  8
0
  6
CONTINUOUS
 62
     7
 10
16.59702
 20
-199.5741
 11
32.85275
 21
-199.5741
  0
LINE
  8
0
  6
CONTINUOUS
 62
     7
 10
17.45302
 20
-199.5741
 11
17.078
 21
-187.5741
  0
LINE
  8
0
  6
CONTINUOUS
 62
     7
 10
16.59702
 20
-199.5741
 11
16.222
 21
-187.5741
  0
LINE
  8
0
  6
CONTINUOUS
 62
     7
 10
31.99675
 20
-199.5741
 11
32.37177
 21
-187.5741
  0
LINE
  8
0
  6
CONTINUOUS
 62
     7
 10
32.85275
 20
-199.5741
 11
33.22776
 21
-187.5741
  0
LINE
  8
0
  6
CONTINUOUS
 62
     7
 10
19.81741
 20
-151.5742
 11
29.63237
 21
-151.5742
  0
LINE
  8
0
  6
CONTINUOUS
 62
     7
 10
29.63236
 20
-151.5741
 11
34.53984
 21
-143.0741
  0
LINE
  8
0
  6
CONTINUOUS
 62
     7
 10
34.53984
 20
-143.0741
 11
29.63238
 21
-134.5742
  0
LINE
  8
0
  6
CONTINUOUS
 62
     7
 10
29.63237
 20
-134.5741
 11
19.81742
 21
-134.5741
  0
LINE
  8
0
  6
CONTINUOUS
 62
     7
 10
19.81736
 20
-134.5741
 11
14.90988
 21
-143.0741
  0
LINE
  8
0
  6
CONTINUOUS
 62
     7
 10
14.90993
 20
-143.0742
 11
19.8174
 21
-151.5742
  0
LINE
  8
0
  6
CENTER
 62
     2
 10
13.72488
 20
-143.0741
 11
35.72488
 21
-143.0741
  0
LINE
  8
0
  6
CENTER
 62
     2
 10
24.72488
 20
-132.0741
 11
24.72488
 21
-154.0741
  0
LINE
  8
0
  6
CENTER
 62
     2
 10
-34.72491
 20
-203.2075
 11
-34.72491
 21
-174.3101
  0
LINE
  8
0
  6
CONTINUOUS
 62
     7
 10
-43.22491
 20
-187.5741
 11
-26.22491
 21
-187.5741
  0
LINE
  8
0
  6
CONTINUOUS
 62
     7
 10
-26.22491
 20
-182.3333
 11
-26.22491
 21
-187.6663
  0
LINE
  8
0
  6
CONTINUOUS
 62
     7
 10
-43.22491
 20
-182.3333
 11
-43.22491
 21
-187.6665
  0
LINE
  8
0
  6
CONTINUOUS
 62
     7
 10
-34.72491
 20
-182.3333
 11
-34.72491
 21
-186.815
  0
LINE
  8
0
  6
CONTINUOUS
 62
     7
 10
-40.92491
 20
-181.0741
 11
-28.52491
 21
-181.0741
  0
LINE
  8
0
  6
CONTINUOUS
 62
     7
 10
-40.32491
 20
-178.5741
 11
-29.12492
 21
-178.5741
  0
LINE
  8
0
  6
CONTINUOUS
 62
     7
 10
-41.62492
 20
-178.0741
 11
-27.82491
 21
-178.0741
  0
LINE
  8
0
  6
CONTINUOUS
 62
     7
 10
-39.47491
 20
-178.5741
 11
-39.47491
 21
-178.0741
  0
LINE
  8
0
  6
CONTINUOUS
 62
     7
 10
-41.62492
 20
-178.0741
 11
-41.62492
 21
-176.0741
  0
LINE
  8
0
  6
CONTINUOUS
 62
     7
 10
-41.62492
 20
-176.0741
 11
-27.82491
 21
-176.0741
  0
LINE
  8
0
  6
CONTINUOUS
 62
     7
 10
-27.82491
 20
-178.0741
 11
-27.82491
 21
-176.0741
  0
LINE
  8
0
  6
CONTINUOUS
 62
     7
 10
-29.97491
 20
-178.5741
 11
-29.97491
 21
-178.0741
  0
LINE
  8
0
  6
CONTINUOUS
 62
     7
 10
-29.12492
 20
-181.0741
 11
-29.12492
 21
-178.5741
  0
LINE
  8
0
  6
CONTINUOUS
 62
     7
 10
-40.32491
 20
-181.0741
 11
-40.32491
 21
-178.5741
  0
LINE
  8
0
  6
CONTINUOUS
 62
     7
 10
-40.9249
 20
-181.0741
 11
-43.2249
 21
-182.3333
  0
LINE
  8
0
  6
CONTINUOUS
 62
     7
 10
-28.52491
 20
-181.0741
 11
-26.22491
 21
-182.3333
  0
LINE
  8
0
  6
CONTINUOUS
 62
     7
 10
-42.85278
 20
-199.5741
 11
-26.59705
 21
-199.5741
  0
LINE
  8
0
  6
CONTINUOUS
 62
     7
 10
-42.85277
 20
-199.5741
 11
-43.22491
 21
-187.6664
  0
LINE
  8
0
  6
CONTINUOUS
 62
     7
 10
-41.99678
 20
-199.5741
 11
-42.3718
 21
-187.5741
  0
LINE
  8
0
  6
CONTINUOUS
 62
     7
 10
-27.45305
 20
-199.5741
 11
-27.07803
 21
-187.5741
  0
LINE
  8
0
  6
CONTINUOUS
 62
     7
 10
-26.59705
 20
-199.5741
 11
-26.22491
 21
-187.6664
  0
LINE
  8
0
  6
CENTER
 62
     2
 10
173.0743
 20
136.8038
 11
173.0743
 21
172.9011
  0
LINE
  8
0
  6
CONTINUOUS
 62
     7
 10
166.6833
 20
140.3372
 11
166.3396
 21
151.3372
  0
LINE
  8
0
  6
CONTINUOUS
 62
     7
 10
167.5393
 20
140.3372
 11
167.1955
 21
151.3372
  0
LINE
  8
0
  6
CONTINUOUS
 62
     7
 10
178.6093
 20
140.3372
 11
178.9531
 21
151.3372
  0
LINE
  8
0
  6
CONTINUOUS
 62
     7
 10
179.4653
 20
140.3372
 11
179.8091
 21
151.3372
  0
LINE
  8
0
  6
CONTINUOUS
 62
     7
 10
166.6833
 20
140.3372
 11
179.4653
 21
140.3372
  0
LINE
  8
0
  6
CONTINUOUS
 62
     7
 10
164.5743
 20
151.3372
 11
181.5743
 21
151.3372
  0
LINE
  8
0
  6
CONTINUOUS
 62
     7
 10
168.1668
 20
163.578
 11
168.1668
 21
152.0964
  0
LINE
  8
0
  6
CONTINUOUS
 62
     7
 10
182.8893
 20
163.578
 11
182.8893
 21
152.0964
  0
LINE
  8
0
  6
CONTINUOUS
 62
     7
 10
181.5743
 20
151.3372
 11
182.8893
 21
152.0964
  0
LINE
  8
0
  6
CONTINUOUS
 62
     7
 10
164.5743
 20
151.3372
 11
163.2593
 21
152.0963
  0
LINE
  8
0
  6
CONTINUOUS
 62
     7
 10
163.2594
 20
163.578
 11
163.2594
 21
152.0964
  0
LINE
  8
0
  6
CONTINUOUS
 62
     7
 10
177.9818
 20
163.578
 11
177.9818
 21
152.0964
  0
LINE
  8
0
  6
CONTINUOUS
 62
     7
 10
164.5743
 20
164.3372
 11
181.5743
 21
164.3372
  0
LINE
  8
0
  6
CONTINUOUS
 62
     7
 10
164.5743
 20
164.3372
 11
163.2593
 21
163.578
  0
LINE
  8
0
  6
CONTINUOUS
 62
     7
 10
181.5743
 20
164.3372
 11
182.8892
 21
163.578
  0
LINE
  8
0
  6
CONTINUOUS
 62
     7
 10
166.0743
 20
164.3372
 11
166.0743
 21
166.8372
  0
LINE
  8
0
  6
CONTINUOUS
 62
     7
 10
164.6743
 20
169.3372
 11
181.4743
 21
169.3372
  0
LINE
  8
0
  6
CONTINUOUS
 62
     7
 10
164.6743
 20
167.1372
 11
164.6743
 21
169.3372
  0
LINE
  8
0
  6
CONTINUOUS
 62
     7
 10
181.4743
 20
167.1372
 11
181.4743
 21
169.3372
  0
LINE
  8
0
  6
CONTINUOUS
 62
     7
 10
164.6743
 20
167.1372
 11
181.4743
 21
167.1372
  0
LINE
  8
0
  6
CONTINUOUS
 62
     7
 10
166.0743
 20
166.8372
 11
180.0743
 21
166.8372
  0
LINE
  8
0
  6
CONTINUOUS
 62
     7
 10
180.0743
 20
164.3372
 11
180.0743
 21
166.8372
  0
LINE
  8
0
  6
CONTINUOUS
 62
     7
 10
179.0743
 20
166.8372
 11
179.0743
 21
167.1372
  0
LINE
  8
0
  6
CONTINUOUS
 62
     7
 10
167.0743
 20
166.8372
 11
167.0743
 21
167.1372
  0
LINE
  8
0
  6
CONTINUOUS
 62
     7
 10
168.1669
 20
187.8373
 11
177.9818
 21
187.8373
  0
LINE
  8
0
  6
CONTINUOUS
 62
     7
 10
177.9818
 20
187.8372
 11
182.8893
 21
196.3372
  0
LINE
  8
0
  6
CONTINUOUS
 62
     7
 10
182.8893
 20
196.3372
 11
177.9818
 21
204.8372
  0
LINE
  8
0
  6
CONTINUOUS
 62
     7
 10
177.9818
 20
204.8373
 11
168.1669
 21
204.8373
  0
LINE
  8
0
  6
CONTINUOUS
 62
     7
 10
168.1668
 20
204.8373
 11
163.2593
 21
196.3373
  0
LINE
  8
0
  6
CONTINUOUS
 62
     7
 10
163.2594
 20
196.3372
 11
168.1669
 21
187.8372
  0
LINE
  8
0
  6
CENTER
 62
     2
 10
162.0743
 20
196.3372
 11
184.0743
 21
196.3372
  0
LINE
  8
0
  6
CENTER
 62
     2
 10
173.0743
 20
207.3372
 11
173.0743
 21
185.3372
  0
LINE
  8
0
  6
CENTER
 62
     2
 10
113.6245
 20
136.9372
 11
113.6245
 21
172.818
  0
LINE
  8
0
  6
CONTINUOUS
 62
     7
 10
107.2335
 20
140.3372
 11
106.8898
 21
151.3372
  0
LINE
  8
0
  6
CONTINUOUS
 62
     7
 10
108.0895
 20
140.3372
 11
107.7458
 21
151.3372
  0
LINE
  8
0
  6
CONTINUOUS
 62
     7
 10
119.1595
 20
140.3372
 11
119.5033
 21
151.3372
  0
LINE
  8
0
  6
CONTINUOUS
 62
     7
 10
120.0155
 20
140.3372
 11
120.3593
 21
151.3372
  0
LINE
  8
0
  6
CONTINUOUS
 62
     7
 10
107.2335
 20
140.3372
 11
120.0155
 21
140.3372
  0
LINE
  8
0
  6
CONTINUOUS
 62
     7
 10
105.1245
 20
151.3372
 11
122.1245
 21
151.3372
  0
LINE
  8
0
  6
CONTINUOUS
 62
     7
 10
122.1245
 20
164.3372
 11
122.1245
 21
151.3372
  0
LINE
  8
0
  6
CONTINUOUS
 62
     7
 10
105.1245
 20
164.3372
 11
105.1245
 21
151.3372
  0
LINE
  8
0
  6
CONTINUOUS
 62
     7
 10
113.6245
 20
163.578
 11
113.6245
 21
152.0964
  0
LINE
  8
0
  6
CONTINUOUS
 62
     7
 10
105.2245
 20
169.3372
 11
122.0245
 21
169.3372
  0
LINE
  8
0
  6
CONTINUOUS
 62
     7
 10
105.2245
 20
167.1372
 11
105.2245
 21
169.3372
  0
LINE
  8
0
  6
CONTINUOUS
 62
     7
 10
122.0245
 20
167.1372
 11
122.0245
 21
169.3372
  0
LINE
  8
0
  6
CONTINUOUS
 62
     7
 10
105.2245
 20
167.1372
 11
122.0245
 21
167.1372
  0
LINE
  8
0
  6
CONTINUOUS
 62
     7
 10
106.6245
 20
166.8372
 11
120.6245
 21
166.8372
  0
LINE
  8
0
  6
CONTINUOUS
 62
     7
 10
120.6245
 20
164.3372
 11
120.6245
 21
166.8372
  0
LINE
  8
0
  6
CONTINUOUS
 62
     7
 10
119.6245
 20
166.8372
 11
119.6245
 21
167.1372
  0
LINE
  8
0
  6
CONTINUOUS
 62
     7
 10
107.6245
 20
166.8372
 11
107.6245
 21
167.1372
  0
LINE
  8
0
  6
CONTINUOUS
 62
     7
 10
106.6245
 20
164.3372
 11
106.6245
 21
166.8372
  0
LINE
  8
0
  6
CONTINUOUS
 62
     7
 10
105.1245
 20
164.3372
 11
122.1245
 21
164.3372
  0
LINE
  8
0
  6
CENTER
 62
     2
 10
173.0743
 20
-33.61848
 11
173.0743
 21
1.38152
  0
LINE
  8
0
  6
CONTINUOUS
 62
     7
 10
164.5714
 20
-17.86848
 11
181.5772
 21
-17.86848
  0
LINE
  8
0
  6
CONTINUOUS
 62
     7
 10
168.1668
 20
-7.12768
 11
168.1668
 21
-17.10931
  0
LINE
  8
0
  6
CONTINUOUS
 62
     7
 10
182.8893
 20
-7.12768
 11
182.8893
 21
-17.10929
  0
LINE
  8
0
  6
CONTINUOUS
 62
     7
 10
181.5743
 20
-17.86848
 11
182.8893
 21
-17.10929
  0
LINE
  8
0
  6
CONTINUOUS
 62
     7
 10
164.5743
 20
-17.86848
 11
163.2593
 21
-17.10929
  0
LINE
  8
0
  6
CONTINUOUS
 62
     7
 10
163.2594
 20
-7.12767
 11
163.2594
 21
-17.1093
  0
LINE
  8
0
  6
CONTINUOUS
 62
     7
 10
177.9818
 20
-7.12766
 11
177.9818
 21
-17.10931
  0
LINE
  8
0
  6
CONTINUOUS
 62
     7
 10
164.5743
 20
-6.36848
 11
181.5743
 21
-6.36848
  0
LINE
  8
0
  6
CONTINUOUS
 62
     7
 10
164.5743
 20
-6.36848
 11
163.2594
 21
-7.12767
  0
LINE
  8
0
  6
CONTINUOUS
 62
     7
 10
181.5743
 20
-6.3685
 11
182.8893
 21
-7.1277
  0
LINE
  8
0
  6
CONTINUOUS
 62
     7
 10
166.0743
 20
-6.36848
 11
166.0743
 21
-3.86848
  0
LINE
  8
0
  6
CONTINUOUS
 62
     7
 10
164.6743
 20
-1.36848
 11
181.4743
 21
-1.36848
  0
LINE
  8
0
  6
CONTINUOUS
 62
     7
 10
164.6743
 20
-3.56849
 11
164.6743
 21
-1.36848
  0
LINE
  8
0
  6
CONTINUOUS
 62
     7
 10
181.4743
 20
-3.56849
 11
181.4743
 21
-1.36848
  0
LINE
  8
0
  6
CONTINUOUS
 62
     7
 10
164.6743
 20
-3.56849
 11
181.4743
 21
-3.56849
  0
LINE
  8
0
  6
CONTINUOUS
 62
     7
 10
166.0743
 20
-3.86848
 11
180.0743
 21
-3.86848
  0
LINE
  8
0
  6
CONTINUOUS
 62
     7
 10
180.0743
 20
-6.36848
 11
180.0743
 21
-3.86848
  0
LINE
  8
0
  6
CONTINUOUS
 62
     7
 10
179.0743
 20
-3.86848
 11
179.0743
 21
-3.56849
  0
LINE
  8
0
  6
CONTINUOUS
 62
     7
 10
167.0743
 20
-3.86848
 11
167.0743
 21
-3.56849
  0
LINE
  8
0
  6
CONTINUOUS
 62
     7
 10
164.9464
 20
-29.86848
 11
181.2022
 21
-29.86848
  0
LINE
  8
0
  6
CONTINUOUS
 62
     7
 10
165.8024
 20
-29.86848
 11
165.4274
 21
-17.86848
  0
LINE
  8
0
  6
CONTINUOUS
 62
     7
 10
164.9464
 20
-29.86849
 11
164.5714
 21
-17.86848
  0
LINE
  8
0
  6
CONTINUOUS
 62
     7
 10
180.3462
 20
-29.86848
 11
180.7212
 21
-17.86848
  0
LINE
  8
0
  6
CONTINUOUS
 62
     7
 10
181.2022
 20
-29.86848
 11
181.5772
 21
-17.86848
  0
LINE
  8
0
  6
CONTINUOUS
 62
     7
 10
168.1669
 20
18.13161
 11
177.9818
 21
18.1316
  0
LINE
  8
0
  6
CONTINUOUS
 62
     7
 10
177.9818
 20
18.13152
 11
182.8893
 21
26.63151
  0
LINE
  8
0
  6
CONTINUOUS
 62
     7
 10
182.8893
 20
26.63153
 11
177.9818
 21
35.13153
  0
LINE
  8
0
  6
CONTINUOUS
 62
     7
 10
177.9818
 20
35.13167
 11
168.1669
 21
35.13167
  0
LINE
  8
0
  6
CONTINUOUS
 62
     7
 10
168.1668
 20
35.13159
 11
163.2593
 21
26.63159
  0
LINE
  8
0
  6
CONTINUOUS
 62
     7
 10
163.2594
 20
26.63154
 11
168.1669
 21
18.13154
  0
LINE
  8
0
  6
CENTER
 62
     2
 10
162.0743
 20
26.63152
 11
184.0743
 21
26.63152
  0
LINE
  8
0
  6
CENTER
 62
     2
 10
173.0743
 20
37.63152
 11
173.0743
 21
15.63152
  0
LINE
  8
0
  6
CENTER
 62
     2
 10
113.6245
 20
-33.50182
 11
113.6245
 21
1.38152
  0
LINE
  8
0
  6
CONTINUOUS
 62
     7
 10
105.1245
 20
-17.86848
 11
122.1245
 21
-17.86848
  0
LINE
  8
0
  6
CONTINUOUS
 62
     7
 10
122.1245
 20
-6.36848
 11
122.1245
 21
-17.96076
  0
LINE
  8
0
  6
CONTINUOUS
 62
     7
 10
105.1245
 20
-6.36848
 11
105.1245
 21
-17.96082
  0
LINE
  8
0
  6
CONTINUOUS
 62
     7
 10
113.6245
 20
-7.12767
 11
113.6245
 21
-17.1093
  0
LINE
  8
0
  6
CONTINUOUS
 62
     7
 10
105.2245
 20
-1.36848
 11
122.0245
 21
-1.36848
  0
LINE
  8
0
  6
CONTINUOUS
 62
     7
 10
105.2245
 20
-3.56849
 11
105.2245
 21
-1.36848
  0
LINE
  8
0
  6
CONTINUOUS
 62
     7
 10
122.0245
 20
-3.56849
 11
122.0245
 21
-1.36848
  0
LINE
  8
0
  6
CONTINUOUS
 62
     7
 10
105.2245
 20
-3.56849
 11
122.0245
 21
-3.56849
  0
LINE
  8
0
  6
CONTINUOUS
 62
     7
 10
106.6245
 20
-3.86848
 11
120.6245
 21
-3.86848
  0
LINE
  8
0
  6
CONTINUOUS
 62
     7
 10
120.6245
 20
-6.36848
 11
120.6245
 21
-3.86848
  0
LINE
  8
0
  6
CONTINUOUS
 62
     7
 10
119.6245
 20
-3.86848
 11
119.6245
 21
-3.56849
  0
LINE
  8
0
  6
CONTINUOUS
 62
     7
 10
107.6245
 20
-3.86848
 11
107.6245
 21
-3.56849
  0
LINE
  8
0
  6
CONTINUOUS
 62
     7
 10
106.6245
 20
-6.36848
 11
106.6245
 21
-3.86848
  0
LINE
  8
0
  6
CONTINUOUS
 62
     7
 10
105.1245
 20
-6.36848
 11
122.1245
 21
-6.36848
  0
LINE
  8
0
  6
CONTINUOUS
 62
     7
 10
105.4966
 20
-29.86848
 11
121.7524
 21
-29.86848
  0
LINE
  8
0
  6
CONTINUOUS
 62
     7
 10
105.4967
 20
-29.86849
 11
105.1245
 21
-17.96076
  0
LINE
  8
0
  6
CONTINUOUS
 62
     7
 10
106.3526
 20
-29.86848
 11
105.9776
 21
-17.86849
  0
LINE
  8
0
  6
CONTINUOUS
 62
     7
 10
120.8964
 20
-29.86848
 11
121.2714
 21
-17.86848
  0
LINE
  8
0
  6
CONTINUOUS
 62
     7
 10
121.7524
 20
-29.86848
 11
122.1245
 21
-17.9607
  0
LINE
  8
0
  6
CONTINUOUS
 62
     7
 10
162.8468
 20
-201.0741
 11
183.3016
 21
-201.0741
  0
LINE
  8
0
  6
CENTER
 62
     2
 10
173.0743
 20
-168.0741
 11
173.0743
 21
-204.9075
  0
LINE
  8
0
  6
CONTINUOUS
 62
     7
 10
163.5557
 20
-186.5741
 11
164.0088
 21
-201.0741
  0
LINE
  8
0
  6
CONTINUOUS
 62
     7
 10
162.5743
 20
-192.3541
 11
162.8468
 21
-201.0741
  0
LINE
  8
0
  6
CONTINUOUS
 62
     7
 10
182.5927
 20
-186.5741
 11
182.1395
 21
-201.0741
  0
LINE
  8
0
  6
CONTINUOUS
 62
     7
 10
183.5743
 20
-192.3483
 11
183.3016
 21
-201.0741
  0
LINE
  8
0
  6
CONTINUOUS
 62
     7
 10
164.6743
 20
-171.5741
 11
181.4743
 21
-171.5741
  0
LINE
  8
0
  6
CONTINUOUS
 62
     7
 10
164.6743
 20
-173.7741
 11
164.6743
 21
-171.5741
  0
LINE
  8
0
  6
CONTINUOUS
 62
     7
 10
181.4743
 20
-173.7741
 11
181.4743
 21
-171.5741
  0
LINE
  8
0
  6
CONTINUOUS
 62
     7
 10
164.6743
 20
-173.7741
 11
181.4743
 21
-173.7741
  0
LINE
  8
0
  6
CONTINUOUS
 62
     7
 10
166.0743
 20
-174.0741
 11
180.0743
 21
-174.0741
  0
LINE
  8
0
  6
CONTINUOUS
 62
     7
 10
180.0743
 20
-176.5741
 11
180.0743
 21
-174.0741
  0
LINE
  8
0
  6
CONTINUOUS
 62
     7
 10
179.0743
 20
-174.0741
 11
179.0743
 21
-173.7741
  0
LINE
  8
0
  6
CONTINUOUS
 62
     7
 10
167.0743
 20
-174.0741
 11
167.0743
 21
-173.7741
  0
LINE
  8
0
  6
CONTINUOUS
 62
     7
 10
166.0743
 20
-176.5741
 11
166.0743
 21
-174.0741
  0
LINE
  8
0
  6
CONTINUOUS
 62
     7
 10
162.5743
 20
-186.5741
 11
183.5743
 21
-186.5741
  0
LINE
  8
0
  6
CONTINUOUS
 62
     7
 10
185.1987
 20
-178.512
 11
185.1987
 21
-185.6363
  0
LINE
  8
0
  6
CONTINUOUS
 62
     7
 10
179.1365
 20
-178.512
 11
179.1365
 21
-185.6363
  0
LINE
  8
0
  6
CONTINUOUS
 62
     7
 10
167.0121
 20
-178.512
 11
167.0121
 21
-185.6363
  0
LINE
  8
0
  6
CONTINUOUS
 62
     7
 10
160.95
 20
-178.512
 11
160.95
 21
-185.6363
  0
LINE
  8
0
  6
CONTINUOUS
 62
     7
 10
185.1986
 20
-178.5119
 11
180.5743
 21
-176.5741
  0
LINE
  8
0
  6
CONTINUOUS
 62
     7
 10
160.95
 20
-178.512
 11
165.5743
 21
-176.5742
  0
LINE
  8
0
  6
CONTINUOUS
 62
     7
 10
160.9499
 20
-185.6363
 11
162.5743
 21
-186.5741
  0
LINE
  8
0
  6
CONTINUOUS
 62
     7
 10
185.1987
 20
-185.6363
 11
183.5743
 21
-186.5741
  0
LINE
  8
0
  6
CONTINUOUS
 62
     7
 10
162.5743
 20
-186.5741
 11
162.5743
 21
-192.3542
  0
LINE
  8
0
  6
CONTINUOUS
 62
     7
 10
183.5743
 20
-186.5741
 11
183.5743
 21
-192.3542
  0
LINE
  8
0
  6
CONTINUOUS
 62
     7
 10
165.5743
 20
-176.5741
 11
180.5743
 21
-176.5741
  0
LINE
  8
0
  6
CENTER
 62
     2
 10
173.0743
 20
-128.0741
 11
173.0743
 21
-158.0741
  0
LINE
  8
0
  6
CENTER
 62
     2
 10
158.0743
 20
-143.0741
 11
188.0743
 21
-143.0741
  0
LINE
  8
0
  6
CONTINUOUS
 62
     7
 10
167.0122
 20
-153.5741
 11
179.1365
 21
-153.5742
  0
LINE
  8
0
  6
CONTINUOUS
 62
     7
 10
179.1365
 20
-153.5742
 11
185.1987
 21
-143.0741
  0
LINE
  8
0
  6
CONTINUOUS
 62
     7
 10
185.1987
 20
-143.0741
 11
179.1365
 21
-132.5741
  0
LINE
  8
0
  6
CONTINUOUS
 62
     7
 10
179.1365
 20
-132.5741
 11
167.0122
 21
-132.5741
  0
LINE
  8
0
  6
CONTINUOUS
 62
     7
 10
167.0121
 20
-132.5741
 11
160.95
 21
-143.0741
  0
LINE
  8
0
  6
CONTINUOUS
 62
     7
 10
160.95
 20
-143.0742
 11
167.0122
 21
-153.5742
  0
LINE
  8
0
  6
CONTINUOUS
 62
     7
 10
103.397
 20
-201.0741
 11
123.8518
 21
-201.0741
  0
LINE
  8
0
  6
CENTER
 62
     2
 10
113.6245
 20
-167.7408
 11
113.6245
 21
-205.0741
  0
LINE
  8
0
  6
CONTINUOUS
 62
     7
 10
104.1059
 20
-186.5741
 11
104.559
 21
-201.0741
  0
LINE
  8
0
  6
CONTINUOUS
 62
     7
 10
103.1245
 20
-192.354
 11
103.397
 21
-201.0741
  0
LINE
  8
0
  6
CONTINUOUS
 62
     7
 10
123.1428
 20
-186.5741
 11
122.6897
 21
-201.0741
  0
LINE
  8
0
  6
CONTINUOUS
 62
     7
 10
124.1245
 20
-192.3486
 11
123.8518
 21
-201.0741
  0
LINE
  8
0
  6
CONTINUOUS
 62
     7
 10
105.2245
 20
-171.5741
 11
122.0245
 21
-171.5741
  0
LINE
  8
0
  6
CONTINUOUS
 62
     7
 10
105.2245
 20
-173.7741
 11
105.2245
 21
-171.5741
  0
LINE
  8
0
  6
CONTINUOUS
 62
     7
 10
122.0245
 20
-173.7741
 11
122.0245
 21
-171.5741
  0
LINE
  8
0
  6
CONTINUOUS
 62
     7
 10
105.2245
 20
-173.7741
 11
122.0245
 21
-173.7741
  0
LINE
  8
0
  6
CONTINUOUS
 62
     7
 10
106.6245
 20
-174.0741
 11
120.6245
 21
-174.0741
  0
LINE
  8
0
  6
CONTINUOUS
 62
     7
 10
120.6245
 20
-176.5741
 11
120.6245
 21
-174.0741
  0
LINE
  8
0
  6
CONTINUOUS
 62
     7
 10
119.6245
 20
-174.0741
 11
119.6245
 21
-173.7741
  0
LINE
  8
0
  6
CONTINUOUS
 62
     7
 10
107.6245
 20
-174.0741
 11
107.6245
 21
-173.7741
  0
LINE
  8
0
  6
CONTINUOUS
 62
     7
 10
106.6245
 20
-176.5741
 11
106.6245
 21
-174.0741
  0
LINE
  8
0
  6
CONTINUOUS
 62
     7
 10
103.1245
 20
-186.5741
 11
124.1245
 21
-186.5741
  0
LINE
  8
0
  6
CONTINUOUS
 62
     7
 10
103.1245
 20
-178.512
 11
103.1245
 21
-192.354
  0
LINE
  8
0
  6
CONTINUOUS
 62
     7
 10
124.1245
 20
-178.512
 11
124.1245
 21
-192.3486
  0
LINE
  8
0
  6
CONTINUOUS
 62
     7
 10
113.6245
 20
-178.512
 11
113.6245
 21
-185.6363
  0
LINE
  8
0
  6
CONTINUOUS
 62
     7
 10
106.1245
 20
-176.5741
 11
121.1245
 21
-176.5741
  0
LINE
  8
0
  6
CONTINUOUS
 62
     7
 10
121.1245
 20
-176.5741
 11
124.1245
 21
-178.512
  0
LINE
  8
0
  6
CONTINUOUS
 62
     7
 10
106.1245
 20
-176.5742
 11
103.1245
 21
-178.512
  0
LINE
  8
0
  6
CENTER
 62
     2
 10
321.4237
 20
118.2017
 11
321.4237
 21
160.7037
  0
LINE
  8
0
  6
CONTINUOUS
 62
     7
 10
315.0327
 20
121.7351
 11
314.689
 21
132.7351
  0
LINE
  8
0
  6
CONTINUOUS
 62
     7
 10
315.8887
 20
121.7351
 11
315.545
 21
132.7351
  0
LINE
  8
0
  6
CONTINUOUS
 62
     7
 10
326.9587
 20
121.7351
 11
327.3025
 21
132.7351
  0
LINE
  8
0
  6
CONTINUOUS
 62
     7
 10
327.8147
 20
121.7351
 11
328.1585
 21
132.7351
  0
LINE
  8
0
  6
CONTINUOUS
 62
     7
 10
315.0327
 20
121.7351
 11
327.8147
 21
121.7351
  0
LINE
  8
0
  6
CONTINUOUS
 62
     7
 10
311.1917
 20
132.7351
 11
331.6558
 21
132.7351
  0
LINE
  8
0
  6
CONTINUOUS
 62
     7
 10
333.5481
 20
151.6425
 11
333.5481
 21
133.8276
  0
LINE
  8
0
  6
CONTINUOUS
 62
     7
 10
327.4859
 20
151.7972
 11
327.4859
 21
133.6729
  0
LINE
  8
0
  6
CONTINUOUS
 62
     7
 10
315.3615
 20
151.7972
 11
315.3615
 21
133.6729
  0
LINE
  8
0
  6
CONTINUOUS
 62
     7
 10
309.2994
 20
151.6425
 11
309.2994
 21
133.8276
  0
LINE
  8
0
  6
CONTINUOUS
 62
     7
 10
311.1917
 20
152.7351
 11
331.6558
 21
152.7351
  0
LINE
  8
0
  6
CONTINUOUS
 62
     7
 10
309.2994
 20
151.6425
 11
311.1917
 21
152.7351
  0
LINE
  8
0
  6
CONTINUOUS
 62
     7
 10
333.5481
 20
151.6425
 11
331.6558
 21
152.7351
  0
LINE
  8
0
  6
CONTINUOUS
 62
     7
 10
309.2994
 20
133.8276
 11
311.1917
 21
132.7351
  0
LINE
  8
0
  6
CONTINUOUS
 62
     7
 10
333.5481
 20
133.8276
 11
331.6558
 21
132.7351
  0
LINE
  8
0
  6
CONTINUOUS
 62
     7
 10
311.5237
 20
157.2351
 11
331.3237
 21
157.2351
  0
LINE
  8
0
  6
CONTINUOUS
 62
     7
 10
311.5237
 20
154.7351
 11
311.5237
 21
157.2351
  0
LINE
  8
0
  6
CONTINUOUS
 62
     7
 10
331.3237
 20
154.7351
 11
331.3237
 21
157.2351
  0
LINE
  8
0
  6
CONTINUOUS
 62
     7
 10
311.5237
 20
154.7351
 11
331.3237
 21
154.7351
  0
LINE
  8
0
  6
CONTINUOUS
 62
     7
 10
328.4237
 20
154.2351
 11
328.4237
 21
154.7351
  0
LINE
  8
0
  6
CONTINUOUS
 62
     7
 10
314.4237
 20
154.2351
 11
314.4237
 21
154.7351
  0
LINE
  8
0
  6
CONTINUOUS
 62
     7
 10
312.7737
 20
152.7351
 11
312.7737
 21
154.2351
  0
LINE
  8
0
  6
CONTINUOUS
 62
     7
 10
312.7737
 20
154.2351
 11
330.0737
 21
154.2351
  0
LINE
  8
0
  6
CONTINUOUS
 62
     7
 10
330.0737
 20
152.7351
 11
330.0737
 21
154.2351
  0
LINE
  8
0
  6
CENTER
 62
     2
 10
321.4237
 20
192.7351
 11
321.4237
 21
162.7351
  0
LINE
  8
0
  6
CENTER
 62
     2
 10
306.4237
 20
177.7351
 11
336.4237
 21
177.7351
  0
LINE
  8
0
  6
CONTINUOUS
 62
     7
 10
315.3616
 20
167.2351
 11
327.486
 21
167.2351
  0
LINE
  8
0
  6
CONTINUOUS
 62
     7
 10
327.4859
 20
167.235
 11
333.5481
 21
177.735
  0
LINE
  8
0
  6
CONTINUOUS
 62
     7
 10
333.5482
 20
177.7351
 11
327.486
 21
188.2351
  0
LINE
  8
0
  6
CONTINUOUS
 62
     7
 10
327.486
 20
188.2352
 11
315.3616
 21
188.2352
  0
LINE
  8
0
  6
CONTINUOUS
 62
     7
 10
315.3616
 20
188.2352
 11
309.2994
 21
177.7352
  0
LINE
  8
0
  6
CONTINUOUS
 62
     7
 10
309.2995
 20
177.7351
 11
315.3617
 21
167.2351
  0
LINE
  8
0
  6
CENTER
 62
     2
 10
261.9739
 20
118.3351
 11
261.9739
 21
160.803
  0
LINE
  8
0
  6
CONTINUOUS
 62
     7
 10
255.583
 20
121.7351
 11
255.2392
 21
132.7351
  0
LINE
  8
0
  6
CONTINUOUS
 62
     7
 10
256.439
 20
121.7351
 11
256.0952
 21
132.735
  0
LINE
  8
0
  6
CONTINUOUS
 62
     7
 10
267.5089
 20
121.7351
 11
267.8527
 21
132.735
  0
LINE
  8
0
  6
CONTINUOUS
 62
     7
 10
268.3649
 20
121.7351
 11
268.7087
 21
132.7351
  0
LINE
  8
0
  6
CONTINUOUS
 62
     7
 10
255.5829
 20
121.7351
 11
268.3649
 21
121.7351
  0
LINE
  8
0
  6
CONTINUOUS
 62
     7
 10
251.4739
 20
132.7351
 11
272.4739
 21
132.7351
  0
LINE
  8
0
  6
CONTINUOUS
 62
     7
 10
251.4739
 20
152.7351
 11
251.4739
 21
132.7351
  0
LINE
  8
0
  6
CONTINUOUS
 62
     7
 10
251.4739
 20
152.7351
 11
272.4739
 21
152.7351
  0
LINE
  8
0
  6
CONTINUOUS
 62
     7
 10
272.4739
 20
152.7351
 11
272.4739
 21
132.7351
  0
LINE
  8
0
  6
CONTINUOUS
 62
     7
 10
252.0739
 20
157.2351
 11
271.8739
 21
157.2351
  0
LINE
  8
0
  6
CONTINUOUS
 62
     7
 10
252.0739
 20
154.7351
 11
271.8739
 21
154.7351
  0
LINE
  8
0
  6
CONTINUOUS
 62
     7
 10
253.3239
 20
154.2351
 11
270.6239
 21
154.2351
  0
LINE
  8
0
  6
CONTINUOUS
 62
     7
 10
252.0739
 20
154.7351
 11
252.0739
 21
157.2351
  0
LINE
  8
0
  6
CONTINUOUS
 62
     7
 10
254.9739
 20
154.2351
 11
254.9739
 21
154.7351
  0
LINE
  8
0
  6
CONTINUOUS
 62
     7
 10
253.3239
 20
152.7351
 11
253.3239
 21
154.2351
  0
LINE
  8
0
  6
CONTINUOUS
 62
     7
 10
271.8739
 20
154.7351
 11
271.8739
 21
157.2351
  0
LINE
  8
0
  6
CONTINUOUS
 62
     7
 10
268.9739
 20
154.2351
 11
268.9739
 21
154.7351
  0
LINE
  8
0
  6
CONTINUOUS
 62
     7
 10
270.6239
 20
152.7351
 11
270.6239
 21
154.2351
  0
LINE
  8
0
  6
CONTINUOUS
 62
     7
 10
261.9739
 20
133.6729
 11
261.9739
 21
151.7972
  0
LINE
  8
0
  6
CENTER
 62
     2
 10
321.4237
 20
-32.40182
 11
321.4237
 21
6.22099
  0
LINE
  8
0
  6
CONTINUOUS
 62
     7
 10
311.1917
 20
-17.86848
 11
331.6558
 21
-17.86848
  0
LINE
  8
0
  6
CONTINUOUS
 62
     7
 10
333.5481
 20
-3.96102
 11
333.5481
 21
-16.77596
  0
LINE
  8
0
  6
CONTINUOUS
 62
     7
 10
327.4859
 20
-3.80631
 11
327.4859
 21
-16.93066
  0
LINE
  8
0
  6
CONTINUOUS
 62
     7
 10
315.3615
 20
-3.8063
 11
315.3615
 21
-16.93066
  0
LINE
  8
0
  6
CONTINUOUS
 62
     7
 10
309.2994
 20
-3.96101
 11
309.2994
 21
-16.77596
  0
LINE
  8
0
  6
CONTINUOUS
 62
     7
 10
311.1917
 20
-2.86848
 11
331.6558
 21
-2.86848
  0
LINE
  8
0
  6
CONTINUOUS
 62
     7
 10
309.2994
 20
-3.961
 11
311.1917
 21
-2.86848
  0
LINE
  8
0
  6
CONTINUOUS
 62
     7
 10
333.5481
 20
-3.96099
 11
331.6558
 21
-2.86846
  0
LINE
  8
0
  6
CONTINUOUS
 62
     7
 10
309.2994
 20
-16.77597
 11
311.1917
 21
-17.8685
  0
LINE
  8
0
  6
CONTINUOUS
 62
     7
 10
333.5481
 20
-16.77596
 11
331.6558
 21
-17.86849
  0
LINE
  8
0
  6
CONTINUOUS
 62
     7
 10
311.5237
 20
1.63152
 11
331.3237
 21
1.63152
  0
LINE
  8
0
  6
CONTINUOUS
 62
     7
 10
311.5237
 20
-0.86848
 11
311.5237
 21
1.63152
  0
LINE
  8
0
  6
CONTINUOUS
 62
     7
 10
331.3237
 20
-0.86848
 11
331.3237
 21
1.63152
  0
LINE
  8
0
  6
CONTINUOUS
 62
     7
 10
311.5237
 20
-0.86848
 11
331.3237
 21
-0.86848
  0
LINE
  8
0
  6
CONTINUOUS
 62
     7
 10
328.4237
 20
-1.36848
 11
328.4237
 21
-0.86848
  0
LINE
  8
0
  6
CONTINUOUS
 62
     7
 10
314.4237
 20
-1.36848
 11
314.4237
 21
-0.86848
  0
LINE
  8
0
  6
CONTINUOUS
 62
     7
 10
312.7737
 20
-2.86848
 11
312.7737
 21
-1.36848
  0
LINE
  8
0
  6
CONTINUOUS
 62
     7
 10
312.7737
 20
-1.36848
 11
330.0737
 21
-1.36848
  0
LINE
  8
0
  6
CONTINUOUS
 62
     7
 10
330.0737
 20
-2.86848
 11
330.0737
 21
-1.36848
  0
LINE
  8
0
  6
CONTINUOUS
 62
     7
 10
313.2959
 20
-29.86848
 11
329.5516
 21
-29.86848
  0
LINE
  8
0
  6
CONTINUOUS
 62
     7
 10
314.1519
 20
-29.86848
 11
313.7768
 21
-17.86848
  0
LINE
  8
0
  6
CONTINUOUS
 62
     7
 10
313.2958
 20
-29.86848
 11
312.9208
 21
-17.86848
  0
LINE
  8
0
  6
CONTINUOUS
 62
     7
 10
328.6956
 20
-29.86848
 11
329.0706
 21
-17.86848
  0
LINE
  8
0
  6
CONTINUOUS
 62
     7
 10
329.5516
 20
-29.86848
 11
329.9266
 21
-17.86848
  0
LINE
  8
0
  6
CENTER
 62
     2
 10
321.4237
 20
41.63152
 11
321.4237
 21
11.63152
  0
LINE
  8
0
  6
CENTER
 62
     2
 10
306.4237
 20
26.63152
 11
336.4237
 21
26.63152
  0
LINE
  8
0
  6
CONTINUOUS
 62
     7
 10
315.3616
 20
16.13158
 11
327.486
 21
16.13158
  0
LINE
  8
0
  6
CONTINUOUS
 62
     7
 10
327.4859
 20
16.1315
 11
333.5481
 21
26.6315
  0
LINE
  8
0
  6
CONTINUOUS
 62
     7
 10
333.5481
 20
26.63156
 11
327.486
 21
37.13156
  0
LINE
  8
0
  6
CONTINUOUS
 62
     7
 10
327.486
 20
37.13168
 11
315.3616
 21
37.13169
  0
LINE
  8
0
  6
CONTINUOUS
 62
     7
 10
315.3615
 20
37.13158
 11
309.2994
 21
26.63157
  0
LINE
  8
0
  6
CONTINUOUS
 62
     7
 10
309.2995
 20
26.63155
 11
315.3617
 21
16.13154
  0
LINE
  8
0
  6
CENTER
 62
     2
 10
261.9739
 20
-32.26849
 11
261.9739
 21
5.91814
  0
LINE
  8
0
  6
CONTINUOUS
 62
     7
 10
251.4739
 20
-17.86848
 11
272.4739
 21
-17.86848
  0
LINE
  8
0
  6
CONTINUOUS
 62
     7
 10
251.4739
 20
-2.86848
 11
251.4739
 21
-17.86848
  0
LINE
  8
0
  6
CONTINUOUS
 62
     7
 10
251.4739
 20
-2.86848
 11
272.4739
 21
-2.86848
  0
LINE
  8
0
  6
CONTINUOUS
 62
     7
 10
272.4739
 20
-2.86848
 11
272.4739
 21
-17.86848
  0
LINE
  8
0
  6
CONTINUOUS
 62
     7
 10
252.0739
 20
1.63152
 11
271.8739
 21
1.63152
  0
LINE
  8
0
  6
CONTINUOUS
 62
     7
 10
252.0739
 20
-0.86848
 11
271.8739
 21
-0.86848
  0
LINE
  8
0
  6
CONTINUOUS
 62
     7
 10
253.3239
 20
-1.36848
 11
270.6239
 21
-1.36848
  0
LINE
  8
0
  6
CONTINUOUS
 62
     7
 10
252.0739
 20
-0.86848
 11
252.0739
 21
1.63152
  0
LINE
  8
0
  6
CONTINUOUS
 62
     7
 10
254.9739
 20
-1.36848
 11
254.9739
 21
-0.86848
  0
LINE
  8
0
  6
CONTINUOUS
 62
     7
 10
253.3239
 20
-2.86848
 11
253.3239
 21
-1.36848
  0
LINE
  8
0
  6
CONTINUOUS
 62
     7
 10
271.8739
 20
-0.86848
 11
271.8739
 21
1.63152
  0
LINE
  8
0
  6
CONTINUOUS
 62
     7
 10
268.9739
 20
-1.36848
 11
268.9739
 21
-0.86848
  0
LINE
  8
0
  6
CONTINUOUS
 62
     7
 10
270.6239
 20
-2.86848
 11
270.6239
 21
-1.36848
  0
LINE
  8
0
  6
CONTINUOUS
 62
     7
 10
261.9739
 20
-16.93067
 11
261.9739
 21
-3.8063
  0
LINE
  8
0
  6
CONTINUOUS
 62
     7
 10
253.8461
 20
-29.86848
 11
270.1018
 21
-29.86848
  0
LINE
  8
0
  6
CONTINUOUS
 62
     7
 10
253.8461
 20
-29.86848
 11
253.471
 21
-17.86848
  0
LINE
  8
0
  6
CONTINUOUS
 62
     7
 10
254.7021
 20
-29.86849
 11
254.3271
 21
-17.86848
  0
LINE
  8
0
  6
CONTINUOUS
 62
     7
 10
269.2458
 20
-29.86848
 11
269.6208
 21
-17.86848
  0
LINE
  8
0
  6
CONTINUOUS
 62
     7
 10
270.1018
 20
-29.86849
 11
270.4768
 21
-17.86848
  0
LINE
  8
0
  6
CONTINUOUS
 62
     7
 10
311.1963
 20
-201.0741
 11
331.651
 21
-201.0741
  0
LINE
  8
0
  6
CONTINUOUS
 62
     7
 10
311.9051
 20
-186.5741
 11
312.3582
 21
-201.0741
  0
LINE
  8
0
  6
CONTINUOUS
 62
     7
 10
310.9237
 20
-192.3542
 11
311.1962
 21
-201.0741
  0
LINE
  8
0
  6
CONTINUOUS
 62
     7
 10
330.942
 20
-186.5741
 11
330.4889
 21
-201.0741
  0
LINE
  8
0
  6
CONTINUOUS
 62
     7
 10
331.9237
 20
-192.3483
 11
331.6511
 21
-201.0741
  0
LINE
  8
0
  6
CENTER
 62
     2
 10
321.4237
 20
-204.9634
 11
321.4237
 21
-162.4847
  0
LINE
  8
0
  6
CONTINUOUS
 62
     7
 10
311.1917
 20
-186.5741
 11
331.6558
 21
-186.5741
  0
LINE
  8
0
  6
CONTINUOUS
 62
     7
 10
333.5481
 20
-173.1667
 11
333.5481
 21
-185.4816
  0
LINE
  8
0
  6
CONTINUOUS
 62
     7
 10
327.4859
 20
-173.012
 11
327.4859
 21
-185.6363
  0
LINE
  8
0
  6
CONTINUOUS
 62
     7
 10
315.3615
 20
-173.012
 11
315.3615
 21
-185.6363
  0
LINE
  8
0
  6
CONTINUOUS
 62
     7
 10
309.2994
 20
-173.1667
 11
309.2994
 21
-185.4816
  0
LINE
  8
0
  6
CONTINUOUS
 62
     7
 10
311.1917
 20
-172.0741
 11
331.6558
 21
-172.0741
  0
LINE
  8
0
  6
CONTINUOUS
 62
     7
 10
309.2994
 20
-173.1667
 11
311.1917
 21
-172.0742
  0
LINE
  8
0
  6
CONTINUOUS
 62
     7
 10
333.5482
 20
-173.1667
 11
331.6558
 21
-172.0741
  0
LINE
  8
0
  6
CONTINUOUS
 62
     7
 10
309.2994
 20
-185.4816
 11
311.1917
 21
-186.5742
  0
LINE
  8
0
  6
CONTINUOUS
 62
     7
 10
333.5481
 20
-185.4816
 11
331.6558
 21
-186.5742
  0
LINE
  8
0
  6
CONTINUOUS
 62
     7
 10
311.5237
 20
-167.5741
 11
331.3237
 21
-167.5741
  0
LINE
  8
0
  6
CONTINUOUS
 62
     7
 10
311.5237
 20
-170.0741
 11
311.5237
 21
-167.5741
  0
LINE
  8
0
  6
CONTINUOUS
 62
     7
 10
331.3237
 20
-170.0741
 11
331.3237
 21
-167.5741
  0
LINE
  8
0
  6
CONTINUOUS
 62
     7
 10
311.5237
 20
-170.0741
 11
331.3237
 21
-170.0741
  0
LINE
  8
0
  6
CONTINUOUS
 62
     7
 10
328.4237
 20
-170.5741
 11
328.4237
 21
-170.0741
  0
LINE
  8
0
  6
CONTINUOUS
 62
     7
 10
314.4237
 20
-170.5741
 11
314.4237
 21
-170.0741
  0
LINE
  8
0
  6
CONTINUOUS
 62
     7
 10
312.7737
 20
-172.0741
 11
312.7737
 21
-170.5741
  0
LINE
  8
0
  6
CONTINUOUS
 62
     7
 10
312.7737
 20
-170.5741
 11
330.0737
 21
-170.5741
  0
LINE
  8
0
  6
CONTINUOUS
 62
     7
 10
330.0737
 20
-172.0741
 11
330.0737
 21
-170.5741
  0
LINE
  8
0
  6
CONTINUOUS
 62
     7
 10
310.9237
 20
-192.3542
 11
310.9237
 21
-186.3865
  0
LINE
  8
0
  6
CONTINUOUS
 62
     7
 10
331.9237
 20
-192.3542
 11
331.9237
 21
-186.3865
  0
LINE
  8
0
  6
CENTER
 62
     2
 10
321.4237
 20
-128.0741
 11
321.4237
 21
-158.0741
  0
LINE
  8
0
  6
CENTER
 62
     2
 10
306.4237
 20
-143.0741
 11
336.4237
 21
-143.0741
  0
LINE
  8
0
  6
CONTINUOUS
 62
     7
 10
315.3616
 20
-153.5741
 11
327.486
 21
-153.5741
  0
LINE
  8
0
  6
CONTINUOUS
 62
     7
 10
327.4859
 20
-153.5741
 11
333.5481
 21
-143.0741
  0
LINE
  8
0
  6
CONTINUOUS
 62
     7
 10
333.5482
 20
-143.0741
 11
327.486
 21
-132.5741
  0
LINE
  8
0
  6
CONTINUOUS
 62
     7
 10
327.486
 20
-132.574
 11
315.3616
 21
-132.574
  0
LINE
  8
0
  6
CONTINUOUS
 62
     7
 10
315.3616
 20
-132.5741
 11
309.2994
 21
-143.0741
  0
LINE
  8
0
  6
CONTINUOUS
 62
     7
 10
309.2995
 20
-143.0741
 11
315.3617
 21
-153.5742
  0
LINE
  8
0
  6
CONTINUOUS
 62
     7
 10
251.7465
 20
-201.0741
 11
272.2012
 21
-201.0741
  0
LINE
  8
0
  6
CONTINUOUS
 62
     7
 10
252.4553
 20
-186.5741
 11
252.9084
 21
-201.0741
  0
LINE
  8
0
  6
CONTINUOUS
 62
     7
 10
251.4739
 20
-192.354
 11
251.7464
 21
-201.0741
  0
LINE
  8
0
  6
CONTINUOUS
 62
     7
 10
271.4923
 20
-186.5741
 11
271.0391
 21
-201.0741
  0
LINE
  8
0
  6
CONTINUOUS
 62
     7
 10
272.4739
 20
-192.3488
 11
272.2012
 21
-201.0741
  0
LINE
  8
0
  6
CENTER
 62
     2
 10
261.9739
 20
-204.9634
 11
261.9739
 21
-162.7875
  0
LINE
  8
0
  6
CONTINUOUS
 62
     7
 10
251.4739
 20
-186.5741
 11
272.4739
 21
-186.5741
  0
LINE
  8
0
  6
CONTINUOUS
 62
     7
 10
251.4739
 20
-172.0741
 11
251.4739
 21
-192.354
  0
LINE
  8
0
  6
CONTINUOUS
 62
     7
 10
251.4739
 20
-172.0741
 11
272.4739
 21
-172.0741
  0
LINE
  8
0
  6
CONTINUOUS
 62
     7
 10
272.4739
 20
-172.0741
 11
272.4739
 21
-192.3488
  0
LINE
  8
0
  6
CONTINUOUS
 62
     7
 10
252.0739
 20
-167.5741
 11
271.8739
 21
-167.5741
  0
LINE
  8
0
  6
CONTINUOUS
 62
     7
 10
252.0739
 20
-170.0741
 11
271.8739
 21
-170.0741
  0
LINE
  8
0
  6
CONTINUOUS
 62
     7
 10
253.3239
 20
-170.5741
 11
270.6239
 21
-170.5741
  0
LINE
  8
0
  6
CONTINUOUS
 62
     7
 10
252.0739
 20
-170.0741
 11
252.0739
 21
-167.5741
  0
LINE
  8
0
  6
CONTINUOUS
 62
     7
 10
254.9739
 20
-170.5741
 11
254.9739
 21
-170.0741
  0
LINE
  8
0
  6
CONTINUOUS
 62
     7
 10
253.3239
 20
-172.0741
 11
253.3239
 21
-170.5741
  0
LINE
  8
0
  6
CONTINUOUS
 62
     7
 10
271.8739
 20
-170.0741
 11
271.8739
 21
-167.5741
  0
LINE
  8
0
  6
CONTINUOUS
 62
     7
 10
268.9739
 20
-170.5741
 11
268.9739
 21
-170.0741
  0
LINE
  8
0
  6
CONTINUOUS
 62
     7
 10
270.6239
 20
-172.0741
 11
270.6239
 21
-170.5741
  0
LINE
  8
0
  6
CONTINUOUS
 62
     7
 10
261.9739
 20
-185.6363
 11
261.9739
 21
-173.012
  0
ARC
  8
0
  6
CONTINUOUS
 62
     7
 10
273.0354
 20
-235.0457
 40
2.21188
 50
0.0
 51
89.99999
  0
ARC
  8
0
  6
CONTINUOUS
 62
     7
 10
291.2836
 20
-246.9346
 40
2.2119
 50
270.0
 51
0.0
  0
ARC
  8
0
  6
CONTINUOUS
 62
     7
 10
290.1776
 20
-236.1516
 40
3.31784
 50
0.0
 51
89.99999
  0
ARC
  8
0
  6
CONTINUOUS
 62
     7
 10
310.3611
 20
-236.8128
 40
2.21189
 50
295.0
 51
0.0
  0
ARC
  8
0
  6
CONTINUOUS
 62
     7
 10
310.3611
 20
-235.0457
 40
2.21188
 50
0.0
 51
89.99999
  0
ARC
  8
0
  6
CONTINUOUS
 62
     7
 10
327.5034
 20
-232.8338
 40
3.31784
 50
291.6884
 51
0.0
  0
ARC
  8
0
  6
CONTINUOUS
 62
     7
 10
326.3973
 20
-232.0834
 40
1.10595
 50
291.689
 51
0.0
  0
ARC
  8
0
  6
CONTINUOUS
 62
     7
 10
-263.5099
 20
174.8797
 40
2.04465
 50
235.6159
 51
270.0
  0
ARC
  8
0
  6
CONTINUOUS
 62
     7
 10
-270.4381
 20
174.8797
 40
2.04466
 50
270.0
 51
304.3841
  0
ARC
  8
0
  6
CONTINUOUS
 62
     7
 10
-266.974
 20
180.4778
 40
7.64273
 50
252.4119
 51
287.5878
  0
CIRCLE
  8
0
  6
CONTINUOUS
 62
     7
 10
-266.974
 20
205.7351
 40
2.0
  0
CIRCLE
  8
0
  6
CONTINUOUS
 62
     7
 10
-266.974
 20
205.7351
 40
5.0
  0
ARC
  8
0
  6
CONTINUOUS
 62
     7
 10
-324.4238
 20
178.6118
 40
5.77666
 50
249.7437
 51
290.2563
  0
ARC
  8
0
  6
CONTINUOUS
 62
     7
 10
-328.4238
 20
178.6118
 40
5.77666
 50
249.7437
 51
290.2563
  0
ARC
  8
0
  6
CONTINUOUS
 62
     7
 10
-262.6438
 20
95.05797
 40
2.55582
 50
89.99999
 51
124.0892
  0
ARC
  8
0
  6
CONTINUOUS
 62
     7
 10
-266.974
 20
88.06037
 40
9.55342
 50
72.41206
 51
107.5879
  0
ARC
  8
0
  6
CONTINUOUS
 62
     7
 10
-262.6438
 20
93.66962
 40
2.55582
 50
235.9107
 51
270.0
  0
ARC
  8
0
  6
CONTINUOUS
 62
     7
 10
-271.3041
 20
95.05797
 40
2.55582
 50
55.91071
 51
89.99999
  0
ARC
  8
0
  6
CONTINUOUS
 62
     7
 10
-271.3041
 20
93.66962
 40
2.55582
 50
270.0
 51
304.0892
  0
ARC
  8
0
  6
CONTINUOUS
 62
     7
 10
-266.974
 20
100.6672
 40
9.55342
 50
252.4119
 51
287.5879
  0
CIRCLE
  8
0
  6
CONTINUOUS
 62
     7
 10
-266.974
 20
119.5138
 40
5.0
  0
CIRCLE
  8
0
  6
CONTINUOUS
 62
     7
 10
-266.974
 20
119.5138
 40
2.0
  0
ARC
  8
0
  6
CONTINUOUS
 62
     7
 10
-323.9238
 20
98.3347
 40
7.22091
 50
249.7439
 51
290.256
  0
ARC
  8
0
  6
CONTINUOUS
 62
     7
 10
-328.9238
 20
98.3347
 40
7.22091
 50
249.7439
 51
290.2558
  0
ARC
  8
0
  6
CONTINUOUS
 62
     7
 10
-323.9238
 20
90.39288
 40
7.22091
 50
69.74391
 51
110.2561
  0
ARC
  8
0
  6
CONTINUOUS
 62
     7
 10
-328.9238
 20
90.39288
 40
7.22091
 50
69.74391
 51
110.2561
  0
ARC
  8
0
  6
CONTINUOUS
 62
     7
 10
-262.6438
 20
-6.76543
 40
2.55582
 50
89.99999
 51
124.0892
  0
ARC
  8
0
  6
CONTINUOUS
 62
     7
 10
-266.974
 20
-13.76302
 40
9.55342
 50
72.41206
 51
107.5879
  0
ARC
  8
0
  6
CONTINUOUS
 62
     7
 10
-262.6438
 20
-6.65378
 40
2.55582
 50
235.9107
 51
270.0
  0
ARC
  8
0
  6
CONTINUOUS
 62
     7
 10
-271.3041
 20
-6.76543
 40
2.55582
 50
55.9107
 51
89.99999
  0
ARC
  8
0
  6
CONTINUOUS
 62
     7
 10
-271.3041
 20
-6.65378
 40
2.55582
 50
270.0
 51
304.0892
  0
ARC
  8
0
  6
CONTINUOUS
 62
     7
 10
-266.974
 20
0.34382
 40
9.55343
 50
252.4119
 51
287.5879
  0
CIRCLE
  8
0
  6
CONTINUOUS
 62
     7
 10
-266.974
 20
17.6904
 40
5.0
  0
CIRCLE
  8
0
  6
CONTINUOUS
 62
     7
 10
-266.974
 20
17.6904
 40
2.0
  0
ARC
  8
0
  6
CONTINUOUS
 62
     7
 10
-323.9238
 20
-1.98869
 40
7.22091
 50
249.7439
 51
290.2561
  0
ARC
  8
0
  6
CONTINUOUS
 62
     7
 10
-328.9238
 20
-1.98869
 40
7.22091
 50
249.7439
 51
290.2558
  0
ARC
  8
0
  6
CONTINUOUS
 62
     7
 10
-323.9238
 20
-11.43051
 40
7.22091
 50
69.7439
 51
110.2561
  0
ARC
  8
0
  6
CONTINUOUS
 62
     7
 10
-328.9238
 20
-11.43051
 40
7.22091
 50
69.74391
 51
110.2561
  0
ARC
  8
0
  6
CONTINUOUS
 62
     7
 10
-262.6438
 20
-108.6888
 40
2.55582
 50
89.99999
 51
124.0892
  0
ARC
  8
0
  6
CONTINUOUS
 62
     7
 10
-266.974
 20
-115.6864
 40
9.55342
 50
72.41188
 51
107.5877
  0
ARC
  8
0
  6
CONTINUOUS
 62
     7
 10
-262.6438
 20
-112.5772
 40
2.55582
 50
235.9107
 51
270.0
  0
ARC
  8
0
  6
CONTINUOUS
 62
     7
 10
-271.3041
 20
-108.6888
 40
2.55583
 50
55.91014
 51
89.99999
  0
ARC
  8
0
  6
CONTINUOUS
 62
     7
 10
-271.3041
 20
-112.5772
 40
2.55582
 50
270.0
 51
304.0892
  0
ARC
  8
0
  6
CONTINUOUS
 62
     7
 10
-266.974
 20
-105.5796
 40
9.55342
 50
252.4119
 51
287.5877
  0
CIRCLE
  8
0
  6
CONTINUOUS
 62
     7
 10
-266.974
 20
-84.133
 40
5.0
  0
CIRCLE
  8
0
  6
CONTINUOUS
 62
     7
 10
-266.974
 20
-84.133
 40
2.0
  0
ARC
  8
0
  6
CONTINUOUS
 62
     7
 10
-323.9238
 20
-113.3539
 40
7.22091
 50
69.74366
 51
110.2558
  0
ARC
  8
0
  6
CONTINUOUS
 62
     7
 10
-328.9238
 20
-113.3539
 40
7.22091
 50
69.74391
 51
110.2561
  0
ARC
  8
0
  6
CONTINUOUS
 62
     7
 10
-323.9238
 20
-107.9121
 40
7.2209
 50
249.7439
 51
290.2558
  0
ARC
  8
0
  6
CONTINUOUS
 62
     7
 10
-328.9238
 20
-107.9121
 40
7.2209
 50
249.7439
 51
290.2558
  0
ARC
  8
0
  6
CONTINUOUS
 62
     7
 10
-260.9118
 20
-214.5345
 40
3.57814
 50
75.58662
 51
124.3843
  0
ARC
  8
0
  6
CONTINUOUS
 62
     7
 10
-266.974
 20
-224.3311
 40
13.37477
 50
72.41193
 51
107.588
  0
ARC
  8
0
  6
CONTINUOUS
 62
     7
 10
-273.0362
 20
-214.5345
 40
3.57814
 50
55.61572
 51
104.4134
  0
ARC
  8
0
  6
CONTINUOUS
 62
     7
 10
-273.0362
 20
-212.3783
 40
3.57814
 50
270.0
 51
304.3843
  0
ARC
  8
0
  6
CONTINUOUS
 62
     7
 10
-266.974
 20
-202.5816
 40
13.37477
 50
252.4119
 51
287.588
  0
ARC
  8
0
  6
CONTINUOUS
 62
     7
 10
-260.9118
 20
-212.3783
 40
3.57814
 50
235.6157
 51
270.0
  0
CIRCLE
  8
0
  6
CONTINUOUS
 62
     7
 10
-266.974
 20
-185.9564
 40
2.0
  0
CIRCLE
  8
0
  6
CONTINUOUS
 62
     7
 10
-266.974
 20
-185.9564
 40
5.0
  0
ARC
  8
0
  6
CONTINUOUS
 62
     7
 10
-322.9238
 20
-221.0656
 40
10.1092
 50
69.74374
 51
110.2563
  0
ARC
  8
0
  6
CONTINUOUS
 62
     7
 10
-329.9238
 20
-221.0656
 40
10.1092
 50
69.74374
 51
110.2562
  0
ARC
  8
0
  6
CONTINUOUS
 62
     7
 10
-329.9238
 20
-205.8472
 40
10.1092
 50
249.7437
 51
290.2562
  0
ARC
  8
0
  6
CONTINUOUS
 62
     7
 10
-322.9238
 20
-205.8472
 40
10.1092
 50
249.7437
 51
290.2562
  0
ARC
  8
0
  6
CONTINUOUS
 62
     7
 10
-118.4284
 20
171.5042
 40
3.06698
 50
235.6156
 51
270.0
  0
ARC
  8
0
  6
CONTINUOUS
 62
     7
 10
-128.8207
 20
171.5042
 40
3.06699
 50
270.0
 51
304.3841
  0
ARC
  8
0
  6
CONTINUOUS
 62
     7
 10
-123.6245
 20
179.9014
 40
11.46417
 50
252.412
 51
287.5878
  0
ARC
  8
0
  6
CONTINUOUS
 62
     7
 10
-118.4284
 20
176.8702
 40
3.06699
 50
89.99999
 51
124.3842
  0
ARC
  8
0
  6
CONTINUOUS
 62
     7
 10
-123.6245
 20
168.473
 40
11.46417
 50
72.4121
 51
107.5879
  0
ARC
  8
0
  6
CONTINUOUS
 62
     7
 10
-128.8207
 20
176.8702
 40
3.06699
 50
55.61588
 51
89.99999
  0
CIRCLE
  8
0
  6
CONTINUOUS
 62
     7
 10
-123.6245
 20
211.3372
 40
3.0
  0
CIRCLE
  8
0
  6
CONTINUOUS
 62
     7
 10
-123.6245
 20
211.3372
 40
5.9
  0
ARC
  8
0
  6
CONTINUOUS
 62
     7
 10
-180.0743
 20
171.2721
 40
8.66505
 50
69.7438
 51
110.2562
  0
ARC
  8
0
  6
CONTINUOUS
 62
     7
 10
-180.0743
 20
177.1022
 40
8.66506
 50
249.7437
 51
290.2562
  0
ARC
  8
0
  6
CONTINUOUS
 62
     7
 10
-186.0743
 20
171.2721
 40
8.66505
 50
69.7438
 51
110.2562
  0
ARC
  8
0
  6
CONTINUOUS
 62
     7
 10
-186.0743
 20
177.1022
 40
8.66504
 50
249.7439
 51
290.2563
  0
ARC
  8
0
  6
CONTINUOUS
 62
     7
 10
-118.4284
 20
46.12494
 40
3.06699
 50
235.6157
 51
270.0
  0
ARC
  8
0
  6
CONTINUOUS
 62
     7
 10
-128.8207
 20
46.12494
 40
3.06699
 50
270.0
 51
304.3842
  0
ARC
  8
0
  6
CONTINUOUS
 62
     7
 10
-123.6246
 20
54.52211
 40
11.46417
 50
252.412
 51
287.5878
  0
ARC
  8
0
  6
CONTINUOUS
 62
     7
 10
-118.4284
 20
49.49096
 40
3.06699
 50
89.99999
 51
124.3843
  0
ARC
  8
0
  6
CONTINUOUS
 62
     7
 10
-123.6246
 20
41.09377
 40
11.46417
 50
72.4121
 51
107.5879
  0
ARC
  8
0
  6
CONTINUOUS
 62
     7
 10
-128.8207
 20
49.49096
 40
3.06699
 50
55.6158
 51
89.99999
  0
CIRCLE
  8
0
  6
CONTINUOUS
 62
     7
 10
-123.6245
 20
84.05795
 40
5.9
  0
CIRCLE
  8
0
  6
CONTINUOUS
 62
     7
 10
-123.6245
 20
84.05795
 40
3.0
  0
ARC
  8
0
  6
CONTINUOUS
 62
     7
 10
-180.0743
 20
43.89289
 40
8.66505
 50
69.74382
 51
110.2562
  0
ARC
  8
0
  6
CONTINUOUS
 62
     7
 10
-180.0743
 20
51.723
 40
8.66506
 50
249.7437
 51
290.2562
  0
ARC
  8
0
  6
CONTINUOUS
 62
     7
 10
-186.0743
 20
43.89289
 40
8.66505
 50
69.74382
 51
110.2562
  0
ARC
  8
0
  6
CONTINUOUS
 62
     7
 10
-186.0743
 20
51.723
 40
8.66505
 50
249.7439
 51
290.2563
  0
ARC
  8
0
  6
CONTINUOUS
 62
     7
 10
-117.5624
 20
-79.29944
 40
3.57814
 50
68.79183
 51
124.3844
  0
ARC
  8
0
  6
CONTINUOUS
 62
     7
 10
-123.6245
 20
-89.09605
 40
13.37476
 50
72.41199
 51
107.588
  0
ARC
  8
0
  6
CONTINUOUS
 62
     7
 10
-129.6867
 20
-79.29944
 40
3.57814
 50
55.61555
 51
111.2082
  0
ARC
  8
0
  6
CONTINUOUS
 62
     7
 10
-129.6867
 20
-79.64316
 40
3.57814
 50
270.0
 51
304.3844
  0
ARC
  8
0
  6
CONTINUOUS
 62
     7
 10
-123.6245
 20
-69.84654
 40
13.37475
 50
252.4119
 51
287.588
  0
ARC
  8
0
  6
CONTINUOUS
 62
     7
 10
-117.5624
 20
-79.64316
 40
3.57815
 50
235.6156
 51
270.0
  0
CIRCLE
  8
0
  6
CONTINUOUS
 62
     7
 10
-123.6245
 20
-43.2213
 40
5.9
  0
CIRCLE
  8
0
  6
CONTINUOUS
 62
     7
 10
-123.6245
 20
-43.2213
 40
3.0
  0
ARC
  8
0
  6
CONTINUOUS
 62
     7
 10
-179.5743
 20
-85.8305
 40
10.1092
 50
69.74374
 51
110.2562
  0
ARC
  8
0
  6
CONTINUOUS
 62
     7
 10
-186.5743
 20
-85.8305
 40
10.1092
 50
69.74367
 51
110.2561
  0
ARC
  8
0
  6
CONTINUOUS
 62
     7
 10
-186.5743
 20
-73.1121
 40
10.1092
 50
249.7438
 51
290.2562
  0
ARC
  8
0
  6
CONTINUOUS
 62
     7
 10
-179.5743
 20
-73.1121
 40
10.1092
 50
249.7437
 51
290.2562
  0
ARC
  8
0
  6
CONTINUOUS
 62
     7
 10
-116.2633
 20
-205.6557
 40
4.3449
 50
235.6157
 51
270.0
  0
ARC
  8
0
  6
CONTINUOUS
 62
     7
 10
-123.6246
 20
-193.7597
 40
16.24088
 50
252.412
 51
287.5879
  0
ARC
  8
0
  6
CONTINUOUS
 62
     7
 10
-130.9858
 20
-205.6557
 40
4.34489
 50
270.0
 51
304.3842
  0
ARC
  8
0
  6
CONTINUOUS
 62
     7
 10
-116.2633
 20
-209.1302
 40
5.01221
 50
89.99999
 51
119.3112
  0
ARC
  8
0
  6
CONTINUOUS
 62
     7
 10
-123.6246
 20
-223.2044
 40
19.08638
 50
75.10075
 51
104.8993
  0
ARC
  8
0
  6
CONTINUOUS
 62
     7
 10
-130.9858
 20
-209.1302
 40
5.01221
 50
60.68886
 51
89.99999
  0
CIRCLE
  8
0
  6
CONTINUOUS
 62
     7
 10
-123.6245
 20
-170.5005
 40
5.9
  0
CIRCLE
  8
0
  6
CONTINUOUS
 62
     7
 10
-123.6245
 20
-170.5005
 40
3.0
  0
ARC
  8
0
  6
CONTINUOUS
 62
     7
 10
-178.8243
 20
-218.513
 40
14.39494
 50
72.82792
 51
107.1721
  0
ARC
  8
0
  6
CONTINUOUS
 62
     7
 10
-178.8243
 20
-197.725
 40
12.27552
 50
249.7438
 51
290.2561
  0
ARC
  8
0
  6
CONTINUOUS
 62
     7
 10
-187.3243
 20
-218.513
 40
14.39494
 50
72.82792
 51
107.1721
  0
ARC
  8
0
  6
CONTINUOUS
 62
     7
 10
-187.3243
 20
-197.725
 40
12.27552
 50
249.7438
 51
290.2562
  0
ARC
  8
0
  6
CONTINUOUS
 62
     7
 10
18.6627
 20
153.9153
 40
3.57814
 50
270.0
 51
304.3843
  0
ARC
  8
0
  6
CONTINUOUS
 62
     7
 10
24.72488
 20
163.7119
 40
13.37476
 50
252.412
 51
287.588
  0
ARC
  8
0
  6
CONTINUOUS
 62
     7
 10
30.78707
 20
153.9153
 40
3.57815
 50
235.6156
 51
270.0
  0
ARC
  8
0
  6
CONTINUOUS
 62
     7
 10
18.6627
 20
160.759
 40
3.57815
 50
55.61559
 51
89.99991
  0
ARC
  8
0
  6
CONTINUOUS
 62
     7
 10
24.72488
 20
150.9624
 40
13.37476
 50
72.41198
 51
107.588
  0
ARC
  8
0
  6
CONTINUOUS
 62
     7
 10
30.78707
 20
160.759
 40
3.57814
 50
89.99997
 51
124.3843
  0
CIRCLE
  8
0
  6
CONTINUOUS
 62
     7
 10
24.72488
 20
196.3372
 40
6.9
  0
CIRCLE
  8
0
  6
CONTINUOUS
 62
     7
 10
24.72488
 20
196.3372
 40
4.0
  0
ARC
  8
0
  6
CONTINUOUS
 62
     7
 10
-38.22491
 20
160.4464
 40
10.1092
 50
249.7437
 51
290.2562
  0
ARC
  8
0
  6
CONTINUOUS
 62
     7
 10
-31.22491
 20
160.4464
 40
10.1092
 50
249.7437
 51
290.2562
  0
ARC
  8
0
  6
CONTINUOUS
 62
     7
 10
-31.22491
 20
154.228
 40
10.1092
 50
69.74376
 51
110.2563
  0
ARC
  8
0
  6
CONTINUOUS
 62
     7
 10
-38.22491
 20
154.228
 40
10.1092
 50
69.74371
 51
110.2562
  0
ARC
  8
0
  6
CONTINUOUS
 62
     7
 10
18.6627
 20
-14.79034
 40
3.57814
 50
270.0
 51
304.3844
  0
ARC
  8
0
  6
CONTINUOUS
 62
     7
 10
24.72488
 20
-4.99373
 40
13.37476
 50
252.412
 51
287.588
  0
ARC
  8
0
  6
CONTINUOUS
 62
     7
 10
30.78707
 20
-14.79034
 40
3.57814
 50
235.6156
 51
270.0
  0
ARC
  8
0
  6
CONTINUOUS
 62
     7
 10
18.6627
 20
-11.94663
 40
3.57814
 50
55.61555
 51
89.99991
  0
ARC
  8
0
  6
CONTINUOUS
 62
     7
 10
24.72488
 20
-21.74324
 40
13.37476
 50
72.41197
 51
107.588
  0
ARC
  8
0
  6
CONTINUOUS
 62
     7
 10
30.78707
 20
-11.94663
 40
3.57814
 50
89.99997
 51
124.3843
  0
CIRCLE
  8
0
  6
CONTINUOUS
 62
     7
 10
24.72488
 20
26.63152
 40
4.0
  0
CIRCLE
  8
0
  6
CONTINUOUS
 62
     7
 10
24.72488
 20
26.63152
 40
6.9
  0
ARC
  8
0
  6
CONTINUOUS
 62
     7
 10
-38.22491
 20
-8.25928
 40
10.1092
 50
249.7438
 51
290.2562
  0
ARC
  8
0
  6
CONTINUOUS
 62
     7
 10
-31.22491
 20
-8.25928
 40
10.1092
 50
249.7437
 51
290.2562
  0
ARC
  8
0
  6
CONTINUOUS
 62
     7
 10
-31.22491
 20
-18.47768
 40
10.1092
 50
69.74377
 51
110.2563
  0
ARC
  8
0
  6
CONTINUOUS
 62
     7
 10
-38.22491
 20
-18.47768
 40
10.1092
 50
69.74371
 51
110.2562
  0
ARC
  8
0
  6
CONTINUOUS
 62
     7
 10
32.0861
 20
-183.2292
 40
4.3449
 50
235.6157
 51
270.0
  0
ARC
  8
0
  6
CONTINUOUS
 62
     7
 10
24.72487
 20
-171.3333
 40
16.24088
 50
252.412
 51
287.5879
  0
ARC
  8
0
  6
CONTINUOUS
 62
     7
 10
17.36367
 20
-183.2292
 40
4.34489
 50
270.0
 51
304.3843
  0
ARC
  8
0
  6
CONTINUOUS
 62
     7
 10
17.36367
 20
-185.919
 40
4.3449
 50
55.61568
 51
94.02512
  0
ARC
  8
0
  6
CONTINUOUS
 62
     7
 10
24.72487
 20
-197.815
 40
16.24088
 50
72.41203
 51
107.5879
  0
ARC
  8
0
  6
CONTINUOUS
 62
     7
 10
32.0861
 20
-185.919
 40
4.3449
 50
85.97488
 51
124.3842
  0
CIRCLE
  8
0
  6
CONTINUOUS
 62
     7
 10
24.72488
 20
-143.0741
 40
6.9
  0
CIRCLE
  8
0
  6
CONTINUOUS
 62
     7
 10
24.72488
 20
-143.0741
 40
4.0
  0
ARC
  8
0
  6
CONTINUOUS
 62
     7
 10
-30.47491
 20
-175.2986
 40
12.27552
 50
249.7438
 51
290.2561
  0
ARC
  8
0
  6
CONTINUOUS
 62
     7
 10
-38.97491
 20
-175.2986
 40
12.27551
 50
249.7439
 51
290.2562
  0
ARC
  8
0
  6
CONTINUOUS
 62
     7
 10
-30.47491
 20
-193.8497
 40
12.2755
 50
69.74379
 51
110.2561
  0
ARC
  8
0
  6
CONTINUOUS
 62
     7
 10
-38.97491
 20
-193.8497
 40
12.27551
 50
69.74375
 51
110.2561
  0
ARC
  8
0
  6
CONTINUOUS
 62
     7
 10
180.4355
 20
155.6821
 40
4.3449
 50
235.6158
 51
270.0
  0
ARC
  8
0
  6
CONTINUOUS
 62
     7
 10
173.0743
 20
167.5781
 40
16.24088
 50
252.412
 51
287.5879
  0
ARC
  8
0
  6
CONTINUOUS
 62
     7
 10
165.7131
 20
155.6821
 40
4.34489
 50
270.0
 51
304.3842
  0
ARC
  8
0
  6
CONTINUOUS
 62
     7
 10
165.7131
 20
159.9923
 40
4.3449
 50
55.61562
 51
89.99999
  0
ARC
  8
0
  6
CONTINUOUS
 62
     7
 10
173.0743
 20
148.0963
 40
16.24088
 50
72.41204
 51
107.5879
  0
ARC
  8
0
  6
CONTINUOUS
 62
     7
 10
180.4355
 20
159.9923
 40
4.34489
 50
89.99999
 51
124.3842
  0
CIRCLE
  8
0
  6
CONTINUOUS
 62
     7
 10
173.0743
 20
196.3372
 40
8.4
  0
CIRCLE
  8
0
  6
CONTINUOUS
 62
     7
 10
173.0743
 20
196.3372
 40
5.0
  0
ARC
  8
0
  6
CONTINUOUS
 62
     7
 10
117.8745
 20
163.6127
 40
12.27552
 50
249.7438
 51
290.2561
  0
ARC
  8
0
  6
CONTINUOUS
 62
     7
 10
109.3745
 20
163.6127
 40
12.27551
 50
249.7439
 51
290.2562
  0
ARC
  8
0
  6
CONTINUOUS
 62
     7
 10
109.3745
 20
152.0617
 40
12.27551
 50
69.74373
 51
110.2561
  0
ARC
  8
0
  6
CONTINUOUS
 62
     7
 10
117.8745
 20
152.0617
 40
12.2755
 50
69.7438
 51
110.2561
  0
ARC
  8
0
  6
CONTINUOUS
 62
     7
 10
180.4355
 20
-13.52359
 40
4.34489
 50
235.6158
 51
270.0
  0
ARC
  8
0
  6
CONTINUOUS
 62
     7
 10
173.0743
 20
-1.6276
 40
16.24089
 50
252.412
 51
287.5879
  0
ARC
  8
0
  6
CONTINUOUS
 62
     7
 10
165.7131
 20
-13.52359
 40
4.3449
 50
270.0
 51
304.3842
  0
ARC
  8
0
  6
CONTINUOUS
 62
     7
 10
165.7131
 20
-10.71338
 40
4.3449
 50
55.61558
 51
89.99999
  0
ARC
  8
0
  6
CONTINUOUS
 62
     7
 10
173.0743
 20
-22.60937
 40
16.24088
 50
72.41204
 51
107.5879
  0
ARC
  8
0
  6
CONTINUOUS
 62
     7
 10
180.4355
 20
-10.71338
 40
4.3449
 50
89.99999
 51
124.3842
  0
CIRCLE
  8
0
  6
CONTINUOUS
 62
     7
 10
173.0743
 20
26.63152
 40
8.4
  0
CIRCLE
  8
0
  6
CONTINUOUS
 62
     7
 10
173.0743
 20
26.63152
 40
5.0
  0
ARC
  8
0
  6
CONTINUOUS
 62
     7
 10
117.8745
 20
-5.59298
 40
12.27551
 50
249.7438
 51
290.2562
  0
ARC
  8
0
  6
CONTINUOUS
 62
     7
 10
109.3745
 20
-5.59298
 40
12.27551
 50
249.7439
 51
290.2562
  0
ARC
  8
0
  6
CONTINUOUS
 62
     7
 10
109.3745
 20
-18.644
 40
12.27551
 50
69.74374
 51
110.2561
  0
ARC
  8
0
  6
CONTINUOUS
 62
     7
 10
117.8745
 20
-18.644
 40
12.27551
 50
69.7438
 51
110.2561
  0
ARC
  8
0
  6
CONTINUOUS
 62
     7
 10
182.1676
 20
-181.2069
 40
5.36724
 50
235.6157
 51
270.0
  0
ARC
  8
0
  6
CONTINUOUS
 62
     7
 10
173.0743
 20
-166.5119
 40
20.06224
 50
252.412
 51
287.5879
  0
ARC
  8
0
  6
CONTINUOUS
 62
     7
 10
163.981
 20
-181.2069
 40
5.36723
 50
270.0
 51
304.3841
  0
ARC
  8
0
  6
CONTINUOUS
 62
     7
 10
163.981
 20
-182.9414
 40
5.36724
 50
55.61572
 51
101.0875
  0
ARC
  8
0
  6
CONTINUOUS
 62
     7
 10
173.0743
 20
-197.6364
 40
20.06225
 50
72.41201
 51
107.5878
  0
ARC
  8
0
  6
CONTINUOUS
 62
     7
 10
182.1676
 20
-182.9414
 40
5.36724
 50
78.91231
 51
124.384
  0
CIRCLE
  8
0
  6
CONTINUOUS
 62
     7
 10
173.0743
 20
-143.0741
 40
5.0
  0
CIRCLE
  8
0
  6
CONTINUOUS
 62
     7
 10
173.0743
 20
-143.0741
 40
8.4
  0
ARC
  8
0
  6
CONTINUOUS
 62
     7
 10
118.8745
 20
-171.4101
 40
15.16402
 50
249.7441
 51
290.2559
  0
ARC
  8
0
  6
CONTINUOUS
 62
     7
 10
118.8745
 20
-192.7382
 40
15.16403
 50
69.74401
 51
110.2559
  0
ARC
  8
0
  6
CONTINUOUS
 62
     7
 10
108.3745
 20
-171.4101
 40
15.16402
 50
249.7441
 51
290.2559
  0
ARC
  8
0
  6
CONTINUOUS
 62
     7
 10
108.3745
 20
-192.7382
 40
15.16402
 50
69.74406
 51
110.2559
  0
ARC
  8
0
  6
CONTINUOUS
 62
     7
 10
312.3305
 20
147.3678
 40
5.36723
 50
55.61608
 51
89.99999
  0
ARC
  8
0
  6
CONTINUOUS
 62
     7
 10
321.4237
 20
132.6728
 40
20.06224
 50
72.41206
 51
107.5878
  0
ARC
  8
0
  6
CONTINUOUS
 62
     7
 10
330.517
 20
147.3678
 40
5.36723
 50
89.99999
 51
124.3843
  0
ARC
  8
0
  6
CONTINUOUS
 62
     7
 10
312.3305
 20
138.1023
 40
5.36723
 50
270.0
 51
304.3839
  0
ARC
  8
0
  6
CONTINUOUS
 62
     7
 10
321.4237
 20
152.7973
 40
20.06224
 50
252.412
 51
287.5878
  0
ARC
  8
0
  6
CONTINUOUS
 62
     7
 10
330.517
 20
138.1023
 40
5.36724
 50
235.6157
 51
270.0
  0
CIRCLE
  8
0
  6
CONTINUOUS
 62
     7
 10
321.4237
 20
177.7351
 40
6.0
  0
CIRCLE
  8
0
  6
CONTINUOUS
 62
     7
 10
321.4237
 20
177.7351
 40
9.9
  0
ARC
  8
0
  6
CONTINUOUS
 62
     7
 10
267.2239
 20
147.8991
 40
15.16402
 50
249.7441
 51
290.2559
  0
ARC
  8
0
  6
CONTINUOUS
 62
     7
 10
267.2239
 20
137.571
 40
15.16402
 50
69.74406
 51
110.2559
  0
ARC
  8
0
  6
CONTINUOUS
 62
     7
 10
256.7239
 20
147.8991
 40
15.16402
 50
249.7441
 51
290.2559
  0
ARC
  8
0
  6
CONTINUOUS
 62
     7
 10
256.7239
 20
137.571
 40
15.16402
 50
69.74406
 51
110.2559
  0
ARC
  8
0
  6
CONTINUOUS
 62
     7
 10
312.3305
 20
-8.23573
 40
5.36723
 50
55.61605
 51
89.99999
  0
ARC
  8
0
  6
CONTINUOUS
 62
     7
 10
321.4237
 20
-22.93073
 40
20.06224
 50
72.41206
 51
107.5878
  0
ARC
  8
0
  6
CONTINUOUS
 62
     7
 10
330.517
 20
-8.23573
 40
5.36724
 50
89.99999
 51
124.3842
  0
ARC
  8
0
  6
CONTINUOUS
 62
     7
 10
312.3305
 20
-12.50124
 40
5.36724
 50
270.0
 51
304.3839
  0
ARC
  8
0
  6
CONTINUOUS
 62
     7
 10
321.4237
 20
2.19376
 40
20.06224
 50
252.412
 51
287.5878
  0
ARC
  8
0
  6
CONTINUOUS
 62
     7
 10
330.517
 20
-12.50124
 40
5.36724
 50
235.6157
 51
270.0
  0
CIRCLE
  8
0
  6
CONTINUOUS
 62
     7
 10
321.4237
 20
26.63152
 40
6.0
  0
CIRCLE
  8
0
  6
CONTINUOUS
 62
     7
 10
321.4237
 20
26.63152
 40
9.9
  0
ARC
  8
0
  6
CONTINUOUS
 62
     7
 10
267.2239
 20
-2.70446
 40
15.16402
 50
249.7441
 51
290.2559
  0
ARC
  8
0
  6
CONTINUOUS
 62
     7
 10
267.2239
 20
-18.03251
 40
15.16402
 50
69.74406
 51
110.2559
  0
ARC
  8
0
  6
CONTINUOUS
 62
     7
 10
256.7239
 20
-2.70446
 40
15.16402
 50
249.7441
 51
290.2559
  0
ARC
  8
0
  6
CONTINUOUS
 62
     7
 10
256.7239
 20
-18.03251
 40
15.16402
 50
69.74406
 51
110.2559
  0
ARC
  8
0
  6
CONTINUOUS
 62
     7
 10
312.3305
 20
-177.4414
 40
5.36723
 50
55.61608
 51
89.99999
  0
ARC
  8
0
  6
CONTINUOUS
 62
     7
 10
321.4237
 20
-192.1364
 40
20.06224
 50
72.41206
 51
107.5878
  0
ARC
  8
0
  6
CONTINUOUS
 62
     7
 10
330.517
 20
-177.4414
 40
5.36723
 50
89.99999
 51
124.3843
  0
ARC
  8
0
  6
CONTINUOUS
 62
     7
 10
312.3305
 20
-181.2069
 40
5.36723
 50
270.0
 51
304.3839
  0
ARC
  8
0
  6
CONTINUOUS
 62
     7
 10
321.4237
 20
-166.5119
 40
20.06224
 50
252.412
 51
287.5878
  0
ARC
  8
0
  6
CONTINUOUS
 62
     7
 10
330.517
 20
-181.2069
 40
5.36724
 50
235.6157
 51
270.0
  0
CIRCLE
  8
0
  6
CONTINUOUS
 62
     7
 10
321.4237
 20
-143.0741
 40
6.0
  0
CIRCLE
  8
0
  6
CONTINUOUS
 62
     7
 10
321.4237
 20
-143.0741
 40
9.9
  0
ARC
  8
0
  6
CONTINUOUS
 62
     7
 10
267.2239
 20
-171.4101
 40
15.16402
 50
249.7441
 51
290.2559
  0
ARC
  8
0
  6
CONTINUOUS
 62
     7
 10
267.2239
 20
-187.2382
 40
15.16402
 50
69.74406
 51
110.2559
  0
ARC
  8
0
  6
CONTINUOUS
 62
     7
 10
256.7239
 20
-171.4101
 40
15.16402
 50
249.7441
 51
290.2559
  0
ARC
  8
0
  6
CONTINUOUS
 62
     7
 10
256.7239
 20
-187.2382
 40
15.16402
 50
69.74406
 51
110.2559
  0
TEXT
  8
0
  6
CONTINUOUS
 62
     7
 10
227.3741
 20
211.6664
 40
7.0
  1
MODEL : TS12-02
 41
0.8
  7
STANDARD
  0
TEXT
  8
0
  6
CONTINUOUS
 62
     7
 10
229.0661
 20
236.2625
 40
8.5
  1
DATE : SEP ,1988
 41
0.8
  7
STANDARD
  0
TEXT
  8
0
  6
CONTINUOUS
 62
     7
 10
-364.385
 20
235.5575
 40
10.0
  1
QUICK FITTING,TS
 41
0.71273
  7
STANDARD
  0
TEXT
  8
0
  6
CONTINUOUS
 62
     7
 10
-366.0236
 20
215.6664
 40
7.0
  1
MODEL : TS4-M50
 41
0.8
  7
STANDARD
  0
TEXT
  8
0
  6
CONTINUOUS
 62
     7
 10
-366.0236
 20
138.4451
 40
7.0
  1
MODEL : TS4-M5
 41
0.8
  7
STANDARD
  0
TEXT
  8
0
  6
CONTINUOUS
 62
     7
 10
-366.0236
 20
36.6217
 40
7.0
  1
MODEL : TS4-M6
 41
0.8
  7
STANDARD
  0
TEXT
  8
0
  6
CONTINUOUS
 62
     7
 10
-366.0236
 20
-65.2017
 40
7.0
  1
MODEL : TS4-01
 41
0.8
  7
STANDARD
  0
TEXT
  8
0
  6
CONTINUOUS
 62
     7
 10
-366.0236
 20
-167.0251
 40
7.0
  1
MODEL : TS4-02
 41
0.8
  7
STANDARD
  0
TEXT
  8
0
  6
CONTINUOUS
 62
     7
 10
-213.4792
 20
240.2685
 40
7.0
  1
MODEL : TS6-M5
 41
0.8
  7
STANDARD
  0
TEXT
  8
0
  6
CONTINUOUS
 62
     7
 10
-217.6741
 20
112.9892
 40
7.0
  1
MODEL : TS6-01
 41
0.8
  7
STANDARD
  0
TEXT
  8
0
  6
CONTINUOUS
 62
     7
 10
-217.6741
 20
-14.29
 40
7.0
  1
MODEL : TS6-02
 41
0.8
  7
STANDARD
  0
TEXT
  8
0
  6
CONTINUOUS
 62
     7
 10
-217.6741
 20
-141.5692
 40
7.0
  1
MODEL : TS6-03
 41
0.8
  7
STANDARD
  0
TEXT
  8
0
  6
CONTINUOUS
 62
     7
 10
-69.32471
 20
240.2685
 40
7.0
  1
MODEL : TS8-01
 41
0.8
  7
STANDARD
  0
TEXT
  8
0
  6
CONTINUOUS
 62
     7
 10
-69.32471
 20
70.56283
 40
7.0
  1
MODEL : TS8-02
 41
0.8
  7
STANDARD
  0
TEXT
  8
0
  6
CONTINUOUS
 62
     7
 10
-69.32471
 20
-99.14283
 40
7.0
  1
MODEL : TS8-03
 41
0.8
  7
STANDARD
  0
TEXT
  8
0
  6
CONTINUOUS
 62
     7
 10
79.02471
 20
240.2685
 40
7.0
  1
MODEL : TS10-02
 41
0.8
  7
STANDARD
  0
TEXT
  8
0
  6
CONTINUOUS
 62
     7
 10
79.02471
 20
70.56283
 40
7.0
  1
MODEL : TS10-03
 41
0.8
  7
STANDARD
  0
TEXT
  8
0
  6
CONTINUOUS
 62
     7
 10
79.02471
 20
-99.14283
 40
7.0
  1
MODEL : TS10-04
 41
0.8
  7
STANDARD
  0
TEXT
  8
0
  6
CONTINUOUS
 62
     7
 10
227.3741
 20
70.56283
 40
7.0
  1
MODEL : TS12-03
 41
0.8
  7
STANDARD
  0
TEXT
  8
0
  6
CONTINUOUS
 62
     7
 10
227.3741
 20
-99.14283
 40
7.0
  1
MODEL : TS12-04
 41
0.8
  7
STANDARD
  0
ENDSEC
  0
EOF
