  0
SECTION
  2
HEADER
  0
ENDSEC
  0
SECTION
  2
TABLES
  0
TABLE
  2
LTYPE
 70
     4
  0
LTYPE
  2
CONTINUOUS
 70
    64
  3
Solid line
 72
    65
 73
     0
 40
0.000000
  0
LTYPE
  2
DASHED
 70
    64
  3
__ __ __ __ __ __ __ __ __ __ __ __ __ __ __
 72
    65
 73
     2
 40
3.500000
 49
2.000000
 49
-1.500000
  0
LTYPE
  2
CENTER
 70
    64
  3
____ _ ____ _ ____ _ ____ _ ____ _ ____ _ ____
 72
    65
 73
     4
 40
17.500000
 49
13.000000
 49
-1.500000
 49
1.500000
 49
-1.500000
  0
LTYPE
  2
PHANTOM
 70
    64
  3
_____ _ _ _____ _ _ _____ _ _ _____ _ _ ____  
 72
    65
 73
     6
 40
15.500000
 49
8.000000
 49
-1.500000
 49
1.500000
 49
-1.500000
 49
1.500000
 49
-1.500000
  0
LTYPE
  2
DASHED1
 70
    64
  3
__ __ __ __ __ __ __ __ __ __ __ __ __ __ __
 72
    65
 73
     2
 40
1.500000
 49
1.000000
 49
-0.500000
  0
LTYPE
  2
DASHED2
 70
    64
  3
__ __ __ __ __ __ __ __ __ __ __ __ __ __ __
 72
    65
 73
     2
 40
3.500000
 49
2.500000
 49
-1.000000
  0
LTYPE
  2
DASHED3
 70
    64
  3
__ __ __ __ __ __ __ __ __ __ __ __ __ __ __
 72
    65
 73
     2
 40
6.000000
 49
4.000000
 49
-2.000000
  0
LTYPE
  2
DASHED4
 70
    64
  3
__ __ __ __ __ __ __ __ __ __ __ __ __ __ __
 72
    65
 73
     2
 40
12.000000
 49
10.000000
 49
-2.000000
  0
LTYPE
  2
DASHED5
 70
    64
  3
__ __ __ __ __ __ __ __ __ __ __ __ __ __ __
 72
    65
 73
     2
 40
17.000000
 49
15.000000
 49
-2.000000
  0
LTYPE
  2
DASHED6
 70
    64
  3
__ __ __ __ __ __ __ __ __ __ __ __ __ __ __
 72
    65
 73
     2
 40
29.000000
 49
27.000000
 49
-2.000000
  0
LTYPE
  2
PHANTOM1
 70
    64
  3
_____ _ _ _____ _ _ _____ _ _ _____ _ _ ____  
 72
    65
 73
     6
 40
31.000000
 49
25.000000
 49
-1.500000
 49
1.000000
 49
-1.000000
 49
1.000000
 49
-1.500000
  0
LTYPE
  2
PHANTOM2
 70
    64
  3
_____ _ _ _____ _ _ _____ _ _ _____ _ _ ____  
 72
    65
 73
     6
 40
36.000000
 49
27.000000
 49
-1.500000
 49
2.500000
 49
-1.000000
 49
2.500000
 49
-1.500000
  0
LTYPE
  2
PHANTOM3
 70
    64
  3
_____ _ _ _____ _ _ _____ _ _ _____ _ _ ____  
 72
    65
 73
     6
 40
78.000000
 49
64.000000
 49
-2.000000
 49
4.000000
 49
-2.000000
 49
4.000000
 49
-2.000000
  0
LTYPE
  2
CENTER1
 70
    64
  3
____ _ ____ _ ____ _ ____ _ ____ _ ____ _ ____
 72
    65
 73
     4
 40
19.000000
 49
14.000000
 49
-1.000000
 49
3.000000
 49
-1.000000
  0
LTYPE
  2
CENTER2
 70
    64
  3
____ _ ____ _ ____ _ ____ _ ____ _ ____ _ ____
 72
    65
 73
     4
 40
28.500000
 49
25.000000
 49
-1.000000
 49
1.500000
 49
-1.000000
  0
LTYPE
  2
CENTER3
 70
    64
  3
____ _ ____ _ ____ _ ____ _ ____ _ ____ _ ____
 72
    65
 73
     4
 40
31.500000
 49
27.000000
 49
-1.000000
 49
2.500000
 49
-1.000000
  0
LTYPE
  2
CENTER4
 70
    64
  3
____ _ ____ _ ____ _ ____ _ ____ _ ____ _ ____
 72
    65
 73
     4
 40
50.000000
 49
45.000000
 49
-1.000000
 49
3.000000
 49
-1.000000
  0
LTYPE
  2
CENTER5
 70
    64
  3
____ _ ____ _ ____ _ ____ _ ____ _ ____ _ ____
 72
    65
 73
     4
 40
100.000000
 49
92.000000
 49
-2.000000
 49
4.000000
 49
-2.000000
  0
LTYPE
  2
SBK1
 70
    64
  3
______ _ _ _ ______ _ _ _ ______ _ _ _ _____  
 72
    65
 73
     8
 40
60.500000
 49
45.000000
 49
-2.000000
 49
2.500000
 49
-2.000000
 49
2.500000
 49
-2.000000
 49
2.500000
 49
-2.000000
  0
LTYPE
  2
SBK2
 70
    64
  3
______ _ _ _ ______ _ _ _ ______ _ _ _ _____  
 72
    65
 73
     8
 40
84.000000
 49
64.000000
 49
-2.000000
 49
4.000000
 49
-2.000000
 49
4.000000
 49
-2.000000
 49
4.000000
 49
-2.000000
  0
LTYPE
  2
STCH
 70
    64
  3
__ __ __ __ __ __ __ __ __ __ __ __ __ __ __
 72
    65
 73
     2
 40
3.000000
 49
1.000000
 49
-2.000000
  0
LTYPE
  2
MTCH
 70
    64
  3
_____ _ _ _____ _ _ _____ _ _ _____ _ _ ____  
 72
    65
 73
     6
 40
80.000000
 49
66.000000
 49
-2.000000
 49
4.000000
 49
-2.000000
 49
4.000000
 49
-2.000000
  0
ENDTAB
  0
TABLE
  2
LAYER
 70
     1
  0
LAYER
  2
0
 70
     0
 62
     7
  6
CONTINUOUS
  0
ENDTAB
  0
TABLE
  2
STYLE
 70
     1
  0
STYLE
  2
STANDARD
 70
     0
 40
0.000000
 41
1.000000
 50
0.000000
 71
     0
 42
0.200000
  3
txt
  4
BIGFONT
  0
ENDTAB
  0
TABLE
  2
VIEW
 70
     0
  0
ENDTAB
  0
ENDSEC
  0
SECTION
  2
BLOCKS
  0
ENDSEC
  0
SECTION
  2
ENTITIES
  0
LINE
  8
0
 10
-94.250000
 20
132.600006
 11
-94.250000
 21
117.600006
  0
LINE
  8
0
 10
-194.250000
 20
117.600006
 11
-94.250000
 21
117.600006
  0
LINE
  8
0
 10
94.800003
 20
132.600006
 11
94.800003
 21
117.600006
  0
LINE
  8
0
 10
94.800003
 20
117.600006
 11
194.800003
 21
117.600006
  0
LINE
  8
0
 10
94.800003
 20
-113.500000
 11
94.800003
 21
-133.500000
  0
LINE
  8
0
 10
94.800003
 20
-113.500000
 11
194.800003
 21
-113.500000
  0
LINE
  8
0
 10
-194.250000
 20
-123.500000
 11
94.800003
 21
-123.500000
  0
LINE
  8
0
 10
210.000000
 20
148.500000
 11
210.000000
 21
-148.500000
  0
LINE
  8
0
 10
-210.000000
 20
148.500000
 11
-210.000000
 21
-148.500000
  0
LINE
  8
0
 10
-210.000000
 20
148.500000
 11
210.000000
 21
148.500000
  0
LINE
  8
0
 10
-210.000000
 20
-148.500000
 11
210.000000
 21
-148.500000
  0
LINE
  8
0
 10
-194.250000
 20
132.600006
 11
194.800003
 21
132.600006
  0
LINE
  8
0
 10
194.800003
 20
132.600006
 11
194.800003
 21
-133.500000
  0
LINE
  8
0
 10
-194.250000
 20
132.600006
 11
-194.250000
 21
-133.500000
  0
LINE
  8
0
 10
-194.250000
 20
-133.500000
 11
194.800003
 21
-133.500000
  0
LINE
  8
0
 10
-194.250000
 20
-0.449997
 11
194.800003
 21
-0.449997
  0
LINE
  8
0
 10
0.275002
 20
132.600006
 11
0.275002
 21
-133.500000
  0
LINE
  8
0
 10
-194.250000
 20
9.550003
 11
194.800003
 21
9.550003
  0
TEXT
  8
0
 10
-194.128311
 20
120.880005
 40
5.800000
  1
QUICK FITTING,TSK
 50
0.000000
 41
1.052632
 51
0.000000
  7
STANDARD
  0
TEXT
  8
0
 10
100.721687
 20
120.880005
 40
5.800000
  1
DATE: MAY ,1992
 50
0.000000
 41
1.052632
 51
0.000000
  7
STANDARD
  0
TEXT
  8
0
 10
90.700897
 20
-128.800003
 40
7.000000
  1
ＫＯＧＡＮＥＩ，ＣＯＲＰ．
 50
0.000000
 41
0.902367
 51
15.000000
  7
STANDARD
  0
TEXT
  8
0
 10
5.525002
 20
2.550003
 40
5.000000
  1
MODEL:TSK4-M6M
 50
0.000000
 41
1.052632
 51
0.000000
  7
STANDARD
  0
TEXT
  8
0
 10
-189.000000
 20
-130.500000
 40
5.000000
  1
MODEL:TSK4-M8M
 50
0.000000
 41
1.052632
 51
0.000000
  7
STANDARD
  0
TEXT
  8
0
 10
5.525002
 20
-130.500000
 40
5.000000
  1
MODEL:TSK6-M8M
 50
0.000000
 41
1.052632
 51
0.000000
  7
STANDARD
  0
TEXT
  8
0
 10
-189.000000
 20
2.550003
 40
5.000000
  1
MODEL:TSK3-M6M
 50
0.000000
 41
1.052632
 51
0.000000
  7
STANDARD
  0
POINT
  8
0
 10
-97.908752
 20
101.657272
  0
POINT
  8
0
 10
-93.008751
 20
101.657272
  0
LINE
  8
0
  6
CENTER
 10
-97.908752
 20
109.248146
 11
-97.908752
 21
94.124741
  0
LINE
  8
0
  6
CENTER
 10
-106.844193
 20
101.657272
 11
-88.990173
 21
101.657272
  0
CIRCLE
  8
0
 10
-97.908752
 20
101.657272
 40
1.625000
  0
ARC
  8
0
 10
-96.126480
 20
101.657272
 40
3.117723
 50
347.454346
 51
12.545643
  0
ARC
  8
0
 10
-96.599533
 20
101.503204
 40
3.613261
 50
13.301003
 51
47.428688
  0
ARC
  8
0
 10
-97.908752
 20
99.803871
 40
5.753397
 50
49.275883
 51
130.724121
  0
ARC
  8
0
 10
-99.217972
 20
101.503204
 40
3.613260
 50
132.571320
 51
166.699005
  0
ARC
  8
0
 10
-99.691025
 20
101.657272
 40
3.117723
 50
167.454361
 51
192.545639
  0
ARC
  8
0
 10
-99.217972
 20
101.811340
 40
3.613261
 50
193.300995
 51
227.428680
  0
ARC
  8
0
 10
-97.908752
 20
103.510674
 40
5.753397
 50
229.275879
 51
310.724121
  0
ARC
  8
0
 10
-96.599533
 20
101.811340
 40
3.613260
 50
312.571320
 51
346.699005
  0
POINT
  8
0
 10
-97.908752
 20
59.700287
  0
POINT
  8
0
 10
-94.908752
 20
59.700287
  0
LINE
  8
0
  6
CENTER
 10
-97.908752
 20
74.190788
 11
-97.908752
 21
52.526104
  0
LINE
  8
0
 10
-93.008751
 20
70.600281
 11
-93.008751
 21
69.400284
  0
LINE
  8
0
 10
-95.308754
 20
69.400284
 11
-95.308754
 21
68.600281
  0
LINE
  8
0
 10
-102.808754
 20
70.600281
 11
-102.808754
 21
69.400284
  0
LINE
  8
0
 10
-100.508751
 20
69.400284
 11
-100.508751
 21
68.600281
  0
LINE
  8
0
 10
-100.908752
 20
56.600288
 11
-94.908752
 21
56.600288
  0
LINE
  8
0
 10
-101.908752
 20
68.600281
 11
-93.908752
 21
68.600281
  0
LINE
  8
0
 10
-101.908752
 20
60.200287
 11
-93.908752
 21
60.200287
  0
LINE
  8
0
 10
-101.908752
 20
59.700287
 11
-93.908752
 21
59.700287
  0
LINE
  8
0
 10
-93.908752
 20
68.600281
 11
-93.908752
 21
59.700287
  0
LINE
  8
0
 10
-101.908752
 20
68.600281
 11
-101.908752
 21
59.700287
  0
LINE
  8
0
 10
-94.908752
 20
59.600288
 11
-94.908752
 21
56.600288
  0
LINE
  8
0
 10
-100.908752
 20
59.600288
 11
-100.908752
 21
56.600288
  0
LINE
  8
0
 10
-100.533752
 20
59.600288
 11
-100.533752
 21
56.600288
  0
LINE
  8
0
 10
-95.283752
 20
59.600288
 11
-95.283752
 21
56.600288
  0
LINE
  8
0
 10
-102.808754
 20
70.600281
 11
-93.008751
 21
70.600281
  0
LINE
  8
0
 10
-102.808754
 20
69.400284
 11
-93.008751
 21
69.400284
  0
POINT
  8
0
 10
-97.908752
 20
35.157272
  0
POINT
  8
0
 10
-93.908752
 20
35.157272
  0
LINE
  8
0
  6
CENTER
 10
-106.088280
 20
35.157272
 11
-89.824760
 21
35.157272
  0
LINE
  8
0
  6
CENTER
 10
-97.908752
 20
42.573818
 11
-97.908752
 21
27.711380
  0
LINE
  8
0
 10
-98.486107
 20
36.157272
 11
-97.331398
 21
36.157272
  0
LINE
  8
0
 10
-98.486099
 20
34.157272
 11
-97.331406
 21
34.157272
  0
LINE
  8
0
 10
-99.063461
 20
35.157276
 11
-98.486115
 21
36.157276
  0
LINE
  8
0
 10
-97.331406
 20
34.157276
 11
-96.754051
 21
35.157276
  0
LINE
  8
0
 10
-99.063454
 20
35.157269
 11
-98.486099
 21
34.157269
  0
LINE
  8
0
 10
-97.331398
 20
36.157269
 11
-96.754051
 21
35.157269
  0
CIRCLE
  8
0
 10
-97.908752
 20
35.157272
 40
3.000000
  0
CIRCLE
  8
0
 10
-97.908752
 20
35.157272
 40
2.600000
  0
CIRCLE
  8
0
 10
-97.908752
 20
35.157272
 40
4.000000
  0
POINT
  8
0
 10
87.227425
 20
100.102272
  0
POINT
  8
0
 10
92.127419
 20
100.102272
  0
LINE
  8
0
  6
CENTER
 10
87.227425
 20
108.502869
 11
87.227425
 21
91.701675
  0
LINE
  8
0
  6
CENTER
 10
77.721489
 20
100.102272
 11
97.175499
 21
100.102272
  0
CIRCLE
  8
0
 10
87.227417
 20
100.102272
 40
2.100000
  0
ARC
  8
0
 10
89.009689
 20
100.102272
 40
3.117723
 50
347.454346
 51
12.545643
  0
ARC
  8
0
 10
88.536636
 20
99.948204
 40
3.613261
 50
13.301003
 51
47.428688
  0
ARC
  8
0
 10
87.227417
 20
98.248871
 40
5.753397
 50
49.275883
 51
130.724121
  0
ARC
  8
0
 10
85.918198
 20
99.948204
 40
3.613260
 50
132.571320
 51
166.699005
  0
ARC
  8
0
 10
85.445145
 20
100.102272
 40
3.117723
 50
167.454361
 51
192.545639
  0
ARC
  8
0
 10
85.918198
 20
100.256340
 40
3.613261
 50
193.300995
 51
227.428680
  0
ARC
  8
0
 10
87.227417
 20
101.955673
 40
5.753397
 50
229.275879
 51
310.724121
  0
ARC
  8
0
 10
88.536636
 20
100.256340
 40
3.613260
 50
312.571320
 51
346.699005
  0
POINT
  8
0
 10
87.227425
 20
58.145287
  0
POINT
  8
0
 10
90.227417
 20
58.145287
  0
LINE
  8
0
 10
84.227417
 20
55.245285
 11
90.227417
 21
55.245285
  0
LINE
  8
0
 10
83.227417
 20
67.245285
 11
91.227417
 21
67.245285
  0
LINE
  8
0
 10
83.227417
 20
58.645287
 11
91.227417
 21
58.645287
  0
LINE
  8
0
 10
83.227417
 20
58.145287
 11
91.227417
 21
58.145287
  0
LINE
  8
0
 10
91.227417
 20
67.245285
 11
91.227417
 21
58.145287
  0
LINE
  8
0
 10
83.227417
 20
67.245285
 11
83.227417
 21
58.145287
  0
LINE
  8
0
 10
90.227417
 20
58.145287
 11
90.227417
 21
55.245285
  0
LINE
  8
0
 10
84.227417
 20
58.145287
 11
84.227417
 21
55.245285
  0
LINE
  8
0
 10
84.602417
 20
58.145287
 11
84.602417
 21
55.245285
  0
LINE
  8
0
 10
89.852417
 20
58.145287
 11
89.852417
 21
55.245285
  0
LINE
  8
0
 10
82.327415
 20
69.245285
 11
92.127419
 21
69.245285
  0
LINE
  8
0
 10
82.327415
 20
68.045288
 11
92.127419
 21
68.045288
  0
LINE
  8
0
 10
92.127419
 20
69.245285
 11
92.127419
 21
68.045288
  0
LINE
  8
0
 10
82.327415
 20
69.245285
 11
82.327415
 21
68.045288
  0
LINE
  8
0
 10
90.327415
 20
68.045288
 11
90.327415
 21
67.245285
  0
LINE
  8
0
 10
84.127419
 20
68.045288
 11
84.127419
 21
67.245285
  0
LINE
  8
0
  6
CENTER
 10
87.227425
 20
72.735794
 11
87.227425
 21
52.402279
  0
POINT
  8
0
  6
CENTER
 10
87.227425
 20
35.702271
  0
POINT
  8
0
  6
CENTER
 10
91.227425
 20
35.702271
  0
LINE
  8
0
  6
CENTER
 10
78.163628
 20
35.702271
 11
95.849091
 21
35.702271
  0
LINE
  8
0
  6
CENTER
 10
87.227425
 20
44.102863
 11
87.227425
 21
27.743813
  0
LINE
  8
0
 10
86.505737
 20
36.952271
 11
87.949120
 21
36.952271
  0
LINE
  8
0
 10
86.505745
 20
34.452271
 11
87.949112
 21
34.452271
  0
LINE
  8
0
 10
85.784058
 20
35.702274
 11
86.505745
 21
36.952274
  0
LINE
  8
0
 10
87.949112
 20
34.452271
 11
88.670799
 21
35.702271
  0
LINE
  8
0
 10
85.784050
 20
35.702278
 11
86.505737
 21
34.452274
  0
LINE
  8
0
 10
87.949120
 20
36.952278
 11
88.670807
 21
35.702282
  0
CIRCLE
  8
0
 10
87.227425
 20
35.702271
 40
3.000000
  0
CIRCLE
  8
0
 10
87.227425
 20
35.702271
 40
2.600000
  0
CIRCLE
  8
0
 10
87.227425
 20
35.702271
 40
4.000000
  0
POINT
  8
0
 10
-96.952225
 20
-24.717886
  0
POINT
  8
0
 10
-92.052223
 20
-24.717886
  0
LINE
  8
0
  6
CENTER
 10
-96.952225
 20
-14.990883
 11
-96.952225
 21
-34.002754
  0
LINE
  8
0
  6
CENTER
 10
-106.900299
 20
-24.717886
 11
-87.004150
 21
-24.717886
  0
CIRCLE
  8
0
 10
-96.952225
 20
-24.717886
 40
2.100000
  0
CIRCLE
  8
0
 10
-96.952225
 20
-24.717886
 40
5.000000
  0
ARC
  8
0
 10
-95.169960
 20
-24.717886
 40
3.117731
 50
347.454315
 51
12.545681
  0
ARC
  8
0
 10
-95.643013
 20
-24.871956
 40
3.613270
 50
13.301063
 51
47.428680
  0
ARC
  8
0
 10
-96.952225
 20
-26.571276
 40
5.753392
 50
49.275845
 51
130.724152
  0
ARC
  8
0
 10
-98.261436
 20
-24.871956
 40
3.613271
 50
132.571320
 51
166.698944
  0
ARC
  8
0
 10
-98.734489
 20
-24.717886
 40
3.117731
 50
167.454315
 51
192.545685
  0
ARC
  8
0
 10
-98.261436
 20
-24.563816
 40
3.613270
 50
193.301056
 51
227.428680
  0
ARC
  8
0
 10
-96.952225
 20
-22.864496
 40
5.753392
 50
229.275848
 51
310.724152
  0
ARC
  8
0
 10
-95.643013
 20
-24.563816
 40
3.613271
 50
312.571320
 51
346.698944
  0
POINT
  8
0
 10
-96.952225
 20
-65.817490
  0
POINT
  8
0
 10
-92.952225
 20
-65.817490
  0
LINE
  8
0
  6
CENTER
 10
-96.952225
 20
-52.111259
 11
-96.952225
 21
-73.517883
  0
LINE
  8
0
 10
-100.952225
 20
-69.217491
 11
-92.952225
 21
-69.217491
  0
LINE
  8
0
 10
-101.952225
 20
-57.217491
 11
-91.952225
 21
-57.217491
  0
LINE
  8
0
 10
-101.952225
 20
-65.317490
 11
-91.952225
 21
-65.317490
  0
LINE
  8
0
 10
-101.952225
 20
-65.817490
 11
-91.952225
 21
-65.817490
  0
LINE
  8
0
 10
-91.952225
 20
-57.217491
 11
-91.952225
 21
-65.817490
  0
LINE
  8
0
 10
-101.952225
 20
-57.217491
 11
-101.952225
 21
-65.817490
  0
LINE
  8
0
 10
-92.952225
 20
-65.817490
 11
-92.952225
 21
-69.217491
  0
LINE
  8
0
 10
-100.952225
 20
-65.817490
 11
-100.952225
 21
-69.217491
  0
LINE
  8
0
 10
-100.577225
 20
-65.817490
 11
-100.577225
 21
-69.217491
  0
LINE
  8
0
 10
-93.327225
 20
-65.817490
 11
-93.327225
 21
-69.217491
  0
LINE
  8
0
 10
-101.852226
 20
-55.217491
 11
-92.052223
 21
-55.217491
  0
LINE
  8
0
 10
-101.852226
 20
-56.417488
 11
-92.052223
 21
-56.417488
  0
LINE
  8
0
 10
-101.852226
 20
-55.217491
 11
-101.852226
 21
-56.417488
  0
LINE
  8
0
 10
-92.052223
 20
-55.217491
 11
-92.052223
 21
-56.417488
  0
LINE
  8
0
 10
-93.852226
 20
-56.417488
 11
-93.852226
 21
-57.217491
  0
LINE
  8
0
 10
-100.052223
 20
-56.417488
 11
-100.052223
 21
-57.217491
  0
POINT
  8
0
 10
-96.952225
 20
-88.717880
  0
POINT
  8
0
 10
-91.952225
 20
-88.717880
  0
LINE
  8
0
  6
CENTER
 10
-106.900299
 20
-88.717880
 11
-87.004150
 21
-88.717880
  0
LINE
  8
0
  6
CENTER
 10
-96.952225
 20
-79.875153
 11
-96.952225
 21
-98.444885
  0
LINE
  8
0
 10
-97.818253
 20
-87.217880
 11
-96.086197
 21
-87.217880
  0
LINE
  8
0
 10
-97.818253
 20
-90.217880
 11
-96.086205
 21
-90.217880
  0
LINE
  8
0
 10
-98.684273
 20
-88.717873
 11
-97.818253
 21
-87.217880
  0
LINE
  8
0
 10
-96.086205
 20
-90.217880
 11
-95.220177
 21
-88.717880
  0
LINE
  8
0
 10
-98.684288
 20
-88.717888
 11
-97.818268
 21
-90.217880
  0
LINE
  8
0
 10
-96.086205
 20
-87.217888
 11
-95.220177
 21
-88.717888
  0
CIRCLE
  8
0
 10
-96.952225
 20
-88.717880
 40
1.750000
  0
CIRCLE
  8
0
 10
-96.952225
 20
-88.717880
 40
4.000000
  0
CIRCLE
  8
0
 10
-96.952225
 20
-88.717880
 40
3.600000
  0
CIRCLE
  8
0
 10
-96.952225
 20
-88.717880
 40
5.000000
  0
POINT
  8
0
 10
88.882370
 20
-26.019844
  0
POINT
  8
0
 10
94.782372
 20
-26.019844
  0
LINE
  8
0
  6
CENTER
 10
88.882370
 20
-15.408568
 11
88.882370
 21
-36.631119
  0
LINE
  8
0
  6
CENTER
 10
77.607887
 20
-26.019844
 11
101.041122
 21
-26.019844
  0
CIRCLE
  8
0
 10
88.882370
 20
-26.019844
 40
3.100000
  0
ARC
  8
0
 10
90.698967
 20
-26.019844
 40
4.083401
 50
347.972900
 51
12.027100
  0
ARC
  8
0
 10
90.216789
 20
-26.170343
 40
4.586593
 50
12.610765
 51
46.015144
  0
ARC
  8
0
 10
88.882370
 20
-27.830252
 40
6.710411
 50
47.659920
 51
132.340073
  0
ARC
  8
0
 10
87.547951
 20
-26.170343
 40
4.586591
 50
133.984863
 51
167.389236
  0
ARC
  8
0
 10
87.065773
 20
-26.019844
 40
4.083401
 50
167.972900
 51
192.027100
  0
ARC
  8
0
 10
87.547951
 20
-25.869345
 40
4.586593
 50
192.610764
 51
226.015137
  0
ARC
  8
0
 10
88.882370
 20
-24.209436
 40
6.710411
 50
227.659927
 51
312.340088
  0
ARC
  8
0
 10
90.216789
 20
-25.869345
 40
4.586591
 50
313.984863
 51
347.389221
  0
POINT
  8
0
 10
88.882370
 20
-67.600670
  0
POINT
  8
0
 10
92.882370
 20
-67.600670
  0
LINE
  8
0
  6
CENTER
 10
88.882370
 20
-51.441620
 11
88.882370
 21
-74.874855
  0
LINE
  8
0
 10
84.882370
 20
-71.000671
 11
92.882370
 21
-71.000671
  0
LINE
  8
0
 10
83.882370
 20
-58.600670
 11
93.882370
 21
-58.600670
  0
LINE
  8
0
 10
83.882370
 20
-67.100670
 11
93.882370
 21
-67.100670
  0
LINE
  8
0
 10
83.882370
 20
-67.600670
 11
93.882370
 21
-67.600670
  0
LINE
  8
0
 10
93.882370
 20
-58.600670
 11
93.882370
 21
-67.600670
  0
LINE
  8
0
 10
83.882370
 20
-58.600670
 11
83.882370
 21
-67.600670
  0
LINE
  8
0
 10
92.882370
 20
-67.600670
 11
92.882370
 21
-71.000671
  0
LINE
  8
0
 10
84.882370
 20
-67.600670
 11
84.882370
 21
-71.000671
  0
LINE
  8
0
 10
85.257370
 20
-67.600670
 11
85.257370
 21
-71.000671
  0
LINE
  8
0
 10
92.507370
 20
-67.600670
 11
92.507370
 21
-71.000671
  0
LINE
  8
0
 10
82.982368
 20
-56.300671
 11
94.782372
 21
-56.300671
  0
LINE
  8
0
 10
82.982368
 20
-57.500671
 11
94.782372
 21
-57.500671
  0
LINE
  8
0
 10
94.782372
 20
-56.300671
 11
94.782372
 21
-57.500671
  0
LINE
  8
0
 10
82.982368
 20
-56.300671
 11
82.982368
 21
-57.500671
  0
LINE
  8
0
 10
92.982368
 20
-57.500671
 11
92.982368
 21
-58.600670
  0
LINE
  8
0
 10
84.782372
 20
-57.500671
 11
84.782372
 21
-58.600670
  0
POINT
  8
0
 10
88.882370
 20
-67.600670
  0
POINT
  8
0
 10
92.882370
 20
-67.600670
  0
LINE
  8
0
  6
CENTER
 10
88.882370
 20
-51.441620
 11
88.882370
 21
-74.874855
  0
LINE
  8
0
 10
84.882370
 20
-71.000671
 11
92.882370
 21
-71.000671
  0
LINE
  8
0
 10
83.882370
 20
-58.600670
 11
93.882370
 21
-58.600670
  0
LINE
  8
0
 10
83.882370
 20
-67.100670
 11
93.882370
 21
-67.100670
  0
LINE
  8
0
 10
83.882370
 20
-67.600670
 11
93.882370
 21
-67.600670
  0
LINE
  8
0
 10
93.882370
 20
-58.600670
 11
93.882370
 21
-67.600670
  0
LINE
  8
0
 10
83.882370
 20
-58.600670
 11
83.882370
 21
-67.600670
  0
LINE
  8
0
 10
92.882370
 20
-67.600670
 11
92.882370
 21
-71.000671
  0
LINE
  8
0
 10
84.882370
 20
-67.600670
 11
84.882370
 21
-71.000671
  0
LINE
  8
0
 10
85.257370
 20
-67.600670
 11
85.257370
 21
-71.000671
  0
LINE
  8
0
 10
92.507370
 20
-67.600670
 11
92.507370
 21
-71.000671
  0
LINE
  8
0
 10
82.982368
 20
-56.300671
 11
94.782372
 21
-56.300671
  0
LINE
  8
0
 10
82.982368
 20
-57.500671
 11
94.782372
 21
-57.500671
  0
LINE
  8
0
 10
94.782372
 20
-56.300671
 11
94.782372
 21
-57.500671
  0
LINE
  8
0
 10
82.982368
 20
-56.300671
 11
82.982368
 21
-57.500671
  0
LINE
  8
0
 10
92.982368
 20
-57.500671
 11
92.982368
 21
-58.600670
  0
LINE
  8
0
 10
84.782372
 20
-57.500671
 11
84.782372
 21
-58.600670
  0
POINT
  8
0
 10
88.882370
 20
-93.219841
  0
POINT
  8
0
 10
93.882370
 20
-93.219841
  0
LINE
  8
0
  6
CENTER
 10
78.934296
 20
-93.219841
 11
98.830444
 21
-93.219841
  0
LINE
  8
0
  6
CENTER
 10
88.882370
 20
-83.492836
 11
88.882370
 21
-102.504707
  0
LINE
  8
0
 10
87.727669
 20
-91.219841
 11
90.037071
 21
-91.219841
  0
LINE
  8
0
 10
87.727669
 20
-95.219841
 11
90.037071
 21
-95.219841
  0
LINE
  8
0
 10
86.572968
 20
-93.219841
 11
87.727669
 21
-95.219841
  0
LINE
  8
0
 10
90.037071
 20
-91.219841
 11
91.191772
 21
-93.219841
  0
LINE
  8
0
 10
86.572983
 20
-93.219849
 11
87.727684
 21
-91.219849
  0
LINE
  8
0
 10
90.037071
 20
-95.219849
 11
91.191772
 21
-93.219849
  0
CIRCLE
  8
0
 10
88.882370
 20
-93.219841
 40
2.300000
  0
CIRCLE
  8
0
 10
88.882370
 20
-93.219841
 40
4.000000
  0
CIRCLE
  8
0
 10
88.882370
 20
-93.219841
 40
3.600000
  0
CIRCLE
  8
0
 10
88.882370
 20
-93.219841
 40
5.000000
  0
ENDSEC
  0
EOF
