  0
SECTION
  2
HEADER
  0
ENDSEC
  0
SECTION
  2
TABLES
  0
TABLE
  2
LTYPE
 70
     4
  0
LTYPE
  2
CONTINUOUS
 70
    64
  3
Solid line
 72
    65
 73
     0
 40
0.000000
  0
LTYPE
  2
DASHED
 70
    64
  3
__ __ __ __ __ __ __ __ __ __ __ __ __ __ __
 72
    65
 73
     2
 40
3.500000
 49
2.000000
 49
-1.500000
  0
LTYPE
  2
CENTER
 70
    64
  3
____ _ ____ _ ____ _ ____ _ ____ _ ____ _ ____
 72
    65
 73
     4
 40
17.500000
 49
13.000000
 49
-1.500000
 49
1.500000
 49
-1.500000
  0
LTYPE
  2
PHANTOM
 70
    64
  3
_____ _ _ _____ _ _ _____ _ _ _____ _ _ ____  
 72
    65
 73
     6
 40
15.500000
 49
8.000000
 49
-1.500000
 49
1.500000
 49
-1.500000
 49
1.500000
 49
-1.500000
  0
LTYPE
  2
DASHED1
 70
    64
  3
__ __ __ __ __ __ __ __ __ __ __ __ __ __ __
 72
    65
 73
     2
 40
1.500000
 49
1.000000
 49
-0.500000
  0
LTYPE
  2
DASHED2
 70
    64
  3
__ __ __ __ __ __ __ __ __ __ __ __ __ __ __
 72
    65
 73
     2
 40
3.500000
 49
2.500000
 49
-1.000000
  0
LTYPE
  2
DASHED3
 70
    64
  3
__ __ __ __ __ __ __ __ __ __ __ __ __ __ __
 72
    65
 73
     2
 40
6.000000
 49
4.000000
 49
-2.000000
  0
LTYPE
  2
DASHED4
 70
    64
  3
__ __ __ __ __ __ __ __ __ __ __ __ __ __ __
 72
    65
 73
     2
 40
12.000000
 49
10.000000
 49
-2.000000
  0
LTYPE
  2
DASHED5
 70
    64
  3
__ __ __ __ __ __ __ __ __ __ __ __ __ __ __
 72
    65
 73
     2
 40
17.000000
 49
15.000000
 49
-2.000000
  0
LTYPE
  2
DASHED6
 70
    64
  3
__ __ __ __ __ __ __ __ __ __ __ __ __ __ __
 72
    65
 73
     2
 40
29.000000
 49
27.000000
 49
-2.000000
  0
LTYPE
  2
PHANTOM1
 70
    64
  3
_____ _ _ _____ _ _ _____ _ _ _____ _ _ ____  
 72
    65
 73
     6
 40
31.000000
 49
25.000000
 49
-1.500000
 49
1.000000
 49
-1.000000
 49
1.000000
 49
-1.500000
  0
LTYPE
  2
PHANTOM2
 70
    64
  3
_____ _ _ _____ _ _ _____ _ _ _____ _ _ ____  
 72
    65
 73
     6
 40
36.000000
 49
27.000000
 49
-1.500000
 49
2.500000
 49
-1.000000
 49
2.500000
 49
-1.500000
  0
LTYPE
  2
PHANTOM3
 70
    64
  3
_____ _ _ _____ _ _ _____ _ _ _____ _ _ ____  
 72
    65
 73
     6
 40
78.000000
 49
64.000000
 49
-2.000000
 49
4.000000
 49
-2.000000
 49
4.000000
 49
-2.000000
  0
LTYPE
  2
CENTER1
 70
    64
  3
____ _ ____ _ ____ _ ____ _ ____ _ ____ _ ____
 72
    65
 73
     4
 40
19.000000
 49
14.000000
 49
-1.000000
 49
3.000000
 49
-1.000000
  0
LTYPE
  2
CENTER2
 70
    64
  3
____ _ ____ _ ____ _ ____ _ ____ _ ____ _ ____
 72
    65
 73
     4
 40
28.500000
 49
25.000000
 49
-1.000000
 49
1.500000
 49
-1.000000
  0
LTYPE
  2
CENTER3
 70
    64
  3
____ _ ____ _ ____ _ ____ _ ____ _ ____ _ ____
 72
    65
 73
     4
 40
31.500000
 49
27.000000
 49
-1.000000
 49
2.500000
 49
-1.000000
  0
LTYPE
  2
CENTER4
 70
    64
  3
____ _ ____ _ ____ _ ____ _ ____ _ ____ _ ____
 72
    65
 73
     4
 40
50.000000
 49
45.000000
 49
-1.000000
 49
3.000000
 49
-1.000000
  0
LTYPE
  2
CENTER5
 70
    64
  3
____ _ ____ _ ____ _ ____ _ ____ _ ____ _ ____
 72
    65
 73
     4
 40
100.000000
 49
92.000000
 49
-2.000000
 49
4.000000
 49
-2.000000
  0
LTYPE
  2
SBK1
 70
    64
  3
______ _ _ _ ______ _ _ _ ______ _ _ _ _____  
 72
    65
 73
     8
 40
60.500000
 49
45.000000
 49
-2.000000
 49
2.500000
 49
-2.000000
 49
2.500000
 49
-2.000000
 49
2.500000
 49
-2.000000
  0
LTYPE
  2
SBK2
 70
    64
  3
______ _ _ _ ______ _ _ _ ______ _ _ _ _____  
 72
    65
 73
     8
 40
84.000000
 49
64.000000
 49
-2.000000
 49
4.000000
 49
-2.000000
 49
4.000000
 49
-2.000000
 49
4.000000
 49
-2.000000
  0
LTYPE
  2
STCH
 70
    64
  3
__ __ __ __ __ __ __ __ __ __ __ __ __ __ __
 72
    65
 73
     2
 40
3.000000
 49
1.000000
 49
-2.000000
  0
LTYPE
  2
MTCH
 70
    64
  3
_____ _ _ _____ _ _ _____ _ _ _____ _ _ ____  
 72
    65
 73
     6
 40
80.000000
 49
66.000000
 49
-2.000000
 49
4.000000
 49
-2.000000
 49
4.000000
 49
-2.000000
  0
ENDTAB
  0
TABLE
  2
LAYER
 70
     1
  0
LAYER
  2
0
 70
     0
 62
     7
  6
CONTINUOUS
  0
ENDTAB
  0
TABLE
  2
STYLE
 70
     1
  0
STYLE
  2
STANDARD
 70
     0
 40
0.000000
 41
1.000000
 50
0.000000
 71
     0
 42
0.200000
  3
txt
  4
BIGFONT
  0
ENDTAB
  0
TABLE
  2
VIEW
 70
     0
  0
ENDTAB
  0
ENDSEC
  0
SECTION
  2
BLOCKS
  0
ENDSEC
  0
SECTION
  2
ENTITIES
  0
LINE
  8
0
 10
-181.250000
 20
195.500000
 11
-181.250000
 21
180.500000
  0
LINE
  8
0
 10
182.099976
 20
195.500000
 11
182.099976
 21
180.500000
  0
LINE
  8
0
 10
-281.250000
 20
180.500000
 11
-181.250000
 21
180.500000
  0
LINE
  8
0
 10
182.099976
 20
-175.000000
 11
182.099976
 21
-195.000000
  0
LINE
  8
0
 10
182.099976
 20
180.500000
 11
282.099976
 21
180.500000
  0
LINE
  8
0
 10
182.099976
 20
-175.000000
 11
282.099976
 21
-175.000000
  0
LINE
  8
0
 10
-281.250000
 20
-64.833344
 11
282.099976
 21
-64.833344
  0
LINE
  8
0
 10
-281.250000
 20
-185.000000
 11
182.099976
 21
-185.000000
  0
LINE
  8
0
 10
-281.250000
 20
-54.833344
 11
282.099976
 21
-54.833344
  0
LINE
  8
0
 10
-281.250000
 20
65.333328
 11
282.099976
 21
65.333328
  0
LINE
  8
0
 10
-281.250000
 20
75.333328
 11
282.099976
 21
75.333328
  0
LINE
  8
0
 10
-93.466675
 20
195.500000
 11
-93.466675
 21
-195.000000
  0
LINE
  8
0
 10
94.316650
 20
195.500000
 11
94.316650
 21
-195.000000
  0
LINE
  8
0
 10
-297.000000
 20
210.000000
 11
297.000000
 21
210.000000
  0
LINE
  8
0
 10
-297.000000
 20
-210.000000
 11
297.000000
 21
-210.000000
  0
LINE
  8
0
 10
297.000000
 20
210.000000
 11
297.000000
 21
-210.000000
  0
LINE
  8
0
 10
-297.000000
 20
210.000000
 11
-297.000000
 21
-210.000000
  0
LINE
  8
0
 10
-281.250000
 20
-195.000000
 11
282.099976
 21
-195.000000
  0
LINE
  8
0
 10
-281.250000
 20
195.500000
 11
-281.250000
 21
-195.000000
  0
LINE
  8
0
 10
282.099976
 20
195.500000
 11
282.099976
 21
-195.000000
  0
LINE
  8
0
 10
-281.250000
 20
195.500000
 11
282.099976
 21
195.500000
  0
TEXT
  8
0
 10
-278.228302
 20
183.779999
 40
5.800000
  1
QUICK FITTING,US
 50
0.000000
 41
1.052632
 51
0.000000
  7
STANDARD
  0
TEXT
  8
0
 10
188.021667
 20
183.779999
 40
5.800000
  1
DATE: MAY ,1992
 50
0.000000
 41
1.052632
 51
0.000000
  7
STANDARD
  0
TEXT
  8
0
 10
178.000870
 20
-190.300003
 40
7.000000
  1
ＫＯＧＡＮＥＩ，ＣＯＲＰ．
 50
0.000000
 41
0.902367
 51
15.000000
  7
STANDARD
  0
TEXT
  8
0
 10
96.233307
 20
68.333328
 40
5.000000
  1
MODEL:US6M
 50
0.000000
 41
1.052632
 51
0.000000
  7
STANDARD
  0
TEXT
  8
0
 10
-276.000000
 20
68.333328
 40
5.000000
  1
MODEL:US3M
 50
0.000000
 41
1.052632
 51
0.000000
  7
STANDARD
  0
TEXT
  8
0
 10
-89.883347
 20
68.333328
 40
5.000000
  1
MODEL:US4M
 50
0.000000
 41
1.052632
 51
0.000000
  7
STANDARD
  0
TEXT
  8
0
 10
-276.000000
 20
-192.000015
 40
5.000000
  1
MODEL:US10
 50
0.000000
 41
1.052632
 51
0.000000
  7
STANDARD
  0
TEXT
  8
0
 10
-89.883347
 20
-192.000015
 40
5.000000
  1
MODEL:US12
 50
0.000000
 41
1.052632
 51
0.000000
  7
STANDARD
  0
TEXT
  8
0
 10
96.233307
 20
-192.000015
 40
5.000000
  1
MODEL:US16
 50
0.000000
 41
1.052632
 51
0.000000
  7
STANDARD
  0
TEXT
  8
0
 10
-276.000000
 20
-61.833344
 40
5.000000
  1
MODEL:US4
 50
0.000000
 41
1.052632
 51
0.000000
  7
STANDARD
  0
TEXT
  8
0
 10
-89.883347
 20
-61.833344
 40
5.000000
  1
MODEL:US6
 50
0.000000
 41
1.052632
 51
0.000000
  7
STANDARD
  0
TEXT
  8
0
 10
96.233307
 20
-61.833344
 40
5.000000
  1
MODEL:US8
 50
0.000000
 41
1.052632
 51
0.000000
  7
STANDARD
  0
POINT
  8
0
 10
-228.375122
 20
131.629333
  0
POINT
  8
0
 10
-208.775116
 20
131.629333
  0
LINE
  8
0
  6
CENTER
 10
-248.417664
 20
131.629333
 11
-187.417664
 21
131.629333
  0
LINE
  8
0
 10
-226.675110
 20
128.629333
 11
-220.275116
 21
128.629333
  0
LINE
  8
0
 10
-226.675110
 20
134.629333
 11
-220.275116
 21
134.629333
  0
LINE
  8
0
  6
CENTER
 10
-218.575104
 20
156.532730
 11
-218.575104
 21
106.532730
  0
LINE
  8
0
 10
-220.275116
 20
134.629333
 11
-220.275116
 21
132.129333
  0
LINE
  8
0
 10
-216.875122
 20
134.629333
 11
-216.875122
 21
132.129333
  0
LINE
  8
0
 10
-220.275116
 20
131.129333
 11
-216.875122
 21
131.129333
  0
LINE
  8
0
 10
-220.275116
 20
132.129333
 11
-216.875122
 21
132.129333
  0
LINE
  8
0
 10
-220.275131
 20
134.629333
 11
-219.697784
 21
133.629349
  0
LINE
  8
0
 10
-220.275116
 20
128.629333
 11
-219.697769
 21
129.629333
  0
LINE
  8
0
 10
-217.452530
 20
133.629349
 11
-216.875183
 21
134.629333
  0
LINE
  8
0
 10
-217.452484
 20
129.629333
 11
-216.875137
 21
128.629333
  0
LINE
  8
0
 10
-216.875122
 20
134.629333
 11
-210.475098
 21
134.629333
  0
LINE
  8
0
 10
-216.875122
 20
128.629333
 11
-210.475098
 21
128.629333
  0
LINE
  8
0
 10
-220.275116
 20
131.129333
 11
-220.275116
 21
128.629333
  0
LINE
  8
0
 10
-216.875122
 20
131.129333
 11
-216.875122
 21
128.629333
  0
LINE
  8
0
 10
-219.697754
 20
129.629333
 11
-217.452454
 21
129.629333
  0
LINE
  8
0
 10
-219.697754
 20
133.629333
 11
-217.452454
 21
133.629333
  0
LINE
  8
0
 10
-219.697479
 20
133.629333
 11
-219.697479
 21
132.129333
  0
LINE
  8
0
 10
-217.452454
 20
133.629333
 11
-217.452454
 21
132.129333
  0
LINE
  8
0
 10
-219.697479
 20
131.129333
 11
-219.697479
 21
129.629333
  0
LINE
  8
0
 10
-217.452454
 20
131.129333
 11
-217.452454
 21
129.629333
  0
LINE
  8
0
 10
-226.675110
 20
134.629333
 11
-226.675110
 21
128.629333
  0
LINE
  8
0
 10
-228.375122
 20
135.129333
 11
-228.375122
 21
128.129333
  0
LINE
  8
0
 10
-227.175110
 20
135.129333
 11
-227.175110
 21
128.129333
  0
LINE
  8
0
 10
-228.375122
 20
128.129333
 11
-227.175110
 21
128.129333
  0
LINE
  8
0
 10
-228.375122
 20
135.129333
 11
-227.175110
 21
135.129333
  0
LINE
  8
0
 10
-227.175110
 20
129.779327
 11
-226.675110
 21
129.779327
  0
LINE
  8
0
 10
-227.175110
 20
133.479340
 11
-226.675110
 21
133.479340
  0
LINE
  8
0
 10
-210.475098
 20
134.629333
 11
-210.475098
 21
128.629333
  0
LINE
  8
0
 10
-210.475098
 20
133.479340
 11
-209.975098
 21
133.479340
  0
LINE
  8
0
 10
-209.975098
 20
128.129333
 11
-208.775116
 21
128.129333
  0
LINE
  8
0
 10
-209.975098
 20
135.129333
 11
-208.775116
 21
135.129333
  0
LINE
  8
0
 10
-209.975098
 20
135.129333
 11
-209.975098
 21
128.129333
  0
LINE
  8
0
 10
-208.775116
 20
135.129333
 11
-208.775116
 21
128.129333
  0
POINT
  8
0
 10
-146.417664
 20
131.629333
  0
POINT
  8
0
 10
-143.417664
 20
131.629333
  0
LINE
  8
0
  6
CENTER
 10
-146.417664
 20
156.629333
 11
-146.417664
 21
106.629333
  0
LINE
  8
0
  6
CENTER
 10
-163.417664
 20
131.629333
 11
-128.417664
 21
131.629333
  0
CIRCLE
  8
0
 10
-146.417664
 20
131.629333
 40
1.575000
  0
ARC
  8
0
 10
-146.418930
 20
130.707809
 40
2.578479
 50
258.264557
 51
281.576904
  0
ARC
  8
0
 10
-146.492569
 20
130.952515
 40
2.833071
 50
282.042725
 51
314.893524
  0
ARC
  8
0
 10
-147.307510
 20
131.630569
 40
3.889851
 50
316.348297
 51
43.493210
  0
ARC
  8
0
 10
-146.490707
 20
132.306366
 40
2.833079
 50
44.947849
 51
77.798813
  0
ARC
  8
0
 10
-146.416397
 20
132.550858
 40
2.578479
 50
78.264557
 51
101.576912
  0
ARC
  8
0
 10
-146.342758
 20
132.306152
 40
2.833071
 50
102.042725
 51
134.893509
  0
ARC
  8
0
 10
-145.527817
 20
131.628098
 40
3.889851
 50
136.348297
 51
223.493210
  0
ARC
  8
0
 10
-146.344620
 20
130.952301
 40
2.833079
 50
224.947845
 51
257.798828
  0
POINT
  8
0
 10
-37.733337
 20
131.678299
  0
POINT
  8
0
 10
-15.133339
 20
131.678299
  0
LINE
  8
0
  6
CENTER
 10
-54.833340
 20
131.678299
 11
-0.917309
 21
131.678299
  0
LINE
  8
0
  6
CENTER
 10
-26.433338
 20
154.522369
 11
-26.433338
 21
111.901245
  0
LINE
  8
0
 10
-35.583336
 20
135.678299
 11
-28.160686
 21
135.678299
  0
LINE
  8
0
 10
-27.583336
 20
134.678299
 11
-25.283337
 21
134.678299
  0
LINE
  8
0
 10
-27.583336
 20
128.678299
 11
-25.283337
 21
128.678299
  0
LINE
  8
0
 10
-28.147728
 20
131.178299
 11
-24.705986
 21
131.178299
  0
LINE
  8
0
 10
-28.150608
 20
132.178299
 11
-24.705986
 21
132.178299
  0
LINE
  8
0
 10
-35.583336
 20
127.678299
 11
-28.137646
 21
127.678299
  0
LINE
  8
0
 10
-27.583344
 20
128.678299
 11
-28.137653
 21
127.678299
  0
LINE
  8
0
 10
-28.160686
 20
135.678299
 11
-27.583336
 21
134.678299
  0
LINE
  8
0
 10
-25.283342
 20
134.678299
 11
-24.705992
 21
135.678299
  0
LINE
  8
0
 10
-25.283337
 20
128.678299
 11
-24.705986
 21
127.678291
  0
LINE
  8
0
 10
-27.583336
 20
134.678299
 11
-27.583336
 21
132.178299
  0
LINE
  8
0
 10
-25.283337
 20
134.678299
 11
-25.283337
 21
132.178299
  0
LINE
  8
0
 10
-24.705990
 20
135.678299
 11
-17.283340
 21
135.678299
  0
LINE
  8
0
 10
-24.705986
 20
127.678299
 11
-17.283340
 21
127.678299
  0
LINE
  8
0
 10
-28.160686
 20
135.678299
 11
-28.150604
 21
132.178299
  0
LINE
  8
0
 10
-24.705971
 20
135.678299
 11
-24.705971
 21
132.178299
  0
LINE
  8
0
 10
-27.583336
 20
131.178299
 11
-27.583336
 21
128.678299
  0
LINE
  8
0
 10
-25.283337
 20
131.178299
 11
-25.283337
 21
128.678299
  0
LINE
  8
0
 10
-28.147724
 20
131.178299
 11
-28.137646
 21
127.678299
  0
LINE
  8
0
 10
-24.705971
 20
131.178299
 11
-24.705971
 21
127.678299
  0
LINE
  8
0
 10
-17.283340
 20
135.678299
 11
-17.283340
 21
127.678299
  0
LINE
  8
0
 10
-35.583336
 20
135.678299
 11
-35.583336
 21
127.678299
  0
LINE
  8
0
 10
-37.733337
 20
136.578308
 11
-37.733337
 21
126.778297
  0
LINE
  8
0
 10
-15.133339
 20
136.578308
 11
-15.133339
 21
126.778297
  0
LINE
  8
0
 10
-16.333340
 20
136.578308
 11
-16.333340
 21
126.778297
  0
LINE
  8
0
 10
-36.533337
 20
136.578308
 11
-36.533337
 21
126.778297
  0
LINE
  8
0
 10
-37.733337
 20
136.578308
 11
-36.533337
 21
136.578308
  0
LINE
  8
0
 10
-37.733337
 20
126.778297
 11
-36.533337
 21
126.778297
  0
LINE
  8
0
 10
-36.533337
 20
134.278290
 11
-35.583336
 21
134.278290
  0
LINE
  8
0
 10
-36.533337
 20
129.078308
 11
-35.583336
 21
129.078308
  0
LINE
  8
0
 10
-16.333340
 20
126.778297
 11
-15.133339
 21
126.778297
  0
LINE
  8
0
 10
-17.283340
 20
129.078308
 11
-16.333340
 21
129.078308
  0
LINE
  8
0
 10
-17.283340
 20
134.278290
 11
-16.333340
 21
134.278290
  0
LINE
  8
0
 10
-16.333340
 20
136.578308
 11
-15.133339
 21
136.578308
  0
POINT
  8
0
 10
41.370918
 20
131.678299
  0
POINT
  8
0
 10
45.270920
 20
131.678299
  0
LINE
  8
0
  6
CENTER
 10
41.370918
 20
156.478302
 11
41.370918
 21
106.478294
  0
LINE
  8
0
  6
CENTER
 10
23.970917
 20
131.678299
 11
60.770916
 21
131.678299
  0
CIRCLE
  8
0
 10
41.370918
 20
131.678299
 40
2.100000
  0
ARC
  8
0
 10
41.370918
 20
129.896042
 40
3.117738
 50
257.454346
 51
282.545715
  0
ARC
  8
0
 10
41.216850
 20
130.369095
 40
3.613277
 50
283.301056
 51
317.428680
  0
ARC
  8
0
 10
39.517532
 20
131.678299
 40
5.753386
 50
319.275879
 51
40.724194
  0
ARC
  8
0
 10
41.216846
 20
132.987503
 40
3.613276
 50
42.571411
 51
76.698906
  0
ARC
  8
0
 10
41.370918
 20
133.460556
 40
3.117731
 50
77.454323
 51
102.545746
  0
ARC
  8
0
 10
41.524986
 20
132.987503
 40
3.613270
 50
103.301094
 51
137.428589
  0
ARC
  8
0
 10
43.224304
 20
131.678299
 40
5.753391
 50
139.275833
 51
220.724197
  0
ARC
  8
0
 10
41.524990
 20
130.369095
 40
3.613276
 50
222.571411
 51
256.698944
  0
POINT
  8
0
 10
144.565430
 20
130.459915
  0
POINT
  8
0
 10
169.065430
 20
130.459915
  0
LINE
  8
0
  6
CENTER
 10
127.348763
 20
130.459915
 11
181.882095
 21
130.459915
  0
LINE
  8
0
  6
CENTER
 10
156.815430
 20
155.193237
 11
156.815430
 21
105.193245
  0
LINE
  8
0
 10
147.015427
 20
135.709915
 11
154.943741
 21
135.709915
  0
LINE
  8
0
 10
147.015427
 20
125.209915
 11
154.943741
 21
125.209915
  0
LINE
  8
0
 10
155.665436
 20
134.459915
 11
155.665436
 21
130.959915
  0
LINE
  8
0
 10
157.965424
 20
134.459915
 11
157.965424
 21
130.959915
  0
LINE
  8
0
 10
155.665436
 20
134.459915
 11
157.965424
 21
134.459915
  0
LINE
  8
0
 10
155.665436
 20
126.459915
 11
157.965424
 21
126.459915
  0
LINE
  8
0
 10
154.943741
 20
125.209915
 11
155.665436
 21
126.459915
  0
LINE
  8
0
 10
154.943741
 20
135.709915
 11
155.665421
 21
134.459915
  0
LINE
  8
0
 10
157.965439
 20
126.459923
 11
158.687134
 21
125.209923
  0
LINE
  8
0
 10
157.965439
 20
134.459915
 11
158.687134
 21
135.709915
  0
LINE
  8
0
 10
158.687119
 20
125.209915
 11
166.615433
 21
125.209915
  0
LINE
  8
0
 10
158.687119
 20
135.709915
 11
166.615433
 21
135.709915
  0
LINE
  8
0
 10
154.943741
 20
135.709915
 11
154.943741
 21
130.959915
  0
LINE
  8
0
 10
158.687119
 20
125.209915
 11
158.687119
 21
129.959915
  0
LINE
  8
0
 10
154.943741
 20
130.959915
 11
158.687119
 21
130.959915
  0
LINE
  8
0
 10
154.943741
 20
129.959915
 11
158.687119
 21
129.959915
  0
LINE
  8
0
 10
154.943741
 20
129.959915
 11
154.943741
 21
125.209915
  0
LINE
  8
0
 10
155.665436
 20
129.959915
 11
155.665436
 21
126.459915
  0
LINE
  8
0
 10
157.965424
 20
129.959915
 11
157.965424
 21
126.459915
  0
LINE
  8
0
 10
158.687119
 20
130.959915
 11
158.687119
 21
135.709915
  0
LINE
  8
0
 10
166.615433
 20
135.709915
 11
166.615433
 21
125.209915
  0
LINE
  8
0
 10
147.015427
 20
135.709915
 11
147.015427
 21
125.209915
  0
LINE
  8
0
 10
169.065430
 20
136.359924
 11
169.065430
 21
124.559914
  0
LINE
  8
0
 10
144.565430
 20
136.359924
 11
144.565430
 21
124.559914
  0
LINE
  8
0
 10
145.765427
 20
136.359924
 11
145.765427
 21
124.559914
  0
LINE
  8
0
 10
167.865433
 20
136.359924
 11
167.865433
 21
124.559914
  0
LINE
  8
0
 10
144.565430
 20
136.359924
 11
145.765427
 21
136.359924
  0
LINE
  8
0
 10
144.565430
 20
124.559914
 11
145.765427
 21
124.559914
  0
LINE
  8
0
 10
145.765427
 20
126.959915
 11
147.015427
 21
126.959915
  0
LINE
  8
0
 10
145.765427
 20
133.959915
 11
147.015427
 21
133.959915
  0
LINE
  8
0
 10
167.865433
 20
136.359924
 11
169.065430
 21
136.359924
  0
LINE
  8
0
 10
166.615433
 20
133.959915
 11
167.865433
 21
133.959915
  0
LINE
  8
0
 10
166.615433
 20
126.959915
 11
167.865433
 21
126.959915
  0
LINE
  8
0
 10
167.865433
 20
124.559914
 11
169.065430
 21
124.559914
  0
POINT
  8
0
 10
215.698792
 20
130.459915
  0
POINT
  8
0
 10
220.598785
 20
130.459915
  0
LINE
  8
0
  6
CENTER
 10
215.698792
 20
155.193237
 11
215.698792
 21
105.193245
  0
LINE
  8
0
  6
CENTER
 10
201.032120
 20
130.459915
 11
229.685760
 21
130.459915
  0
CIRCLE
  8
0
 10
215.698792
 20
130.459915
 40
3.100000
  0
ARC
  8
0
 10
215.698792
 20
128.643311
 40
4.083394
 50
257.972870
 51
282.027130
  0
ARC
  8
0
 10
215.548294
 20
129.125488
 40
4.586585
 50
282.610748
 51
316.015259
  0
ARC
  8
0
 10
213.888367
 20
130.459915
 40
6.710416
 50
317.660065
 51
42.339943
  0
ARC
  8
0
 10
215.548294
 20
131.794342
 40
4.586578
 50
43.984753
 51
77.389236
  0
ARC
  8
0
 10
215.698792
 20
132.276520
 40
4.083394
 50
77.972878
 51
102.027122
  0
ARC
  8
0
 10
215.849289
 20
131.794342
 40
4.586585
 50
102.610764
 51
136.015244
  0
ARC
  8
0
 10
217.509216
 20
130.459915
 40
6.710416
 50
137.660049
 51
222.339996
  0
ARC
  8
0
 10
215.849289
 20
129.125488
 40
4.586583
 50
223.984818
 51
257.389252
  0
POINT
  8
0
 10
-233.519135
 20
1.117218
  0
POINT
  8
0
 10
-202.719131
 20
1.117218
  0
LINE
  8
0
 10
-220.619141
 20
0.117218
 11
-220.619141
 21
-3.882782
  0
LINE
  8
0
 10
-215.619141
 20
0.117218
 11
-215.619141
 21
-3.882782
  0
LINE
  8
0
  6
CENTER
 10
-244.048645
 20
1.117218
 11
-190.796127
 21
1.117218
  0
LINE
  8
0
 10
-230.719131
 20
-3.882782
 11
-220.619141
 21
-3.882782
  0
LINE
  8
0
 10
-230.719131
 20
6.117218
 11
-220.619141
 21
6.117218
  0
LINE
  8
0
 10
-217.119141
 20
4.617218
 11
-217.119141
 21
2.117218
  0
LINE
  8
0
 10
-219.119141
 20
4.617218
 11
-219.119141
 21
2.117218
  0
LINE
  8
0
 10
-219.119141
 20
4.617218
 11
-217.119141
 21
4.617218
  0
LINE
  8
0
 10
-219.119141
 20
-2.382782
 11
-217.119141
 21
-2.382782
  0
LINE
  8
0
 10
-220.619141
 20
6.117218
 11
-220.619141
 21
2.117218
  0
LINE
  8
0
 10
-215.619141
 20
6.117218
 11
-215.619141
 21
2.117218
  0
LINE
  8
0
 10
-219.119156
 20
-2.382753
 11
-220.619156
 21
-3.882752
  0
LINE
  8
0
 10
-217.119141
 20
-2.382787
 11
-215.619141
 21
-3.882790
  0
LINE
  8
0
 10
-220.619141
 20
6.117208
 11
-219.119141
 21
4.617207
  0
LINE
  8
0
 10
-217.119156
 20
4.617242
 11
-215.619156
 21
6.117241
  0
LINE
  8
0
 10
-215.619141
 20
6.117218
 11
-205.519135
 21
6.117218
  0
LINE
  8
0
 10
-215.619141
 20
-3.882782
 11
-205.519135
 21
-3.882782
  0
LINE
  8
0
 10
-220.619141
 20
0.117218
 11
-215.619141
 21
0.117218
  0
LINE
  8
0
 10
-220.619141
 20
2.117218
 11
-215.619141
 21
2.117218
  0
LINE
  8
0
 10
-219.119141
 20
0.117218
 11
-219.119141
 21
-2.382782
  0
LINE
  8
0
 10
-217.119141
 20
0.117218
 11
-217.119141
 21
-2.382782
  0
LINE
  8
0
 10
-230.719131
 20
6.117218
 11
-230.719131
 21
-3.882782
  0
LINE
  8
0
 10
-205.519135
 20
6.117218
 11
-205.519135
 21
-3.882782
  0
LINE
  8
0
 10
-202.719131
 20
6.067215
 11
-202.719131
 21
-3.832779
  0
LINE
  8
0
 10
-233.519135
 20
6.067215
 11
-233.519135
 21
-3.832779
  0
LINE
  8
0
 10
-231.919128
 20
6.067215
 11
-231.919128
 21
-3.832779
  0
LINE
  8
0
 10
-204.319138
 20
6.067215
 11
-204.319138
 21
-3.832779
  0
LINE
  8
0
 10
-233.519135
 20
-3.832779
 11
-231.919128
 21
-3.832779
  0
LINE
  8
0
 10
-233.519135
 20
6.067215
 11
-231.919128
 21
6.067215
  0
LINE
  8
0
 10
-231.919128
 20
-1.582779
 11
-230.719131
 21
-1.582779
  0
LINE
  8
0
 10
-231.919128
 20
3.817215
 11
-230.719131
 21
3.817215
  0
LINE
  8
0
 10
-204.319138
 20
-3.832779
 11
-202.719131
 21
-3.832779
  0
LINE
  8
0
 10
-204.319138
 20
6.067215
 11
-202.719131
 21
6.067215
  0
LINE
  8
0
 10
-205.519135
 20
3.817215
 11
-204.319138
 21
3.817215
  0
LINE
  8
0
 10
-205.519135
 20
-1.582779
 11
-204.319138
 21
-1.582779
  0
LINE
  8
0
  6
CENTER
 10
-218.119141
 20
13.896573
 11
-218.119141
 21
-10.220922
  0
POINT
  8
0
  6
CENTER
 10
-145.370026
 20
1.117218
  0
POINT
  8
0
  6
CENTER
 10
-140.370026
 20
1.117218
  0
LINE
  8
0
  6
CENTER
 10
-163.038910
 20
1.117218
 11
-128.405792
 21
1.117218
  0
LINE
  8
0
  6
CENTER
 10
-145.370026
 20
25.921051
 11
-145.370026
 21
-24.078949
  0
CIRCLE
  8
0
 10
-145.370026
 20
1.117218
 40
4.950000
  0
CIRCLE
  8
0
 10
-145.370026
 20
1.117218
 40
2.100000
  0
CIRCLE
  8
0
 10
-145.370026
 20
1.117218
 40
5.000000
  0
POINT
  8
0
 10
-45.613388
 20
1.117218
  0
POINT
  8
0
 10
-10.613388
 20
1.117218
  0
LINE
  8
0
 10
-31.313389
 20
-0.132782
 11
-31.313389
 21
-5.132782
  0
LINE
  8
0
 10
-24.913387
 20
-0.132782
 11
-24.913387
 21
-5.132782
  0
LINE
  8
0
  6
CENTER
 10
-57.708828
 20
1.117218
 11
-1.113388
 21
1.117218
  0
LINE
  8
0
 10
-15.613388
 20
7.367218
 11
-15.613388
 21
-5.132782
  0
LINE
  8
0
 10
-40.613388
 20
7.367218
 11
-40.613388
 21
-5.132782
  0
LINE
  8
0
 10
-42.613388
 20
7.367218
 11
-31.313389
 21
7.367218
  0
LINE
  8
0
 10
-42.613388
 20
-5.132782
 11
-31.313391
 21
-5.132782
  0
LINE
  8
0
 10
-31.313389
 20
-0.132782
 11
-26.663387
 21
-0.132782
  0
LINE
  8
0
 10
-31.313389
 20
2.367218
 11
-26.663387
 21
2.367218
  0
LINE
  8
0
 10
-29.563389
 20
-3.382782
 11
-26.663387
 21
-3.382782
  0
LINE
  8
0
 10
-29.563389
 20
5.617218
 11
-26.663387
 21
5.617218
  0
LINE
  8
0
 10
-31.313389
 20
7.367218
 11
-31.313389
 21
2.367218
  0
LINE
  8
0
 10
-24.913387
 20
7.367218
 11
-24.913387
 21
2.367218
  0
LINE
  8
0
 10
-29.563389
 20
5.617218
 11
-29.563389
 21
2.367218
  0
LINE
  8
0
 10
-26.663387
 20
5.617218
 11
-26.663387
 21
2.367218
  0
LINE
  8
0
 10
-31.313396
 20
7.367218
 11
-29.563395
 21
5.617216
  0
LINE
  8
0
 10
-24.913387
 20
7.367217
 11
-26.663389
 21
5.617215
  0
LINE
  8
0
 10
-26.663393
 20
-3.382782
 11
-24.913391
 21
-5.132783
  0
LINE
  8
0
 10
-29.563389
 20
-3.382783
 11
-31.313389
 21
-5.132782
  0
LINE
  8
0
 10
-24.913387
 20
7.367218
 11
-13.613388
 21
7.367218
  0
LINE
  8
0
 10
-26.663387
 20
2.367218
 11
-24.913387
 21
2.367218
  0
LINE
  8
0
 10
-26.663387
 20
-0.132782
 11
-24.913387
 21
-0.132782
  0
LINE
  8
0
 10
-29.563389
 20
-0.132782
 11
-29.563389
 21
-3.382782
  0
LINE
  8
0
 10
-26.663387
 20
-0.132782
 11
-26.663387
 21
-3.382782
  0
LINE
  8
0
 10
-24.913387
 20
-5.132782
 11
-13.613388
 21
-5.132782
  0
LINE
  8
0
 10
-42.613388
 20
7.367218
 11
-42.613388
 21
-5.132782
  0
LINE
  8
0
 10
-13.613388
 20
7.367218
 11
-13.613388
 21
-5.132782
  0
LINE
  8
0
 10
-10.613388
 20
7.017220
 11
-10.613388
 21
-4.782784
  0
LINE
  8
0
 10
-45.613388
 20
7.017220
 11
-45.613388
 21
-4.782784
  0
LINE
  8
0
 10
-43.813389
 20
7.017220
 11
-43.813389
 21
-4.782784
  0
LINE
  8
0
 10
-12.413387
 20
7.017220
 11
-12.413387
 21
-4.782784
  0
LINE
  8
0
 10
-43.813389
 20
-2.932785
 11
-42.613388
 21
-2.932785
  0
LINE
  8
0
 10
-43.813389
 20
5.167221
 11
-42.613388
 21
5.167221
  0
LINE
  8
0
 10
-45.613388
 20
-4.782784
 11
-43.813389
 21
-4.782784
  0
LINE
  8
0
 10
-45.613388
 20
7.017220
 11
-43.813389
 21
7.017220
  0
LINE
  8
0
 10
-12.413387
 20
7.017220
 11
-10.613388
 21
7.017220
  0
LINE
  8
0
 10
-13.613388
 20
5.167221
 11
-12.413387
 21
5.167221
  0
LINE
  8
0
 10
-13.613388
 20
-2.932785
 11
-12.413387
 21
-2.932785
  0
LINE
  8
0
 10
-12.413387
 20
-4.782784
 11
-10.613388
 21
-4.782784
  0
LINE
  8
0
  6
CENTER
 10
-28.113388
 20
11.446909
 11
-28.113388
 21
-12.473417
  0
POINT
  8
0
  6
CENTER
 10
41.370918
 20
1.117218
  0
POINT
  8
0
  6
CENTER
 10
47.620918
 20
1.117218
  0
LINE
  8
0
  6
CENTER
 10
22.770916
 20
1.117218
 11
58.178516
 21
1.117218
  0
LINE
  8
0
  6
CENTER
 10
41.370918
 20
25.884132
 11
41.370918
 21
-24.115868
  0
CIRCLE
  8
0
 10
41.370918
 20
1.117218
 40
5.900000
  0
CIRCLE
  8
0
 10
41.370918
 20
1.117218
 40
6.250000
  0
CIRCLE
  8
0
 10
41.370918
 20
1.117218
 40
3.100000
  0
POINT
  8
0
 10
133.832336
 20
1.117218
  0
POINT
  8
0
 10
172.032333
 20
1.117218
  0
LINE
  8
0
 10
149.432343
 20
-0.382782
 11
149.432343
 21
-6.132782
  0
LINE
  8
0
 10
156.432343
 20
-0.382782
 11
156.432343
 21
-6.132782
  0
LINE
  8
0
  6
CENTER
 10
124.685326
 20
1.117218
 11
178.587311
 21
1.117218
  0
LINE
  8
0
 10
136.832336
 20
-6.132782
 11
149.432343
 21
-6.132782
  0
LINE
  8
0
 10
136.832336
 20
8.367218
 11
149.432343
 21
8.367218
  0
LINE
  8
0
 10
151.432343
 20
6.367218
 11
151.432343
 21
2.617218
  0
LINE
  8
0
 10
154.432343
 20
6.367218
 11
154.432343
 21
2.617218
  0
LINE
  8
0
 10
149.432343
 20
8.367218
 11
149.432343
 21
2.617218
  0
LINE
  8
0
 10
156.432343
 20
8.367218
 11
156.432343
 21
2.617218
  0
LINE
  8
0
 10
149.432343
 20
-0.382782
 11
156.432343
 21
-0.382782
  0
LINE
  8
0
 10
149.432343
 20
2.617218
 11
156.432343
 21
2.617218
  0
LINE
  8
0
 10
151.432343
 20
6.367218
 11
154.432343
 21
6.367218
  0
LINE
  8
0
 10
151.432343
 20
-4.132782
 11
154.432343
 21
-4.132782
  0
LINE
  8
0
 10
149.432343
 20
-6.132790
 11
151.432343
 21
-4.132788
  0
LINE
  8
0
 10
154.432327
 20
-4.132794
 11
156.432327
 21
-6.132794
  0
LINE
  8
0
 10
154.432343
 20
6.367214
 11
156.432343
 21
8.367216
  0
LINE
  8
0
 10
151.432327
 20
6.367213
 11
149.432327
 21
8.367212
  0
LINE
  8
0
 10
156.432343
 20
-6.132782
 11
169.032333
 21
-6.132782
  0
LINE
  8
0
 10
156.432343
 20
8.367218
 11
169.032333
 21
8.367218
  0
LINE
  8
0
 10
151.432343
 20
-0.382782
 11
151.432343
 21
-4.132782
  0
LINE
  8
0
 10
154.432343
 20
-0.382782
 11
154.432343
 21
-4.132782
  0
LINE
  8
0
 10
136.832336
 20
8.367218
 11
136.832336
 21
-6.132782
  0
LINE
  8
0
 10
169.032333
 20
8.367218
 11
169.032333
 21
-6.132782
  0
LINE
  8
0
 10
133.832336
 20
8.017220
 11
133.832336
 21
-5.782784
  0
LINE
  8
0
 10
172.032333
 20
8.017220
 11
172.032333
 21
-5.782784
  0
LINE
  8
0
 10
135.832336
 20
8.017220
 11
135.832336
 21
-5.782784
  0
LINE
  8
0
 10
170.032333
 20
8.017220
 11
170.032333
 21
-5.782784
  0
LINE
  8
0
 10
135.832336
 20
6.017220
 11
136.832336
 21
6.017220
  0
LINE
  8
0
 10
135.832336
 20
-3.782784
 11
136.832336
 21
-3.782784
  0
LINE
  8
0
 10
133.832336
 20
8.017220
 11
135.832336
 21
8.017220
  0
LINE
  8
0
 10
133.832336
 20
-5.782784
 11
135.832336
 21
-5.782784
  0
LINE
  8
0
 10
170.032333
 20
8.017220
 11
172.032333
 21
8.017220
  0
LINE
  8
0
 10
169.032333
 20
6.017220
 11
170.032333
 21
6.017220
  0
LINE
  8
0
 10
169.032333
 20
-3.782784
 11
170.032333
 21
-3.782784
  0
LINE
  8
0
 10
170.032333
 20
-5.782784
 11
172.032333
 21
-5.782784
  0
LINE
  8
0
  6
CENTER
 10
152.932343
 20
11.678106
 11
152.932343
 21
-11.117957
  0
POINT
  8
0
  6
CENTER
 10
222.732330
 20
1.117218
  0
POINT
  8
0
  6
CENTER
 10
229.982330
 20
1.117218
  0
LINE
  8
0
  6
CENTER
 10
222.732330
 20
26.212746
 11
222.732330
 21
-23.787254
  0
LINE
  8
0
  6
CENTER
 10
205.532333
 20
1.117218
 11
245.594208
 21
1.117218
  0
CIRCLE
  8
0
 10
222.732330
 20
1.117218
 40
6.900000
  0
CIRCLE
  8
0
 10
222.732330
 20
1.117218
 40
7.250000
  0
CIRCLE
  8
0
 10
222.732330
 20
1.117218
 40
4.100000
  0
POINT
  8
0
 10
-241.913208
 20
-127.882782
  0
POINT
  8
0
 10
-197.793213
 20
-127.882782
  0
LINE
  8
0
 10
-214.853210
 20
-136.632782
 11
-201.253220
 21
-136.632782
  0
LINE
  8
0
 10
-214.853210
 20
-129.382782
 11
-214.853210
 21
-136.632782
  0
LINE
  8
0
  6
CENTER
 10
-249.905792
 20
-127.882782
 11
-178.519867
 21
-127.882782
  0
LINE
  8
0
 10
-238.453201
 20
-119.132782
 11
-224.853210
 21
-119.132782
  0
LINE
  8
0
 10
-238.453201
 20
-136.632782
 11
-224.853210
 21
-136.632782
  0
LINE
  8
0
 10
-222.353210
 20
-121.632782
 11
-222.353210
 21
-126.382782
  0
LINE
  8
0
 10
-217.353210
 20
-121.632782
 11
-217.353210
 21
-126.382782
  0
LINE
  8
0
 10
-224.853210
 20
-119.132782
 11
-224.853210
 21
-126.382782
  0
LINE
  8
0
 10
-214.853210
 20
-119.132782
 11
-214.853210
 21
-126.382782
  0
LINE
  8
0
 10
-224.853210
 20
-129.382782
 11
-214.853210
 21
-129.382782
  0
LINE
  8
0
 10
-224.853210
 20
-126.382782
 11
-214.853210
 21
-126.382782
  0
LINE
  8
0
 10
-222.353210
 20
-134.132782
 11
-217.353210
 21
-134.132782
  0
LINE
  8
0
 10
-222.353210
 20
-121.632782
 11
-217.353210
 21
-121.632782
  0
LINE
  8
0
 10
-217.353210
 20
-121.632790
 11
-214.853210
 21
-119.132782
  0
LINE
  8
0
 10
-222.353210
 20
-121.632774
 11
-224.853210
 21
-119.132774
  0
LINE
  8
0
 10
-222.353210
 20
-134.132782
 11
-224.853210
 21
-136.632782
  0
LINE
  8
0
 10
-217.353210
 20
-134.132782
 11
-214.853210
 21
-136.632782
  0
LINE
  8
0
 10
-222.353210
 20
-129.382782
 11
-222.353210
 21
-134.132782
  0
LINE
  8
0
 10
-217.353210
 20
-129.382782
 11
-217.353210
 21
-134.132782
  0
LINE
  8
0
 10
-214.853210
 20
-119.132782
 11
-201.253220
 21
-119.132782
  0
LINE
  8
0
 10
-224.853210
 20
-129.382782
 11
-224.853210
 21
-136.632782
  0
LINE
  8
0
 10
-238.453201
 20
-119.132782
 11
-238.453201
 21
-136.632782
  0
LINE
  8
0
 10
-201.253220
 20
-119.132782
 11
-201.253220
 21
-136.632782
  0
LINE
  8
0
 10
-241.913208
 20
-119.482780
 11
-241.913208
 21
-136.282776
  0
LINE
  8
0
 10
-197.793213
 20
-119.482780
 11
-197.793213
 21
-136.282776
  0
LINE
  8
0
 10
-239.713211
 20
-119.482780
 11
-239.713211
 21
-136.282776
  0
LINE
  8
0
 10
-199.993210
 20
-119.482780
 11
-199.993210
 21
-136.282776
  0
LINE
  8
0
 10
-239.713211
 20
-133.882782
 11
-238.453201
 21
-133.882782
  0
LINE
  8
0
 10
-239.713211
 20
-121.882782
 11
-238.453201
 21
-121.882782
  0
LINE
  8
0
 10
-241.913208
 20
-119.482780
 11
-239.713211
 21
-119.482780
  0
LINE
  8
0
 10
-241.913208
 20
-136.282776
 11
-239.713211
 21
-136.282776
  0
LINE
  8
0
 10
-199.993210
 20
-119.482780
 11
-197.793213
 21
-119.482780
  0
LINE
  8
0
 10
-201.253220
 20
-121.882782
 11
-199.993210
 21
-121.882782
  0
LINE
  8
0
 10
-201.253220
 20
-133.882782
 11
-199.993210
 21
-133.882782
  0
LINE
  8
0
 10
-199.993210
 20
-136.282776
 11
-197.793213
 21
-136.282776
  0
LINE
  8
0
  6
CENTER
 10
-219.853210
 20
-108.048920
 11
-219.853210
 21
-149.004562
  0
POINT
  8
0
  6
CENTER
 10
-145.281891
 20
-127.882782
  0
POINT
  8
0
  6
CENTER
 10
-136.531891
 20
-127.882782
  0
LINE
  8
0
  6
CENTER
 10
-145.281891
 20
-103.210854
 11
-145.281891
 21
-153.210846
  0
LINE
  8
0
  6
CENTER
 10
-158.948547
 20
-127.882782
 11
-128.001144
 21
-127.882782
  0
CIRCLE
  8
0
 10
-145.281891
 20
-127.882782
 40
8.400000
  0
CIRCLE
  8
0
 10
-145.281891
 20
-127.882782
 40
8.750000
  0
CIRCLE
  8
0
 10
-145.281891
 20
-127.882782
 40
5.100000
  0
POINT
  8
0
 10
-50.676880
 20
-123.002892
  0
POINT
  8
0
 10
2.123116
 20
-123.002892
  0
LINE
  8
0
 10
-18.276878
 20
-133.502899
 11
-1.676888
 21
-133.502899
  0
LINE
  8
0
 10
-18.276878
 20
-124.502892
 11
-18.276878
 21
-133.502899
  0
LINE
  8
0
  6
CENTER
 10
-60.860214
 20
-123.002892
 11
9.873463
 21
-123.002892
  0
LINE
  8
0
  6
CENTER
 10
-24.276880
 20
-98.169556
 11
-24.276880
 21
-148.169556
  0
LINE
  8
0
 10
-46.876877
 20
-133.502899
 11
-30.276880
 21
-133.502899
  0
LINE
  8
0
 10
-46.876877
 20
-112.502892
 11
-30.276880
 21
-112.502892
  0
LINE
  8
0
 10
-30.276880
 20
-121.502892
 11
-18.276878
 21
-121.502892
  0
LINE
  8
0
 10
-30.276880
 20
-124.502892
 11
-18.276878
 21
-124.502892
  0
LINE
  8
0
 10
-27.276880
 20
-130.502899
 11
-21.276880
 21
-130.502899
  0
LINE
  8
0
 10
-27.276880
 20
-115.502892
 11
-21.276880
 21
-115.502892
  0
LINE
  8
0
 10
-21.276880
 20
-115.502892
 11
-21.276880
 21
-121.502892
  0
LINE
  8
0
 10
-27.276880
 20
-115.502892
 11
-27.276880
 21
-121.502892
  0
LINE
  8
0
 10
-30.276880
 20
-112.502892
 11
-30.276880
 21
-121.502892
  0
LINE
  8
0
 10
-18.276878
 20
-112.502892
 11
-18.276878
 21
-121.502892
  0
LINE
  8
0
 10
-27.276865
 20
-130.502899
 11
-30.276863
 21
-133.502899
  0
LINE
  8
0
 10
-21.276873
 20
-130.502899
 11
-18.276875
 21
-133.502884
  0
LINE
  8
0
 10
-18.276863
 20
-112.502899
 11
-21.276863
 21
-115.502899
  0
LINE
  8
0
 10
-27.276875
 20
-115.502884
 11
-30.276875
 21
-112.502884
  0
LINE
  8
0
 10
-27.276880
 20
-124.502892
 11
-27.276880
 21
-130.502899
  0
LINE
  8
0
 10
-18.276878
 20
-112.502892
 11
-1.676888
 21
-112.502892
  0
LINE
  8
0
 10
-30.276880
 20
-124.502892
 11
-30.276880
 21
-133.502899
  0
LINE
  8
0
 10
-21.276880
 20
-124.502892
 11
-21.276880
 21
-130.502899
  0
LINE
  8
0
 10
-46.876877
 20
-112.502892
 11
-46.876877
 21
-133.502899
  0
LINE
  8
0
 10
-1.676888
 20
-112.502892
 11
-1.676888
 21
-133.502899
  0
LINE
  8
0
 10
2.123116
 20
-113.102890
 11
2.123116
 21
-132.902893
  0
LINE
  8
0
 10
-50.676880
 20
-113.102890
 11
-50.676880
 21
-132.902893
  0
LINE
  8
0
 10
-48.476879
 20
-113.102890
 11
-48.476879
 21
-132.902893
  0
LINE
  8
0
 10
-0.076881
 20
-113.102890
 11
-0.076881
 21
-132.902893
  0
LINE
  8
0
 10
-48.476879
 20
-130.502899
 11
-46.876877
 21
-130.502899
  0
LINE
  8
0
 10
-48.476879
 20
-115.502892
 11
-46.876877
 21
-115.502892
  0
LINE
  8
0
 10
-50.676880
 20
-132.902893
 11
-48.476879
 21
-132.902893
  0
LINE
  8
0
 10
-50.676880
 20
-113.102890
 11
-48.476879
 21
-113.102890
  0
LINE
  8
0
 10
-0.076881
 20
-113.102890
 11
2.123116
 21
-113.102890
  0
LINE
  8
0
 10
-1.676888
 20
-115.502892
 11
-0.076881
 21
-115.502892
  0
LINE
  8
0
 10
-1.676888
 20
-130.502899
 11
-0.076881
 21
-130.502899
  0
LINE
  8
0
 10
-0.076881
 20
-132.902893
 11
2.123116
 21
-132.902893
  0
POINT
  8
0
 10
41.370918
 20
-123.002960
  0
POINT
  8
0
 10
51.870918
 20
-123.002960
  0
LINE
  8
0
  6
CENTER
 10
21.037584
 20
-123.002960
 11
59.163361
 21
-123.002960
  0
LINE
  8
0
  6
CENTER
 10
41.370918
 20
-98.169624
 11
41.370918
 21
-148.169632
  0
CIRCLE
  8
0
 10
41.370918
 20
-123.002960
 40
9.900000
  0
CIRCLE
  8
0
 10
41.370918
 20
-123.002960
 40
10.500000
  0
CIRCLE
  8
0
 10
41.370918
 20
-123.002960
 40
6.100000
  0
POINT
  8
0
 10
183.750732
 20
-123.382782
  0
POINT
  8
0
 10
133.750732
 20
-123.382782
  0
LINE
  8
0
 10
133.750732
 20
-111.882782
 11
133.750732
 21
-134.882782
  0
LINE
  8
0
 10
133.750732
 20
-111.882782
 11
136.250732
 21
-111.882782
  0
LINE
  8
0
  6
CENTER
 10
121.261169
 20
-123.382782
 11
194.097488
 21
-123.382782
  0
LINE
  8
0
  6
CENTER
 10
158.750732
 20
-98.164581
 11
158.750732
 21
-149.161377
  0
LINE
  8
0
 10
180.050720
 20
-110.882782
 11
180.050720
 21
-135.882782
  0
LINE
  8
0
 10
183.750732
 20
-111.882782
 11
183.750732
 21
-134.882782
  0
LINE
  8
0
 10
181.250732
 20
-111.882782
 11
181.250732
 21
-134.882782
  0
LINE
  8
0
 10
181.250732
 20
-111.882782
 11
183.750732
 21
-111.882782
  0
LINE
  8
0
 10
180.050720
 20
-114.182785
 11
181.250732
 21
-114.182785
  0
LINE
  8
0
 10
180.050720
 20
-132.582779
 11
181.250732
 21
-132.582779
  0
LINE
  8
0
 10
181.250732
 20
-134.882782
 11
183.750732
 21
-134.882782
  0
LINE
  8
0
 10
133.750732
 20
-134.882782
 11
136.250732
 21
-134.882782
  0
LINE
  8
0
 10
136.250732
 20
-114.182785
 11
137.450729
 21
-114.182785
  0
LINE
  8
0
 10
136.250732
 20
-132.582779
 11
137.450729
 21
-132.582779
  0
LINE
  8
0
 10
137.450729
 20
-135.882782
 11
151.250732
 21
-135.882782
  0
LINE
  8
0
 10
137.450729
 20
-110.882782
 11
151.250732
 21
-110.882782
  0
LINE
  8
0
 10
163.750732
 20
-113.382782
 11
163.750732
 21
-121.882782
  0
LINE
  8
0
 10
153.750732
 20
-113.382782
 11
153.750732
 21
-121.882782
  0
LINE
  8
0
 10
166.250732
 20
-110.882782
 11
166.250732
 21
-121.882782
  0
LINE
  8
0
 10
151.250732
 20
-110.882782
 11
151.250732
 21
-121.882782
  0
LINE
  8
0
 10
153.750732
 20
-113.382782
 11
163.750732
 21
-113.382782
  0
LINE
  8
0
 10
153.750732
 20
-133.382782
 11
163.750732
 21
-133.382782
  0
LINE
  8
0
 10
151.250732
 20
-121.882782
 11
166.250732
 21
-121.882782
  0
LINE
  8
0
 10
151.250732
 20
-124.882782
 11
166.250732
 21
-124.882782
  0
LINE
  8
0
 10
153.750748
 20
-133.382782
 11
151.250732
 21
-135.882782
  0
LINE
  8
0
 10
151.250732
 20
-110.882782
 11
153.750732
 21
-113.382782
  0
LINE
  8
0
 10
163.750732
 20
-113.382782
 11
166.250732
 21
-110.882782
  0
LINE
  8
0
 10
163.750732
 20
-133.382782
 11
166.250732
 21
-135.882782
  0
LINE
  8
0
 10
151.250732
 20
-124.882782
 11
151.250732
 21
-135.882782
  0
LINE
  8
0
 10
153.750732
 20
-124.882782
 11
153.750732
 21
-133.382782
  0
LINE
  8
0
 10
163.750732
 20
-124.882782
 11
163.750732
 21
-133.382782
  0
LINE
  8
0
 10
166.250732
 20
-124.882782
 11
166.250732
 21
-135.882782
  0
LINE
  8
0
 10
166.250732
 20
-110.882782
 11
180.050720
 21
-110.882782
  0
LINE
  8
0
 10
166.250732
 20
-135.882782
 11
180.050720
 21
-135.882782
  0
LINE
  8
0
 10
136.250732
 20
-111.882782
 11
136.250732
 21
-134.882782
  0
LINE
  8
0
 10
137.450729
 20
-110.882782
 11
137.450729
 21
-135.882782
  0
POINT
  8
0
 10
231.136490
 20
-123.382782
  0
POINT
  8
0
 10
243.636490
 20
-123.382782
  0
LINE
  8
0
  6
CENTER
 10
231.136490
 20
-99.285393
 11
231.136490
 21
-149.161377
  0
LINE
  8
0
  6
CENTER
 10
201.838547
 20
-123.382782
 11
255.765442
 21
-123.382782
  0
CIRCLE
  8
0
 10
231.136490
 20
-123.382782
 40
8.100000
  0
CIRCLE
  8
0
 10
231.136490
 20
-123.382782
 40
12.500000
  0
CIRCLE
  8
0
 10
231.136490
 20
-123.382782
 40
11.500000
  0
ENDSEC
  0
EOF
