  0
SECTION
  2
HEADER
  0
ENDSEC
  0
SECTION
  2
TABLES
  0
TABLE
  2
LTYPE
 70
     4
  0
LTYPE
  2
CONTINUOUS
 70
    64
  3
Solid line
 72
    65
 73
     0
 40
0.000000
  0
LTYPE
  2
DASHED
 70
    64
  3
__ __ __ __ __ __ __ __ __ __ __ __ __ __ __
 72
    65
 73
     2
 40
3.500000
 49
2.000000
 49
-1.500000
  0
LTYPE
  2
CENTER
 70
    64
  3
____ _ ____ _ ____ _ ____ _ ____ _ ____ _ ____
 72
    65
 73
     4
 40
17.500000
 49
13.000000
 49
-1.500000
 49
1.500000
 49
-1.500000
  0
LTYPE
  2
PHANTOM
 70
    64
  3
_____ _ _ _____ _ _ _____ _ _ _____ _ _ ____  
 72
    65
 73
     6
 40
15.500000
 49
8.000000
 49
-1.500000
 49
1.500000
 49
-1.500000
 49
1.500000
 49
-1.500000
  0
LTYPE
  2
DASHED1
 70
    64
  3
__ __ __ __ __ __ __ __ __ __ __ __ __ __ __
 72
    65
 73
     2
 40
1.500000
 49
1.000000
 49
-0.500000
  0
LTYPE
  2
DASHED2
 70
    64
  3
__ __ __ __ __ __ __ __ __ __ __ __ __ __ __
 72
    65
 73
     2
 40
3.500000
 49
2.500000
 49
-1.000000
  0
LTYPE
  2
DASHED3
 70
    64
  3
__ __ __ __ __ __ __ __ __ __ __ __ __ __ __
 72
    65
 73
     2
 40
6.000000
 49
4.000000
 49
-2.000000
  0
LTYPE
  2
DASHED4
 70
    64
  3
__ __ __ __ __ __ __ __ __ __ __ __ __ __ __
 72
    65
 73
     2
 40
12.000000
 49
10.000000
 49
-2.000000
  0
LTYPE
  2
DASHED5
 70
    64
  3
__ __ __ __ __ __ __ __ __ __ __ __ __ __ __
 72
    65
 73
     2
 40
17.000000
 49
15.000000
 49
-2.000000
  0
LTYPE
  2
DASHED6
 70
    64
  3
__ __ __ __ __ __ __ __ __ __ __ __ __ __ __
 72
    65
 73
     2
 40
29.000000
 49
27.000000
 49
-2.000000
  0
LTYPE
  2
PHANTOM1
 70
    64
  3
_____ _ _ _____ _ _ _____ _ _ _____ _ _ ____  
 72
    65
 73
     6
 40
31.000000
 49
25.000000
 49
-1.500000
 49
1.000000
 49
-1.000000
 49
1.000000
 49
-1.500000
  0
LTYPE
  2
PHANTOM2
 70
    64
  3
_____ _ _ _____ _ _ _____ _ _ _____ _ _ ____  
 72
    65
 73
     6
 40
36.000000
 49
27.000000
 49
-1.500000
 49
2.500000
 49
-1.000000
 49
2.500000
 49
-1.500000
  0
LTYPE
  2
PHANTOM3
 70
    64
  3
_____ _ _ _____ _ _ _____ _ _ _____ _ _ ____  
 72
    65
 73
     6
 40
78.000000
 49
64.000000
 49
-2.000000
 49
4.000000
 49
-2.000000
 49
4.000000
 49
-2.000000
  0
LTYPE
  2
CENTER1
 70
    64
  3
____ _ ____ _ ____ _ ____ _ ____ _ ____ _ ____
 72
    65
 73
     4
 40
19.000000
 49
14.000000
 49
-1.000000
 49
3.000000
 49
-1.000000
  0
LTYPE
  2
CENTER2
 70
    64
  3
____ _ ____ _ ____ _ ____ _ ____ _ ____ _ ____
 72
    65
 73
     4
 40
28.500000
 49
25.000000
 49
-1.000000
 49
1.500000
 49
-1.000000
  0
LTYPE
  2
CENTER3
 70
    64
  3
____ _ ____ _ ____ _ ____ _ ____ _ ____ _ ____
 72
    65
 73
     4
 40
31.500000
 49
27.000000
 49
-1.000000
 49
2.500000
 49
-1.000000
  0
LTYPE
  2
CENTER4
 70
    64
  3
____ _ ____ _ ____ _ ____ _ ____ _ ____ _ ____
 72
    65
 73
     4
 40
50.000000
 49
45.000000
 49
-1.000000
 49
3.000000
 49
-1.000000
  0
LTYPE
  2
CENTER5
 70
    64
  3
____ _ ____ _ ____ _ ____ _ ____ _ ____ _ ____
 72
    65
 73
     4
 40
100.000000
 49
92.000000
 49
-2.000000
 49
4.000000
 49
-2.000000
  0
LTYPE
  2
SBK1
 70
    64
  3
______ _ _ _ ______ _ _ _ ______ _ _ _ _____  
 72
    65
 73
     8
 40
60.500000
 49
45.000000
 49
-2.000000
 49
2.500000
 49
-2.000000
 49
2.500000
 49
-2.000000
 49
2.500000
 49
-2.000000
  0
LTYPE
  2
SBK2
 70
    64
  3
______ _ _ _ ______ _ _ _ ______ _ _ _ _____  
 72
    65
 73
     8
 40
84.000000
 49
64.000000
 49
-2.000000
 49
4.000000
 49
-2.000000
 49
4.000000
 49
-2.000000
 49
4.000000
 49
-2.000000
  0
LTYPE
  2
STCH
 70
    64
  3
__ __ __ __ __ __ __ __ __ __ __ __ __ __ __
 72
    65
 73
     2
 40
3.000000
 49
1.000000
 49
-2.000000
  0
LTYPE
  2
MTCH
 70
    64
  3
_____ _ _ _____ _ _ _____ _ _ _____ _ _ ____  
 72
    65
 73
     6
 40
80.000000
 49
66.000000
 49
-2.000000
 49
4.000000
 49
-2.000000
 49
4.000000
 49
-2.000000
  0
ENDTAB
  0
TABLE
  2
LAYER
 70
     1
  0
LAYER
  2
0
 70
     0
 62
     7
  6
CONTINUOUS
  0
ENDTAB
  0
TABLE
  2
STYLE
 70
     1
  0
STYLE
  2
STANDARD
 70
     0
 40
0.000000
 41
1.000000
 50
0.000000
 71
     0
 42
0.200000
  3
txt
  4
BIGFONT
  0
ENDTAB
  0
TABLE
  2
VIEW
 70
     0
  0
ENDTAB
  0
ENDSEC
  0
SECTION
  2
BLOCKS
  0
ENDSEC
  0
SECTION
  2
ENTITIES
  0
LINE
  8
0
 10
179.467316
 20
86.746674
 11
61.467319
 21
86.746674
  0
LINE
  8
0
 10
89.149384
 20
-42.978947
 11
108.769386
 21
-42.978947
  0
LINE
  8
0
 10
126.467323
 20
116.746674
 11
159.467316
 21
116.746674
  0
LINE
  8
0
 10
114.467323
 20
116.746674
 11
81.467323
 21
116.746674
  0
LINE
  8
0
 10
151.769379
 20
-42.978947
 11
132.149384
 21
-42.978947
  0
LINE
  8
0
  6
CENTER
 62
     2
 10
98.959381
 20
-29.928946
 11
98.959381
 21
-140.502762
  0
LINE
  8
0
  6
CENTER
 62
     2
 10
141.959381
 20
-29.928946
 11
141.959381
 21
-140.502762
  0
LINE
  8
0
 10
125.467323
 20
-57.471008
 11
125.467323
 21
-59.978947
  0
LINE
  8
0
 10
128.959381
 20
-62.978951
 11
129.959381
 21
-61.978951
  0
LINE
  8
0
  6
CENTER
 62
     2
 10
83.578430
 20
-77.963074
 11
112.991127
 21
-77.963074
  0
LINE
  8
0
 10
85.959381
 20
-88.963074
 11
86.959381
 21
-89.963066
  0
LINE
  8
0
 10
111.959389
 20
-88.963074
 11
110.959389
 21
-89.963074
  0
LINE
  8
0
 10
110.959381
 20
-89.963074
 11
86.959381
 21
-89.963074
  0
LINE
  8
0
 10
79.959381
 20
-73.471008
 11
85.959381
 21
-73.471008
  0
LINE
  8
0
 10
85.260971
 20
-71.153549
 11
85.260971
 21
-69.978943
  0
LINE
  8
0
 10
78.959381
 20
-68.978943
 11
78.959381
 21
-72.471008
  0
LINE
  8
0
 10
79.657799
 20
-71.153549
 11
79.657799
 21
-69.978943
  0
LINE
  8
0
 10
79.959381
 20
-69.978943
 11
85.959381
 21
-69.978943
  0
LINE
  8
0
 10
78.959381
 20
-62.978947
 11
78.959381
 21
-68.978943
  0
LINE
  8
0
 10
82.467323
 20
-57.471008
 11
82.467323
 21
-59.978947
  0
LINE
  8
0
 10
85.959381
 20
-62.978943
 11
86.959381
 21
-61.978943
  0
LINE
  8
0
 10
88.467323
 20
-61.978947
 11
79.959381
 21
-61.978947
  0
LINE
  8
0
 10
85.959381
 20
-62.978947
 11
85.959381
 21
-88.963074
  0
LINE
  8
0
 10
111.959381
 20
-69.978943
 11
117.959381
 21
-69.978943
  0
LINE
  8
0
 10
112.657799
 20
-71.153549
 11
112.657799
 21
-69.978943
  0
LINE
  8
0
 10
118.959381
 20
-68.978943
 11
118.959381
 21
-72.471008
  0
LINE
  8
0
 10
118.260971
 20
-71.153549
 11
118.260971
 21
-69.978943
  0
LINE
  8
0
 10
111.959381
 20
-73.471008
 11
117.959381
 21
-73.471008
  0
LINE
  8
0
 10
111.959381
 20
-62.978947
 11
111.959381
 21
-88.963074
  0
LINE
  8
0
 10
118.959381
 20
-65.978943
 11
78.959381
 21
-65.978943
  0
LINE
  8
0
 10
118.959381
 20
-62.978947
 11
118.959381
 21
-68.978943
  0
LINE
  8
0
 10
111.959381
 20
-62.978947
 11
110.959381
 21
-61.978947
  0
LINE
  8
0
 10
115.467323
 20
-57.471008
 11
115.467323
 21
-59.978947
  0
LINE
  8
0
 10
117.959381
 20
-61.978947
 11
109.467323
 21
-61.978947
  0
LINE
  8
0
 10
107.467323
 20
-42.978947
 11
107.467323
 21
-59.978947
  0
LINE
  8
0
 10
90.467323
 20
-42.978947
 11
90.467323
 21
-59.978947
  0
LINE
  8
0
 10
158.467316
 20
-57.471008
 11
158.467316
 21
-59.978947
  0
LINE
  8
0
  6
CENTER
 62
     2
 10
126.578430
 20
-77.963074
 11
155.991135
 21
-77.963074
  0
LINE
  8
0
 10
128.959381
 20
-88.963074
 11
129.959381
 21
-89.963074
  0
LINE
  8
0
 10
153.959381
 20
-89.963074
 11
129.959381
 21
-89.963074
  0
LINE
  8
0
 10
154.959381
 20
-62.978947
 11
154.959381
 21
-88.963074
  0
LINE
  8
0
 10
155.657791
 20
-71.153549
 11
155.657791
 21
-69.978943
  0
LINE
  8
0
 10
154.959381
 20
-73.471008
 11
160.959381
 21
-73.471008
  0
LINE
  8
0
 10
161.959381
 20
-68.978943
 11
161.959381
 21
-72.471008
  0
LINE
  8
0
 10
161.260971
 20
-71.153549
 11
161.260971
 21
-69.978943
  0
LINE
  8
0
 10
154.959381
 20
-69.978943
 11
160.959381
 21
-69.978943
  0
LINE
  8
0
 10
161.959381
 20
-62.978947
 11
161.959381
 21
-68.978943
  0
LINE
  8
0
 10
154.959381
 20
-62.978939
 11
153.959381
 21
-61.978939
  0
LINE
  8
0
 10
160.959381
 20
-61.978947
 11
152.467316
 21
-61.978947
  0
LINE
  8
0
 10
150.467316
 20
-42.978947
 11
150.467316
 21
-59.978947
  0
LINE
  8
0
 10
133.467316
 20
-42.978947
 11
133.467316
 21
-59.978947
  0
LINE
  8
0
 10
131.467316
 20
-61.978947
 11
122.959381
 21
-61.978947
  0
LINE
  8
0
 10
161.959381
 20
-65.978943
 11
121.959381
 21
-65.978943
  0
LINE
  8
0
 10
121.959381
 20
-62.978947
 11
121.959381
 21
-68.978943
  0
LINE
  8
0
 10
122.959381
 20
-69.978943
 11
128.959381
 21
-69.978943
  0
LINE
  8
0
 10
122.657799
 20
-71.153549
 11
122.657799
 21
-69.978943
  0
LINE
  8
0
 10
128.260971
 20
-71.153549
 11
128.260971
 21
-69.978943
  0
LINE
  8
0
 10
121.959381
 20
-68.978943
 11
121.959381
 21
-72.471008
  0
LINE
  8
0
 10
122.959381
 20
-73.471008
 11
128.959381
 21
-73.471008
  0
LINE
  8
0
 10
128.959381
 20
-62.978947
 11
128.959381
 21
-88.963074
  0
LINE
  8
0
 10
-87.548553
 20
-61.978947
 11
-86.548553
 21
-62.978947
  0
LINE
  8
0
 10
79.959381
 20
-85.455139
 11
70.768906
 21
-85.455139
  0
LINE
  8
0
 10
75.467323
 20
-80.963074
 11
79.467323
 21
-80.963074
  0
LINE
  8
0
  6
CENTER
 62
     2
 10
79.467323
 20
-82.391647
 11
79.467323
 21
-72.661484
  0
LINE
  8
0
 10
75.467323
 20
-73.963074
 11
79.467323
 21
-73.963074
  0
LINE
  8
0
  6
CENTER
 62
     2
 10
75.467323
 20
-82.312279
 11
75.467323
 21
-72.661484
  0
LINE
  8
0
  6
CENTER
 62
     2
 10
83.895889
 20
-77.455139
 11
69.991127
 21
-77.455139
  0
LINE
  8
0
  6
CENTER
 62
     2
 10
161.467316
 20
-82.391647
 11
161.467316
 21
-72.661484
  0
LINE
  8
0
 10
165.467316
 20
-73.963074
 11
161.467316
 21
-73.963074
  0
LINE
  8
0
 10
165.467316
 20
-80.963074
 11
161.467316
 21
-80.963074
  0
LINE
  8
0
  6
CENTER
 62
     2
 10
165.467316
 20
-82.312279
 11
165.467316
 21
-72.661484
  0
LINE
  8
0
  6
CENTER
 62
     2
 10
155.848267
 20
-77.455139
 11
170.943512
 21
-77.455139
  0
LINE
  8
0
 10
173.165726
 20
-82.455139
 11
170.165726
 21
-85.455139
  0
LINE
  8
0
 10
161.959381
 20
-68.471008
 11
172.165726
 21
-68.471008
  0
LINE
  8
0
 10
172.165741
 20
-68.471008
 11
173.165741
 21
-68.058311
  0
LINE
  8
0
 10
173.165726
 20
-82.455139
 11
173.165726
 21
-58.471008
  0
LINE
  8
0
 10
168.467316
 20
-57.471008
 11
169.467316
 21
-58.471012
  0
LINE
  8
0
 10
169.467316
 20
-58.471008
 11
179.467316
 21
-58.471008
  0
LINE
  8
0
 10
179.467316
 20
-58.471004
 11
180.467316
 21
-57.471004
  0
LINE
  8
0
 10
180.467316
 20
-57.471008
 11
180.467316
 21
-35.471008
  0
LINE
  8
0
 10
179.467316
 20
-34.471001
 11
180.467316
 21
-35.471004
  0
LINE
  8
0
 10
168.467316
 20
-35.471008
 11
169.467316
 21
-34.471008
  0
LINE
  8
0
 10
169.467316
 20
-34.471008
 11
179.467316
 21
-34.471008
  0
LINE
  8
0
 10
160.959381
 20
-85.455139
 11
170.165726
 21
-85.455139
  0
LINE
  8
0
 10
125.467316
 20
-35.471008
 11
124.467316
 21
-34.471008
  0
LINE
  8
0
  6
CENTER
 62
     2
 10
120.467323
 20
-86.994820
 11
120.467323
 21
-30.010693
  0
LINE
  8
0
 10
126.467316
 20
-34.471008
 11
125.467316
 21
-35.471008
  0
LINE
  8
0
 10
79.959381
 20
-85.455139
 11
81.467323
 21
-85.455139
  0
LINE
  8
0
 10
82.467323
 20
-73.471008
 11
82.467323
 21
-84.455139
  0
LINE
  8
0
 10
130.165726
 20
-57.471008
 11
130.165726
 21
-35.471008
  0
LINE
  8
0
 10
110.768906
 20
-35.471016
 11
113.356201
 21
-41.439262
  0
LINE
  8
0
 10
115.467316
 20
-57.471008
 11
116.467316
 21
-58.471012
  0
LINE
  8
0
 10
124.467323
 20
-58.471008
 11
116.467323
 21
-58.471008
  0
LINE
  8
0
 10
125.467316
 20
-57.471008
 11
124.467316
 21
-58.471008
  0
LINE
  8
0
 10
115.467316
 20
-35.471008
 11
116.467316
 21
-34.471008
  0
LINE
  8
0
 10
110.768906
 20
-57.471008
 11
110.768906
 21
-35.471008
  0
LINE
  8
0
 10
120.467316
 20
-48.201164
 11
118.959381
 21
-47.344025
  0
LINE
  8
0
 10
121.959381
 20
-45.613865
 11
120.467323
 21
-44.740852
  0
LINE
  8
0
 10
120.467323
 20
-44.740852
 11
118.959389
 21
-45.613869
  0
LINE
  8
0
 10
121.959389
 20
-47.344028
 11
120.467323
 21
-48.201172
  0
LINE
  8
0
 10
118.959381
 20
-47.344025
 11
118.959381
 21
-45.613865
  0
LINE
  8
0
 10
121.959381
 20
-47.344025
 11
121.959381
 21
-45.613865
  0
LINE
  8
0
 10
113.356209
 20
-51.518627
 11
110.768913
 21
-57.471008
  0
LINE
  8
0
 10
130.165741
 20
-57.471008
 11
127.562561
 21
-51.518627
  0
LINE
  8
0
 10
130.165726
 20
-57.471008
 11
110.768906
 21
-57.471008
  0
LINE
  8
0
 10
130.165726
 20
-35.471004
 11
127.562553
 21
-41.439259
  0
LINE
  8
0
 10
130.165726
 20
-35.471008
 11
110.768906
 21
-35.471008
  0
LINE
  8
0
 10
124.467323
 20
-34.471008
 11
116.467323
 21
-34.471008
  0
LINE
  8
0
 10
127.562561
 20
-41.439262
 11
113.356209
 21
-41.439262
  0
LINE
  8
0
 10
127.562561
 20
-51.518627
 11
113.356209
 21
-51.518627
  0
LINE
  8
0
 10
113.356209
 20
-51.518627
 11
113.356209
 21
-41.439262
  0
LINE
  8
0
 10
127.562561
 20
-51.518627
 11
127.562561
 21
-41.439262
  0
LINE
  8
0
 10
83.467316
 20
-34.471008
 11
82.467316
 21
-35.471004
  0
LINE
  8
0
 10
114.467316
 20
-34.471008
 11
115.467316
 21
-35.471008
  0
LINE
  8
0
 10
118.959381
 20
-86.455139
 11
118.959381
 21
-98.963074
  0
LINE
  8
0
 10
78.959381
 20
-86.455139
 11
78.959381
 21
-98.963074
  0
LINE
  8
0
 10
115.467323
 20
-73.471008
 11
115.467323
 21
-84.455139
  0
LINE
  8
0
 10
116.467323
 20
-85.455139
 11
117.959381
 21
-85.455139
  0
LINE
  8
0
 10
117.959389
 20
-99.963074
 11
118.959381
 21
-98.963074
  0
LINE
  8
0
 10
78.959381
 20
-98.963066
 11
79.959381
 21
-99.963074
  0
LINE
  8
0
 10
80.007004
 20
-99.963074
 11
118.038750
 21
-99.963074
  0
LINE
  8
0
 10
83.959381
 20
-106.963074
 11
83.959381
 21
-108.169426
  0
LINE
  8
0
 10
113.959381
 20
-106.963074
 11
113.959381
 21
-108.169426
  0
LINE
  8
0
 10
84.768906
 20
-108.963074
 11
98.959381
 21
-108.963074
  0
LINE
  8
0
 10
84.768906
 20
-108.963074
 11
83.959373
 21
-108.169411
  0
LINE
  8
0
 10
113.165733
 20
-108.963074
 11
98.959381
 21
-108.963074
  0
LINE
  8
0
 10
113.165733
 20
-108.963074
 11
113.959381
 21
-108.169418
  0
LINE
  8
0
 10
110.848274
 20
-114.963074
 11
112.768906
 21
-114.963074
  0
LINE
  8
0
 10
91.324463
 20
-114.963074
 11
95.959381
 21
-114.963074
  0
LINE
  8
0
 10
87.753036
 20
-134.883713
 11
91.260971
 21
-134.883713
  0
LINE
  8
0
 10
106.673668
 20
-134.883713
 11
110.165733
 21
-134.883713
  0
LINE
  8
0
 10
96.483192
 20
-134.883713
 11
101.435577
 21
-134.883713
  0
LINE
  8
0
 10
110.165733
 20
-134.883698
 11
110.848267
 21
-114.963074
  0
LINE
  8
0
 10
106.610176
 20
-114.963081
 11
106.673668
 21
-134.883713
  0
LINE
  8
0
 10
87.753036
 20
-134.883713
 11
87.070496
 21
-114.963074
  0
LINE
  8
0
 10
91.324463
 20
-114.963074
 11
91.260971
 21
-134.883698
  0
LINE
  8
0
 10
101.959381
 20
-114.963074
 11
106.610176
 21
-114.963074
  0
LINE
  8
0
 10
85.149857
 20
-114.963074
 11
87.070496
 21
-114.963074
  0
LINE
  8
0
 10
95.959381
 20
-114.963081
 11
96.499069
 21
-134.883713
  0
LINE
  8
0
 10
101.959389
 20
-114.963074
 11
101.435577
 21
-134.883713
  0
LINE
  8
0
 10
84.768906
 20
-112.455132
 11
85.372078
 21
-134.883713
  0
LINE
  8
0
 10
113.165733
 20
-112.455132
 11
112.562553
 21
-134.883713
  0
LINE
  8
0
 10
111.562561
 20
-135.455139
 11
111.562561
 21
-136.455139
  0
LINE
  8
0
 10
86.372086
 20
-135.455139
 11
86.372086
 21
-136.455139
  0
LINE
  8
0
 10
85.372086
 20
-134.883713
 11
86.372086
 21
-135.455139
  0
LINE
  8
0
 10
111.562561
 20
-135.455139
 11
112.562561
 21
-134.883713
  0
LINE
  8
0
 10
87.372086
 20
-137.455139
 11
110.562561
 21
-137.455139
  0
LINE
  8
0
 10
84.768906
 20
-112.455139
 11
113.165733
 21
-112.455139
  0
LINE
  8
0
 10
84.768906
 20
-106.963074
 11
84.768906
 21
-109.455139
  0
LINE
  8
0
 10
113.165733
 20
-106.963074
 11
113.165733
 21
-109.455139
  0
LINE
  8
0
 10
89.530815
 20
-109.963074
 11
89.530815
 21
-112.455139
  0
LINE
  8
0
 10
97.403831
 20
-109.963074
 11
97.403831
 21
-112.455139
  0
LINE
  8
0
 10
100.530815
 20
-109.963074
 11
100.530815
 21
-112.455139
  0
LINE
  8
0
 10
108.403831
 20
-109.963074
 11
108.403831
 21
-112.455139
  0
LINE
  8
0
 10
85.260971
 20
-109.963074
 11
98.959381
 21
-109.963074
  0
LINE
  8
0
 10
87.959381
 20
-110.455139
 11
87.959381
 21
-112.455139
  0
LINE
  8
0
 10
112.657799
 20
-109.963074
 11
98.959381
 21
-109.963074
  0
LINE
  8
0
 10
109.959381
 20
-110.455139
 11
109.959381
 21
-112.455139
  0
LINE
  8
0
 10
101.467323
 20
-105.963074
 11
98.959381
 21
-105.963074
  0
LINE
  8
0
 10
117.800652
 20
-101.963074
 11
116.530815
 21
-101.963074
  0
LINE
  8
0
 10
116.530815
 20
-105.963074
 11
114.022873
 21
-105.963074
  0
LINE
  8
0
 10
110.546684
 20
-105.963074
 11
106.213348
 21
-105.963074
  0
LINE
  8
0
 10
114.022873
 20
-101.963074
 11
110.546684
 21
-101.963074
  0
LINE
  8
0
 10
106.213348
 20
-101.963074
 11
101.467323
 21
-101.963074
  0
LINE
  8
0
 10
116.530815
 20
-101.963074
 11
116.530815
 21
-105.963074
  0
LINE
  8
0
 10
114.022873
 20
-101.963074
 11
114.022873
 21
-105.963074
  0
LINE
  8
0
 10
110.546684
 20
-101.963074
 11
110.546684
 21
-105.963074
  0
LINE
  8
0
 10
106.213348
 20
-101.963074
 11
106.213348
 21
-105.963074
  0
LINE
  8
0
 10
101.467323
 20
-101.963074
 11
101.467323
 21
-105.963074
  0
LINE
  8
0
 10
96.467323
 20
-105.963074
 11
98.959381
 21
-105.963074
  0
LINE
  8
0
 10
80.133987
 20
-101.963074
 11
81.403831
 21
-101.963074
  0
LINE
  8
0
 10
81.403831
 20
-105.963074
 11
83.895889
 21
-105.963074
  0
LINE
  8
0
 10
87.387955
 20
-105.963074
 11
91.705414
 21
-105.963074
  0
LINE
  8
0
 10
83.895889
 20
-101.963074
 11
87.387955
 21
-101.963074
  0
LINE
  8
0
 10
91.705414
 20
-101.963074
 11
96.467323
 21
-101.963074
  0
LINE
  8
0
 10
81.403831
 20
-101.963074
 11
81.403831
 21
-105.963074
  0
LINE
  8
0
 10
83.895889
 20
-101.963074
 11
83.895889
 21
-105.963074
  0
LINE
  8
0
 10
87.387955
 20
-101.963074
 11
87.387955
 21
-105.963074
  0
LINE
  8
0
 10
91.705414
 20
-101.963074
 11
91.705414
 21
-105.963074
  0
LINE
  8
0
 10
96.467323
 20
-101.963074
 11
96.467323
 21
-105.963074
  0
LINE
  8
0
 10
117.959381
 20
-105.963066
 11
116.959381
 21
-106.963066
  0
LINE
  8
0
 10
79.959381
 20
-105.963066
 11
80.959381
 21
-106.963066
  0
LINE
  8
0
 10
79.959381
 20
-101.963074
 11
79.975258
 21
-101.963074
  0
LINE
  8
0
 10
79.959381
 20
-99.963074
 11
79.959381
 21
-105.963074
  0
LINE
  8
0
 10
117.959381
 20
-99.963074
 11
117.959381
 21
-105.963074
  0
LINE
  8
0
 10
80.959381
 20
-106.963074
 11
116.959381
 21
-106.963074
  0
LINE
  8
0
 10
173.165726
 20
-57.471008
 11
173.165726
 21
-35.471008
  0
LINE
  8
0
 10
153.768906
 20
-35.471008
 11
156.356216
 21
-41.439262
  0
LINE
  8
0
 10
71.467323
 20
-58.471008
 11
61.483192
 21
-58.471008
  0
LINE
  8
0
 10
82.467316
 20
-57.471008
 11
81.467316
 21
-58.471008
  0
LINE
  8
0
 10
72.467316
 20
-57.471008
 11
73.467316
 21
-58.471008
  0
LINE
  8
0
 10
82.467316
 20
-35.471004
 11
81.467323
 21
-34.471008
  0
LINE
  8
0
 10
71.467323
 20
-34.471008
 11
61.483192
 21
-34.471008
  0
LINE
  8
0
 10
72.467316
 20
-35.471008
 11
73.467316
 21
-34.471004
  0
LINE
  8
0
 10
158.467316
 20
-57.471004
 11
159.467316
 21
-58.471004
  0
LINE
  8
0
 10
173.165726
 20
-57.471008
 11
153.768906
 21
-57.471008
  0
LINE
  8
0
 10
167.467316
 20
-58.471008
 11
159.467316
 21
-58.471008
  0
LINE
  8
0
 10
168.467316
 20
-57.471008
 11
167.467316
 21
-58.471012
  0
LINE
  8
0
 10
168.467316
 20
-35.471008
 11
167.467316
 21
-34.471008
  0
LINE
  8
0
 10
158.467316
 20
-35.471004
 11
159.467316
 21
-34.471001
  0
LINE
  8
0
 10
67.784782
 20
-57.471008
 11
67.784782
 21
-35.471008
  0
LINE
  8
0
 10
72.467316
 20
-35.471008
 11
71.467323
 21
-34.471012
  0
LINE
  8
0
 10
72.467316
 20
-57.471008
 11
71.467316
 21
-58.471008
  0
LINE
  8
0
 10
61.483189
 20
-58.471008
 11
60.483192
 21
-57.471012
  0
LINE
  8
0
 10
61.483192
 20
-34.471008
 11
60.483192
 21
-35.471008
  0
LINE
  8
0
 10
60.483192
 20
-57.471008
 11
60.483192
 21
-35.471008
  0
LINE
  8
0
 10
77.467316
 20
-48.201164
 11
75.959381
 21
-47.344025
  0
LINE
  8
0
 10
78.959381
 20
-45.613865
 11
77.467323
 21
-44.740852
  0
LINE
  8
0
 10
77.467323
 20
-44.740849
 11
75.959381
 21
-45.613865
  0
LINE
  8
0
 10
78.959381
 20
-47.344025
 11
77.467316
 21
-48.201168
  0
LINE
  8
0
 10
75.959381
 20
-47.344025
 11
75.959381
 21
-45.613865
  0
LINE
  8
0
 10
78.959381
 20
-47.344025
 11
78.959381
 21
-45.613865
  0
LINE
  8
0
  6
CENTER
 62
     2
 10
77.467323
 20
-87.756721
 11
77.467323
 21
-30.010693
  0
LINE
  8
0
 10
70.356209
 20
-51.518627
 11
67.784775
 21
-57.471008
  0
LINE
  8
0
 10
87.165733
 20
-57.471012
 11
84.562561
 21
-51.518627
  0
LINE
  8
0
 10
68.768906
 20
-68.471008
 11
67.784782
 21
-68.058311
  0
LINE
  8
0
 10
78.959381
 20
-68.471008
 11
68.768906
 21
-68.471008
  0
LINE
  8
0
 10
87.165733
 20
-57.471008
 11
67.784782
 21
-57.471008
  0
LINE
  8
0
 10
67.784782
 20
-82.455139
 11
70.768906
 21
-85.455139
  0
LINE
  8
0
 10
70.356209
 20
-41.439266
 11
67.784782
 21
-35.471012
  0
LINE
  8
0
 10
87.165733
 20
-35.471008
 11
84.562561
 21
-41.439262
  0
LINE
  8
0
 10
87.165733
 20
-35.471008
 11
67.784782
 21
-35.471008
  0
LINE
  8
0
 10
81.467323
 20
-58.471008
 11
73.467323
 21
-58.471008
  0
LINE
  8
0
 10
81.467323
 20
-34.471008
 11
73.467323
 21
-34.471008
  0
LINE
  8
0
 10
84.562561
 20
-41.439262
 11
70.356209
 21
-41.439262
  0
LINE
  8
0
 10
84.562561
 20
-51.518627
 11
70.356209
 21
-51.518627
  0
LINE
  8
0
 10
70.356209
 20
-51.518627
 11
70.356209
 21
-41.439262
  0
LINE
  8
0
 10
84.562561
 20
-51.518627
 11
84.562561
 21
-41.439262
  0
LINE
  8
0
 10
67.784782
 20
-82.455139
 11
67.784782
 21
-58.471008
  0
LINE
  8
0
 10
87.165733
 20
-57.471008
 11
87.165733
 21
-35.471008
  0
LINE
  8
0
 10
-127.548553
 20
-34.471008
 11
-128.548553
 21
-35.471008
  0
LINE
  8
0
 10
-146.548553
 20
-82.455139
 11
-145.548553
 21
-82.042442
  0
LINE
  8
0
  6
CENTER
 62
     2
 10
-143.627914
 20
-77.455139
 11
-155.326324
 21
-77.455139
  0
LINE
  8
0
 10
-146.548553
 20
-82.455139
 11
-153.548553
 21
-82.455139
  0
LINE
  8
0
 10
-145.548553
 20
-68.471008
 11
-135.548553
 21
-58.471012
  0
LINE
  8
0
 10
-145.548538
 20
-84.455132
 11
-146.548553
 21
-85.455132
  0
LINE
  8
0
 10
-145.548553
 20
-84.455139
 11
-145.548553
 21
-68.471008
  0
LINE
  8
0
 10
-146.548553
 20
-85.455139
 11
-153.548553
 21
-85.455139
  0
LINE
  8
0
 10
-153.548553
 20
-85.455139
 11
-153.548553
 21
-34.471008
  0
LINE
  8
0
 10
-128.548553
 20
-58.471008
 11
-128.548553
 21
-34.471008
  0
LINE
  8
0
 10
-98.548553
 20
-57.471012
 11
-99.548546
 21
-58.471008
  0
LINE
  8
0
 10
-98.548553
 20
-35.471012
 11
-99.548553
 21
-34.471008
  0
LINE
  8
0
 10
-97.548553
 20
-36.074184
 11
-98.548553
 21
-36.074184
  0
LINE
  8
0
 10
-99.548553
 20
-58.471008
 11
-135.548553
 21
-58.471008
  0
LINE
  8
0
 10
-99.548553
 20
-34.471008
 11
-153.548553
 21
-34.471008
  0
LINE
  8
0
 10
-92.056488
 20
-43.375771
 11
-92.453308
 21
-42.978943
  0
LINE
  8
0
 10
-92.453316
 20
-49.978947
 11
-92.056488
 21
-49.582123
  0
LINE
  8
0
 10
-92.453316
 20
-49.978947
 11
-93.056488
 21
-49.978947
  0
LINE
  8
0
 10
-92.453316
 20
-42.978947
 11
-93.056488
 21
-42.978947
  0
LINE
  8
0
 10
-92.056488
 20
-49.582119
 11
-92.056488
 21
-43.375771
  0
LINE
  8
0
 10
-93.056488
 20
-51.518627
 11
-93.056488
 21
-41.439262
  0
LINE
  8
0
 10
-93.056488
 20
-41.439262
 11
-97.548546
 21
-36.074181
  0
LINE
  8
0
 10
-93.056488
 20
-51.518631
 11
-97.548546
 21
-56.883705
  0
LINE
  8
0
 10
-98.548553
 20
-57.471008
 11
-98.548553
 21
-35.471008
  0
LINE
  8
0
 10
-97.548553
 20
-56.883709
 11
-98.548553
 21
-56.883709
  0
LINE
  8
0
 10
153.768906
 20
-57.471008
 11
153.768906
 21
-35.471008
  0
LINE
  8
0
 10
163.467316
 20
-48.201168
 11
161.959381
 21
-47.344021
  0
LINE
  8
0
 10
164.959381
 20
-45.613865
 11
163.467316
 21
-44.740849
  0
LINE
  8
0
 10
163.467316
 20
-44.740852
 11
161.959381
 21
-45.613865
  0
LINE
  8
0
 10
164.959381
 20
-47.344028
 11
163.467316
 21
-48.201172
  0
LINE
  8
0
 10
161.959381
 20
-47.344025
 11
161.959381
 21
-45.613865
  0
LINE
  8
0
 10
164.959381
 20
-47.344025
 11
164.959381
 21
-45.613865
  0
LINE
  8
0
  6
CENTER
 62
     2
 10
163.467316
 20
-87.312279
 11
163.467316
 21
-30.010693
  0
LINE
  8
0
 10
156.356216
 20
-51.518627
 11
153.768906
 21
-57.471008
  0
LINE
  8
0
 10
173.165726
 20
-57.471012
 11
170.562561
 21
-51.518631
  0
LINE
  8
0
 10
173.165726
 20
-35.471004
 11
170.562546
 21
-41.439259
  0
LINE
  8
0
 10
173.165726
 20
-35.471008
 11
153.768906
 21
-35.471008
  0
LINE
  8
0
 10
167.467316
 20
-34.471008
 11
159.467316
 21
-34.471008
  0
LINE
  8
0
 10
170.562561
 20
-41.439262
 11
156.356201
 21
-41.439262
  0
LINE
  8
0
 10
170.562561
 20
-51.518627
 11
156.356201
 21
-51.518627
  0
LINE
  8
0
 10
156.356201
 20
-51.518627
 11
156.356201
 21
-41.439262
  0
LINE
  8
0
 10
170.562561
 20
-51.518627
 11
170.562561
 21
-41.439262
  0
LINE
  8
0
 10
154.959381
 20
-88.963066
 11
153.959381
 21
-89.963066
  0
LINE
  8
0
  6
CENTER
 62
     2
 10
-88.342201
 20
-46.471008
 11
-156.802521
 21
-46.471008
  0
LINE
  8
0
 10
-103.850143
 20
-73.471008
 11
-103.850143
 21
-85.455139
  0
LINE
  8
0
 10
-123.246964
 20
-73.471008
 11
-123.246964
 21
-85.455139
  0
LINE
  8
0
  6
CENTER
 62
     2
 10
-91.850143
 20
-77.963074
 11
-83.548553
 21
-77.963074
  0
LINE
  8
0
 10
-88.548553
 20
-70.978943
 11
-88.548553
 21
-84.963074
  0
LINE
  8
0
 10
-93.548553
 20
-84.963074
 11
-88.548553
 21
-84.963074
  0
LINE
  8
0
 10
-93.548553
 20
-70.978943
 11
-88.548553
 21
-70.978943
  0
LINE
  8
0
 10
-128.548553
 20
-98.963074
 11
-127.548553
 21
-99.963074
  0
LINE
  8
0
 10
-128.548553
 20
-73.471008
 11
-128.548553
 21
-98.963074
  0
LINE
  8
0
 10
-103.850143
 20
-85.455139
 11
-123.246964
 21
-85.455139
  0
LINE
  8
0
 10
-100.548553
 20
-69.978943
 11
-100.548553
 21
-89.963074
  0
LINE
  8
0
 10
-126.548553
 20
-69.978943
 11
-126.548553
 21
-72.471008
  0
LINE
  8
0
 10
-93.548553
 20
-98.963074
 11
-94.548553
 21
-99.963074
  0
LINE
  8
0
 10
-132.548553
 20
-99.963074
 11
-133.548553
 21
-98.963074
  0
LINE
  8
0
 10
-94.548553
 20
-99.963074
 11
-132.548553
 21
-99.963074
  0
LINE
  8
0
 10
-128.548553
 20
-106.963074
 11
-128.548553
 21
-108.169426
  0
LINE
  8
0
 10
-98.548553
 20
-106.963074
 11
-98.548553
 21
-108.169426
  0
LINE
  8
0
 10
-127.754906
 20
-108.963074
 11
-113.548553
 21
-108.963074
  0
LINE
  8
0
 10
-127.754898
 20
-108.963074
 11
-128.548553
 21
-108.169418
  0
LINE
  8
0
 10
-99.358078
 20
-108.963074
 11
-113.548553
 21
-108.963074
  0
LINE
  8
0
 10
-99.358070
 20
-108.963066
 11
-98.548553
 21
-108.169418
  0
LINE
  8
0
 10
-101.659668
 20
-114.963074
 11
-99.421570
 21
-114.963074
  0
LINE
  8
0
 10
-121.199348
 20
-114.963074
 11
-116.548553
 21
-114.963074
  0
LINE
  8
0
 10
-124.754906
 20
-134.883713
 11
-121.262840
 21
-134.883713
  0
LINE
  8
0
 10
-105.850143
 20
-134.883713
 11
-102.342201
 21
-134.883713
  0
LINE
  8
0
 10
-116.024742
 20
-134.883713
 11
-111.072365
 21
-134.883713
  0
LINE
  8
0
 10
-102.342209
 20
-134.883713
 11
-101.659668
 21
-114.963074
  0
LINE
  8
0
 10
-105.913635
 20
-114.963074
 11
-105.850143
 21
-134.883713
  0
LINE
  8
0
 10
-124.754898
 20
-134.883713
 11
-125.437439
 21
-114.963074
  0
LINE
  8
0
 10
-121.199348
 20
-114.963074
 11
-121.262840
 21
-134.883713
  0
LINE
  8
0
 10
-110.548553
 20
-114.963074
 11
-105.913635
 21
-114.963074
  0
LINE
  8
0
 10
-127.691414
 20
-114.963074
 11
-125.437439
 21
-114.963074
  0
LINE
  8
0
 10
-116.548553
 20
-114.963074
 11
-116.024750
 21
-134.883713
  0
LINE
  8
0
 10
-110.548561
 20
-114.963074
 11
-111.088242
 21
-134.883713
  0
LINE
  8
0
 10
-127.754898
 20
-112.455132
 11
-127.151718
 21
-134.883713
  0
LINE
  8
0
 10
-99.358078
 20
-112.455132
 11
-99.945381
 21
-134.883713
  0
LINE
  8
0
 10
-100.945381
 20
-135.455139
 11
-100.945381
 21
-136.455139
  0
LINE
  8
0
 10
-126.151726
 20
-135.455139
 11
-126.151726
 21
-136.455139
  0
LINE
  8
0
 10
-127.151726
 20
-134.883713
 11
-126.151726
 21
-135.455139
  0
LINE
  8
0
 10
-100.945381
 20
-135.455139
 11
-99.945381
 21
-134.883713
  0
LINE
  8
0
 10
-125.151726
 20
-137.455139
 11
-101.945381
 21
-137.455139
  0
LINE
  8
0
 10
-127.754906
 20
-112.455139
 11
-99.358078
 21
-112.455139
  0
LINE
  8
0
 10
-127.754906
 20
-106.963074
 11
-127.754906
 21
-109.455139
  0
LINE
  8
0
 10
-99.358078
 20
-106.963074
 11
-99.358078
 21
-109.455139
  0
LINE
  8
0
 10
-122.977127
 20
-109.963074
 11
-122.977127
 21
-112.455139
  0
LINE
  8
0
 10
-115.119980
 20
-109.963074
 11
-115.119980
 21
-112.455139
  0
LINE
  8
0
 10
-111.977127
 20
-109.963074
 11
-111.977127
 21
-112.455139
  0
LINE
  8
0
 10
-104.119980
 20
-109.963074
 11
-104.119980
 21
-112.455139
  0
LINE
  8
0
 10
-127.246964
 20
-109.963074
 11
-113.548553
 21
-109.963074
  0
LINE
  8
0
 10
-124.548553
 20
-110.455139
 11
-124.548553
 21
-112.455139
  0
LINE
  8
0
 10
-99.850143
 20
-109.963074
 11
-113.548553
 21
-109.963074
  0
LINE
  8
0
 10
-102.548553
 20
-110.455139
 11
-102.548553
 21
-112.455139
  0
LINE
  8
0
 10
-111.056488
 20
-105.963074
 11
-113.548553
 21
-105.963074
  0
LINE
  8
0
 10
-94.723160
 20
-101.963074
 11
-95.992996
 21
-101.963074
  0
LINE
  8
0
 10
-95.992996
 20
-105.963074
 11
-98.485062
 21
-105.963074
  0
LINE
  8
0
 10
-101.977127
 20
-105.963074
 11
-106.294586
 21
-105.963074
  0
LINE
  8
0
 10
-98.485062
 20
-101.963074
 11
-101.977127
 21
-101.963074
  0
LINE
  8
0
 10
-106.294586
 20
-101.963074
 11
-111.056488
 21
-101.963074
  0
LINE
  8
0
 10
-95.992996
 20
-101.963074
 11
-95.992996
 21
-105.963074
  0
LINE
  8
0
 10
-98.485062
 20
-101.963074
 11
-98.485062
 21
-105.963074
  0
LINE
  8
0
 10
-101.977127
 20
-101.963074
 11
-101.977127
 21
-105.963074
  0
LINE
  8
0
 10
-106.294586
 20
-101.963074
 11
-106.294586
 21
-105.963074
  0
LINE
  8
0
 10
-111.056488
 20
-101.963074
 11
-111.056488
 21
-105.963074
  0
LINE
  8
0
 10
-94.548553
 20
-101.963074
 11
-94.564423
 21
-101.963074
  0
LINE
  8
0
 10
-116.056488
 20
-105.963074
 11
-113.548553
 21
-105.963074
  0
LINE
  8
0
 10
-132.389816
 20
-101.963074
 11
-131.119980
 21
-101.963074
  0
LINE
  8
0
 10
-131.119980
 20
-105.963074
 11
-128.612045
 21
-105.963074
  0
LINE
  8
0
 10
-125.135857
 20
-105.963074
 11
-120.802521
 21
-105.963074
  0
LINE
  8
0
 10
-128.612045
 20
-101.963074
 11
-125.135857
 21
-101.963074
  0
LINE
  8
0
 10
-120.802521
 20
-101.963074
 11
-116.056488
 21
-101.963074
  0
LINE
  8
0
 10
-131.119980
 20
-101.963074
 11
-131.119980
 21
-105.963074
  0
LINE
  8
0
 10
-128.612045
 20
-101.963074
 11
-128.612045
 21
-105.963074
  0
LINE
  8
0
 10
-125.135857
 20
-101.963074
 11
-125.135857
 21
-105.963074
  0
LINE
  8
0
 10
-120.802521
 20
-101.963074
 11
-120.802521
 21
-105.963074
  0
LINE
  8
0
 10
-116.056488
 20
-101.963074
 11
-116.056488
 21
-105.963074
  0
LINE
  8
0
 10
-94.548546
 20
-105.963066
 11
-95.548553
 21
-106.963066
  0
LINE
  8
0
 10
-132.548553
 20
-105.963066
 11
-131.548553
 21
-106.963066
  0
LINE
  8
0
 10
-132.548553
 20
-99.963074
 11
-132.548553
 21
-105.963074
  0
LINE
  8
0
 10
-94.548553
 20
-99.963074
 11
-94.548553
 21
-105.963074
  0
LINE
  8
0
 10
-131.548553
 20
-106.963074
 11
-95.548553
 21
-106.963074
  0
LINE
  8
0
 10
-86.548553
 20
-88.963074
 11
-87.548553
 21
-89.963074
  0
LINE
  8
0
 10
-93.548553
 20
-84.963074
 11
-93.548553
 21
-98.963074
  0
LINE
  8
0
 10
-100.548553
 20
-89.963074
 11
-87.548553
 21
-89.963074
  0
LINE
  8
0
 10
-133.548553
 20
-62.978947
 11
-133.548553
 21
-98.963074
  0
LINE
  8
0
 10
-93.548553
 20
-62.978947
 11
-93.548553
 21
-65.978943
  0
LINE
  8
0
 10
-133.548553
 20
-65.978943
 11
-86.548553
 21
-65.978943
  0
LINE
  8
0
 10
-86.548553
 20
-62.978947
 11
-86.548553
 21
-88.963074
  0
LINE
  8
0
 10
-132.548553
 20
-61.978947
 11
-87.548553
 21
-61.978947
  0
LINE
  8
0
 10
-98.548553
 20
-57.471008
 11
-98.548553
 21
-59.978947
  0
LINE
  8
0
 10
-128.548553
 20
-58.677361
 11
-128.548553
 21
-59.978947
  0
LINE
  8
0
  6
CENTER
 62
     2
 10
-113.548553
 20
-31.502756
 11
-113.548553
 21
-141.121796
  0
LINE
  8
0
 10
-94.246964
 20
-71.153549
 11
-94.246964
 21
-69.978943
  0
LINE
  8
0
 10
-99.850143
 20
-71.153549
 11
-99.850143
 21
-69.978943
  0
LINE
  8
0
 10
-127.246964
 20
-71.153549
 11
-127.246964
 21
-69.978943
  0
LINE
  8
0
 10
-132.850143
 20
-71.153549
 11
-132.850143
 21
-69.978943
  0
LINE
  8
0
 10
-93.548553
 20
-65.978943
 11
-93.548553
 21
-70.978943
  0
LINE
  8
0
 10
-126.548553
 20
-69.978943
 11
-132.850143
 21
-69.978943
  0
LINE
  8
0
 10
-101.548553
 20
-73.471008
 11
-128.548553
 21
-73.471008
  0
LINE
  8
0
 10
-94.548553
 20
-69.978943
 11
-100.548553
 21
-69.978943
  0
LINE
  8
0
  6
CENTER
 62
     2
 10
40.742199
 20
-46.471008
 11
182.965973
 21
-46.471008
  0
LINE
  8
0
 10
157.467331
 20
-34.471012
 11
158.467316
 21
-35.471004
  0
LINE
  8
0
 10
126.467323
 20
-34.471008
 11
157.467316
 21
-34.471008
  0
LINE
  8
0
 10
161.959381
 20
-86.455139
 11
161.959381
 21
-98.963074
  0
LINE
  8
0
 10
121.959381
 20
-86.455139
 11
121.959381
 21
-98.963074
  0
LINE
  8
0
 10
158.467316
 20
-73.471008
 11
158.467316
 21
-84.455139
  0
LINE
  8
0
 10
125.467323
 20
-73.471008
 11
125.467323
 21
-84.455139
  0
LINE
  8
0
 10
159.467316
 20
-85.455139
 11
160.959381
 21
-85.455139
  0
LINE
  8
0
 10
122.959381
 20
-85.455139
 11
124.467323
 21
-85.455139
  0
LINE
  8
0
 10
160.959381
 20
-99.963074
 11
161.959381
 21
-98.963081
  0
LINE
  8
0
 10
121.959389
 20
-98.963074
 11
122.959373
 21
-99.963066
  0
LINE
  8
0
 10
123.007004
 20
-99.963074
 11
161.038742
 21
-99.963074
  0
LINE
  8
0
 10
126.959381
 20
-106.963074
 11
126.959381
 21
-108.169426
  0
LINE
  8
0
 10
156.959381
 20
-106.963074
 11
156.959381
 21
-108.169426
  0
LINE
  8
0
 10
127.768906
 20
-108.963074
 11
141.959381
 21
-108.963074
  0
LINE
  8
0
 10
127.768898
 20
-108.963066
 11
126.959381
 21
-108.169418
  0
LINE
  8
0
 10
156.165726
 20
-108.963074
 11
141.959381
 21
-108.963074
  0
LINE
  8
0
 10
156.165726
 20
-108.963074
 11
156.959381
 21
-108.169426
  0
LINE
  8
0
 10
153.848267
 20
-114.963074
 11
155.768906
 21
-114.963074
  0
LINE
  8
0
 10
134.324463
 20
-114.963074
 11
138.959381
 21
-114.963074
  0
LINE
  8
0
 10
130.753036
 20
-134.883713
 11
134.260971
 21
-134.883713
  0
LINE
  8
0
 10
149.673676
 20
-134.883713
 11
153.165726
 21
-134.883713
  0
LINE
  8
0
 10
139.483200
 20
-134.883713
 11
144.435577
 21
-134.883713
  0
LINE
  8
0
 10
153.165741
 20
-134.883713
 11
153.848282
 21
-114.963074
  0
LINE
  8
0
 10
149.610168
 20
-114.963074
 11
149.673660
 21
-134.883698
  0
LINE
  8
0
 10
130.753036
 20
-134.883713
 11
130.070496
 21
-114.963074
  0
LINE
  8
0
 10
134.324463
 20
-114.963074
 11
134.260971
 21
-134.883713
  0
LINE
  8
0
 10
144.959381
 20
-114.963074
 11
149.610184
 21
-114.963074
  0
LINE
  8
0
 10
128.149857
 20
-114.963074
 11
130.070496
 21
-114.963074
  0
LINE
  8
0
 10
138.959396
 20
-114.963081
 11
139.499084
 21
-134.883713
  0
LINE
  8
0
 10
144.959381
 20
-114.963074
 11
144.435577
 21
-134.883713
  0
LINE
  8
0
 10
127.768898
 20
-112.455132
 11
128.372070
 21
-134.883713
  0
LINE
  8
0
 10
156.165726
 20
-112.455132
 11
155.562546
 21
-134.883713
  0
LINE
  8
0
 10
154.562561
 20
-135.455139
 11
154.562561
 21
-136.455139
  0
LINE
  8
0
 10
129.372086
 20
-135.455139
 11
129.372086
 21
-136.455139
  0
LINE
  8
0
 10
128.372086
 20
-134.883713
 11
129.372086
 21
-135.455139
  0
LINE
  8
0
 10
154.562561
 20
-135.455139
 11
155.562561
 21
-134.883713
  0
LINE
  8
0
 10
130.372086
 20
-137.455139
 11
153.562561
 21
-137.455139
  0
LINE
  8
0
 10
127.768906
 20
-112.455139
 11
156.165726
 21
-112.455139
  0
LINE
  8
0
 10
127.768906
 20
-106.963074
 11
127.768906
 21
-109.455139
  0
LINE
  8
0
 10
156.165726
 20
-106.963074
 11
156.165726
 21
-109.455139
  0
LINE
  8
0
 10
132.530807
 20
-109.963074
 11
132.530807
 21
-112.455139
  0
LINE
  8
0
 10
140.403824
 20
-109.963074
 11
140.403824
 21
-112.455139
  0
LINE
  8
0
 10
143.530807
 20
-109.963074
 11
143.530807
 21
-112.455139
  0
LINE
  8
0
 10
151.403824
 20
-109.963074
 11
151.403824
 21
-112.455139
  0
LINE
  8
0
 10
128.260971
 20
-109.963074
 11
141.959381
 21
-109.963074
  0
LINE
  8
0
 10
130.959381
 20
-110.455139
 11
130.959381
 21
-112.455139
  0
LINE
  8
0
 10
155.657791
 20
-109.963074
 11
141.959381
 21
-109.963074
  0
LINE
  8
0
 10
152.959381
 20
-110.455139
 11
152.959381
 21
-112.455139
  0
LINE
  8
0
 10
144.467316
 20
-105.963074
 11
141.959381
 21
-105.963074
  0
LINE
  8
0
 10
160.800659
 20
-101.963074
 11
159.530807
 21
-101.963074
  0
LINE
  8
0
 10
159.530807
 20
-105.963074
 11
157.022873
 21
-105.963074
  0
LINE
  8
0
 10
153.546692
 20
-105.963074
 11
149.213348
 21
-105.963074
  0
LINE
  8
0
 10
157.022873
 20
-101.963074
 11
153.546692
 21
-101.963074
  0
LINE
  8
0
 10
149.213348
 20
-101.963074
 11
144.467316
 21
-101.963074
  0
LINE
  8
0
 10
159.530807
 20
-101.963074
 11
159.530807
 21
-105.963074
  0
LINE
  8
0
 10
157.022873
 20
-101.963074
 11
157.022873
 21
-105.963074
  0
LINE
  8
0
 10
153.546692
 20
-101.963074
 11
153.546692
 21
-105.963074
  0
LINE
  8
0
 10
149.213348
 20
-101.963074
 11
149.213348
 21
-105.963074
  0
LINE
  8
0
 10
144.467316
 20
-101.963074
 11
144.467316
 21
-105.963074
  0
LINE
  8
0
 10
139.467316
 20
-105.963074
 11
141.959381
 21
-105.963074
  0
LINE
  8
0
 10
123.133987
 20
-101.963074
 11
124.403831
 21
-101.963074
  0
LINE
  8
0
 10
124.403831
 20
-105.963074
 11
126.911766
 21
-105.963074
  0
LINE
  8
0
 10
130.387955
 20
-105.963074
 11
134.705414
 21
-105.963074
  0
LINE
  8
0
 10
126.911766
 20
-101.963074
 11
130.387955
 21
-101.963074
  0
LINE
  8
0
 10
134.705414
 20
-101.963074
 11
139.467316
 21
-101.963074
  0
LINE
  8
0
 10
124.403831
 20
-101.963074
 11
124.403831
 21
-105.963074
  0
LINE
  8
0
 10
126.911766
 20
-101.963074
 11
126.911766
 21
-105.963074
  0
LINE
  8
0
 10
130.387955
 20
-101.963074
 11
130.387955
 21
-105.963074
  0
LINE
  8
0
 10
134.705414
 20
-101.963074
 11
134.705414
 21
-105.963074
  0
LINE
  8
0
 10
139.467316
 20
-101.963074
 11
139.467316
 21
-105.963074
  0
LINE
  8
0
 10
160.959381
 20
-105.963066
 11
159.959381
 21
-106.963074
  0
LINE
  8
0
 10
122.959381
 20
-105.963066
 11
123.959381
 21
-106.963074
  0
LINE
  8
0
 10
122.959381
 20
-101.963074
 11
122.975258
 21
-101.963074
  0
LINE
  8
0
 10
122.959381
 20
-99.963074
 11
122.959381
 21
-105.963074
  0
LINE
  8
0
 10
160.959381
 20
-99.963074
 11
160.959381
 21
-105.963074
  0
LINE
  8
0
 10
123.959381
 20
-106.963074
 11
159.959381
 21
-106.963074
  0
LINE
  8
0
 10
-99.548553
 20
-34.471008
 11
-87.342201
 21
-34.471008
  0
LINE
  8
0
 10
-86.548553
 20
-62.978947
 11
-86.548553
 21
-35.264660
  0
LINE
  8
0
 10
-87.342201
 20
-34.471008
 11
-86.548553
 21
-35.264660
  0
LINE
  8
0
  6
CENTER
 62
     2
 10
-76.338554
 20
-43.471008
 11
-92.048553
 21
-43.471008
  0
LINE
  8
0
 10
-82.523552
 20
-48.466011
 11
-86.548553
 21
-48.338535
  0
LINE
  8
0
 62
     2
 10
-84.048553
 20
-47.831009
 11
-86.548553
 21
-47.752163
  0
LINE
  8
0
 62
     2
 10
-84.048553
 20
-39.116009
 11
-86.548553
 21
-39.194855
  0
LINE
  8
0
 10
-82.548546
 20
-38.481010
 11
-86.548553
 21
-38.608124
  0
LINE
  8
0
 10
-84.048553
 20
-48.416008
 11
-84.048553
 21
-38.531010
  0
LINE
  8
0
 10
-82.548553
 20
-49.246010
 11
-82.548553
 21
-37.701008
  0
LINE
  8
0
 62
     2
 10
-84.048553
 20
-47.831009
 11
-82.523552
 21
-48.466011
  0
LINE
  8
0
 62
     2
 10
-84.048553
 20
-39.116009
 11
-82.548561
 21
-38.481010
  0
LINE
  8
0
  6
CENTER
 62
     2
 10
-66.648552
 20
-57.971008
 11
-66.648552
 21
-36.201008
  0
LINE
  8
0
 10
-59.048553
 20
-43.471008
 11
-59.048553
 21
-37.701008
  0
LINE
  8
0
 10
-56.148552
 20
-56.471008
 11
-77.148552
 21
-56.471008
  0
LINE
  8
0
 10
-55.748554
 20
-54.741009
 11
-55.748554
 21
-43.471008
  0
LINE
  8
0
 10
-56.148552
 20
-56.471008
 11
-56.148552
 21
-54.971008
  0
LINE
  8
0
 10
-56.148552
 20
-54.971008
 11
-55.748554
 21
-54.741009
  0
LINE
  8
0
 10
-55.933552
 20
-54.741009
 11
-55.933552
 21
-46.241009
  0
LINE
  8
0
 10
-56.458553
 20
-54.971008
 11
-56.458553
 21
-46.471008
  0
LINE
  8
0
 10
-57.658554
 20
-54.971008
 11
-57.658554
 21
-46.241009
  0
LINE
  8
0
 10
-60.488552
 20
-54.741009
 11
-60.488552
 21
-46.241009
  0
LINE
  8
0
 10
-61.228554
 20
-54.971008
 11
-61.228554
 21
-46.471008
  0
LINE
  8
0
 10
-64.128555
 20
-53.471008
 11
-64.128555
 21
-46.471008
  0
LINE
  8
0
 10
-64.648552
 20
-54.971008
 11
-64.648552
 21
-46.241009
  0
LINE
  8
0
 10
-56.148552
 20
-54.971008
 11
-56.458553
 21
-54.971008
  0
LINE
  8
0
 10
-55.748554
 20
-54.741009
 11
-55.933552
 21
-54.741009
  0
LINE
  8
0
 10
-55.933552
 20
-46.241009
 11
-57.658554
 21
-46.241009
  0
LINE
  8
0
 10
-56.458553
 20
-46.471008
 11
-57.658554
 21
-46.471008
  0
LINE
  8
0
 10
-61.228554
 20
-46.471008
 11
-64.128555
 21
-46.471008
  0
LINE
  8
0
 10
-60.488552
 20
-46.241009
 11
-64.648552
 21
-46.241009
  0
LINE
  8
0
 10
-57.658554
 20
-54.971008
 11
-61.228554
 21
-54.971008
  0
LINE
  8
0
 10
-57.658554
 20
-54.741009
 11
-60.488552
 21
-54.741009
  0
LINE
  8
0
 10
-64.128555
 20
-46.471008
 11
-64.648552
 21
-46.241009
  0
LINE
  8
0
 10
-61.228554
 20
-46.471008
 11
-60.488556
 21
-46.241009
  0
LINE
  8
0
 10
-60.488552
 20
-54.741009
 11
-61.228554
 21
-54.971008
  0
LINE
  8
0
 10
-56.458557
 20
-46.471012
 11
-55.933552
 21
-46.241009
  0
LINE
  8
0
 10
-55.933556
 20
-54.741009
 11
-56.458557
 21
-54.971012
  0
LINE
  8
0
 10
-68.648552
 20
-54.971008
 11
-64.648552
 21
-54.971008
  0
LINE
  8
0
 10
-69.173553
 20
-53.471008
 11
-64.128555
 21
-53.471008
  0
LINE
  8
0
 10
-68.648552
 20
-54.971008
 11
-68.648552
 21
-46.241009
  0
LINE
  8
0
 10
-69.173553
 20
-53.471008
 11
-69.173553
 21
-46.471008
  0
LINE
  8
0
 10
-72.813553
 20
-46.241009
 11
-68.648552
 21
-46.241009
  0
LINE
  8
0
 10
-72.073555
 20
-46.471008
 11
-69.173553
 21
-46.471008
  0
LINE
  8
0
 10
-69.173553
 20
-46.471012
 11
-68.648552
 21
-46.241009
  0
LINE
  8
0
 10
-72.073555
 20
-54.971008
 11
-72.073555
 21
-46.471008
  0
LINE
  8
0
 10
-72.813553
 20
-54.741009
 11
-72.813553
 21
-46.241009
  0
LINE
  8
0
 10
-72.073555
 20
-46.471008
 11
-72.813553
 21
-46.241009
  0
LINE
  8
0
 10
-75.643555
 20
-54.971008
 11
-72.073555
 21
-54.971008
  0
LINE
  8
0
 10
-75.643555
 20
-54.741009
 11
-72.813553
 21
-54.741009
  0
LINE
  8
0
 10
-72.813553
 20
-54.741009
 11
-72.073555
 21
-54.971008
  0
LINE
  8
0
 10
-75.643555
 20
-54.971008
 11
-75.643555
 21
-46.241009
  0
LINE
  8
0
 10
-76.918556
 20
-46.241009
 11
-75.643555
 21
-46.241009
  0
LINE
  8
0
 10
-76.843552
 20
-46.471008
 11
-75.643555
 21
-46.471008
  0
LINE
  8
0
 10
-76.843552
 20
-54.971008
 11
-76.843552
 21
-46.471008
  0
LINE
  8
0
 10
-76.843552
 20
-46.471012
 11
-76.958549
 21
-46.421013
  0
LINE
  8
0
 10
-77.363556
 20
-54.741009
 11
-77.363556
 21
-48.366009
  0
LINE
  8
0
 10
-77.548553
 20
-54.741009
 11
-77.548553
 21
-49.246010
  0
LINE
  8
0
 10
-77.363556
 20
-54.741013
 11
-76.843552
 21
-54.971012
  0
LINE
  8
0
 10
-77.148552
 20
-54.971004
 11
-77.548553
 21
-54.741005
  0
LINE
  8
0
 10
-77.148552
 20
-54.971008
 11
-76.843552
 21
-54.971008
  0
LINE
  8
0
 10
-77.548553
 20
-54.741009
 11
-77.363556
 21
-54.741009
  0
LINE
  8
0
 10
-77.148552
 20
-56.471008
 11
-77.148552
 21
-54.971008
  0
LINE
  8
0
 10
-82.548553
 20
-37.701008
 11
-59.048553
 21
-37.701008
  0
LINE
  8
0
 10
-82.548553
 20
-40.586010
 11
-59.048553
 21
-40.586010
  0
LINE
  8
0
 10
-82.548553
 20
-49.246010
 11
-77.548553
 21
-49.246010
  0
LINE
  8
0
 10
-76.338554
 20
-43.471008
 11
-77.548553
 21
-49.246006
  0
LINE
  8
0
 10
-76.338554
 20
-43.471008
 11
-55.748554
 21
-43.471008
  0
LINE
  8
0
 10
-82.548553
 20
-46.361012
 11
-76.943550
 21
-46.361012
  0
LINE
  8
0
  6
PHANTOM
 62
     2
 10
90.238380
 20
-42.978947
 11
89.149384
 21
-42.978947
  0
LINE
  8
0
 10
151.409378
 20
-53.328945
 11
151.769379
 21
-53.121944
  0
LINE
  8
0
 10
151.602890
 20
-53.121944
 11
151.602890
 21
-45.471947
  0
LINE
  8
0
 10
151.130386
 20
-53.328945
 11
151.130386
 21
-45.678947
  0
LINE
  8
0
 10
151.409378
 20
-53.328945
 11
151.130386
 21
-53.328945
  0
LINE
  8
0
 10
151.769379
 20
-53.121944
 11
151.602890
 21
-53.121944
  0
LINE
  8
0
 10
151.130386
 20
-45.678947
 11
151.602890
 21
-45.471947
  0
LINE
  8
0
 10
151.602890
 20
-53.121948
 11
151.130386
 21
-53.328949
  0
LINE
  8
0
 10
151.130386
 20
-45.678947
 11
150.050385
 21
-45.678947
  0
LINE
  8
0
 10
151.602890
 20
-45.471947
 11
150.050385
 21
-45.471947
  0
LINE
  8
0
 10
151.769379
 20
-53.121944
 11
151.769379
 21
-42.978947
  0
LINE
  8
0
 10
132.509384
 20
-54.678947
 11
132.509384
 21
-53.328945
  0
LINE
  8
0
 10
133.863876
 20
-53.328945
 11
133.863876
 21
-45.471947
  0
LINE
  8
0
 10
136.410889
 20
-53.121944
 11
137.076889
 21
-53.328949
  0
LINE
  8
0
 10
133.863876
 20
-53.121944
 11
136.410889
 21
-53.121944
  0
LINE
  8
0
 10
133.863876
 20
-53.328945
 11
137.076889
 21
-53.328945
  0
LINE
  8
0
 10
137.076874
 20
-45.678944
 11
136.410889
 21
-45.471947
  0
LINE
  8
0
 10
136.410889
 20
-53.121944
 11
136.410889
 21
-45.471947
  0
LINE
  8
0
 10
137.076889
 20
-53.328945
 11
137.076889
 21
-45.678947
  0
LINE
  8
0
 10
139.686890
 20
-45.678944
 11
140.159378
 21
-45.471947
  0
LINE
  8
0
 10
137.076889
 20
-45.678947
 11
139.686890
 21
-45.678947
  0
LINE
  8
0
 10
136.410889
 20
-45.471947
 11
140.159378
 21
-45.471947
  0
LINE
  8
0
 10
139.686890
 20
-51.978947
 11
139.686890
 21
-45.678947
  0
LINE
  8
0
 10
140.159378
 20
-53.328945
 11
140.159378
 21
-45.471947
  0
LINE
  8
0
 10
139.686890
 20
-51.978947
 11
144.227386
 21
-51.978947
  0
LINE
  8
0
 10
140.159378
 20
-53.328945
 11
143.759384
 21
-53.328945
  0
LINE
  8
0
 10
132.315887
 20
-53.121944
 11
132.788376
 21
-53.328945
  0
LINE
  8
0
 10
132.788376
 20
-45.678944
 11
132.315887
 21
-45.471943
  0
LINE
  8
0
 10
147.503387
 20
-53.121944
 11
146.837387
 21
-53.328945
  0
LINE
  8
0
 10
146.837387
 20
-45.678947
 11
147.503387
 21
-45.471947
  0
LINE
  8
0
 10
144.227386
 20
-45.678947
 11
143.759384
 21
-45.471951
  0
LINE
  8
0
 10
150.050385
 20
-53.121944
 11
147.503387
 21
-53.121944
  0
LINE
  8
0
 10
150.050385
 20
-53.328945
 11
146.837387
 21
-53.328945
  0
LINE
  8
0
 10
147.503387
 20
-45.471947
 11
143.759384
 21
-45.471947
  0
LINE
  8
0
 10
146.837387
 20
-45.678947
 11
144.227386
 21
-45.678947
  0
LINE
  8
0
 10
132.788376
 20
-45.678947
 11
133.868378
 21
-45.678947
  0
LINE
  8
0
 10
132.315887
 20
-45.471947
 11
133.868378
 21
-45.471947
  0
LINE
  8
0
 10
132.149384
 20
-53.121944
 11
132.315887
 21
-53.121944
  0
LINE
  8
0
 10
132.509384
 20
-53.328945
 11
132.788376
 21
-53.328945
  0
LINE
  8
0
 10
143.759384
 20
-53.328945
 11
143.759384
 21
-45.471947
  0
LINE
  8
0
 10
144.227386
 20
-51.978947
 11
144.227386
 21
-45.678947
  0
LINE
  8
0
 10
146.837387
 20
-53.328945
 11
146.837387
 21
-45.678947
  0
LINE
  8
0
 10
147.503387
 20
-53.121944
 11
147.503387
 21
-45.471947
  0
LINE
  8
0
 10
150.050385
 20
-53.328945
 11
150.050385
 21
-45.471947
  0
LINE
  8
0
 10
132.788376
 20
-53.328945
 11
132.788376
 21
-45.678947
  0
LINE
  8
0
 10
132.315887
 20
-53.121944
 11
132.315887
 21
-45.471947
  0
LINE
  8
0
 10
132.509384
 20
-53.328945
 11
132.149384
 21
-53.121948
  0
LINE
  8
0
 10
151.409378
 20
-54.678947
 11
151.409378
 21
-53.328945
  0
LINE
  8
0
 10
132.149384
 20
-53.121944
 11
132.149384
 21
-42.978947
  0
LINE
  8
0
 10
151.409378
 20
-54.678947
 11
132.509384
 21
-54.678947
  0
LINE
  8
0
  6
CENTER
 62
     2
 10
186.420944
 20
101.746674
 11
54.207302
 21
101.746674
  0
LINE
  8
0
  6
CENTER
 62
     2
 10
120.467323
 20
127.193741
 11
120.467323
 21
76.979500
  0
LINE
  8
0
  6
CENTER
 62
     2
 10
141.967316
 20
41.147793
 11
141.967316
 21
126.402969
  0
LINE
  8
0
 10
68.767319
 20
116.746674
 11
68.767319
 21
141.746674
  0
LINE
  8
0
 10
86.167320
 20
116.746674
 11
86.167320
 21
141.746674
  0
LINE
  8
0
 10
87.167320
 20
141.746674
 11
87.167320
 21
116.746674
  0
LINE
  8
0
 10
67.767319
 20
141.746674
 11
67.767319
 21
116.746674
  0
LINE
  8
0
 10
154.767319
 20
116.746674
 11
154.767319
 21
141.746674
  0
LINE
  8
0
 10
172.167313
 20
116.746674
 11
172.167313
 21
141.746674
  0
LINE
  8
0
 10
125.467323
 20
115.746674
 11
124.467323
 21
116.746674
  0
LINE
  8
0
 10
115.467316
 20
115.746666
 11
116.467316
 21
116.746674
  0
LINE
  8
0
 10
114.467323
 20
116.746674
 11
126.467323
 21
116.746674
  0
LINE
  8
0
 10
110.767319
 20
117.746674
 11
113.367317
 21
122.246666
  0
LINE
  8
0
 10
127.577316
 20
122.246674
 11
130.167313
 21
117.746674
  0
LINE
  8
0
 10
116.967323
 20
122.846672
 11
123.967323
 21
122.846672
  0
LINE
  8
0
 10
123.967323
 20
122.846672
 11
123.567322
 21
123.246674
  0
LINE
  8
0
 10
116.967316
 20
122.846664
 11
117.367317
 21
123.246666
  0
LINE
  8
0
 10
116.967323
 20
122.246674
 11
116.967323
 21
122.846672
  0
LINE
  8
0
 10
123.967323
 20
122.246674
 11
123.967323
 21
122.846672
  0
LINE
  8
0
 10
117.367317
 20
123.246674
 11
123.567322
 21
123.246674
  0
LINE
  8
0
 10
113.367317
 20
122.246674
 11
127.577316
 21
122.246674
  0
LINE
  8
0
 10
110.767319
 20
117.746674
 11
130.167313
 21
117.746674
  0
LINE
  8
0
 10
130.167313
 20
116.746674
 11
130.167313
 21
117.746674
  0
LINE
  8
0
 10
110.767319
 20
116.746674
 11
110.767319
 21
117.746674
  0
LINE
  8
0
 10
115.467323
 20
115.746674
 11
115.467323
 21
87.746674
  0
LINE
  8
0
 10
116.467323
 20
116.746674
 11
116.467323
 21
86.746674
  0
LINE
  8
0
 10
115.467316
 20
87.746666
 11
116.467316
 21
86.746666
  0
LINE
  8
0
 10
124.467316
 20
86.746666
 11
125.467316
 21
87.746674
  0
LINE
  8
0
 10
125.467323
 20
115.746674
 11
125.467323
 21
87.746674
  0
LINE
  8
0
 10
124.467323
 20
116.746674
 11
124.467323
 21
86.746674
  0
LINE
  8
0
 10
158.467316
 20
81.246674
 11
158.467316
 21
75.746674
  0
LINE
  8
0
 10
71.467323
 20
86.746674
 11
71.467323
 21
116.746674
  0
LINE
  8
0
 10
61.467319
 20
116.746674
 11
61.467319
 21
86.746674
  0
LINE
  8
0
 10
72.467323
 20
115.746674
 11
60.467319
 21
115.746674
  0
LINE
  8
0
 10
72.467316
 20
87.746666
 11
71.467316
 21
86.746666
  0
LINE
  8
0
 10
72.467316
 20
115.746666
 11
71.467316
 21
116.746666
  0
LINE
  8
0
 10
61.467316
 20
116.746666
 11
60.467319
 21
115.746674
  0
LINE
  8
0
 10
61.467316
 20
86.746666
 11
60.467319
 21
87.746666
  0
LINE
  8
0
 10
60.467319
 20
115.746674
 11
60.467319
 21
87.746674
  0
LINE
  8
0
 10
80.967323
 20
80.646675
 11
73.967323
 21
80.646675
  0
LINE
  8
0
 10
73.467323
 20
116.746674
 11
73.467323
 21
86.746674
  0
LINE
  8
0
 10
81.467323
 20
116.746674
 11
81.467323
 21
86.746674
  0
LINE
  8
0
 10
82.467323
 20
87.746674
 11
60.467319
 21
87.746674
  0
LINE
  8
0
 10
73.467316
 20
86.746666
 11
72.467316
 21
87.746666
  0
LINE
  8
0
 10
82.467316
 20
87.746666
 11
81.467316
 21
86.746666
  0
LINE
  8
0
 10
73.467323
 20
116.746674
 11
61.467319
 21
116.746674
  0
LINE
  8
0
 10
82.467323
 20
116.746674
 11
82.467323
 21
87.746674
  0
LINE
  8
0
 10
72.467323
 20
116.746674
 11
72.467323
 21
87.746674
  0
LINE
  8
0
 10
87.167320
 20
141.746674
 11
67.767319
 21
141.746674
  0
LINE
  8
0
 10
73.967316
 20
80.646667
 11
74.367317
 21
80.246666
  0
LINE
  8
0
 10
80.967323
 20
80.646667
 11
80.567314
 21
80.246666
  0
LINE
  8
0
 10
80.967323
 20
81.246674
 11
80.967323
 21
80.646675
  0
LINE
  8
0
 10
73.967323
 20
81.246674
 11
73.967323
 21
80.646675
  0
LINE
  8
0
 10
80.567322
 20
80.246674
 11
74.367317
 21
80.246674
  0
LINE
  8
0
 10
84.567322
 20
81.246674
 11
70.357323
 21
81.246674
  0
LINE
  8
0
 10
70.357315
 20
81.246666
 11
67.767319
 21
85.746666
  0
LINE
  8
0
 10
87.167320
 20
85.746666
 11
84.567314
 21
81.246674
  0
LINE
  8
0
 10
87.167320
 20
85.746674
 11
67.767319
 21
85.746674
  0
LINE
  8
0
 10
67.767319
 20
86.746674
 11
67.767319
 21
85.746674
  0
LINE
  8
0
 10
87.167320
 20
86.746674
 11
87.167320
 21
85.746674
  0
LINE
  8
0
  6
CENTER
 62
     2
 10
77.467323
 20
146.156677
 11
77.467323
 21
78.296669
  0
LINE
  8
0
 10
130.167313
 20
86.746674
 11
130.167313
 21
85.746674
  0
LINE
  8
0
 10
110.767319
 20
86.746674
 11
110.767319
 21
85.746674
  0
LINE
  8
0
 10
110.767319
 20
85.746674
 11
130.167313
 21
85.746674
  0
LINE
  8
0
 10
113.367317
 20
81.246674
 11
127.577316
 21
81.246674
  0
LINE
  8
0
 10
117.367317
 20
80.246674
 11
123.567322
 21
80.246674
  0
LINE
  8
0
 10
123.967323
 20
81.246674
 11
123.967323
 21
80.646675
  0
LINE
  8
0
 10
116.967323
 20
81.246674
 11
116.967323
 21
80.646675
  0
LINE
  8
0
 10
116.967316
 20
80.646667
 11
117.367317
 21
80.246666
  0
LINE
  8
0
 10
123.967323
 20
80.646675
 11
123.567314
 21
80.246674
  0
LINE
  8
0
 10
116.967323
 20
80.646675
 11
123.967323
 21
80.646675
  0
LINE
  8
0
 10
127.577316
 20
81.246666
 11
130.167313
 21
85.746674
  0
LINE
  8
0
 10
110.767311
 20
85.746666
 11
113.367310
 21
81.246666
  0
LINE
  8
0
  6
CENTER
 62
     2
 10
163.467316
 20
146.156677
 11
163.467316
 21
78.296669
  0
LINE
  8
0
 10
153.767319
 20
86.746674
 11
153.767319
 21
85.746674
  0
LINE
  8
0
 10
173.167313
 20
86.746674
 11
173.167313
 21
85.746674
  0
LINE
  8
0
 10
153.767319
 20
85.746674
 11
173.167313
 21
85.746674
  0
LINE
  8
0
 10
153.767319
 20
85.746674
 11
156.367325
 21
81.246674
  0
LINE
  8
0
 10
170.577316
 20
81.246666
 11
173.167313
 21
85.746666
  0
LINE
  8
0
 10
156.367325
 20
81.246674
 11
170.577316
 21
81.246674
  0
LINE
  8
0
 10
160.367325
 20
80.246674
 11
166.567322
 21
80.246674
  0
LINE
  8
0
 10
166.967316
 20
81.246674
 11
166.967316
 21
80.646675
  0
LINE
  8
0
 10
159.967316
 20
81.246674
 11
159.967316
 21
80.646675
  0
LINE
  8
0
 10
159.967316
 20
80.646667
 11
160.367325
 21
80.246674
  0
LINE
  8
0
 10
166.967316
 20
80.646675
 11
166.567322
 21
80.246674
  0
LINE
  8
0
 10
153.767319
 20
141.746674
 11
173.167313
 21
141.746674
  0
LINE
  8
0
 10
168.467316
 20
116.746674
 11
168.467316
 21
87.746674
  0
LINE
  8
0
 10
158.467316
 20
116.746674
 11
158.467316
 21
87.746674
  0
LINE
  8
0
 10
167.467316
 20
116.746674
 11
179.467316
 21
116.746674
  0
LINE
  8
0
 10
173.167313
 20
141.746674
 11
173.167313
 21
116.746674
  0
LINE
  8
0
 10
153.767319
 20
141.746674
 11
153.767319
 21
116.746674
  0
LINE
  8
0
 10
158.467316
 20
87.746666
 11
159.467316
 21
86.746666
  0
LINE
  8
0
 10
167.467316
 20
86.746674
 11
168.467316
 21
87.746674
  0
LINE
  8
0
 10
158.467316
 20
87.746674
 11
180.467316
 21
87.746674
  0
LINE
  8
0
 10
159.467316
 20
116.746674
 11
159.467316
 21
86.746674
  0
LINE
  8
0
 10
167.467316
 20
116.746674
 11
167.467316
 21
86.746674
  0
LINE
  8
0
 10
159.967316
 20
80.646675
 11
166.967316
 21
80.646675
  0
LINE
  8
0
 10
180.467316
 20
115.746674
 11
180.467316
 21
87.746674
  0
LINE
  8
0
 10
179.467316
 20
86.746666
 11
180.467316
 21
87.746666
  0
LINE
  8
0
 10
179.467316
 20
116.746674
 11
180.467316
 21
115.746674
  0
LINE
  8
0
 10
168.467316
 20
115.746666
 11
169.467316
 21
116.746666
  0
LINE
  8
0
 10
168.467316
 20
87.746674
 11
169.467316
 21
86.746674
  0
LINE
  8
0
 10
168.467316
 20
115.746674
 11
180.467316
 21
115.746674
  0
LINE
  8
0
 10
179.467316
 20
116.746674
 11
179.467316
 21
86.746674
  0
LINE
  8
0
 10
169.467316
 20
86.746674
 11
169.467316
 21
116.746674
  0
LINE
  8
0
 10
87.167320
 20
121.746674
 11
113.078430
 21
121.746674
  0
LINE
  8
0
 10
114.467323
 20
86.746674
 11
115.467316
 21
87.746666
  0
LINE
  8
0
 10
115.467316
 20
115.746666
 11
114.467316
 21
116.746666
  0
LINE
  8
0
 10
83.467323
 20
116.746674
 11
82.467323
 21
115.746674
  0
LINE
  8
0
 10
83.467316
 20
86.746666
 11
82.467316
 21
87.746666
  0
LINE
  8
0
 10
114.467323
 20
116.746674
 11
114.467323
 21
86.746674
  0
LINE
  8
0
 10
83.467323
 20
116.746674
 11
83.467323
 21
86.746674
  0
LINE
  8
0
 10
115.467323
 20
115.746674
 11
82.467323
 21
115.746674
  0
LINE
  8
0
 10
82.467323
 20
87.746674
 11
115.467323
 21
87.746674
  0
LINE
  8
0
 10
83.467323
 20
74.746674
 11
114.467323
 21
74.746674
  0
LINE
  8
0
 10
82.467323
 20
81.246674
 11
82.467323
 21
75.746674
  0
LINE
  8
0
 10
115.467323
 20
81.246674
 11
115.467323
 21
75.746674
  0
LINE
  8
0
 10
107.467323
 20
74.746674
 11
107.467323
 21
86.746674
  0
LINE
  8
0
 10
90.467323
 20
74.746674
 11
90.467323
 21
86.746674
  0
LINE
  8
0
 10
114.467316
 20
74.746666
 11
115.467316
 21
75.746666
  0
LINE
  8
0
 10
83.467316
 20
74.746666
 11
82.467316
 21
75.746666
  0
LINE
  8
0
 10
126.467323
 20
74.746674
 11
125.467323
 21
75.746674
  0
LINE
  8
0
 10
157.467316
 20
74.746674
 11
158.467316
 21
75.746674
  0
LINE
  8
0
 10
133.467316
 20
74.746674
 11
133.467316
 21
86.746674
  0
LINE
  8
0
 10
150.467316
 20
74.746674
 11
150.467316
 21
86.746674
  0
LINE
  8
0
 10
125.467323
 20
81.246674
 11
125.467323
 21
75.746674
  0
LINE
  8
0
 10
126.467323
 20
74.746674
 11
157.467316
 21
74.746674
  0
LINE
  8
0
 10
125.467323
 20
87.746674
 11
158.467316
 21
87.746674
  0
LINE
  8
0
 10
158.467316
 20
115.746674
 11
125.467323
 21
115.746674
  0
LINE
  8
0
 10
126.467323
 20
116.746674
 11
126.467323
 21
86.746674
  0
LINE
  8
0
 10
157.467316
 20
116.746674
 11
157.467316
 21
86.746674
  0
LINE
  8
0
 10
126.467316
 20
86.746674
 11
125.467316
 21
87.746674
  0
LINE
  8
0
 10
126.467316
 20
116.746666
 11
125.467323
 21
115.746674
  0
LINE
  8
0
 10
158.467316
 20
115.746674
 11
157.467316
 21
116.746674
  0
LINE
  8
0
 10
157.467316
 20
86.746666
 11
158.467316
 21
87.746666
  0
LINE
  8
0
 10
127.865097
 20
121.746674
 11
153.767319
 21
121.746674
  0
LINE
  8
0
 10
83.467323
 20
-34.471008
 11
114.467323
 21
-34.471008
  0
LINE
  8
0
 10
108.409386
 20
-54.678947
 11
89.509384
 21
-54.678947
  0
LINE
  8
0
 10
89.149384
 20
-53.121944
 11
89.149384
 21
-42.978947
  0
LINE
  8
0
 10
108.409386
 20
-54.678947
 11
108.409386
 21
-53.328945
  0
LINE
  8
0
 10
89.509384
 20
-53.328945
 11
89.149376
 21
-53.121944
  0
LINE
  8
0
 10
89.315880
 20
-53.121944
 11
89.315880
 21
-45.471947
  0
LINE
  8
0
 10
89.788383
 20
-53.328945
 11
89.788383
 21
-45.678947
  0
LINE
  8
0
 10
107.050385
 20
-53.328945
 11
107.050385
 21
-45.471947
  0
LINE
  8
0
 10
104.503380
 20
-53.121944
 11
104.503380
 21
-45.471947
  0
LINE
  8
0
 10
103.837387
 20
-53.328945
 11
103.837387
 21
-45.678947
  0
LINE
  8
0
 10
101.227386
 20
-51.978947
 11
101.227386
 21
-45.678947
  0
LINE
  8
0
 10
100.759384
 20
-53.328945
 11
100.759384
 21
-45.471947
  0
LINE
  8
0
 10
89.509384
 20
-53.328945
 11
89.788383
 21
-53.328945
  0
LINE
  8
0
 10
89.149384
 20
-53.121944
 11
89.315880
 21
-53.121944
  0
LINE
  8
0
 10
89.315880
 20
-45.471947
 11
90.868385
 21
-45.471947
  0
LINE
  8
0
 10
89.788383
 20
-45.678947
 11
90.868385
 21
-45.678947
  0
LINE
  8
0
 10
103.837387
 20
-45.678947
 11
101.227386
 21
-45.678947
  0
LINE
  8
0
 10
104.503380
 20
-45.471947
 11
100.759384
 21
-45.471947
  0
LINE
  8
0
 10
107.050385
 20
-53.328945
 11
103.837387
 21
-53.328945
  0
LINE
  8
0
 10
107.050385
 20
-53.121944
 11
104.503380
 21
-53.121944
  0
LINE
  8
0
 10
101.227386
 20
-45.678947
 11
100.759384
 21
-45.471947
  0
LINE
  8
0
 10
103.837379
 20
-45.678947
 11
104.503387
 21
-45.471943
  0
LINE
  8
0
 10
104.503387
 20
-53.121952
 11
103.837387
 21
-53.328953
  0
LINE
  8
0
 10
89.788383
 20
-45.678947
 11
89.315887
 21
-45.471947
  0
LINE
  8
0
 10
89.315880
 20
-53.121944
 11
89.788383
 21
-53.328945
  0
LINE
  8
0
 10
97.159386
 20
-53.328945
 11
100.759384
 21
-53.328945
  0
LINE
  8
0
 10
96.686882
 20
-51.978947
 11
101.227386
 21
-51.978947
  0
LINE
  8
0
 10
97.159386
 20
-53.328945
 11
97.159386
 21
-45.471947
  0
LINE
  8
0
 10
96.686882
 20
-51.978947
 11
96.686882
 21
-45.678947
  0
LINE
  8
0
 10
93.410881
 20
-45.471947
 11
97.159386
 21
-45.471947
  0
LINE
  8
0
 10
94.076881
 20
-45.678947
 11
96.686882
 21
-45.678947
  0
LINE
  8
0
 10
96.686890
 20
-45.678947
 11
97.159386
 21
-45.471947
  0
LINE
  8
0
 10
94.076881
 20
-53.328945
 11
94.076881
 21
-45.678947
  0
LINE
  8
0
 10
93.410881
 20
-53.121944
 11
93.410881
 21
-45.471947
  0
LINE
  8
0
 10
94.076881
 20
-45.678947
 11
93.410889
 21
-45.471947
  0
LINE
  8
0
 10
90.863884
 20
-53.328945
 11
94.076881
 21
-53.328945
  0
LINE
  8
0
 10
90.863884
 20
-53.121944
 11
93.410881
 21
-53.121944
  0
LINE
  8
0
 10
93.410889
 20
-53.121948
 11
94.076889
 21
-53.328949
  0
LINE
  8
0
 10
90.863884
 20
-53.328945
 11
90.863884
 21
-45.471947
  0
LINE
  8
0
 10
89.509384
 20
-54.678947
 11
89.509384
 21
-53.328945
  0
LINE
  8
0
 10
108.769386
 20
-53.121944
 11
108.769386
 21
-42.978947
  0
LINE
  8
0
 10
108.602882
 20
-45.471947
 11
107.050385
 21
-45.471947
  0
LINE
  8
0
 10
108.130386
 20
-45.678947
 11
107.050385
 21
-45.678947
  0
LINE
  8
0
 10
108.602882
 20
-53.121944
 11
108.130386
 21
-53.328945
  0
LINE
  8
0
 10
108.130386
 20
-45.678951
 11
108.602882
 21
-45.471951
  0
LINE
  8
0
 10
108.769386
 20
-53.121944
 11
108.602882
 21
-53.121944
  0
LINE
  8
0
 10
108.409386
 20
-53.328945
 11
108.130386
 21
-53.328945
  0
LINE
  8
0
 10
108.130386
 20
-53.328945
 11
108.130386
 21
-45.678947
  0
LINE
  8
0
 10
108.602882
 20
-53.121944
 11
108.602882
 21
-45.471947
  0
LINE
  8
0
 10
108.409378
 20
-53.328949
 11
108.769386
 21
-53.121944
  0
LINE
  8
0
 10
136.972321
 20
70.721672
 11
137.099792
 21
74.746674
  0
LINE
  8
0
 62
     2
 10
137.607315
 20
72.246666
 11
137.686172
 21
74.746666
  0
LINE
  8
0
 62
     2
 10
146.322327
 20
72.246674
 11
146.243469
 21
74.746674
  0
LINE
  8
0
 10
146.957321
 20
70.746674
 11
146.830215
 21
74.746674
  0
LINE
  8
0
 62
     2
 10
146.322327
 20
72.246666
 11
146.957321
 21
70.746666
  0
LINE
  8
0
 62
     2
 10
137.607315
 20
72.246674
 11
136.972321
 21
70.721672
  0
LINE
  8
0
 10
137.022324
 20
72.246674
 11
146.907318
 21
72.246674
  0
LINE
  8
0
  6
CENTER
 62
     2
 10
127.467323
 20
54.846672
 11
155.335464
 21
54.846672
  0
LINE
  8
0
 10
146.957321
 20
47.246670
 11
136.972321
 21
47.246670
  0
LINE
  8
0
 10
93.972321
 20
70.721672
 11
94.099792
 21
74.746666
  0
LINE
  8
0
 62
     2
 10
94.607323
 20
72.246674
 11
94.686165
 21
74.746674
  0
LINE
  8
0
 62
     2
 10
103.322311
 20
72.246666
 11
103.243469
 21
74.746666
  0
LINE
  8
0
 10
103.957321
 20
70.746674
 11
103.830208
 21
74.746666
  0
LINE
  8
0
  6
CENTER
 62
     2
 10
84.467323
 20
54.846672
 11
112.335464
 21
54.846672
  0
LINE
  8
0
 10
94.022324
 20
72.246674
 11
103.907318
 21
72.246674
  0
LINE
  8
0
 62
     2
 10
94.607323
 20
72.246666
 11
93.972321
 21
70.721672
  0
LINE
  8
0
 62
     2
 10
103.322327
 20
72.246674
 11
103.957321
 21
70.746674
  0
LINE
  8
0
 10
146.957321
 20
70.746674
 11
146.957321
 21
47.246670
  0
LINE
  8
0
 10
136.972321
 20
70.721672
 11
136.972321
 21
47.246670
  0
LINE
  8
0
 10
141.967316
 20
70.746674
 11
141.967316
 21
47.246670
  0
LINE
  8
0
 10
136.972321
 20
70.721672
 11
146.957321
 21
70.721672
  0
LINE
  8
0
 10
93.972321
 20
70.721672
 11
103.957321
 21
70.721672
  0
LINE
  8
0
 10
103.957321
 20
70.746674
 11
103.957321
 21
47.246670
  0
LINE
  8
0
 10
98.967323
 20
70.746674
 11
98.967323
 21
47.246670
  0
LINE
  8
0
 10
93.972321
 20
70.721672
 11
93.972321
 21
47.246670
  0
LINE
  8
0
 10
103.957321
 20
47.246670
 11
93.972321
 21
47.246670
  0
LINE
  8
0
  6
CENTER
 62
     2
 10
98.967323
 20
41.147793
 11
98.967323
 21
126.402969
  0
LINE
  8
0
  6
CENTER
 62
     2
 10
158.459381
 20
-67.833115
 11
158.459381
 21
-73.111870
  0
LINE
  8
0
  6
CENTER
 62
     2
 10
125.459381
 20
-67.833115
 11
125.459381
 21
-73.111870
  0
LINE
  8
0
  6
CENTER
 62
     2
 10
115.459381
 20
-67.833115
 11
115.459381
 21
-73.111870
  0
LINE
  8
0
  6
CENTER
 62
     2
 10
82.459381
 20
-67.833115
 11
82.459381
 21
-73.111870
  0
LINE
  8
0
 10
146.835648
 20
-42.978947
 11
146.835648
 21
-40.163631
  0
LINE
  8
0
 10
141.959381
 20
-37.348320
 11
146.835648
 21
-40.163635
  0
LINE
  8
0
 10
137.083115
 20
-42.978947
 11
137.083115
 21
-40.163631
  0
LINE
  8
0
 10
141.959381
 20
-37.348320
 11
137.083115
 21
-40.163635
  0
LINE
  8
0
 10
94.083115
 20
-42.978947
 11
94.083115
 21
-40.163631
  0
LINE
  8
0
 10
98.959389
 20
-37.348320
 11
94.083115
 21
-40.163635
  0
LINE
  8
0
 10
98.959381
 20
-37.348324
 11
103.835648
 21
-40.163635
  0
LINE
  8
0
 10
103.835648
 20
-42.978947
 11
103.835648
 21
-40.163631
  0
LINE
  8
0
  6
CENTER
 62
     2
 10
-97.048553
 20
-67.833115
 11
-97.048553
 21
-73.111870
  0
LINE
  8
0
  6
CENTER
 62
     2
 10
-130.048553
 20
-67.833115
 11
-130.048553
 21
-73.111870
  0
LINE
  8
0
 10
282.099854
 20
195.500000
 11
282.099854
 21
-195.000000
  0
LINE
  8
0
 10
-281.250000
 20
195.500000
 11
282.099854
 21
195.500000
  0
LINE
  8
0
 10
-281.250000
 20
195.500000
 11
-281.250000
 21
-195.000000
  0
LINE
  8
0
 10
-281.250000
 20
-195.000000
 11
282.099854
 21
-195.000000
  0
CIRCLE
  8
0
 10
141.947906
 20
-77.961288
 40
7.474999
  0
CIRCLE
  8
0
 62
     2
 10
141.947906
 20
-77.961288
 40
8.331000
  0
CIRCLE
  8
0
 10
98.947906
 20
-77.961288
 40
7.474999
  0
CIRCLE
  8
0
 62
     2
 10
98.947906
 20
-77.961288
 40
8.331000
  0
CIRCLE
  8
0
  6
DASHED
 10
141.971664
 20
-42.988670
 40
3.863999
  0
ARC
  8
0
 10
122.960739
 20
-62.980305
 40
1.001359
 50
90.077705
 51
179.922302
  0
ARC
  8
0
 10
123.464622
 20
-59.976254
 40
2.002695
 50
270.077057
 51
359.922943
  0
ARC
  8
0
 10
131.464645
 20
-59.976265
 40
2.002680
 50
270.076843
 51
359.923401
  0
CIRCLE
  8
0
 10
98.971664
 20
-77.969215
 40
10.249999
  0
ARC
  8
0
 10
84.599396
 20
-71.150566
 40
0.661579
 50
299.745300
 51
359.741638
  0
ARC
  8
0
 10
80.333519
 20
-71.133026
 40
0.676039
 50
181.739639
 51
241.119492
  0
ARC
  8
0
 10
82.467323
 20
-67.369209
 40
5.002586
 50
240.540421
 51
299.459595
  0
ARC
  8
0
 10
79.966454
 20
-72.463943
 40
1.007090
 50
180.401932
 51
269.598053
  0
ARC
  8
0
 10
79.970406
 20
-68.967926
 40
1.011085
 50
180.624741
 51
269.375244
  0
ARC
  8
0
 10
79.960739
 20
-62.980301
 40
1.001359
 50
90.077705
 51
179.922302
  0
ARC
  8
0
 10
80.464622
 20
-59.976254
 40
2.002695
 50
270.077057
 51
359.922943
  0
ARC
  8
0
 10
88.464645
 20
-59.976269
 40
2.002680
 50
270.076599
 51
359.923401
  0
ARC
  8
0
 10
113.333519
 20
-71.133026
 40
0.676032
 50
181.739655
 51
241.119171
  0
ARC
  8
0
 10
117.599358
 20
-71.150543
 40
0.661622
 50
299.747742
 51
359.739685
  0
ARC
  8
0
 10
115.467323
 20
-67.369209
 40
5.002586
 50
240.540421
 51
299.459595
  0
ARC
  8
0
 10
117.964607
 20
-72.476227
 40
0.994795
 50
269.699432
 51
0.300564
  0
ARC
  8
0
 10
117.960602
 20
-68.980164
 40
0.998780
 50
269.929962
 51
0.070027
  0
ARC
  8
0
 10
117.970383
 20
-62.967945
 40
0.989060
 50
359.362671
 51
90.637329
  0
ARC
  8
0
 10
117.474365
 20
-59.971897
 40
2.007062
 50
180.201141
 51
269.798767
  0
ARC
  8
0
 10
109.474365
 20
-59.971901
 40
2.007054
 50
180.201141
 51
269.798981
  0
ARC
  8
0
 10
160.474380
 20
-59.971889
 40
2.007062
 50
180.201462
 51
269.798767
  0
CIRCLE
  8
0
 10
141.971664
 20
-77.969215
 40
10.249999
  0
ARC
  8
0
 10
160.599365
 20
-71.150551
 40
0.661604
 50
299.746368
 51
359.740356
  0
ARC
  8
0
 10
160.964600
 20
-72.476227
 40
0.994795
 50
269.699432
 51
0.300564
  0
ARC
  8
0
 10
160.960602
 20
-68.980164
 40
0.998788
 50
269.929962
 51
0.069589
  0
ARC
  8
0
 10
158.467316
 20
-67.369209
 40
5.002583
 50
240.540497
 51
299.459503
  0
ARC
  8
0
 10
160.970383
 20
-62.967945
 40
0.989060
 50
359.362671
 51
90.637329
  0
ARC
  8
0
 10
156.333527
 20
-71.133018
 40
0.676047
 50
181.740265
 51
241.119232
  0
ARC
  8
0
 10
152.474365
 20
-59.971905
 40
2.007062
 50
180.201035
 51
269.798767
  0
ARC
  8
0
 10
141.967316
 20
-42.978947
 40
8.500000
 50
0.000000
 51
180.000000
  0
ARC
  8
0
 10
122.970406
 20
-68.967918
 40
1.011085
 50
180.624741
 51
269.375244
  0
ARC
  8
0
 10
123.333511
 20
-71.133034
 40
0.676024
 50
181.739029
 51
241.119751
  0
ARC
  8
0
 10
127.599388
 20
-71.150566
 40
0.661590
 50
299.745544
 51
359.741669
  0
ARC
  8
0
 10
125.467323
 20
-67.369209
 40
5.002586
 50
240.540421
 51
299.459595
  0
ARC
  8
0
 10
122.966454
 20
-72.463936
 40
1.007097
 50
180.402374
 51
269.597626
  0
ARC
  8
0
 10
79.470474
 20
-77.469910
 40
3.493165
 50
269.948181
 51
329.083466
  0
ARC
  8
0
 10
79.465202
 20
-77.465553
 40
3.502474
 50
31.002947
 51
89.965431
  0
ARC
  8
0
 10
75.467323
 20
-77.463074
 40
3.500000
 50
90.000000
 51
270.000000
  0
ARC
  8
0
 10
161.466278
 20
-77.466171
 40
3.496906
 50
210.951324
 51
270.016998
  0
ARC
  8
0
 10
161.471558
 20
-77.469284
 40
3.506213
 50
90.069069
 51
148.962479
  0
ARC
  8
0
 10
165.467316
 20
-77.463074
 40
3.500000
 50
270.000000
 51
90.000000
  0
ARC
  8
0
 10
81.476547
 20
-84.464363
 40
0.990811
 50
269.466156
 51
0.533843
  0
CIRCLE
  8
0
 10
120.471687
 20
-46.469227
 40
3.999999
  0
ARC
  8
0
 10
116.462517
 20
-84.459938
 40
0.995213
 50
179.723724
 51
270.276276
  0
ARC
  8
0
 10
117.958397
 20
-86.456123
 40
1.000992
 50
0.056771
 51
89.943230
  0
ARC
  8
0
 10
85.267303
 20
-109.464630
 40
0.498481
 50
178.909027
 51
269.272125
  0
ARC
  8
0
 10
87.462395
 20
-110.460060
 40
0.497018
 50
0.568172
 51
89.431831
  0
ARC
  8
0
 10
112.671783
 20
-109.469124
 40
0.494148
 50
268.377380
 51
1.622606
  0
ARC
  8
0
 10
110.468430
 20
-110.472412
 40
0.509340
 50
90.124443
 51
178.056564
  0
ARC
  8
0
 10
110.574188
 20
-136.466766
 40
0.988441
 50
269.326019
 51
0.673995
  0
ARC
  8
0
 10
87.364883
 20
-136.462341
 40
0.992832
 50
179.584366
 51
270.415192
  0
ARC
  8
0
 10
79.972588
 20
-86.468338
 40
1.013285
 50
90.746346
 51
179.253662
  0
CIRCLE
  8
0
 10
77.471703
 20
-46.469227
 40
3.999999
  0
CIRCLE
  8
0
 10
163.471680
 20
-46.469227
 40
3.999999
  0
CIRCLE
  8
0
 10
-113.560028
 20
-46.469227
 40
7.474999
  0
CIRCLE
  8
0
 62
     2
 10
-113.560028
 20
-46.469227
 40
8.331000
  0
ARC
  8
0
 10
-101.555191
 20
-72.464371
 40
1.006660
 50
270.377777
 51
359.622223
  0
ARC
  8
0
 10
-125.553391
 20
-72.475845
 40
0.995175
 50
179.721512
 51
270.278473
  0
ARC
  8
0
 10
-125.162895
 20
-136.466309
 40
0.988901
 50
179.352844
 51
270.646729
  0
ARC
  8
0
 10
-127.260529
 20
-109.468704
 40
0.494556
 50
178.428253
 51
271.571747
  0
ARC
  8
0
 10
-125.057182
 20
-110.471985
 40
0.508908
 50
1.896933
 51
89.921837
  0
ARC
  8
0
 10
-99.856041
 20
-109.465050
 40
0.498059
 50
270.678467
 51
1.140164
  0
ARC
  8
0
 10
-102.051147
 20
-110.460480
 40
0.497435
 50
90.615150
 51
179.384842
  0
ARC
  8
0
 10
-101.945770
 20
-136.454742
 40
1.000382
 50
270.022278
 51
359.978149
  0
ARC
  8
0
 10
-130.559158
 20
-59.968346
 40
2.010629
 50
270.302216
 51
359.697906
  0
ARC
  8
0
 10
-96.549416
 20
-59.979809
 40
1.999138
 50
179.975296
 51
270.024719
  0
ARC
  8
0
 10
-132.559158
 20
-62.968342
 40
0.989452
 50
89.385895
 51
180.614105
  0
ARC
  8
0
 10
-94.549484
 20
-62.979877
 40
1.000931
 50
0.053281
 51
89.946716
  0
ARC
  8
0
 10
-94.922081
 20
-71.133392
 40
0.675418
 50
298.851044
 51
358.289825
  0
ARC
  8
0
 10
-99.187943
 20
-71.150208
 40
0.662202
 50
180.289139
 51
240.223434
  0
ARC
  8
0
 10
-97.056488
 20
-67.369225
 40
5.002573
 50
240.540329
 51
299.459656
  0
ARC
  8
0
 10
-127.922096
 20
-71.133385
 40
0.675429
 50
298.851318
 51
358.289215
  0
ARC
  8
0
 10
-132.187943
 20
-71.150200
 40
0.662209
 50
180.289795
 51
240.222855
  0
ARC
  8
0
 10
-130.056488
 20
-67.369225
 40
5.002570
 50
240.540405
 51
299.459656
  0
ARC
  8
0
 10
-132.549362
 20
-68.979752
 40
0.999192
 50
179.953629
 51
270.046387
  0
ARC
  8
0
 10
-94.559158
 20
-68.968346
 40
1.010661
 50
270.601227
 51
359.398773
  0
ARC
  8
0
 10
124.476547
 20
-84.464363
 40
0.990819
 50
269.466614
 51
0.533397
  0
ARC
  8
0
 10
122.972588
 20
-86.468338
 40
1.013293
 50
90.746773
 51
179.253235
  0
ARC
  8
0
 10
159.462509
 20
-84.459938
 40
0.995205
 50
179.723282
 51
270.276733
  0
ARC
  8
0
 10
160.958405
 20
-86.456116
 40
1.000977
 50
0.055898
 51
89.944099
  0
ARC
  8
0
 10
128.267303
 20
-109.464630
 40
0.498481
 50
178.908157
 51
269.272125
  0
ARC
  8
0
 10
130.462387
 20
-110.460068
 40
0.497018
 50
0.568172
 51
89.431831
  0
ARC
  8
0
 10
155.671799
 20
-109.469139
 40
0.494133
 50
268.377350
 51
1.623515
  0
ARC
  8
0
 10
153.468430
 20
-110.472420
 40
0.509347
 50
90.125298
 51
178.055740
  0
ARC
  8
0
 10
153.574188
 20
-136.466766
 40
0.988441
 50
269.326019
 51
0.673995
  0
ARC
  8
0
 10
130.364883
 20
-136.462326
 40
0.992839
 50
179.585251
 51
270.414764
  0
CIRCLE
  8
0
  6
DASHED
 10
141.971664
 20
-42.988670
 40
4.863999
  0
ARC
  8
0
 10
98.967323
 20
-42.978947
 40
8.500008
 50
0.000000
 51
180.000000
  0
ARC
  8
0
 10
141.967316
 20
54.846672
 40
10.899996
 50
117.274666
 51
62.754856
  0
ARC
  8
0
 10
98.967323
 20
54.846672
 40
10.899999
 50
117.274704
 51
62.754890
  0
CIRCLE
  8
0
  6
DASHED
 10
98.971657
 20
-42.988670
 40
3.863999
  0
CIRCLE
  8
0
  6
DASHED
 10
98.971657
 20
-42.988670
 40
4.863999
  0
TEXT
  8
0
 10
-232.249710
 20
145.830002
 40
6.300000
  1
STN.1-2:MR302-03-GA20
 50
0.000000
 41
1.052632
 51
0.000000
  7
STANDARD
  0
TEXT
  8
0
 10
-270.049713
 20
155.830002
 40
6.300000
  1
MODEL:R300M2ADS3
 50
0.000000
 41
1.052632
 51
0.000000
  7
STANDARD
  0
ENDSEC
  0
EOF
