  0
SECTION
  2
HEADER
  0
ENDSEC
  0
SECTION
  2
TABLES
  0
TABLE
  2
LTYPE
 70
     4
  0
LTYPE
  2
CONTINUOUS
 70
    64
  3
Solid line
 72
    65
 73
     0
 40
0.000000
  0
LTYPE
  2
DASHED
 70
    64
  3
__ __ __ __ __ __ __ __ __ __ __ __ __ __ __
 72
    65
 73
     2
 40
3.500000
 49
2.000000
 49
-1.500000
  0
LTYPE
  2
CENTER
 70
    64
  3
____ _ ____ _ ____ _ ____ _ ____ _ ____ _ ____
 72
    65
 73
     4
 40
17.500000
 49
13.000000
 49
-1.500000
 49
1.500000
 49
-1.500000
  0
LTYPE
  2
PHANTOM
 70
    64
  3
_____ _ _ _____ _ _ _____ _ _ _____ _ _ ____  
 72
    65
 73
     6
 40
15.500000
 49
8.000000
 49
-1.500000
 49
1.500000
 49
-1.500000
 49
1.500000
 49
-1.500000
  0
LTYPE
  2
DASHED1
 70
    64
  3
__ __ __ __ __ __ __ __ __ __ __ __ __ __ __
 72
    65
 73
     2
 40
1.500000
 49
1.000000
 49
-0.500000
  0
LTYPE
  2
DASHED2
 70
    64
  3
__ __ __ __ __ __ __ __ __ __ __ __ __ __ __
 72
    65
 73
     2
 40
3.500000
 49
2.500000
 49
-1.000000
  0
LTYPE
  2
DASHED3
 70
    64
  3
__ __ __ __ __ __ __ __ __ __ __ __ __ __ __
 72
    65
 73
     2
 40
6.000000
 49
4.000000
 49
-2.000000
  0
LTYPE
  2
DASHED4
 70
    64
  3
__ __ __ __ __ __ __ __ __ __ __ __ __ __ __
 72
    65
 73
     2
 40
12.000000
 49
10.000000
 49
-2.000000
  0
LTYPE
  2
DASHED5
 70
    64
  3
__ __ __ __ __ __ __ __ __ __ __ __ __ __ __
 72
    65
 73
     2
 40
17.000000
 49
15.000000
 49
-2.000000
  0
LTYPE
  2
DASHED6
 70
    64
  3
__ __ __ __ __ __ __ __ __ __ __ __ __ __ __
 72
    65
 73
     2
 40
29.000000
 49
27.000000
 49
-2.000000
  0
LTYPE
  2
PHANTOM1
 70
    64
  3
_____ _ _ _____ _ _ _____ _ _ _____ _ _ ____  
 72
    65
 73
     6
 40
31.000000
 49
25.000000
 49
-1.500000
 49
1.000000
 49
-1.000000
 49
1.000000
 49
-1.500000
  0
LTYPE
  2
PHANTOM2
 70
    64
  3
_____ _ _ _____ _ _ _____ _ _ _____ _ _ ____  
 72
    65
 73
     6
 40
36.000000
 49
27.000000
 49
-1.500000
 49
2.500000
 49
-1.000000
 49
2.500000
 49
-1.500000
  0
LTYPE
  2
PHANTOM3
 70
    64
  3
_____ _ _ _____ _ _ _____ _ _ _____ _ _ ____  
 72
    65
 73
     6
 40
78.000000
 49
64.000000
 49
-2.000000
 49
4.000000
 49
-2.000000
 49
4.000000
 49
-2.000000
  0
LTYPE
  2
CENTER1
 70
    64
  3
____ _ ____ _ ____ _ ____ _ ____ _ ____ _ ____
 72
    65
 73
     4
 40
19.000000
 49
14.000000
 49
-1.000000
 49
3.000000
 49
-1.000000
  0
LTYPE
  2
CENTER2
 70
    64
  3
____ _ ____ _ ____ _ ____ _ ____ _ ____ _ ____
 72
    65
 73
     4
 40
28.500000
 49
25.000000
 49
-1.000000
 49
1.500000
 49
-1.000000
  0
LTYPE
  2
CENTER3
 70
    64
  3
____ _ ____ _ ____ _ ____ _ ____ _ ____ _ ____
 72
    65
 73
     4
 40
31.500000
 49
27.000000
 49
-1.000000
 49
2.500000
 49
-1.000000
  0
LTYPE
  2
CENTER4
 70
    64
  3
____ _ ____ _ ____ _ ____ _ ____ _ ____ _ ____
 72
    65
 73
     4
 40
50.000000
 49
45.000000
 49
-1.000000
 49
3.000000
 49
-1.000000
  0
LTYPE
  2
CENTER5
 70
    64
  3
____ _ ____ _ ____ _ ____ _ ____ _ ____ _ ____
 72
    65
 73
     4
 40
100.000000
 49
92.000000
 49
-2.000000
 49
4.000000
 49
-2.000000
  0
LTYPE
  2
SBK1
 70
    64
  3
______ _ _ _ ______ _ _ _ ______ _ _ _ _____  
 72
    65
 73
     8
 40
60.500000
 49
45.000000
 49
-2.000000
 49
2.500000
 49
-2.000000
 49
2.500000
 49
-2.000000
 49
2.500000
 49
-2.000000
  0
LTYPE
  2
SBK2
 70
    64
  3
______ _ _ _ ______ _ _ _ ______ _ _ _ _____  
 72
    65
 73
     8
 40
84.000000
 49
64.000000
 49
-2.000000
 49
4.000000
 49
-2.000000
 49
4.000000
 49
-2.000000
 49
4.000000
 49
-2.000000
  0
LTYPE
  2
STCH
 70
    64
  3
__ __ __ __ __ __ __ __ __ __ __ __ __ __ __
 72
    65
 73
     2
 40
3.000000
 49
1.000000
 49
-2.000000
  0
LTYPE
  2
MTCH
 70
    64
  3
_____ _ _ _____ _ _ _____ _ _ _____ _ _ ____  
 72
    65
 73
     6
 40
80.000000
 49
66.000000
 49
-2.000000
 49
4.000000
 49
-2.000000
 49
4.000000
 49
-2.000000
  0
ENDTAB
  0
TABLE
  2
LAYER
 70
     1
  0
LAYER
  2
0
 70
     0
 62
     7
  6
CONTINUOUS
  0
ENDTAB
  0
TABLE
  2
STYLE
 70
     1
  0
STYLE
  2
STANDARD
 70
     0
 40
0.000000
 41
1.000000
 50
0.000000
 71
     0
 42
0.200000
  3
txt
  4
BIGFONT
  0
ENDTAB
  0
TABLE
  2
VIEW
 70
     0
  0
ENDTAB
  0
ENDSEC
  0
SECTION
  2
BLOCKS
  0
ENDSEC
  0
SECTION
  2
ENTITIES
  0
LINE
  8
0
 10
-420.500000
 20
297.000000
 11
420.500000
 21
297.000000
  0
LINE
  8
0
 10
-420.500000
 20
-297.000000
 11
420.500000
 21
-297.000000
  0
LINE
  8
0
 10
420.500000
 20
297.000000
 11
420.500000
 21
-297.000000
  0
LINE
  8
0
 10
-420.500000
 20
297.000000
 11
-420.500000
 21
-297.000000
  0
LINE
  8
0
 10
399.799988
 20
276.250000
 11
399.799988
 21
-276.750000
  0
LINE
  8
0
 10
-399.250000
 20
276.250000
 11
-399.250000
 21
-276.750000
  0
LINE
  8
0
 10
-399.250000
 20
276.250000
 11
399.799988
 21
276.250000
  0
LINE
  8
0
 10
-399.250000
 20
-276.750000
 11
399.799988
 21
-276.750000
  0
LINE
  8
0
 10
-399.250000
 20
-0.250000
 11
399.799988
 21
-0.250000
  0
LINE
  8
0
 10
0.274994
 20
-276.750000
 11
0.274994
 21
276.250000
  0
LINE
  8
0
 10
-399.250000
 20
261.250000
 11
-299.250000
 21
261.250000
  0
LINE
  8
0
 10
299.799988
 20
261.250000
 11
399.799988
 21
261.250000
  0
LINE
  8
0
 10
279.799988
 20
-256.750000
 11
399.799988
 21
-256.750000
  0
LINE
  8
0
 10
279.799988
 20
-256.750000
 11
279.799988
 21
-276.750000
  0
LINE
  8
0
 10
-399.250000
 20
-261.750000
 11
0.274994
 21
-261.750000
  0
LINE
  8
0
 10
-399.250000
 20
14.750000
 11
399.799988
 21
14.750000
  0
LINE
  8
0
 10
-299.250000
 20
276.250000
 11
-299.250000
 21
261.250000
  0
LINE
  8
0
 10
299.799988
 20
276.250000
 11
299.799988
 21
261.250000
  0
TEXT
  8
0
 10
-394.856873
 20
264.350006
 40
6.000000
  1
ROTARY ACTUATER
 50
0.000000
 41
1.052631
 51
0.000000
  7
STANDARD
  0
TEXT
  8
0
 10
304.193115
 20
264.350006
 40
6.000000
  1
DATE: MAY ,1992
 50
0.000000
 41
1.052632
 51
0.000000
  7
STANDARD
  0
TEXT
  8
0
 10
293.465027
 20
-271.149994
 40
6.000000
  1
ＫＯＧＡＮＥＩ，ＣＯＲＰ．
 50
0.000000
 41
0.902367
 51
15.000000
  7
STANDARD
  0
TEXT
  8
0
 10
-272.094391
 20
-273.649994
 40
6.000000
  1
SWING ANGLE : 270 DEGREE
 50
0.000000
 41
1.052631
 51
0.000000
  7
STANDARD
  0
TEXT
  8
0
 10
-269.231873
 20
2.975000
 40
6.000000
  1
SWING ANGLE : 90 DEGREE
 50
0.000000
 41
1.052632
 51
0.000000
  7
STANDARD
  0
TEXT
  8
0
 10
127.293121
 20
2.975000
 40
6.000000
  1
SWING ANGLE : 180 DEGREE
 50
0.000000
 41
1.052631
 51
0.000000
  7
STANDARD
  0
TEXT
  8
0
 10
148.430618
 20
-142.899994
 40
6.000000
  1
MODEL : RAK150-UK
 50
0.000000
 41
1.052632
 51
0.000000
  7
STANDARD
  0
POINT
  8
0
 10
-329.149841
 20
207.124619
  0
POINT
  8
0
 10
-272.649841
 20
207.124619
  0
LINE
  8
0
 10
-324.649841
 20
193.813934
 11
-288.649841
 21
193.813934
  0
LINE
  8
0
 10
-324.649841
 20
220.435303
 11
-288.649841
 21
220.435303
  0
LINE
  8
0
 10
-329.149841
 20
171.757843
 11
-324.649841
 21
171.757843
  0
LINE
  8
0
 10
-324.649841
 20
171.769272
 11
-288.649841
 21
171.769272
  0
LINE
  8
0
 10
-324.649841
 20
242.479950
 11
-288.649841
 21
242.479950
  0
LINE
  8
0
 10
-324.649841
 20
242.479950
 11
-324.649841
 21
171.757843
  0
LINE
  8
0
 10
-288.649841
 20
242.479950
 11
-288.649841
 21
171.769257
  0
LINE
  8
0
 10
-272.649841
 20
214.824600
 11
-272.649841
 21
199.424606
  0
LINE
  8
0
 10
-278.149841
 20
214.481461
 11
-278.149841
 21
211.081467
  0
LINE
  8
0
 10
-285.149841
 20
216.585693
 11
-285.149841
 21
209.808884
  0
LINE
  8
0
 10
-288.649841
 20
206.083755
 11
-285.499847
 21
206.083755
  0
LINE
  8
0
 10
-288.649841
 20
203.636154
 11
-285.499847
 21
203.636154
  0
LINE
  8
0
 10
-288.649841
 20
199.020172
 11
-285.499847
 21
199.020172
  0
LINE
  8
0
 10
-288.649841
 20
196.851776
 11
-285.499847
 21
196.851776
  0
LINE
  8
0
 10
-285.149841
 20
203.467758
 11
-278.449829
 21
203.467758
  0
LINE
  8
0
 10
-285.149841
 20
199.467758
 11
-278.449829
 21
199.467758
  0
LINE
  8
0
 10
-288.649841
 20
208.263611
 11
-285.499847
 21
208.263611
  0
LINE
  8
0
 10
-288.649841
 20
211.354187
 11
-285.499847
 21
211.354187
  0
LINE
  8
0
 10
-288.649841
 20
215.872055
 11
-285.499847
 21
215.872055
  0
LINE
  8
0
 10
-288.649841
 20
217.299347
 11
-285.499847
 21
217.299347
  0
LINE
  8
0
 10
-285.149841
 20
214.781464
 11
-278.449829
 21
214.781464
  0
LINE
  8
0
 10
-285.149841
 20
210.781464
 11
-278.449829
 21
210.781464
  0
LINE
  8
0
 10
-285.149841
 20
204.859940
 11
-285.149841
 21
197.935959
  0
LINE
  8
0
 10
-278.449860
 20
199.467758
 11
-278.149841
 21
199.767761
  0
LINE
  8
0
 10
-278.149811
 20
214.481491
 11
-278.449829
 21
214.781494
  0
LINE
  8
0
 10
-278.149841
 20
203.167755
 11
-278.149841
 21
199.767761
  0
LINE
  8
0
 10
-278.149811
 20
203.167755
 11
-278.449829
 21
203.467758
  0
LINE
  8
0
 10
-278.449860
 20
210.781464
 11
-278.149841
 21
211.081467
  0
LINE
  8
0
 10
-278.449768
 20
199.467743
 11
-278.449768
 21
203.467758
  0
LINE
  8
0
 10
-278.449677
 20
210.781464
 11
-278.449677
 21
214.781464
  0
LINE
  8
0
 10
-285.149841
 20
199.717758
 11
-278.199829
 21
199.717758
  0
LINE
  8
0
 10
-285.149841
 20
203.217758
 11
-278.199829
 21
203.217758
  0
LINE
  8
0
 10
-285.149841
 20
214.531464
 11
-278.199829
 21
214.531464
  0
LINE
  8
0
 10
-285.149841
 20
211.031464
 11
-278.149841
 21
211.031464
  0
LINE
  8
0
 10
-285.149841
 20
216.324615
 11
-274.149841
 21
216.324615
  0
LINE
  8
0
 10
-285.149841
 20
197.924622
 11
-274.149841
 21
197.924622
  0
LINE
  8
0
 10
-329.149841
 20
242.491379
 11
-324.649841
 21
242.491379
  0
LINE
  8
0
 10
-324.649841
 20
220.524612
 11
-329.149841
 21
220.524612
  0
LINE
  8
0
 10
-324.649841
 20
193.724625
 11
-329.149841
 21
193.724625
  0
LINE
  8
0
 10
-287.949829
 20
193.121475
 11
-287.949829
 21
196.851776
  0
LINE
  8
0
 10
-287.549835
 20
193.086487
 11
-287.549835
 21
196.851776
  0
LINE
  8
0
 10
-286.099854
 20
194.593170
 11
-286.099854
 21
194.656052
  0
LINE
  8
0
 10
-287.949829
 20
217.299347
 11
-287.949829
 21
221.127731
  0
LINE
  8
0
 10
-287.549835
 20
217.299347
 11
-287.549835
 21
221.162720
  0
LINE
  8
0
 10
-286.099854
 20
219.593170
 11
-286.099854
 21
219.656052
  0
LINE
  8
0
 10
-286.549866
 20
183.066452
 11
-286.549866
 21
192.998993
  0
LINE
  8
0
 10
-286.549866
 20
183.066437
 11
-288.649841
 21
182.882706
  0
LINE
  8
0
 10
-286.549835
 20
192.998993
 11
-288.649841
 21
193.182724
  0
LINE
  8
0
 10
-286.549835
 20
221.250214
 11
-286.549835
 21
231.182770
  0
LINE
  8
0
 10
-286.549835
 20
221.250214
 11
-288.649841
 21
221.066483
  0
LINE
  8
0
 10
-286.549805
 20
231.182770
 11
-288.649841
 21
231.366501
  0
LINE
  8
0
 10
-335.749817
 20
233.138092
 11
-335.749817
 21
223.511139
  0
LINE
  8
0
 10
-335.349823
 20
233.324615
 11
-335.349823
 21
223.324615
  0
LINE
  8
0
 10
-335.349823
 20
233.324615
 11
-329.749817
 21
233.324615
  0
LINE
  8
0
 10
-335.349823
 20
223.324615
 11
-329.749817
 21
223.324615
  0
LINE
  8
0
 10
-335.749847
 20
233.138107
 11
-335.349854
 21
233.324631
  0
LINE
  8
0
 10
-335.749817
 20
223.511139
 11
-335.349823
 21
223.324631
  0
LINE
  8
0
 10
-335.349823
 20
231.324615
 11
-332.304535
 21
231.324615
  0
LINE
  8
0
 10
-335.349823
 20
229.324615
 11
-333.459229
 21
229.324615
  0
LINE
  8
0
 10
-335.349823
 20
227.324615
 11
-334.613953
 21
227.324615
  0
LINE
  8
0
 10
-335.749847
 20
190.738098
 11
-335.749847
 21
181.111145
  0
LINE
  8
0
 10
-335.349854
 20
190.924622
 11
-335.349854
 21
180.924622
  0
LINE
  8
0
 10
-335.349854
 20
190.924622
 11
-329.749847
 21
190.924622
  0
LINE
  8
0
 10
-335.349854
 20
180.924622
 11
-329.749847
 21
180.924622
  0
LINE
  8
0
 10
-335.749847
 20
190.738083
 11
-335.349854
 21
190.924606
  0
LINE
  8
0
 10
-335.749847
 20
181.111130
 11
-335.349854
 21
180.924606
  0
LINE
  8
0
 10
-335.349854
 20
188.924622
 11
-332.304565
 21
188.924622
  0
LINE
  8
0
 10
-335.349854
 20
186.924622
 11
-333.459259
 21
186.924622
  0
LINE
  8
0
 10
-335.349854
 20
184.924622
 11
-334.613953
 21
184.924622
  0
LINE
  8
0
 10
-329.149841
 20
243.435623
 11
-329.149841
 21
170.813614
  0
LINE
  8
0
 10
-329.749847
 20
233.574615
 11
-329.749847
 21
223.074615
  0
LINE
  8
0
 10
-329.749847
 20
191.174622
 11
-329.149841
 21
191.174622
  0
LINE
  8
0
 10
-329.749847
 20
180.674622
 11
-329.149841
 21
180.674622
  0
LINE
  8
0
 10
-329.749847
 20
233.574615
 11
-329.149841
 21
233.574615
  0
LINE
  8
0
 10
-329.749847
 20
223.074615
 11
-329.149841
 21
223.074615
  0
LINE
  8
0
 10
-329.749847
 20
191.174622
 11
-329.749847
 21
180.674622
  0
LINE
  8
0
 10
-309.649841
 20
248.585342
 11
-303.649841
 21
248.585342
  0
LINE
  8
0
 10
-309.649841
 20
168.292725
 11
-303.649841
 21
168.292725
  0
LINE
  8
0
 10
-311.649841
 20
246.585342
 11
-311.649841
 21
242.479950
  0
LINE
  8
0
 10
-301.649841
 20
246.585342
 11
-301.649841
 21
242.479950
  0
LINE
  8
0
 10
-311.649841
 20
171.769272
 11
-311.649841
 21
170.292725
  0
LINE
  8
0
 10
-301.649841
 20
171.769272
 11
-301.649841
 21
170.292725
  0
ARC
  8
0
 10
-287.004089
 20
197.935959
 40
1.854246
 50
324.217438
 51
35.782570
  0
ARC
  8
0
 10
-292.934631
 20
201.328156
 40
7.784780
 50
342.754059
 51
17.246042
  0
ARC
  8
0
 10
-287.464386
 20
204.859940
 40
2.314559
 50
328.080048
 51
31.920261
  0
ARC
  8
0
 10
-288.736176
 20
209.808884
 40
3.586354
 50
334.476593
 51
25.523420
  0
ARC
  8
0
 10
-292.614563
 20
213.613113
 40
7.464712
 50
342.385315
 51
17.614674
  0
ARC
  8
0
 10
-286.052399
 20
216.585693
 40
0.902560
 50
307.749084
 51
52.250328
  0
ARC
  8
0
 10
-274.149841
 20
199.424606
 40
1.500000
 50
270.000000
 51
0.000000
  0
ARC
  8
0
 10
-274.149841
 20
214.824600
 40
1.500000
 50
0.000000
 51
90.000000
  0
ARC
  8
0
 10
-289.099854
 20
194.593170
 40
3.000010
 50
327.916718
 51
0.000000
  0
ARC
  8
0
 10
-289.099854
 20
194.656052
 40
3.000000
 50
0.000000
 51
47.046459
  0
ARC
  8
0
 10
-289.099854
 20
219.593170
 40
3.000009
 50
310.128113
 51
0.000000
  0
ARC
  8
0
 10
-289.099854
 20
219.656052
 40
3.000000
 50
0.000000
 51
32.083042
  0
ARC
  8
0
 10
-298.381775
 20
188.032730
 40
12.831913
 50
337.230469
 51
22.769484
  0
ARC
  8
0
 10
-298.381775
 20
226.216492
 40
12.831935
 50
337.230560
 51
22.769430
  0
CIRCLE
  8
0
 10
-318.649841
 20
207.124619
 40
1.900000
  0
ARC
  8
0
 10
-309.649841
 20
246.585342
 40
2.000000
 50
90.000000
 51
180.000000
  0
ARC
  8
0
 10
-303.649841
 20
246.585342
 40
2.000000
 50
0.000000
 51
90.000000
  0
ARC
  8
0
 10
-309.649841
 20
170.292725
 40
2.000000
 50
180.000000
 51
270.000000
  0
ARC
  8
0
 10
-303.649841
 20
170.292725
 40
2.000000
 50
270.000000
 51
0.000000
  0
ARC
  8
0
 10
-319.358032
 20
178.133224
 40
1.108161
 50
345.892181
 51
14.107806
  0
ARC
  8
0
 10
-319.647827
 20
178.026978
 40
1.415484
 50
15.419636
 51
51.390930
  0
ARC
  8
0
 10
-320.449860
 20
176.855087
 40
2.833630
 50
53.505157
 51
126.494843
  0
ARC
  8
0
 10
-321.251892
 20
178.026978
 40
1.415490
 50
128.609070
 51
164.580368
  0
ARC
  8
0
 10
-321.541687
 20
178.133224
 40
1.108161
 50
165.892197
 51
194.107803
  0
ARC
  8
0
 10
-321.251892
 20
178.239471
 40
1.415484
 50
195.419632
 51
231.390930
  0
ARC
  8
0
 10
-320.449860
 20
179.411362
 40
2.833630
 50
233.505157
 51
306.494843
  0
ARC
  8
0
 10
-319.647827
 20
178.239471
 40
1.415490
 50
308.609070
 51
344.580353
  0
ARC
  8
0
 10
-319.358002
 20
236.116013
 40
1.108161
 50
345.892181
 51
14.107806
  0
ARC
  8
0
 10
-319.647797
 20
236.009766
 40
1.415484
 50
15.419636
 51
51.390930
  0
ARC
  8
0
 10
-320.449829
 20
234.837891
 40
2.833618
 50
53.504974
 51
126.495026
  0
ARC
  8
0
 10
-321.251862
 20
236.009766
 40
1.415490
 50
128.609070
 51
164.580368
  0
ARC
  8
0
 10
-321.541656
 20
236.116013
 40
1.108161
 50
165.892197
 51
194.107803
  0
ARC
  8
0
 10
-321.251862
 20
236.222260
 40
1.415484
 50
195.419632
 51
231.390930
  0
ARC
  8
0
 10
-320.449829
 20
237.394135
 40
2.833618
 50
233.504974
 51
306.495026
  0
ARC
  8
0
 10
-319.647797
 20
236.222260
 40
1.415490
 50
308.609070
 51
344.580353
  0
POINT
  8
0
 10
-301.649841
 20
59.946587
  0
POINT
  8
0
 10
-329.149841
 20
59.946587
  0
LINE
  8
0
 10
-324.649841
 20
131.447067
 11
-288.649841
 21
131.447067
  0
LINE
  8
0
 10
-314.649841
 20
82.447075
 11
-311.649841
 21
82.447075
  0
LINE
  8
0
 10
-324.649841
 20
109.402412
 11
-288.649841
 21
109.402412
  0
LINE
  8
0
 10
-324.649841
 20
131.447067
 11
-324.649841
 21
69.380585
  0
LINE
  8
0
 10
-288.649841
 20
131.447067
 11
-288.649841
 21
82.447075
  0
LINE
  8
0
 10
-329.149841
 20
131.446594
 11
-329.149841
 21
18.946587
  0
LINE
  8
0
 10
-272.649841
 20
101.546066
 11
-272.649841
 21
86.146065
  0
LINE
  8
0
 10
-285.149841
 20
123.299469
 11
-285.149841
 21
117.182228
  0
LINE
  8
0
 10
-278.149841
 20
121.001900
 11
-278.149841
 21
117.601906
  0
LINE
  8
0
 10
-288.649841
 20
115.223747
 11
-285.499847
 21
115.223747
  0
LINE
  8
0
 10
-288.649841
 20
119.140717
 11
-285.499847
 21
119.140717
  0
LINE
  8
0
 10
-288.649841
 20
123.218872
 11
-285.499847
 21
123.218872
  0
LINE
  8
0
 10
-288.649841
 20
123.380066
 11
-285.499847
 21
123.380066
  0
LINE
  8
0
 10
-285.149841
 20
121.301910
 11
-278.449829
 21
121.301910
  0
LINE
  8
0
 10
-285.149841
 20
117.301910
 11
-278.449829
 21
117.301910
  0
LINE
  8
0
 10
-278.449860
 20
121.301926
 11
-278.149841
 21
121.001915
  0
LINE
  8
0
 10
-278.149841
 20
117.601913
 11
-278.449860
 21
117.301910
  0
LINE
  8
0
 10
-285.149841
 20
121.051910
 11
-278.199860
 21
121.051910
  0
LINE
  8
0
 10
-285.149841
 20
117.551910
 11
-278.199860
 21
117.551910
  0
LINE
  8
0
 10
-278.449829
 20
121.301910
 11
-278.449829
 21
117.301903
  0
LINE
  8
0
 10
-288.649841
 20
84.646065
 11
-274.149841
 21
84.646065
  0
LINE
  8
0
 10
-285.863708
 20
103.046066
 11
-274.149841
 21
103.046066
  0
LINE
  8
0
 10
-318.300812
 20
92.607971
 11
-318.300812
 21
92.318840
  0
LINE
  8
0
 10
-313.100800
 20
92.614189
 11
-313.100800
 21
92.325119
  0
LINE
  8
0
 10
-319.200806
 20
93.104393
 11
-319.200806
 21
92.606461
  0
LINE
  8
0
 10
-312.200806
 20
93.104393
 11
-312.200806
 21
92.606461
  0
LINE
  8
0
 10
-301.098877
 20
105.904396
 11
-301.098877
 21
105.406456
  0
LINE
  8
0
 10
-294.098877
 20
105.904396
 11
-294.098877
 21
105.406456
  0
LINE
  8
0
 10
-294.998871
 20
105.414192
 11
-294.998871
 21
105.125122
  0
LINE
  8
0
 10
-300.198883
 20
105.407837
 11
-300.198883
 21
105.118843
  0
LINE
  8
0
 10
-286.549835
 20
100.900604
 11
-286.549835
 21
110.833145
  0
LINE
  8
0
 10
-286.549866
 20
100.900604
 11
-288.649841
 21
100.716873
  0
LINE
  8
0
 10
-286.549835
 20
110.833176
 11
-288.649841
 21
111.016907
  0
LINE
  8
0
 10
-287.949829
 20
90.346062
 11
-287.949829
 21
97.346062
  0
LINE
  8
0
 10
-287.549835
 20
91.246063
 11
-287.549835
 21
96.446060
  0
LINE
  8
0
 10
-286.099854
 20
93.814621
 11
-286.099854
 21
93.877502
  0
LINE
  8
0
 10
-287.549835
 20
96.446060
 11
-287.949829
 21
96.446060
  0
LINE
  8
0
 10
-287.549835
 20
91.246063
 11
-287.949829
 21
91.246063
  0
LINE
  8
0
 10
-287.949829
 20
97.346062
 11
-288.649841
 21
97.346062
  0
LINE
  8
0
 10
-287.949829
 20
90.346062
 11
-288.649841
 21
90.346062
  0
LINE
  8
0
 10
-329.149841
 20
131.447067
 11
-324.649841
 21
131.447067
  0
LINE
  8
0
 10
-329.149841
 20
69.446587
 11
-324.649841
 21
69.446587
  0
LINE
  8
0
 10
-329.149841
 20
109.479836
 11
-324.649841
 21
109.479836
  0
LINE
  8
0
 10
-314.649841
 20
71.179741
 11
-314.649841
 21
83.713432
  0
LINE
  8
0
 10
-315.149841
 20
70.946587
 11
-315.149841
 21
83.946587
  0
LINE
  8
0
 10
-315.149841
 20
70.946587
 11
-322.649841
 21
70.946587
  0
LINE
  8
0
 10
-315.149841
 20
83.946587
 11
-322.649841
 21
83.946587
  0
LINE
  8
0
 10
-314.649841
 20
71.179733
 11
-315.149841
 21
70.946579
  0
LINE
  8
0
 10
-314.649811
 20
83.713463
 11
-315.149811
 21
83.946617
  0
LINE
  8
0
 10
-315.149841
 20
72.946587
 11
-319.620148
 21
72.946587
  0
LINE
  8
0
 10
-315.149841
 20
74.946587
 11
-318.465454
 21
74.946587
  0
LINE
  8
0
 10
-315.149841
 20
76.946587
 11
-317.310730
 21
76.946587
  0
LINE
  8
0
 10
-335.749847
 20
121.994553
 11
-335.749847
 21
112.367599
  0
LINE
  8
0
 10
-335.349854
 20
122.181076
 11
-335.349854
 21
112.181076
  0
LINE
  8
0
 10
-335.349854
 20
122.181076
 11
-329.749847
 21
122.181076
  0
LINE
  8
0
 10
-335.349854
 20
112.181076
 11
-329.749847
 21
112.181076
  0
LINE
  8
0
 10
-335.749847
 20
121.994568
 11
-335.349854
 21
122.181091
  0
LINE
  8
0
 10
-335.749817
 20
112.367615
 11
-335.349823
 21
112.181091
  0
LINE
  8
0
 10
-335.349854
 20
120.181076
 11
-332.304535
 21
120.181076
  0
LINE
  8
0
 10
-335.349854
 20
118.181076
 11
-333.459229
 21
118.181076
  0
LINE
  8
0
 10
-335.349854
 20
116.181076
 11
-334.613953
 21
116.181076
  0
LINE
  8
0
 10
-326.149841
 20
69.446587
 11
-326.149841
 21
45.246582
  0
LINE
  8
0
 10
-328.749847
 20
44.946587
 11
-326.449829
 21
44.946587
  0
LINE
  8
0
 10
-326.149841
 20
51.446587
 11
-322.199829
 21
51.446587
  0
LINE
  8
0
 10
-326.149841
 20
68.446587
 11
-322.199829
 21
68.446587
  0
LINE
  8
0
 10
-326.449829
 20
44.946564
 11
-326.149811
 21
45.246559
  0
LINE
  8
0
 10
-322.149841
 20
68.396584
 11
-322.149841
 21
51.496586
  0
LINE
  8
0
 10
-322.149841
 20
51.546585
 11
-321.649841
 21
51.546585
  0
LINE
  8
0
 10
-322.149841
 20
68.346588
 11
-321.649841
 21
68.346588
  0
LINE
  8
0
 10
-322.149841
 20
68.396606
 11
-322.199829
 21
68.446609
  0
LINE
  8
0
 10
-322.199829
 20
51.446568
 11
-322.149841
 21
51.496567
  0
LINE
  8
0
 10
-321.649841
 20
68.305092
 11
-321.649841
 21
60.780479
  0
LINE
  8
0
 10
-321.649841
 20
59.112724
 11
-321.649841
 21
51.588081
  0
LINE
  8
0
 10
-329.749847
 20
122.431076
 11
-329.749847
 21
111.931076
  0
LINE
  8
0
 10
-329.749847
 20
111.931076
 11
-329.149841
 21
111.931076
  0
LINE
  8
0
 10
-329.749847
 20
122.431076
 11
-329.149841
 21
122.431076
  0
LINE
  8
0
 10
-322.649841
 20
85.146591
 11
-322.649841
 21
69.746590
  0
LINE
  8
0
 10
-322.649841
 20
85.146591
 11
-324.649841
 21
85.146591
  0
LINE
  8
0
 10
-322.649841
 20
69.746590
 11
-324.649841
 21
69.746590
  0
LINE
  8
0
 10
-324.649841
 20
76.291885
 11
-322.649841
 21
77.446587
  0
LINE
  8
0
 10
-324.649841
 20
77.100182
 11
-322.649841
 21
78.254883
  0
LINE
  8
0
 10
-301.649841
 20
99.554855
 11
-301.649841
 21
23.023685
  0
LINE
  8
0
 10
-311.649841
 20
99.554855
 11
-311.649841
 21
61.505360
  0
LINE
  8
0
 10
-321.649841
 20
70.946587
 11
-321.649841
 21
45.244888
  0
LINE
  8
0
 10
-309.649841
 20
101.554855
 11
-303.649841
 21
101.554855
  0
LINE
  8
0
 10
-309.649841
 20
92.447311
 11
-303.649841
 21
92.447311
  0
LINE
  8
0
 10
-312.164093
 20
59.946587
 11
-301.649841
 21
59.946587
  0
LINE
  8
0
 10
-312.164093
 20
43.271111
 11
-301.649841
 21
43.271111
  0
LINE
  8
0
 10
-309.649841
 20
21.023685
 11
-303.649841
 21
21.023685
  0
LINE
  8
0
 10
-321.649841
 20
62.215450
 11
-314.649841
 21
62.215450
  0
LINE
  8
0
 10
-321.649841
 20
57.972809
 11
-316.649841
 21
57.972809
  0
LINE
  8
0
 10
-321.649841
 20
45.244888
 11
-316.649811
 21
45.244888
  0
LINE
  8
0
 10
-314.649841
 20
79.186012
 11
-312.706451
 21
79.186012
  0
LINE
  8
0
 10
-314.649841
 20
75.650520
 11
-312.706482
 21
75.650520
  0
LINE
  8
0
 10
-312.706451
 20
75.650475
 11
-311.649841
 21
76.944550
  0
LINE
  8
0
 10
-311.649841
 20
77.891968
 11
-312.706421
 21
79.186005
  0
LINE
  8
0
 10
-314.649841
 20
77.064690
 11
-312.706421
 21
77.064690
  0
LINE
  8
0
 10
-312.129089
 20
76.357597
 11
-312.706421
 21
77.064690
  0
LINE
  8
0
 10
-312.706451
 20
79.186012
 11
-312.706451
 21
77.064690
  0
LINE
  8
0
 10
-311.649841
 20
41.720062
 11
-311.649841
 21
23.023685
  0
LINE
  8
0
 10
-309.649841
 20
29.747686
 11
-303.649841
 21
29.747686
  0
LINE
  8
0
 10
-309.649841
 20
83.723312
 11
-303.649841
 21
83.723312
  0
LINE
  8
0
 10
-301.649841
 20
82.447075
 11
-288.649841
 21
82.447075
  0
ARC
  8
0
 10
-290.804382
 20
117.182228
 40
5.654532
 50
339.735413
 51
20.264589
  0
ARC
  8
0
 10
-291.264648
 20
121.179794
 40
6.114799
 50
340.520721
 51
19.479284
  0
ARC
  8
0
 10
-274.149841
 20
101.546066
 40
1.500000
 50
0.000000
 51
90.000000
  0
ARC
  8
0
 10
-274.149841
 20
86.146065
 40
1.500000
 50
270.000000
 51
0.000000
  0
CIRCLE
  8
0
 10
-297.598877
 20
104.382629
 40
0.010000
  0
CIRCLE
  8
0
 10
-315.700806
 20
91.582626
 40
0.010000
  0
ARC
  8
0
 10
-298.381775
 20
105.866875
 40
12.831938
 50
337.230530
 51
22.769430
  0
ARC
  8
0
 10
-289.099854
 20
93.814621
 40
3.000008
 50
301.109253
 51
0.000000
  0
ARC
  8
0
 10
-289.099854
 20
93.877502
 40
3.000000
 50
0.000000
 51
58.890759
  0
ARC
  8
0
 10
-328.749847
 20
44.546585
 40
0.400002
 50
90.000000
 51
180.000000
  0
CIRCLE
  8
0
 10
-306.649841
 20
98.157425
 40
0.010000
  0
ARC
  8
0
 10
-303.649841
 20
90.447311
 40
2.000000
 50
0.000000
 51
90.000000
  0
ARC
  8
0
 10
-309.649841
 20
90.447311
 40
2.000000
 50
90.000000
 51
180.000000
  0
ARC
  8
0
 10
-303.649841
 20
99.554855
 40
2.000000
 50
0.000000
 51
90.000000
  0
ARC
  8
0
 10
-309.649841
 20
99.554855
 40
2.000000
 50
90.000000
 51
180.000000
  0
ARC
  8
0
 10
-303.649841
 20
23.023685
 40
2.000000
 50
270.000000
 51
0.000000
  0
ARC
  8
0
 10
-309.649841
 20
23.023685
 40
2.000000
 50
180.000000
 51
270.000000
  0
ARC
  8
0
 10
-285.499847
 20
124.483231
 40
1.264259
 50
270.000000
 51
282.243042
  0
ARC
  8
0
 10
-285.258209
 20
123.397873
 40
0.152460
 50
279.994019
 51
312.513611
  0
ARC
  8
0
 10
-285.170898
 20
123.299469
 40
0.021033
 50
318.352661
 51
41.647346
  0
ARC
  8
0
 10
-285.258209
 20
123.201065
 40
0.152460
 50
47.486382
 51
80.005974
  0
ARC
  8
0
 10
-285.499847
 20
122.115707
 40
1.264257
 50
77.756966
 51
90.000000
  0
ARC
  8
0
 10
-319.358002
 20
115.766380
 40
1.108161
 50
345.892181
 51
14.107806
  0
ARC
  8
0
 10
-319.647797
 20
115.660133
 40
1.415484
 50
15.419636
 51
51.391121
  0
ARC
  8
0
 10
-320.449829
 20
114.488266
 40
2.833618
 50
53.504974
 51
126.495026
  0
ARC
  8
0
 10
-321.251862
 20
115.660133
 40
1.415496
 50
128.608871
 51
164.580368
  0
ARC
  8
0
 10
-321.541656
 20
115.766380
 40
1.108161
 50
165.892197
 51
194.107803
  0
ARC
  8
0
 10
-321.251862
 20
115.872627
 40
1.415484
 50
195.419632
 51
231.391129
  0
ARC
  8
0
 10
-320.449829
 20
117.044495
 40
2.833618
 50
233.504974
 51
306.495026
  0
ARC
  8
0
 10
-319.647797
 20
115.872627
 40
1.415496
 50
308.608887
 51
344.580353
  0
ARC
  8
0
 10
-295.862335
 20
105.902916
 40
1.763459
 50
0.053791
 51
14.105742
  0
ARC
  8
0
 10
-296.323273
 20
105.733948
 40
2.252278
 50
15.416916
 51
51.386749
  0
ARC
  8
0
 10
-297.598877
 20
103.870377
 40
4.507535
 50
53.500504
 51
126.499496
  0
ARC
  8
0
 10
-298.874481
 20
105.733948
 40
2.252263
 50
128.613251
 51
164.583084
  0
ARC
  8
0
 10
-299.335419
 20
105.902916
 40
1.763469
 50
165.894257
 51
179.942993
  0
ARC
  8
0
 10
-313.964264
 20
93.102913
 40
1.763459
 50
0.053791
 51
14.105742
  0
ARC
  8
0
 10
-314.425201
 20
92.933945
 40
2.252278
 50
15.416916
 51
51.386749
  0
ARC
  8
0
 10
-315.700806
 20
91.070374
 40
4.507535
 50
53.500504
 51
126.499496
  0
ARC
  8
0
 10
-316.976410
 20
92.933945
 40
2.252263
 50
128.613251
 51
164.583084
  0
ARC
  8
0
 10
-317.437347
 20
93.102913
 40
1.763469
 50
165.894257
 51
179.942993
  0
ARC
  8
0
 10
-295.862335
 20
105.407936
 40
1.763469
 50
345.894257
 51
14.105742
  0
ARC
  8
0
 10
-296.323273
 20
105.238976
 40
2.252276
 50
15.416729
 51
51.386749
  0
ARC
  8
0
 10
-297.598877
 20
103.375404
 40
4.507535
 50
53.500504
 51
126.499496
  0
ARC
  8
0
 10
-298.874481
 20
105.238976
 40
2.252263
 50
128.613251
 51
164.583267
  0
ARC
  8
0
 10
-299.335419
 20
105.407936
 40
1.763469
 50
165.894257
 51
194.105743
  0
ARC
  8
0
 10
-298.874481
 20
105.576897
 40
2.252276
 50
195.416733
 51
231.386749
  0
ARC
  8
0
 10
-297.598877
 20
107.440468
 40
4.507535
 50
233.500504
 51
306.499512
  0
ARC
  8
0
 10
-296.323273
 20
105.576897
 40
2.252263
 50
308.613251
 51
344.583282
  0
ARC
  8
0
 10
-313.964264
 20
92.607941
 40
1.763469
 50
345.894257
 51
14.105742
  0
ARC
  8
0
 10
-314.425201
 20
92.438972
 40
2.252278
 50
15.416916
 51
51.386749
  0
ARC
  8
0
 10
-315.700806
 20
90.575401
 40
4.507535
 50
53.500504
 51
126.499496
  0
ARC
  8
0
 10
-316.976410
 20
92.438972
 40
2.252263
 50
128.613251
 51
164.583084
  0
ARC
  8
0
 10
-317.437347
 20
92.607941
 40
1.763469
 50
165.894257
 51
194.105743
  0
ARC
  8
0
 10
-316.976410
 20
92.776909
 40
2.252278
 50
195.416916
 51
231.386749
  0
ARC
  8
0
 10
-315.700806
 20
94.640480
 40
4.507535
 50
233.500504
 51
306.499512
  0
ARC
  8
0
 10
-314.425201
 20
92.776909
 40
2.252263
 50
308.613251
 51
344.583069
  0
ARC
  8
0
 10
-296.308777
 20
105.407936
 40
1.309920
 50
0.268637
 51
14.106173
  0
ARC
  8
0
 10
-296.651184
 20
105.282402
 40
1.673031
 50
15.417845
 51
51.388344
  0
ARC
  8
0
 10
-297.598877
 20
103.897858
 40
3.348581
 50
53.501759
 51
126.498238
  0
ARC
  8
0
 10
-298.546570
 20
105.282402
 40
1.673033
 50
128.611664
 51
164.582153
  0
ARC
  8
0
 10
-298.888977
 20
105.407936
 40
1.309916
 50
165.893829
 51
180.000000
  0
ARC
  8
0
 10
-314.410706
 20
92.611122
 40
1.309909
 50
0.129814
 51
14.247327
  0
ARC
  8
0
 10
-314.752808
 20
92.484749
 40
1.673032
 50
15.558825
 51
51.529854
  0
ARC
  8
0
 10
-315.697083
 20
91.097878
 40
3.348572
 50
53.643116
 51
126.639488
  0
ARC
  8
0
 10
-316.648163
 20
92.480072
 40
1.673041
 50
128.753326
 51
164.723633
  0
ARC
  8
0
 10
-316.990906
 20
92.604759
 40
1.309895
 50
166.034988
 51
179.860840
  0
ARC
  8
0
 10
-296.308777
 20
105.125092
 40
1.309916
 50
345.893829
 51
14.106173
  0
ARC
  8
0
 10
-296.651184
 20
104.999557
 40
1.673031
 50
15.417845
 51
51.388344
  0
ARC
  8
0
 10
-297.598877
 20
103.615013
 40
3.348581
 50
53.501759
 51
126.498238
  0
ARC
  8
0
 10
-298.546570
 20
104.999557
 40
1.673033
 50
128.611664
 51
164.582153
  0
ARC
  8
0
 10
-298.888977
 20
105.125092
 40
1.309916
 50
165.893829
 51
194.106171
  0
ARC
  8
0
 10
-298.546570
 20
105.250626
 40
1.673031
 50
195.417847
 51
231.388336
  0
ARC
  8
0
 10
-297.598877
 20
106.635170
 40
3.348581
 50
233.501755
 51
306.498230
  0
ARC
  8
0
 10
-296.651184
 20
105.250626
 40
1.673033
 50
308.611664
 51
344.582153
  0
ARC
  8
0
 10
-314.410706
 20
92.328270
 40
1.309895
 50
346.034973
 51
14.247327
  0
ARC
  8
0
 10
-314.752808
 20
92.201897
 40
1.673032
 50
15.558825
 51
51.529854
  0
ARC
  8
0
 10
-315.697083
 20
90.815025
 40
3.348572
 50
53.643116
 51
126.639488
  0
ARC
  8
0
 10
-316.648163
 20
92.197220
 40
1.673041
 50
128.753326
 51
164.723633
  0
ARC
  8
0
 10
-316.990906
 20
92.321907
 40
1.309895
 50
166.034988
 51
194.247330
  0
ARC
  8
0
 10
-316.648804
 20
92.448280
 40
1.673032
 50
195.558823
 51
231.529861
  0
ARC
  8
0
 10
-315.704529
 20
93.835152
 40
3.348572
 50
233.643112
 51
306.639496
  0
ARC
  8
0
 10
-314.753448
 20
92.452957
 40
1.673041
 50
308.753326
 51
344.723633
  0
ARC
  8
0
 10
-306.649841
 20
93.143471
 40
14.102452
 50
66.837921
 51
126.498642
  0
ARC
  8
0
 10
-310.640900
 20
98.974258
 40
7.046135
 50
128.612335
 51
164.582581
  0
ARC
  8
0
 10
-312.082977
 20
99.502914
 40
5.516848
 50
165.893951
 51
194.106201
  0
ARC
  8
0
 10
-310.640900
 20
100.031570
 40
7.046134
 50
195.417526
 51
219.419037
  0
ARC
  8
0
 10
-306.649841
 20
105.862358
 40
14.102447
 50
246.931061
 51
249.321609
  0
ARC
  8
0
 10
-296.502777
 20
104.855850
 40
1.112905
 50
345.893646
 51
14.106358
  0
ARC
  8
0
 10
-296.793701
 20
104.749191
 40
1.421424
 50
15.418032
 51
51.388412
  0
ARC
  8
0
 10
-297.598877
 20
103.572838
 40
2.845018
 50
53.502056
 51
126.497940
  0
ARC
  8
0
 10
-298.404053
 20
104.749191
 40
1.421427
 50
128.611588
 51
164.581970
  0
ARC
  8
0
 10
-298.694977
 20
104.855850
 40
1.112905
 50
165.893646
 51
194.106354
  0
ARC
  8
0
 10
-298.404053
 20
104.962509
 40
1.421424
 50
195.418030
 51
231.388412
  0
ARC
  8
0
 10
-297.598877
 20
106.138863
 40
2.845018
 50
233.502060
 51
306.497955
  0
ARC
  8
0
 10
-296.793701
 20
104.962509
 40
1.421427
 50
308.611603
 51
344.581970
  0
ARC
  8
0
 10
-296.775452
 20
104.605865
 40
0.836590
 50
345.895844
 51
14.104170
  0
ARC
  8
0
 10
-296.994019
 20
104.525757
 40
1.068369
 50
15.414558
 51
51.382622
  0
ARC
  8
0
 10
-297.598877
 20
103.642204
 40
2.137660
 50
53.496387
 51
126.503609
  0
ARC
  8
0
 10
-298.203735
 20
104.525757
 40
1.068356
 50
128.617386
 51
164.585434
  0
ARC
  8
0
 10
-298.422302
 20
104.605865
 40
0.836590
 50
165.895828
 51
194.104172
  0
ARC
  8
0
 10
-298.203735
 20
104.685974
 40
1.068369
 50
195.414566
 51
231.382614
  0
ARC
  8
0
 10
-297.598877
 20
105.569527
 40
2.137660
 50
233.496384
 51
306.503601
  0
ARC
  8
0
 10
-296.994019
 20
104.685974
 40
1.068356
 50
308.617371
 51
344.585449
  0
ARC
  8
0
 10
-297.167755
 20
104.418373
 40
0.437389
 50
345.891052
 51
14.108961
  0
ARC
  8
0
 10
-297.282196
 20
104.376411
 40
0.558753
 50
15.421512
 51
51.393951
  0
ARC
  8
0
 10
-297.598877
 20
103.913635
 40
1.118738
 50
53.508728
 51
126.491272
  0
ARC
  8
0
 10
-297.915558
 20
104.376411
 40
0.558740
 50
128.606049
 51
164.578491
  0
ARC
  8
0
 10
-298.029999
 20
104.418373
 40
0.437389
 50
165.891037
 51
194.108963
  0
ARC
  8
0
 10
-297.915558
 20
104.460335
 40
0.558753
 50
195.421509
 51
231.393951
  0
ARC
  8
0
 10
-297.598877
 20
104.923111
 40
1.118738
 50
233.508728
 51
306.491272
  0
ARC
  8
0
 10
-297.282196
 20
104.460335
 40
0.558740
 50
308.606049
 51
344.578491
  0
ARC
  8
0
 10
-314.604706
 20
92.055847
 40
1.112905
 50
345.893646
 51
14.106358
  0
ARC
  8
0
 10
-314.895630
 20
91.949188
 40
1.421424
 50
15.418032
 51
51.388222
  0
ARC
  8
0
 10
-315.700806
 20
90.772827
 40
2.845018
 50
53.502056
 51
126.497940
  0
ARC
  8
0
 10
-316.505981
 20
91.949188
 40
1.421421
 50
128.611786
 51
164.581970
  0
ARC
  8
0
 10
-316.796906
 20
92.055847
 40
1.112905
 50
165.893646
 51
194.106354
  0
ARC
  8
0
 10
-316.505981
 20
92.162506
 40
1.421424
 50
195.418030
 51
231.388214
  0
ARC
  8
0
 10
-315.700806
 20
93.338867
 40
2.845018
 50
233.502060
 51
306.497955
  0
ARC
  8
0
 10
-314.895630
 20
92.162506
 40
1.421421
 50
308.611786
 51
344.581970
  0
ARC
  8
0
 10
-314.876678
 20
91.805862
 40
0.835887
 50
345.890198
 51
14.109808
  0
ARC
  8
0
 10
-315.095428
 20
91.725655
 40
1.067871
 50
15.422352
 51
51.396961
  0
ARC
  8
0
 10
-315.700806
 20
90.840973
 40
2.138390
 50
53.510860
 51
126.489143
  0
ARC
  8
0
 10
-316.306183
 20
91.725655
 40
1.067859
 50
128.603043
 51
164.577652
  0
ARC
  8
0
 10
-316.524933
 20
91.805862
 40
0.835887
 50
165.890198
 51
194.109802
  0
ARC
  8
0
 10
-316.306183
 20
91.886070
 40
1.067871
 50
195.422348
 51
231.396957
  0
ARC
  8
0
 10
-315.700806
 20
92.770752
 40
2.138390
 50
233.510864
 51
306.489136
  0
ARC
  8
0
 10
-315.095428
 20
91.886070
 40
1.067859
 50
308.603027
 51
344.577637
  0
ARC
  8
0
 10
-315.269684
 20
91.618370
 40
0.437389
 50
345.891052
 51
14.108961
  0
ARC
  8
0
 10
-315.384125
 20
91.576408
 40
0.558753
 50
15.421512
 51
51.393951
  0
ARC
  8
0
 10
-315.700806
 20
91.113632
 40
1.118738
 50
53.508728
 51
126.491272
  0
ARC
  8
0
 10
-316.017487
 20
91.576408
 40
0.558740
 50
128.606049
 51
164.578491
  0
ARC
  8
0
 10
-316.131927
 20
91.618370
 40
0.437389
 50
165.891037
 51
194.108963
  0
ARC
  8
0
 10
-316.017487
 20
91.660332
 40
0.558753
 50
195.421509
 51
231.393951
  0
ARC
  8
0
 10
-315.700806
 20
92.123108
 40
1.118738
 50
233.508728
 51
306.491272
  0
ARC
  8
0
 10
-315.384125
 20
91.660332
 40
0.558740
 50
308.606049
 51
344.578491
  0
ARC
  8
0
 10
-306.649841
 20
96.584114
 40
5.215763
 50
71.748184
 51
108.282188
  0
ARC
  8
0
 10
-304.827332
 20
99.261528
 40
3.217313
 50
16.676054
 51
51.388573
  0
ARC
  8
0
 10
-306.649841
 20
96.598801
 40
6.439656
 50
53.502476
 51
126.497528
  0
ARC
  8
0
 10
-308.472351
 20
99.261528
 40
3.217319
 50
128.611435
 51
163.067810
  0
ARC
  8
0
 10
-306.649841
 20
97.150955
 40
5.215757
 50
57.309738
 51
122.660690
  0
ARC
  8
0
 10
-314.149841
 20
74.160637
 40
6.439587
 50
67.269081
 51
94.458908
  0
ARC
  8
0
 10
-314.149841
 20
75.017181
 40
5.324231
 50
62.145733
 51
95.381683
  0
ARC
  8
0
 10
-316.649841
 20
64.412407
 40
6.439594
 50
270.000000
 51
306.497894
  0
ARC
  8
0
 10
-314.827362
 20
61.749763
 40
3.217347
 50
308.611725
 51
344.582123
  0
ARC
  8
0
 10
-314.168854
 20
61.508350
 40
2.519015
 50
345.893646
 51
0.000000
  0
ARC
  8
0
 10
-314.168793
 20
41.709351
 40
2.518982
 50
0.000000
 51
14.106531
  0
ARC
  8
0
 10
-314.827332
 20
41.467937
 40
3.217347
 50
15.417884
 51
51.388275
  0
ARC
  8
0
 10
-316.649811
 20
38.805283
 40
6.439607
 50
53.502151
 51
90.000000
  0
ARC
  8
0
 10
-314.649841
 20
76.348358
 40
3.863754
 50
270.000000
 51
306.497864
  0
ARC
  8
0
 10
-313.556335
 20
74.750778
 40
1.930384
 50
308.611145
 51
344.582245
  0
ARC
  8
0
 10
-313.161224
 20
74.605934
 40
1.511397
 50
345.893616
 51
0.000000
  0
ARC
  8
0
 10
-314.649841
 20
66.079208
 40
3.863754
 50
270.000000
 51
306.497833
  0
ARC
  8
0
 10
-313.556335
 20
64.481628
 40
1.930387
 50
308.611084
 51
344.582245
  0
ARC
  8
0
 10
-313.161224
 20
64.336777
 40
1.511395
 50
345.893890
 51
0.000000
  0
ARC
  8
0
 10
-306.649841
 20
105.862358
 40
14.102446
 50
290.681061
 51
306.498657
  0
ARC
  8
0
 10
-302.658783
 20
100.031570
 40
7.046135
 50
308.612335
 51
344.582581
  0
ARC
  8
0
 10
-301.216705
 20
99.502914
 40
5.516848
 50
345.893951
 51
14.106195
  0
ARC
  8
0
 10
-302.658783
 20
98.974258
 40
7.046134
 50
15.417532
 51
34.738205
  0
ARC
  8
0
 10
-314.149841
 20
79.819305
 40
5.324221
 50
264.609406
 51
297.858093
  0
ARC
  8
0
 10
-314.149841
 20
79.968758
 40
6.439598
 50
265.553070
 51
291.314697
  0
POINT
  8
0
 10
-132.618698
 20
207.124619
  0
POINT
  8
0
 10
-77.618698
 20
207.124619
  0
LINE
  8
0
 10
-132.471161
 20
190.301605
 11
-115.795677
 21
206.977081
  0
LINE
  8
0
 10
-153.124786
 20
209.245941
 11
-144.356674
 21
218.014069
  0
LINE
  8
0
 10
-154.753494
 20
177.436874
 11
-132.471161
 21
190.301605
  0
LINE
  8
0
 10
-164.325180
 20
168.347061
 11
-156.824554
 21
175.847687
  0
LINE
  8
0
 10
-159.256332
 20
186.143845
 11
-153.653519
 21
191.746658
  0
LINE
  8
0
 10
-174.079422
 20
177.425995
 11
-164.886902
 21
185.139450
  0
LINE
  8
0
 10
-150.296371
 20
207.831726
 11
-150.296371
 21
212.074371
  0
LINE
  8
0
 10
-141.457535
 20
207.478165
 11
-132.972244
 21
215.963455
  0
LINE
  8
0
 10
-123.779861
 20
207.478165
 11
-132.265152
 21
215.963455
  0
LINE
  8
0
 10
-132.265152
 20
198.285782
 11
-123.779861
 21
206.771072
  0
LINE
  8
0
 10
-132.972244
 20
198.285782
 11
-141.457535
 21
206.771072
  0
LINE
  8
0
 10
-132.972244
 20
197.578674
 11
-142.164642
 21
206.771072
  0
LINE
  8
0
 10
-132.265152
 20
197.578674
 11
-123.072754
 21
206.771072
  0
LINE
  8
0
 10
-123.072754
 20
207.478165
 11
-132.265152
 21
216.670563
  0
LINE
  8
0
 10
-142.164642
 20
207.478165
 11
-137.992706
 21
211.650101
  0
LINE
  8
0
 10
-136.790634
 20
212.145081
 11
-143.508148
 21
218.862595
  0
LINE
  8
0
 10
-137.639160
 20
211.296555
 11
-144.356674
 21
218.014069
  0
LINE
  8
0
 10
-137.144180
 20
212.498627
 11
-132.972244
 21
216.670563
  0
LINE
  8
0
 10
-133.325806
 20
224.802292
 11
-137.568451
 21
224.802292
  0
LINE
  8
0
 10
-137.568451
 20
224.802292
 11
-143.508148
 21
218.862595
  0
LINE
  8
0
 10
-111.637917
 20
233.762253
 11
-117.240730
 21
228.159439
  0
LINE
  8
0
 10
-102.920082
 20
248.585358
 11
-110.633530
 21
239.392822
  0
LINE
  8
0
 10
-93.841141
 20
238.831100
 11
-101.341766
 21
231.330475
  0
LINE
  8
0
 10
-102.930954
 20
229.259415
 11
-115.795677
 21
206.977081
  0
LINE
  8
0
 10
-138.699814
 20
212.357208
 11
-137.851288
 21
213.205734
  0
LINE
  8
0
 10
-142.942459
 20
216.599854
 11
-142.093933
 21
217.448380
  0
LINE
  8
0
 10
-153.124786
 20
209.245941
 11
-152.865967
 21
208.280014
  0
LINE
  8
0
 10
-149.476227
 20
204.890259
 11
-152.865967
 21
208.280014
  0
LINE
  8
0
 10
-149.656143
 20
205.777298
 11
-153.124786
 21
209.245941
  0
LINE
  8
0
 10
-155.119186
 20
215.524628
 11
-182.074539
 21
242.479980
  0
LINE
  8
0
 10
-182.074539
 20
171.769272
 11
-155.119186
 21
198.724625
  0
LINE
  8
0
 10
-182.074554
 20
171.769257
 11
-204.119202
 21
193.813904
  0
LINE
  8
0
 10
-204.119202
 20
220.435333
 11
-182.074539
 21
242.479996
  0
LINE
  8
0
 10
-155.119186
 20
198.724625
 11
-155.119186
 21
215.524628
  0
LINE
  8
0
 10
-204.119186
 20
193.938217
 11
-204.119186
 21
220.311035
  0
LINE
  8
0
 10
-175.710587
 20
236.116013
 11
-168.993073
 21
242.833527
  0
LINE
  8
0
 10
-168.639496
 20
229.044937
 11
-161.921982
 21
235.762451
  0
LINE
  8
0
 10
-167.967743
 20
242.515350
 11
-167.331985
 21
243.151093
  0
LINE
  8
0
 10
-162.240189
 20
236.787766
 11
-161.604431
 21
237.423523
  0
LINE
  8
0
 10
-161.772552
 20
236.320129
 11
-168.435364
 21
242.982941
  0
LINE
  8
0
 10
-167.331970
 20
243.151077
 11
-161.604416
 21
237.423508
  0
LINE
  8
0
 10
-161.921982
 20
235.762451
 11
-161.772552
 21
236.320129
  0
LINE
  8
0
 10
-168.993042
 20
242.833527
 11
-168.435364
 21
242.982956
  0
LINE
  8
0
 10
-161.921982
 20
235.762451
 11
-168.993042
 21
242.833527
  0
LINE
  8
0
 10
-191.812820
 20
196.851791
 11
-187.895859
 21
199.299377
  0
LINE
  8
0
 10
-196.052185
 20
203.636169
 11
-192.135223
 21
206.083755
  0
LINE
  8
0
 10
-191.812805
 20
196.851807
 11
-195.890976
 21
199.020203
  0
LINE
  8
0
 10
-188.057053
 20
203.915359
 11
-192.135208
 21
206.083755
  0
LINE
  8
0
 10
-195.890991
 20
199.020172
 11
-196.052185
 21
203.636169
  0
LINE
  8
0
 10
-187.895889
 20
199.299377
 11
-188.057083
 21
203.915359
  0
LINE
  8
0
 10
-191.274811
 20
199.593979
 11
-193.351669
 21
202.917633
  0
LINE
  8
0
 10
-190.596375
 20
200.017914
 11
-192.673218
 21
203.341568
  0
LINE
  8
0
 10
-188.541565
 20
209.690903
 11
-187.581268
 21
214.208771
  0
LINE
  8
0
 10
-196.366730
 20
211.354187
 11
-195.406433
 21
215.872055
  0
LINE
  8
0
 10
-188.541580
 20
209.690887
 11
-192.934326
 21
208.263596
  0
LINE
  8
0
 10
-191.013702
 20
217.299332
 11
-195.406448
 21
215.872040
  0
LINE
  8
0
 10
-192.934326
 20
208.263611
 11
-196.366760
 21
211.354187
  0
LINE
  8
0
 10
-187.581268
 20
214.208771
 11
-191.013718
 21
217.299347
  0
LINE
  8
0
 10
-190.140411
 20
211.982803
 11
-193.973953
 21
212.797638
  0
LINE
  8
0
 10
-189.974075
 20
212.765320
 11
-193.807617
 21
213.580170
  0
LINE
  8
0
 10
-142.118698
 20
171.999847
 11
-142.118698
 21
184.731583
  0
LINE
  8
0
 10
-142.118698
 20
220.252029
 11
-142.118698
 21
242.249390
  0
LINE
  8
0
 10
-204.118698
 20
193.724609
 11
-204.118698
 21
193.938217
  0
LINE
  8
0
 10
-182.151962
 20
171.757858
 11
-204.118713
 21
193.724609
  0
LINE
  8
0
 10
-204.118713
 20
220.524643
 11
-182.151947
 21
242.491394
  0
LINE
  8
0
 10
-204.118698
 20
220.311035
 11
-204.118698
 21
220.524643
  0
LINE
  8
0
 10
-182.151947
 20
171.757858
 11
-182.107544
 21
171.802261
  0
LINE
  8
0
 10
-180.554932
 20
172.298935
 11
-175.605194
 21
177.248688
  0
LINE
  8
0
 10
-179.635696
 20
172.652481
 11
-175.958740
 21
176.329437
  0
LINE
  8
0
 10
-176.794144
 20
173.443420
 11
-176.749680
 21
173.487885
  0
LINE
  8
0
 10
-175.958755
 20
176.329422
 11
-176.241592
 21
176.612274
  0
LINE
  8
0
 10
-179.635712
 20
172.652481
 11
-179.918549
 21
172.935333
  0
LINE
  8
0
 10
-175.605194
 20
177.248657
 11
-176.100174
 21
177.743637
  0
LINE
  8
0
 10
-180.554947
 20
172.298920
 11
-181.049927
 21
172.793900
  0
LINE
  8
0
 10
-167.754929
 20
185.098938
 11
-162.805191
 21
190.048676
  0
LINE
  8
0
 10
-166.835693
 20
185.452484
 11
-163.158737
 21
189.129440
  0
LINE
  8
0
 10
-163.994141
 20
186.243423
 11
-163.949677
 21
186.287888
  0
LINE
  8
0
 10
-163.158737
 20
189.129440
 11
-163.441589
 21
189.412277
  0
LINE
  8
0
 10
-166.835693
 20
185.452469
 11
-167.118530
 21
185.735321
  0
LINE
  8
0
 10
-162.805191
 20
190.048676
 11
-163.300156
 21
190.543640
  0
LINE
  8
0
 10
-167.754929
 20
185.098923
 11
-168.249908
 21
185.593903
  0
LINE
  8
0
 10
-162.805176
 20
224.200562
 11
-167.754929
 21
229.150314
  0
LINE
  8
0
 10
-163.158737
 20
225.119812
 11
-166.835693
 21
228.796753
  0
LINE
  8
0
 10
-163.949677
 20
227.961365
 11
-163.994125
 21
228.005829
  0
LINE
  8
0
 10
-166.835693
 20
228.796753
 11
-167.118530
 21
228.513916
  0
LINE
  8
0
 10
-163.158737
 20
225.119812
 11
-163.441574
 21
224.836960
  0
LINE
  8
0
 10
-167.754913
 20
229.150314
 11
-168.249893
 21
228.655350
  0
LINE
  8
0
 10
-162.805176
 20
224.200562
 11
-163.300140
 21
223.705597
  0
LINE
  8
0
 10
-175.605179
 20
237.000565
 11
-180.554932
 21
241.950317
  0
LINE
  8
0
 10
-175.958740
 20
237.919815
 11
-179.635681
 21
241.596771
  0
LINE
  8
0
 10
-176.749664
 20
240.761353
 11
-176.794128
 21
240.805817
  0
LINE
  8
0
 10
-179.635681
 20
241.596771
 11
-179.918518
 21
241.313919
  0
LINE
  8
0
 10
-175.958710
 20
237.919800
 11
-176.241562
 21
237.636963
  0
LINE
  8
0
 10
-180.554916
 20
241.950302
 11
-181.049896
 21
241.455338
  0
LINE
  8
0
 10
-175.605164
 20
237.000565
 11
-176.100143
 21
236.505600
  0
LINE
  8
0
 10
-182.151947
 20
242.491394
 11
-182.107544
 21
242.446976
  0
LINE
  8
0
 10
-138.414246
 20
257.177551
 11
-138.882919
 21
255.428467
  0
LINE
  8
0
 10
-126.823143
 20
257.177521
 11
-126.354477
 21
255.428467
  0
LINE
  8
0
 10
-138.414246
 20
157.071716
 11
-138.882919
 21
158.820786
  0
LINE
  8
0
 10
-126.823151
 20
157.071701
 11
-126.354492
 21
158.820770
  0
LINE
  8
0
 10
-93.918472
 20
177.547699
 11
-92.169388
 21
177.079041
  0
LINE
  8
0
 10
-87.654236
 20
188.397644
 11
-86.373840
 21
187.117233
  0
LINE
  8
0
 10
-87.654228
 20
225.851532
 11
-86.373810
 21
227.131958
  0
LINE
  8
0
 10
-93.918411
 20
236.701492
 11
-92.169365
 21
237.170151
  0
LINE
  8
0
 10
-139.393555
 20
227.079529
 11
-142.118698
 21
235.466675
  0
LINE
  8
0
 10
-142.118698
 20
178.782776
 11
-139.739502
 21
186.105225
  0
LINE
  8
0
 10
-121.776115
 20
174.650604
 11
-125.843819
 21
187.169708
  0
LINE
  8
0
 10
-109.916710
 20
181.497635
 11
-118.724701
 21
191.279892
  0
LINE
  8
0
 10
-99.074081
 20
200.277557
 11
-111.949799
 21
203.014374
  0
LINE
  8
0
 10
-99.074081
 20
213.971619
 11
-111.949768
 21
211.234802
  0
LINE
  8
0
 10
-125.843750
 20
227.079529
 11
-121.776054
 21
239.598602
  0
LINE
  8
0
 10
-132.148132
 20
190.624619
 11
-130.599106
 21
190.624619
  0
LINE
  8
0
 10
-119.339104
 20
197.125549
 11
-117.319481
 21
200.623642
  0
LINE
  8
0
 10
-89.118698
 20
191.933182
 11
-89.118698
 21
222.315994
  0
LINE
  8
0
 10
-107.655678
 20
242.941681
 11
-124.024841
 21
252.392426
  0
LINE
  8
0
 10
-141.212555
 20
161.856812
 11
-159.980042
 21
172.692230
  0
LINE
  8
0
 10
-124.024857
 20
161.856781
 11
-97.712563
 21
177.048203
  0
LINE
  8
0
 10
-162.761261
 20
239.951294
 11
-141.212555
 21
252.392441
  0
LINE
  8
0
 10
-176.229248
 20
176.624619
 11
-173.493500
 21
176.624619
  0
LINE
  8
0
 10
-133.007080
 20
199.734818
 11
-140.008499
 21
206.736252
  0
LINE
  8
0
 10
-132.230316
 20
199.734818
 11
-125.228897
 21
206.736237
  0
LINE
  8
0
 10
-140.008499
 20
207.513000
 11
-133.007080
 21
214.514420
  0
LINE
  8
0
 10
-125.228889
 20
207.512985
 11
-132.230316
 21
214.514420
  0
LINE
  8
0
 10
-132.230347
 20
214.514420
 11
-131.784836
 21
215.483139
  0
LINE
  8
0
 10
-133.007080
 20
214.514420
 11
-133.452591
 21
215.483124
  0
LINE
  8
0
 10
-140.008499
 20
207.513000
 11
-140.977203
 21
207.958511
  0
LINE
  8
0
 10
-140.977219
 20
206.290756
 11
-140.008499
 21
206.736267
  0
LINE
  8
0
 10
-133.452591
 20
198.766113
 11
-133.007065
 21
199.734818
  0
LINE
  8
0
 10
-131.784836
 20
198.766129
 11
-132.230331
 21
199.734833
  0
LINE
  8
0
 10
-125.228912
 20
206.736252
 11
-124.260208
 21
206.290741
  0
LINE
  8
0
 10
-124.260193
 20
207.958496
 11
-125.228897
 21
207.512985
  0
LINE
  8
0
 10
-174.471756
 20
178.237946
 11
-168.744202
 21
183.965500
  0
LINE
  8
0
 10
-174.471802
 20
178.237946
 11
-175.038849
 21
178.804993
  0
LINE
  8
0
 10
-168.744232
 20
183.965485
 11
-169.311279
 21
184.532532
  0
LINE
  8
0
 10
-146.654602
 20
237.424622
 11
-148.386642
 21
240.424622
  0
LINE
  8
0
 10
-148.386642
 20
240.424622
 11
-151.850739
 21
240.424622
  0
LINE
  8
0
 10
-153.582794
 20
237.424622
 11
-151.850739
 21
240.424622
  0
LINE
  8
0
 10
-151.850739
 20
234.424622
 11
-153.582794
 21
237.424622
  0
LINE
  8
0
 10
-148.386642
 20
234.424622
 11
-151.850739
 21
234.424622
  0
LINE
  8
0
 10
-146.654587
 20
237.424622
 11
-148.386642
 21
234.424622
  0
LINE
  8
0
 10
-146.654602
 20
176.824615
 11
-148.386642
 21
179.824615
  0
LINE
  8
0
 10
-148.386642
 20
179.824615
 11
-150.617798
 21
179.824615
  0
LINE
  8
0
 10
-153.582794
 20
176.824615
 11
-152.467224
 21
178.756851
  0
LINE
  8
0
 10
-151.850754
 20
173.824615
 11
-153.582809
 21
176.824615
  0
LINE
  8
0
 10
-148.386642
 20
173.824615
 11
-151.850754
 21
173.824615
  0
LINE
  8
0
 10
-146.654602
 20
176.824615
 11
-148.386642
 21
173.824615
  0
LINE
  8
0
 10
-166.518173
 20
195.779327
 11
-167.518173
 21
195.201965
  0
LINE
  8
0
 10
-167.518173
 20
195.201965
 11
-167.518173
 21
194.047272
  0
LINE
  8
0
 10
-166.518173
 20
193.469925
 11
-167.518173
 21
194.047272
  0
LINE
  8
0
 10
-165.518173
 20
194.047272
 11
-166.518173
 21
193.469925
  0
LINE
  8
0
 10
-165.518173
 20
195.201965
 11
-165.518173
 21
194.047272
  0
LINE
  8
0
 10
-166.518173
 20
195.779327
 11
-165.518173
 21
195.201981
  0
LINE
  8
0
 10
-166.518173
 20
220.779327
 11
-167.518173
 21
220.201981
  0
LINE
  8
0
 10
-167.518173
 20
220.201981
 11
-167.518173
 21
219.047272
  0
LINE
  8
0
 10
-166.518173
 20
218.469925
 11
-167.518173
 21
219.047272
  0
LINE
  8
0
 10
-165.518173
 20
219.047272
 11
-166.518173
 21
218.469925
  0
LINE
  8
0
 10
-165.518173
 20
220.201981
 11
-165.518173
 21
219.047272
  0
LINE
  8
0
 10
-166.518173
 20
220.779327
 11
-165.518173
 21
220.201981
  0
LINE
  8
0
 10
-178.538986
 20
190.532745
 11
-178.538986
 21
185.532745
  0
LINE
  8
0
 10
-181.038986
 20
188.032745
 11
-176.038986
 21
188.032745
  0
LINE
  8
0
 10
-178.538986
 20
228.716507
 11
-178.538986
 21
223.716507
  0
LINE
  8
0
 10
-181.038986
 20
226.216507
 11
-176.038986
 21
226.216507
  0
LINE
  8
0
 10
-153.745377
 20
170.032181
 11
-153.144989
 21
171.072098
  0
LINE
  8
0
 10
-154.178558
 20
170.281876
 11
-153.578201
 21
171.321732
  0
LINE
  8
0
 10
-154.178497
 20
243.967407
 11
-153.578140
 21
242.927551
  0
LINE
  8
0
 10
-153.745316
 20
244.217087
 11
-153.144928
 21
243.177185
  0
ARC
  8
0
 10
-132.618698
 20
207.124619
 40
51.000004
 50
215.614349
 51
229.588638
  0
ARC
  8
0
 10
-165.032288
 20
169.054169
 40
1.000002
 50
229.588837
 51
315.000000
  0
ARC
  8
0
 10
-162.791870
 20
189.679367
 40
4.999994
 50
245.228287
 51
315.000000
  0
ARC
  8
0
 10
-164.260117
 20
202.353256
 40
14.999994
 50
315.000000
 51
21.421829
  0
ARC
  8
0
 10
-132.618698
 20
198.639343
 40
0.500001
 50
225.001236
 51
314.998749
  0
ARC
  8
0
 10
-124.133415
 20
207.124619
 40
0.499995
 50
315.000610
 51
44.999382
  0
ARC
  8
0
 10
-132.618698
 20
215.609894
 40
0.500001
 50
45.001236
 51
134.998764
  0
ARC
  8
0
 10
-141.103973
 20
207.124619
 40
0.500001
 50
135.001236
 51
224.998764
  0
ARC
  8
0
 10
-132.618698
 20
197.932236
 40
0.500001
 50
225.001236
 51
314.998749
  0
ARC
  8
0
 10
-123.426308
 20
207.124619
 40
0.499995
 50
315.000610
 51
44.999382
  0
ARC
  8
0
 10
-132.618698
 20
216.317001
 40
0.500001
 50
45.001236
 51
134.998764
  0
ARC
  8
0
 10
-141.811081
 20
207.124619
 40
0.500001
 50
135.001236
 51
224.998764
  0
ARC
  8
0
 10
-127.847336
 20
238.766037
 40
14.999993
 50
248.578171
 51
315.000000
  0
ARC
  8
0
 10
-115.173454
 20
237.297791
 40
5.000005
 50
315.000000
 51
24.771673
  0
ARC
  8
0
 10
-132.618698
 20
207.124619
 40
51.000004
 50
40.411377
 51
54.385662
  0
ARC
  8
0
 10
-94.548248
 20
239.538208
 40
1.000001
 50
315.000000
 51
40.411449
  0
ARC
  8
0
 10
-149.753494
 20
168.776611
 40
10.000008
 50
119.999977
 51
134.999939
  0
ARC
  8
0
 10
-94.270699
 20
224.259415
 40
9.999994
 50
135.000031
 51
150.000000
  0
CIRCLE
  8
0
 10
-166.518173
 20
207.124619
 40
0.750000
  0
CIRCLE
  8
0
 10
-166.518173
 20
207.124619
 40
9.200000
  0
ARC
  8
0
 10
-166.518173
 20
207.124619
 40
9.999995
 50
103.304642
 51
256.695282
  0
ARC
  8
0
 10
-169.346588
 20
235.408890
 40
7.999995
 50
14.585675
 51
75.414352
  0
CIRCLE
  8
0
 10
-191.974014
 20
201.467773
 40
2.000000
  0
CIRCLE
  8
0
 10
-191.974014
 20
201.467773
 40
1.750000
  0
CIRCLE
  8
0
 10
-191.974014
 20
201.467773
 40
4.000000
  0
CIRCLE
  8
0
 10
-191.974014
 20
212.781479
 40
2.000000
  0
CIRCLE
  8
0
 10
-191.974014
 20
212.781479
 40
1.750000
  0
CIRCLE
  8
0
 10
-191.974014
 20
212.781479
 40
4.000000
  0
ARC
  8
0
 10
-166.518173
 20
207.124619
 40
9.999995
 50
283.304657
 51
76.695274
  0
ARC
  8
0
 10
-132.618698
 20
207.124619
 40
42.999996
 50
112.431503
 51
133.157013
  0
ARC
  8
0
 10
-132.618698
 20
207.124619
 40
43.000004
 50
231.677383
 51
247.568542
  0
ARC
  8
0
 10
-147.118698
 20
171.999847
 40
5.000008
 50
247.568481
 51
0.000000
  0
ARC
  8
0
 10
-147.118698
 20
242.249390
 40
5.000000
 50
0.000000
 51
112.431519
  0
CIRCLE
  8
0
 10
-178.538986
 20
188.032745
 40
5.150000
  0
CIRCLE
  8
0
 10
-178.538986
 20
226.216507
 40
5.150000
  0
CIRCLE
  8
0
 10
-178.538986
 20
226.216507
 40
4.966500
  0
CIRCLE
  8
0
 10
-166.518173
 20
194.624619
 40
2.600000
  0
CIRCLE
  8
0
 10
-166.518173
 20
194.624619
 40
3.500000
  0
CIRCLE
  8
0
 10
-166.518173
 20
219.624619
 40
2.600000
  0
CIRCLE
  8
0
 10
-166.518173
 20
219.624619
 40
3.500000
  0
ARC
  8
0
 10
-178.915466
 20
175.564743
 40
2.999996
 50
256.109222
 51
315.000000
  0
ARC
  8
0
 10
-178.871002
 20
175.609207
 40
3.000003
 50
315.000000
 51
13.891067
  0
ARC
  8
0
 10
-166.115448
 20
188.364746
 40
3.000000
 50
256.108948
 51
314.999786
  0
ARC
  8
0
 10
-166.070984
 20
188.409210
 40
2.999992
 50
314.999786
 51
13.891067
  0
ARC
  8
0
 10
-166.070984
 20
225.840042
 40
3.000000
 50
346.108948
 51
45.000000
  0
ARC
  8
0
 10
-166.115448
 20
225.884506
 40
3.000003
 50
45.000000
 51
103.891068
  0
ARC
  8
0
 10
-178.870987
 20
238.640045
 40
3.000000
 50
346.108948
 51
44.999794
  0
ARC
  8
0
 10
-178.915451
 20
238.684509
 40
2.999992
 50
44.999794
 51
103.891068
  0
ARC
  8
0
 10
-132.618698
 20
207.124619
 40
15.000001
 50
278.130096
 51
351.869904
  0
ARC
  8
0
 10
-132.618698
 20
207.124619
 40
24.999994
 50
79.110023
 51
100.889740
  0
CIRCLE
  8
0
 10
-115.118721
 20
176.813721
 40
4.000000
  0
CIRCLE
  8
0
 10
-97.618698
 20
207.124588
 40
4.000000
  0
CIRCLE
  8
0
 10
-115.118660
 20
237.435486
 40
4.000000
  0
CIRCLE
  8
0
 10
-115.118721
 20
176.813721
 40
3.375000
  0
CIRCLE
  8
0
 10
-97.618698
 20
207.124588
 40
3.375000
  0
CIRCLE
  8
0
 10
-115.118660
 20
237.435486
 40
3.375000
  0
ARC
  8
0
 10
-115.118721
 20
176.813721
 40
7.000003
 50
198.000107
 51
41.999920
  0
ARC
  8
0
 10
-97.618698
 20
207.124588
 40
7.000013
 50
258.000000
 51
102.000015
  0
ARC
  8
0
 10
-115.118660
 20
237.435486
 40
6.999994
 50
31.874855
 51
162.000015
  0
ARC
  8
0
 10
-132.618698
 20
255.624619
 40
6.000004
 50
14.999869
 51
165.000092
  0
ARC
  8
0
 10
-132.618713
 20
158.624619
 40
5.999994
 50
195.000046
 51
344.999969
  0
ARC
  8
0
 10
-90.616470
 20
182.874603
 40
6.000009
 50
254.999985
 51
45.000103
  0
ARC
  8
0
 10
-90.616455
 20
231.374588
 40
6.000007
 50
315.000000
 51
104.999939
  0
ARC
  8
0
 10
-130.599106
 20
185.624619
 40
5.000006
 50
18.000036
 51
90.000000
  0
ARC
  8
0
 10
-115.008972
 20
194.625549
 40
5.000004
 50
150.000031
 51
222.000000
  0
ARC
  8
0
 10
-112.989357
 20
198.123627
 40
5.000009
 50
78.000023
 51
149.999985
  0
ARC
  8
0
 10
-112.989326
 20
216.125549
 40
5.000004
 50
265.389679
 51
281.999969
  0
ARC
  8
0
 10
-130.599030
 20
228.624619
 40
4.999994
 50
286.336487
 51
341.999939
  0
ARC
  8
0
 10
-134.638275
 20
228.624619
 40
4.999999
 50
198.000061
 51
232.248291
  0
ARC
  8
0
 10
-132.618698
 20
207.124619
 40
25.000002
 50
259.110107
 51
280.889801
  0
ARC
  8
0
 10
-132.618698
 20
207.124619
 40
25.000000
 50
319.110046
 51
340.889771
  0
ARC
  8
0
 10
-132.618698
 20
207.124619
 40
25.000002
 50
19.110035
 51
24.146299
  0
ARC
  8
0
 10
-136.774994
 20
185.520798
 40
2.999998
 50
168.487000
 51
259.110016
  0
ARC
  8
0
 10
-128.462448
 20
185.520782
 40
2.999992
 50
280.889893
 51
18.000202
  0
ARC
  8
0
 10
-115.987396
 20
192.723236
 40
2.999993
 50
221.999954
 51
319.110107
  0
ARC
  8
0
 10
-111.831100
 20
199.922119
 40
3.000000
 50
340.889709
 51
78.000053
  0
ARC
  8
0
 10
-111.831085
 20
214.327057
 40
3.000005
 50
281.999939
 51
19.109957
  0
ARC
  8
0
 10
-128.462372
 20
228.728439
 40
2.999994
 50
342.000031
 51
79.110115
  0
ARC
  8
0
 10
-136.774933
 20
228.728455
 40
3.000006
 50
100.889687
 51
197.999969
  0
ARC
  8
0
 10
-143.712540
 20
256.722565
 40
5.000010
 50
299.999939
 51
345.000000
  0
ARC
  8
0
 10
-143.712555
 20
157.526688
 40
5.000003
 50
14.999842
 51
59.999981
  0
ARC
  8
0
 10
-121.524864
 20
157.526672
 40
4.999997
 50
120.000015
 51
164.999969
  0
ARC
  8
0
 10
-95.212570
 20
172.718079
 40
5.000007
 50
74.999992
 51
119.999931
  0
ARC
  8
0
 10
-84.118698
 20
191.933167
 40
5.000000
 50
179.999832
 51
224.999878
  0
ARC
  8
0
 10
-84.118698
 20
222.315994
 40
5.000005
 50
135.000000
 51
180.000000
  0
ARC
  8
0
 10
-95.212509
 20
241.531113
 40
4.999988
 50
260.154236
 51
285.000061
  0
ARC
  8
0
 10
-121.524849
 20
256.722565
 40
5.000000
 50
195.000031
 51
240.000076
  0
ARC
  8
0
 10
-132.618698
 20
207.124619
 40
54.999996
 50
217.119308
 51
142.797852
  0
ARC
  8
0
 10
-132.618698
 20
207.124619
 40
8.399998
 50
174.302795
 51
185.697098
  0
ARC
  8
0
 10
-132.618698
 20
207.124619
 40
7.399999
 50
176.991623
 51
183.008377
  0
ARC
  8
0
 10
-132.618698
 20
207.124619
 40
7.399999
 50
266.991608
 51
273.008484
  0
ARC
  8
0
 10
-132.618698
 20
207.124619
 40
7.400000
 50
356.991516
 51
3.008379
  0
ARC
  8
0
 10
-132.618698
 20
207.124619
 40
7.399999
 50
86.991623
 51
93.008377
  0
CIRCLE
  8
0
 10
-132.618698
 20
255.624619
 40
2.600000
  0
CIRCLE
  8
0
 10
-132.618698
 20
158.624619
 40
2.600000
  0
CIRCLE
  8
0
 10
-90.616470
 20
182.874619
 40
2.600000
  0
CIRCLE
  8
0
 10
-90.616455
 20
231.374588
 40
2.600000
  0
ARC
  8
0
 10
-132.618698
 20
207.124619
 40
42.599995
 50
250.359268
 51
38.259613
  0
ARC
  8
0
 10
-176.486374
 20
185.980133
 40
8.000010
 50
284.585632
 51
345.414337
  0
CIRCLE
  8
0
 10
-178.538986
 20
188.032745
 40
4.966500
  0
ARC
  8
0
 10
-150.118698
 20
237.424622
 40
7.700001
 50
121.819603
 51
118.098549
  0
CIRCLE
  8
0
 10
-150.118698
 20
237.424622
 40
6.500000
  0
CIRCLE
  8
0
 10
-150.118698
 20
237.424622
 40
5.700000
  0
ARC
  8
0
 10
-150.118698
 20
176.824615
 40
7.699996
 50
193.257614
 51
51.704678
  0
ARC
  8
0
 10
-150.118698
 20
176.824615
 40
6.499994
 50
186.447922
 51
55.982513
  0
ARC
  8
0
 10
-150.118698
 20
176.824615
 40
5.700008
 50
180.972015
 51
59.972511
  0
ARC
  8
0
 10
-132.618698
 20
207.124619
 40
8.399998
 50
84.302795
 51
95.697205
  0
ARC
  8
0
 10
-132.618698
 20
207.124619
 40
8.399998
 50
354.302795
 51
5.697203
  0
ARC
  8
0
 10
-132.618698
 20
207.124619
 40
8.399998
 50
264.302795
 51
275.697205
  0
ARC
  8
0
 10
-132.618698
 20
207.124619
 40
34.999996
 50
11.546622
 51
35.268303
  0
ARC
  8
0
 10
-132.618698
 20
207.124619
 40
35.000008
 50
71.546638
 51
105.749313
  0
ARC
  8
0
 10
-132.618698
 20
207.124619
 40
34.999996
 50
208.448715
 51
218.437546
  0
ARC
  8
0
 10
-132.618698
 20
207.124619
 40
35.000004
 50
254.250687
 51
288.453247
  0
ARC
  8
0
 10
-132.618698
 20
207.124619
 40
35.000004
 50
311.478271
 51
348.453217
  0
ARC
  8
0
 10
-132.618698
 20
207.124619
 40
42.599998
 50
55.252724
 51
109.640709
  0
POINT
  8
0
 10
70.100159
 20
199.374619
  0
POINT
  8
0
 10
126.600159
 20
199.374619
  0
LINE
  8
0
 10
97.600159
 20
164.019272
 11
97.600159
 21
162.542725
  0
LINE
  8
0
 10
87.600159
 20
164.019272
 11
87.600159
 21
162.542725
  0
LINE
  8
0
 10
74.600159
 20
186.063934
 11
110.600159
 21
186.063934
  0
LINE
  8
0
 10
74.600159
 20
212.685303
 11
110.600159
 21
212.685303
  0
LINE
  8
0
 10
70.100151
 20
164.007843
 11
74.600151
 21
164.007843
  0
LINE
  8
0
 10
74.600151
 20
164.019272
 11
110.600159
 21
164.019272
  0
LINE
  8
0
 10
74.600166
 20
234.729950
 11
110.600159
 21
234.729950
  0
LINE
  8
0
 10
74.600159
 20
234.729950
 11
74.600159
 21
164.007843
  0
LINE
  8
0
 10
110.600159
 20
234.729950
 11
110.600159
 21
164.019257
  0
LINE
  8
0
 10
126.600159
 20
207.074600
 11
126.600159
 21
191.674606
  0
LINE
  8
0
 10
121.100159
 20
206.731461
 11
121.100159
 21
203.331467
  0
LINE
  8
0
 10
114.100159
 20
208.835693
 11
114.100159
 21
202.058884
  0
LINE
  8
0
 10
110.600159
 20
198.333755
 11
113.750153
 21
198.333755
  0
LINE
  8
0
 10
110.600159
 20
195.886154
 11
113.750153
 21
195.886154
  0
LINE
  8
0
 10
110.600159
 20
191.270172
 11
113.750153
 21
191.270172
  0
LINE
  8
0
 10
110.600159
 20
189.101776
 11
113.750153
 21
189.101776
  0
LINE
  8
0
 10
114.100159
 20
195.717758
 11
120.800171
 21
195.717758
  0
LINE
  8
0
 10
114.100159
 20
191.717758
 11
120.800156
 21
191.717758
  0
LINE
  8
0
 10
110.600159
 20
200.513611
 11
113.750153
 21
200.513611
  0
LINE
  8
0
 10
110.600159
 20
203.604187
 11
113.750153
 21
203.604187
  0
LINE
  8
0
 10
110.600159
 20
208.122055
 11
113.750153
 21
208.122055
  0
LINE
  8
0
 10
110.600159
 20
209.549347
 11
113.750153
 21
209.549347
  0
LINE
  8
0
 10
114.100159
 20
207.031464
 11
120.800156
 21
207.031464
  0
LINE
  8
0
 10
114.100159
 20
203.031464
 11
120.800156
 21
203.031464
  0
LINE
  8
0
 10
114.100159
 20
197.109940
 11
114.100159
 21
190.185959
  0
LINE
  8
0
 10
120.800140
 20
191.717758
 11
121.100143
 21
192.017761
  0
LINE
  8
0
 10
121.100182
 20
206.731491
 11
120.800171
 21
207.031494
  0
LINE
  8
0
 10
121.100159
 20
195.417755
 11
121.100159
 21
192.017761
  0
LINE
  8
0
 10
121.100182
 20
195.417755
 11
120.800186
 21
195.717758
  0
LINE
  8
0
 10
120.800156
 20
203.031464
 11
121.100159
 21
203.331467
  0
LINE
  8
0
 10
120.800232
 20
191.717743
 11
120.800232
 21
195.717758
  0
LINE
  8
0
 10
120.800323
 20
203.031464
 11
120.800323
 21
207.031464
  0
LINE
  8
0
 10
114.100159
 20
191.967758
 11
121.050171
 21
191.967758
  0
LINE
  8
0
 10
114.100159
 20
195.467758
 11
121.050156
 21
195.467758
  0
LINE
  8
0
 10
114.100159
 20
206.781464
 11
121.050156
 21
206.781464
  0
LINE
  8
0
 10
114.100159
 20
203.281464
 11
121.100159
 21
203.281464
  0
LINE
  8
0
 10
114.100159
 20
208.574615
 11
125.100159
 21
208.574615
  0
LINE
  8
0
 10
114.100159
 20
190.174622
 11
125.100159
 21
190.174622
  0
LINE
  8
0
 10
70.100166
 20
234.741379
 11
74.600166
 21
234.741379
  0
LINE
  8
0
 10
74.600159
 20
212.774612
 11
70.100159
 21
212.774612
  0
LINE
  8
0
 10
74.600159
 20
185.974625
 11
70.100159
 21
185.974625
  0
LINE
  8
0
 10
111.300156
 20
185.371475
 11
111.300156
 21
189.101776
  0
LINE
  8
0
 10
111.700165
 20
185.336487
 11
111.700165
 21
189.101776
  0
LINE
  8
0
 10
113.150162
 20
186.843170
 11
113.150162
 21
186.906052
  0
LINE
  8
0
 10
111.300156
 20
209.549347
 11
111.300156
 21
213.377731
  0
LINE
  8
0
 10
111.700165
 20
209.549347
 11
111.700165
 21
213.412720
  0
LINE
  8
0
 10
113.150162
 20
211.843170
 11
113.150162
 21
211.906052
  0
LINE
  8
0
 10
112.700150
 20
175.316452
 11
112.700150
 21
185.248993
  0
LINE
  8
0
 10
112.700142
 20
175.316437
 11
110.600159
 21
175.132706
  0
LINE
  8
0
 10
112.700150
 20
185.248993
 11
110.600159
 21
185.432724
  0
LINE
  8
0
 10
112.700165
 20
213.500214
 11
112.700165
 21
223.432770
  0
LINE
  8
0
 10
112.700150
 20
213.500214
 11
110.600159
 21
213.316483
  0
LINE
  8
0
 10
112.700180
 20
223.432770
 11
110.600174
 21
223.616501
  0
LINE
  8
0
 10
63.500168
 20
225.388092
 11
63.500168
 21
215.761139
  0
LINE
  8
0
 10
63.900169
 20
225.574615
 11
63.900169
 21
215.574615
  0
LINE
  8
0
 10
63.900169
 20
225.574615
 11
69.500168
 21
225.574615
  0
LINE
  8
0
 10
63.900169
 20
215.574615
 11
69.500168
 21
215.574615
  0
LINE
  8
0
 10
63.500153
 20
225.388107
 11
63.900154
 21
225.574631
  0
LINE
  8
0
 10
63.500168
 20
215.761139
 11
63.900162
 21
215.574631
  0
LINE
  8
0
 10
63.900169
 20
223.574615
 11
66.945465
 21
223.574615
  0
LINE
  8
0
 10
63.900169
 20
221.574615
 11
65.790764
 21
221.574615
  0
LINE
  8
0
 10
63.900169
 20
219.574615
 11
64.636063
 21
219.574615
  0
LINE
  8
0
 10
63.500153
 20
182.988098
 11
63.500153
 21
173.361145
  0
LINE
  8
0
 10
63.900154
 20
183.174622
 11
63.900154
 21
173.174622
  0
LINE
  8
0
 10
63.900154
 20
183.174622
 11
69.500153
 21
183.174622
  0
LINE
  8
0
 10
63.900154
 20
173.174622
 11
69.500153
 21
173.174622
  0
LINE
  8
0
 10
63.500160
 20
182.988083
 11
63.900162
 21
183.174622
  0
LINE
  8
0
 10
63.500145
 20
173.361130
 11
63.900146
 21
173.174606
  0
LINE
  8
0
 10
63.900154
 20
181.174622
 11
66.945450
 21
181.174622
  0
LINE
  8
0
 10
63.900154
 20
179.174622
 11
65.790749
 21
179.174622
  0
LINE
  8
0
 10
63.900154
 20
177.174622
 11
64.636047
 21
177.174622
  0
LINE
  8
0
 10
70.100159
 20
235.685623
 11
70.100159
 21
163.063614
  0
LINE
  8
0
 10
69.500160
 20
225.824615
 11
69.500160
 21
215.324615
  0
LINE
  8
0
 10
69.500160
 20
183.424622
 11
70.100159
 21
183.424622
  0
LINE
  8
0
 10
69.500160
 20
172.924622
 11
70.100159
 21
172.924622
  0
LINE
  8
0
 10
69.500160
 20
225.824615
 11
70.100159
 21
225.824615
  0
LINE
  8
0
 10
69.500160
 20
215.324615
 11
70.100159
 21
215.324615
  0
LINE
  8
0
 10
69.500160
 20
183.424622
 11
69.500160
 21
172.924622
  0
LINE
  8
0
 10
89.600159
 20
160.542725
 11
95.600159
 21
160.542725
  0
ARC
  8
0
 10
112.245895
 20
190.185959
 40
1.854265
 50
324.217834
 51
35.782154
  0
ARC
  8
0
 10
106.315353
 20
193.578156
 40
7.784802
 50
342.754120
 51
17.245993
  0
ARC
  8
0
 10
111.785614
 20
197.109940
 40
2.314546
 50
328.079865
 51
31.920462
  0
ARC
  8
0
 10
110.513824
 20
202.058884
 40
3.586340
 50
334.476471
 51
25.523525
  0
ARC
  8
0
 10
106.635437
 20
205.863113
 40
7.464719
 50
342.385345
 51
17.614674
  0
ARC
  8
0
 10
113.197601
 20
208.835693
 40
0.902565
 50
307.749451
 51
52.249947
  0
ARC
  8
0
 10
125.100159
 20
191.674606
 40
1.500000
 50
270.000000
 51
0.000000
  0
ARC
  8
0
 10
125.100159
 20
207.074600
 40
1.500000
 50
0.000000
 51
90.000000
  0
ARC
  8
0
 10
110.150162
 20
186.843170
 40
3.000004
 50
327.916626
 51
0.000000
  0
ARC
  8
0
 10
110.150162
 20
186.906052
 40
3.000000
 50
0.000000
 51
47.046673
  0
ARC
  8
0
 10
110.150162
 20
211.843170
 40
2.999995
 50
310.127777
 51
0.000000
  0
ARC
  8
0
 10
110.150162
 20
211.906052
 40
3.000000
 50
0.000000
 51
32.083042
  0
ARC
  8
0
 10
100.868210
 20
180.282730
 40
12.831942
 50
337.230499
 51
22.769430
  0
ARC
  8
0
 10
100.868225
 20
218.466492
 40
12.831935
 50
337.230560
 51
22.769430
  0
CIRCLE
  8
0
 10
80.600159
 20
199.374619
 40
1.900000
  0
ARC
  8
0
 10
89.600159
 20
162.542725
 40
2.000000
 50
180.000000
 51
270.000000
  0
ARC
  8
0
 10
95.600159
 20
162.542725
 40
2.000000
 50
270.000000
 51
0.000000
  0
ARC
  8
0
 10
79.891991
 20
170.383224
 40
1.108161
 50
345.892181
 51
14.107806
  0
ARC
  8
0
 10
79.602188
 20
170.276978
 40
1.415491
 50
15.419554
 51
51.391411
  0
ARC
  8
0
 10
78.800148
 20
169.105087
 40
2.833626
 50
53.505280
 51
126.494720
  0
ARC
  8
0
 10
77.998108
 20
170.276978
 40
1.415480
 50
128.608582
 51
164.580444
  0
ARC
  8
0
 10
77.708305
 20
170.383224
 40
1.108161
 50
165.892197
 51
194.107803
  0
ARC
  8
0
 10
77.998108
 20
170.489471
 40
1.415491
 50
195.419556
 51
231.391418
  0
ARC
  8
0
 10
78.800148
 20
171.661362
 40
2.833626
 50
233.505280
 51
306.494720
  0
ARC
  8
0
 10
79.602188
 20
170.489471
 40
1.415480
 50
308.608582
 51
344.580444
  0
ARC
  8
0
 10
79.891998
 20
228.366013
 40
1.108161
 50
345.892181
 51
14.107806
  0
ARC
  8
0
 10
79.602196
 20
228.259766
 40
1.415491
 50
15.419554
 51
51.391171
  0
ARC
  8
0
 10
78.800163
 20
227.087891
 40
2.833613
 50
53.505096
 51
126.494904
  0
ARC
  8
0
 10
77.998131
 20
228.259766
 40
1.415485
 50
128.608826
 51
164.580444
  0
ARC
  8
0
 10
77.708328
 20
228.366013
 40
1.108161
 50
165.892197
 51
194.107803
  0
ARC
  8
0
 10
77.998131
 20
228.472260
 40
1.415491
 50
195.419556
 51
231.391174
  0
ARC
  8
0
 10
78.800163
 20
229.644135
 40
2.833613
 50
233.505096
 51
306.494904
  0
ARC
  8
0
 10
79.602196
 20
228.472260
 40
1.415485
 50
308.608826
 51
344.580444
  0
POINT
  8
0
 10
70.100159
 20
60.196587
  0
POINT
  8
0
 10
97.600159
 20
60.196587
  0
LINE
  8
0
 10
97.600159
 20
99.657318
 11
97.600159
 21
20.735878
  0
LINE
  8
0
 10
87.600159
 20
99.657318
 11
87.600159
 21
20.735878
  0
LINE
  8
0
 10
77.600159
 20
71.196587
 11
77.600159
 21
45.347343
  0
LINE
  8
0
 10
89.600159
 20
101.657318
 11
95.600151
 21
101.657318
  0
LINE
  8
0
 10
89.600159
 20
92.549774
 11
95.600151
 21
92.549774
  0
LINE
  8
0
 10
89.600159
 20
18.735878
 11
95.600159
 21
18.735878
  0
LINE
  8
0
 10
89.600159
 20
27.843430
 11
95.600159
 21
27.843430
  0
LINE
  8
0
 10
77.600159
 20
62.317905
 11
84.600189
 21
62.317905
  0
LINE
  8
0
 10
77.600159
 20
58.075268
 11
84.606018
 21
58.075268
  0
LINE
  8
0
 10
77.600159
 20
45.347343
 11
87.600159
 21
45.347343
  0
LINE
  8
0
 10
84.600159
 20
77.874252
 11
87.600159
 21
77.874252
  0
LINE
  8
0
 10
89.600159
 20
36.921429
 11
95.600159
 21
36.921429
  0
LINE
  8
0
 10
89.600159
 20
83.471771
 11
95.600151
 21
83.471771
  0
LINE
  8
0
 10
74.600159
 20
131.697067
 11
110.600159
 21
131.697067
  0
LINE
  8
0
 10
84.600159
 20
82.697075
 11
87.600159
 21
82.697075
  0
LINE
  8
0
 10
74.600159
 20
109.652412
 11
110.600159
 21
109.652412
  0
LINE
  8
0
 10
74.600159
 20
131.697067
 11
74.600159
 21
69.630585
  0
LINE
  8
0
 10
110.600159
 20
131.697067
 11
110.600159
 21
82.697075
  0
LINE
  8
0
 10
70.100159
 20
131.696594
 11
70.100159
 21
19.196587
  0
LINE
  8
0
 10
126.600159
 20
101.796066
 11
126.600159
 21
86.396065
  0
LINE
  8
0
 10
114.100159
 20
123.549469
 11
114.100159
 21
117.432228
  0
LINE
  8
0
 10
121.100159
 20
121.251900
 11
121.100159
 21
117.851906
  0
LINE
  8
0
 10
110.600159
 20
115.473747
 11
113.750153
 21
115.473747
  0
LINE
  8
0
 10
110.600159
 20
119.390717
 11
113.750153
 21
119.390717
  0
LINE
  8
0
 10
110.600159
 20
123.468872
 11
113.750153
 21
123.468872
  0
LINE
  8
0
 10
110.600159
 20
123.630066
 11
113.750153
 21
123.630066
  0
LINE
  8
0
 10
114.100159
 20
121.551910
 11
120.800156
 21
121.551910
  0
LINE
  8
0
 10
114.100159
 20
117.551910
 11
120.800156
 21
117.551910
  0
LINE
  8
0
 10
120.800140
 20
121.551926
 11
121.100143
 21
121.251915
  0
LINE
  8
0
 10
121.100143
 20
117.851913
 11
120.800148
 21
117.551910
  0
LINE
  8
0
 10
114.100159
 20
121.301910
 11
121.050140
 21
121.301910
  0
LINE
  8
0
 10
114.100159
 20
117.801910
 11
121.050140
 21
117.801910
  0
LINE
  8
0
 10
120.800171
 20
121.551910
 11
120.800171
 21
117.551903
  0
LINE
  8
0
 10
110.600159
 20
84.896065
 11
125.100159
 21
84.896065
  0
LINE
  8
0
 10
113.386276
 20
103.296066
 11
125.100159
 21
103.296066
  0
LINE
  8
0
 10
80.949196
 20
92.857971
 11
80.949196
 21
92.568840
  0
LINE
  8
0
 10
86.149193
 20
92.864189
 11
86.149193
 21
92.575119
  0
LINE
  8
0
 10
80.049194
 20
93.354393
 11
80.049194
 21
92.856461
  0
LINE
  8
0
 10
87.049194
 20
93.354393
 11
87.049194
 21
92.856461
  0
LINE
  8
0
 10
98.151123
 20
106.154396
 11
98.151123
 21
105.656456
  0
LINE
  8
0
 10
105.151123
 20
106.154396
 11
105.151123
 21
105.656456
  0
LINE
  8
0
 10
104.251129
 20
105.664192
 11
104.251129
 21
105.375122
  0
LINE
  8
0
 10
99.051117
 20
105.657837
 11
99.051117
 21
105.368843
  0
LINE
  8
0
 10
112.700165
 20
101.150604
 11
112.700165
 21
111.083145
  0
LINE
  8
0
 10
112.700150
 20
101.150604
 11
110.600159
 21
100.966873
  0
LINE
  8
0
 10
112.700165
 20
111.083176
 11
110.600151
 21
111.266907
  0
LINE
  8
0
 10
111.300156
 20
90.596062
 11
111.300156
 21
97.596062
  0
LINE
  8
0
 10
111.700165
 20
91.496063
 11
111.700165
 21
96.696060
  0
LINE
  8
0
 10
113.150162
 20
94.064621
 11
113.150162
 21
94.127502
  0
LINE
  8
0
 10
111.700165
 20
96.696060
 11
111.300156
 21
96.696060
  0
LINE
  8
0
 10
111.700165
 20
91.496063
 11
111.300156
 21
91.496063
  0
LINE
  8
0
 10
111.300156
 20
97.596062
 11
110.600159
 21
97.596062
  0
LINE
  8
0
 10
111.300156
 20
90.596062
 11
110.600159
 21
90.596062
  0
LINE
  8
0
 10
70.100159
 20
131.697067
 11
74.600159
 21
131.697067
  0
LINE
  8
0
 10
70.100159
 20
69.696587
 11
74.600159
 21
69.696587
  0
LINE
  8
0
 10
70.100159
 20
109.729836
 11
74.600159
 21
109.729836
  0
LINE
  8
0
 10
84.600159
 20
71.429741
 11
84.600159
 21
83.963432
  0
LINE
  8
0
 10
84.100159
 20
71.196587
 11
84.100159
 21
84.196587
  0
LINE
  8
0
 10
84.100159
 20
71.196587
 11
76.600159
 21
71.196587
  0
LINE
  8
0
 10
84.100159
 20
84.196587
 11
76.600159
 21
84.196587
  0
LINE
  8
0
 10
84.600159
 20
71.429733
 11
84.100166
 21
71.196579
  0
LINE
  8
0
 10
84.600174
 20
83.963463
 11
84.100174
 21
84.196617
  0
LINE
  8
0
 10
84.100159
 20
73.196587
 11
79.629860
 21
73.196587
  0
LINE
  8
0
 10
84.100159
 20
75.196587
 11
80.784561
 21
75.196587
  0
LINE
  8
0
 10
84.100159
 20
77.196587
 11
81.939262
 21
77.196587
  0
LINE
  8
0
 10
84.100159
 20
79.196587
 11
83.093964
 21
79.196587
  0
LINE
  8
0
 10
63.500160
 20
122.244553
 11
63.500160
 21
112.617599
  0
LINE
  8
0
 10
63.900162
 20
122.431076
 11
63.900162
 21
112.431076
  0
LINE
  8
0
 10
63.900162
 20
122.431076
 11
69.500160
 21
122.431076
  0
LINE
  8
0
 10
63.900162
 20
112.431076
 11
69.500160
 21
112.431076
  0
LINE
  8
0
 10
63.500153
 20
122.244568
 11
63.900154
 21
122.431091
  0
LINE
  8
0
 10
63.500175
 20
112.617615
 11
63.900169
 21
112.431091
  0
LINE
  8
0
 10
63.900162
 20
120.431076
 11
66.945457
 21
120.431076
  0
LINE
  8
0
 10
63.900162
 20
118.431076
 11
65.790756
 21
118.431076
  0
LINE
  8
0
 10
63.900162
 20
116.431076
 11
64.636055
 21
116.431076
  0
LINE
  8
0
 10
73.100159
 20
69.696587
 11
73.100159
 21
45.496582
  0
LINE
  8
0
 10
70.500160
 20
45.196587
 11
72.800156
 21
45.196587
  0
LINE
  8
0
 10
73.100159
 20
51.696587
 11
77.050156
 21
51.696587
  0
LINE
  8
0
 10
73.100159
 20
68.696587
 11
77.050156
 21
68.696587
  0
LINE
  8
0
 10
72.800186
 20
45.196564
 11
73.100182
 21
45.496559
  0
LINE
  8
0
 10
77.100159
 20
68.646584
 11
77.100159
 21
51.746586
  0
LINE
  8
0
 10
77.100159
 20
51.796585
 11
77.600159
 21
51.796585
  0
LINE
  8
0
 10
77.100159
 20
68.596588
 11
77.600159
 21
68.596588
  0
LINE
  8
0
 10
77.100159
 20
68.646606
 11
77.050163
 21
68.696609
  0
LINE
  8
0
 10
77.050163
 20
51.696568
 11
77.100159
 21
51.746567
  0
LINE
  8
0
 10
69.500160
 20
122.681076
 11
69.500160
 21
112.181076
  0
LINE
  8
0
 10
69.500160
 20
112.181076
 11
70.100159
 21
112.181076
  0
LINE
  8
0
 10
69.500160
 20
122.681076
 11
70.100159
 21
122.681076
  0
LINE
  8
0
 10
76.600159
 20
85.396591
 11
76.600159
 21
69.996590
  0
LINE
  8
0
 10
76.600159
 20
85.396591
 11
74.600159
 21
85.396591
  0
LINE
  8
0
 10
76.600159
 20
69.996590
 11
74.600159
 21
69.996590
  0
LINE
  8
0
 10
74.600159
 20
76.541885
 11
76.600159
 21
77.696587
  0
LINE
  8
0
 10
74.600166
 20
77.350182
 11
76.600166
 21
78.504883
  0
LINE
  8
0
 10
97.600159
 20
82.697075
 11
110.600159
 21
82.697075
  0
ARC
  8
0
 10
95.600151
 20
90.549774
 40
2.000000
 50
0.000000
 51
89.999779
  0
ARC
  8
0
 10
89.600159
 20
90.549774
 40
2.000000
 50
90.000000
 51
180.000000
  0
ARC
  8
0
 10
89.600159
 20
99.657318
 40
2.000000
 50
90.000000
 51
180.000000
  0
ARC
  8
0
 10
95.600151
 20
99.657318
 40
2.000000
 50
0.000000
 51
90.000000
  0
ARC
  8
0
 10
95.600159
 20
29.843431
 40
2.000002
 50
270.000000
 51
0.000000
  0
ARC
  8
0
 10
89.600159
 20
29.843430
 40
2.000000
 50
180.000000
 51
270.000000
  0
ARC
  8
0
 10
95.600159
 20
20.735878
 40
2.000000
 50
270.000000
 51
0.000000
  0
ARC
  8
0
 10
89.600159
 20
20.735878
 40
2.000000
 50
180.000000
 51
270.000000
  0
ARC
  8
0
 10
108.445633
 20
117.432228
 40
5.654532
 50
339.735413
 51
20.264589
  0
ARC
  8
0
 10
107.985352
 20
121.429794
 40
6.114799
 50
340.520721
 51
19.479261
  0
ARC
  8
0
 10
125.100159
 20
101.796066
 40
1.500000
 50
0.000000
 51
90.000000
  0
ARC
  8
0
 10
125.100159
 20
86.396065
 40
1.500000
 50
270.000000
 51
0.000000
  0
CIRCLE
  8
0
 10
101.651123
 20
104.632629
 40
0.010000
  0
CIRCLE
  8
0
 10
83.549194
 20
91.832626
 40
0.010000
  0
ARC
  8
0
 10
100.868225
 20
106.116875
 40
12.831938
 50
337.230530
 51
22.769430
  0
ARC
  8
0
 10
110.150162
 20
94.064621
 40
3.000000
 50
301.109009
 51
0.000000
  0
ARC
  8
0
 10
110.150162
 20
94.127502
 40
3.000000
 50
0.000000
 51
58.891006
  0
ARC
  8
0
 10
70.500160
 20
44.796585
 40
0.400002
 50
90.000000
 51
180.000000
  0
CIRCLE
  8
0
 10
92.600159
 20
98.407425
 40
0.010000
  0
ARC
  8
0
 10
86.088768
 20
55.953953
 40
1.511398
 50
359.999847
 51
14.106391
  0
ARC
  8
0
 10
85.693657
 20
55.809105
 40
1.930402
 50
15.417867
 51
51.388573
  0
ARC
  8
0
 10
84.600159
 20
54.211506
 40
3.863764
 50
53.502232
 51
90.000000
  0
ARC
  8
0
 10
84.600189
 20
66.181679
 40
3.863766
 50
270.000000
 51
306.497742
  0
ARC
  8
0
 10
85.693687
 20
64.584076
 40
1.930396
 50
308.611420
 51
344.582245
  0
ARC
  8
0
 10
86.088799
 20
64.439232
 40
1.511397
 50
345.893616
 51
0.000000
  0
ARC
  8
0
 10
86.604736
 20
78.202492
 40
3.863770
 50
238.881378
 51
284.904663
  0
ARC
  8
0
 10
86.604729
 20
75.066086
 40
3.091016
 50
115.331108
 51
126.497704
  0
ARC
  8
0
 10
85.729927
 20
76.344170
 40
1.544318
 50
128.611313
 51
137.150131
  0
ARC
  8
0
 10
113.750160
 20
124.733231
 40
1.264259
 50
269.999664
 51
282.243713
  0
ARC
  8
0
 10
113.991806
 20
123.647873
 40
0.152461
 50
279.996857
 51
312.513611
  0
ARC
  8
0
 10
114.079117
 20
123.549469
 40
0.021033
 50
318.352661
 51
41.647346
  0
ARC
  8
0
 10
113.991806
 20
123.451065
 40
0.152460
 50
47.486382
 51
80.003151
  0
ARC
  8
0
 10
113.750160
 20
122.365707
 40
1.264261
 50
77.756294
 51
90.000343
  0
ARC
  8
0
 10
79.891983
 20
116.016380
 40
1.108168
 50
345.892303
 51
14.107710
  0
ARC
  8
0
 10
79.602188
 20
115.910133
 40
1.415491
 50
15.419554
 51
51.391365
  0
ARC
  8
0
 10
78.800156
 20
114.738266
 40
2.833613
 50
53.505096
 51
126.494904
  0
ARC
  8
0
 10
77.998123
 20
115.910133
 40
1.415491
 50
128.608643
 51
164.580444
  0
ARC
  8
0
 10
77.708328
 20
116.016380
 40
1.108168
 50
165.892288
 51
194.107712
  0
ARC
  8
0
 10
77.998123
 20
116.122627
 40
1.415491
 50
195.419556
 51
231.391357
  0
ARC
  8
0
 10
78.800156
 20
117.294495
 40
2.833613
 50
233.505096
 51
306.494904
  0
ARC
  8
0
 10
79.602188
 20
116.122627
 40
1.415491
 50
308.608643
 51
344.580444
  0
ARC
  8
0
 10
103.387657
 20
106.152916
 40
1.763467
 50
0.053790
 51
14.105742
  0
ARC
  8
0
 10
102.926735
 20
105.983948
 40
2.252263
 50
15.417020
 51
51.386902
  0
ARC
  8
0
 10
101.651123
 20
104.120377
 40
4.507535
 50
53.500504
 51
126.499496
  0
ARC
  8
0
 10
100.375511
 20
105.983948
 40
2.252259
 50
128.613098
 51
164.582977
  0
ARC
  8
0
 10
99.914589
 20
106.152916
 40
1.763469
 50
165.894257
 51
179.942993
  0
ARC
  8
0
 10
85.285728
 20
93.352913
 40
1.763467
 50
0.053790
 51
14.105742
  0
ARC
  8
0
 10
84.824806
 20
93.183945
 40
2.252263
 50
15.417020
 51
51.386902
  0
ARC
  8
0
 10
83.549194
 20
91.320374
 40
4.507535
 50
53.500504
 51
126.499496
  0
ARC
  8
0
 10
82.273582
 20
93.183945
 40
2.252259
 50
128.613098
 51
164.582977
  0
ARC
  8
0
 10
81.812660
 20
93.352913
 40
1.763469
 50
165.894257
 51
179.942993
  0
ARC
  8
0
 10
103.387650
 20
105.657936
 40
1.763477
 50
345.894318
 51
14.105682
  0
ARC
  8
0
 10
102.926735
 20
105.488976
 40
2.252261
 50
15.416832
 51
51.386902
  0
ARC
  8
0
 10
101.651123
 20
103.625404
 40
4.507535
 50
53.500504
 51
126.499496
  0
ARC
  8
0
 10
100.375511
 20
105.488976
 40
2.252259
 50
128.613098
 51
164.583160
  0
ARC
  8
0
 10
99.914597
 20
105.657936
 40
1.763477
 50
165.894318
 51
194.105682
  0
ARC
  8
0
 10
100.375511
 20
105.826897
 40
2.252261
 50
195.416840
 51
231.386902
  0
ARC
  8
0
 10
101.651123
 20
107.690468
 40
4.507535
 50
233.500504
 51
306.499512
  0
ARC
  8
0
 10
102.926735
 20
105.826897
 40
2.252259
 50
308.613098
 51
344.583160
  0
ARC
  8
0
 10
85.285728
 20
92.857941
 40
1.763469
 50
345.894257
 51
14.105742
  0
ARC
  8
0
 10
84.824806
 20
92.688972
 40
2.252263
 50
15.417020
 51
51.386902
  0
ARC
  8
0
 10
83.549194
 20
90.825401
 40
4.507535
 50
53.500504
 51
126.499496
  0
ARC
  8
0
 10
82.273582
 20
92.688972
 40
2.252259
 50
128.613098
 51
164.582977
  0
ARC
  8
0
 10
81.812660
 20
92.857941
 40
1.763469
 50
165.894257
 51
194.105743
  0
ARC
  8
0
 10
82.273582
 20
93.026909
 40
2.252263
 50
195.417023
 51
231.386902
  0
ARC
  8
0
 10
83.549194
 20
94.890480
 40
4.507535
 50
233.500504
 51
306.499512
  0
ARC
  8
0
 10
84.824806
 20
93.026909
 40
2.252259
 50
308.613098
 51
344.582977
  0
ARC
  8
0
 10
102.941231
 20
105.657936
 40
1.309898
 50
0.268641
 51
14.106336
  0
ARC
  8
0
 10
102.598801
 20
105.532402
 40
1.673039
 50
15.417775
 51
51.388138
  0
ARC
  8
0
 10
101.651123
 20
104.147858
 40
3.348577
 50
53.501865
 51
126.498138
  0
ARC
  8
0
 10
100.703445
 20
105.532402
 40
1.673037
 50
128.611862
 51
164.582230
  0
ARC
  8
0
 10
100.361015
 20
105.657936
 40
1.309901
 50
165.893661
 51
180.000000
  0
ARC
  8
0
 10
84.839294
 20
92.861122
 40
1.309902
 50
0.129815
 51
14.247491
  0
ARC
  8
0
 10
84.497177
 20
92.734749
 40
1.673032
 50
15.558825
 51
51.529446
  0
ARC
  8
0
 10
83.552917
 20
91.347878
 40
3.348572
 50
53.643116
 51
126.639488
  0
ARC
  8
0
 10
82.601830
 20
92.730072
 40
1.673037
 50
128.753128
 51
164.723633
  0
ARC
  8
0
 10
82.259094
 20
92.854759
 40
1.309903
 50
166.035065
 51
179.860840
  0
ARC
  8
0
 10
102.941231
 20
105.375092
 40
1.309901
 50
345.893677
 51
14.106336
  0
ARC
  8
0
 10
102.598801
 20
105.249557
 40
1.673039
 50
15.417775
 51
51.388138
  0
ARC
  8
0
 10
101.651123
 20
103.865013
 40
3.348577
 50
53.501865
 51
126.498138
  0
ARC
  8
0
 10
100.703445
 20
105.249557
 40
1.673037
 50
128.611862
 51
164.582230
  0
ARC
  8
0
 10
100.361015
 20
105.375092
 40
1.309901
 50
165.893661
 51
194.106339
  0
ARC
  8
0
 10
100.703445
 20
105.500626
 40
1.673039
 50
195.417770
 51
231.388138
  0
ARC
  8
0
 10
101.651123
 20
106.885170
 40
3.348577
 50
233.501862
 51
306.498138
  0
ARC
  8
0
 10
102.598801
 20
105.500626
 40
1.673037
 50
308.611847
 51
344.582214
  0
ARC
  8
0
 10
84.839294
 20
92.578270
 40
1.309903
 50
346.035065
 51
14.247491
  0
ARC
  8
0
 10
84.497177
 20
92.451897
 40
1.673032
 50
15.558825
 51
51.529446
  0
ARC
  8
0
 10
83.552917
 20
91.065025
 40
3.348572
 50
53.643116
 51
126.639488
  0
ARC
  8
0
 10
82.601830
 20
92.447220
 40
1.673037
 50
128.753128
 51
164.723633
  0
ARC
  8
0
 10
82.259094
 20
92.571907
 40
1.309903
 50
166.035065
 51
194.247498
  0
ARC
  8
0
 10
82.601212
 20
92.698280
 40
1.673032
 50
195.558823
 51
231.529449
  0
ARC
  8
0
 10
83.545471
 20
94.085152
 40
3.348572
 50
233.643112
 51
306.639496
  0
ARC
  8
0
 10
84.496559
 20
92.702957
 40
1.673037
 50
308.753143
 51
344.723633
  0
ARC
  8
0
 10
92.600166
 20
93.393471
 40
14.102449
 50
66.837952
 51
126.498695
  0
ARC
  8
0
 10
88.609100
 20
99.224258
 40
7.046140
 50
128.612381
 51
164.582626
  0
ARC
  8
0
 10
87.167007
 20
99.752914
 40
5.516848
 50
165.893951
 51
194.106216
  0
ARC
  8
0
 10
88.609100
 20
100.281570
 40
7.046141
 50
195.417511
 51
219.419083
  0
ARC
  8
0
 10
92.600151
 20
106.112358
 40
14.102446
 50
246.931000
 51
249.321655
  0
ARC
  8
0
 10
102.747231
 20
105.105850
 40
1.112891
 50
345.893463
 51
14.106549
  0
ARC
  8
0
 10
102.456291
 20
104.999191
 40
1.421424
 50
15.418032
 51
51.388412
  0
ARC
  8
0
 10
101.651123
 20
103.822838
 40
2.845014
 50
53.502182
 51
126.497818
  0
ARC
  8
0
 10
100.845955
 20
104.999191
 40
1.421427
 50
128.611588
 51
164.581970
  0
ARC
  8
0
 10
100.555016
 20
105.105850
 40
1.112891
 50
165.893448
 51
194.106552
  0
ARC
  8
0
 10
100.845955
 20
105.212509
 40
1.421424
 50
195.418030
 51
231.388412
  0
ARC
  8
0
 10
101.651123
 20
106.388863
 40
2.845014
 50
233.502182
 51
306.497833
  0
ARC
  8
0
 10
102.456291
 20
105.212509
 40
1.421427
 50
308.611603
 51
344.581970
  0
ARC
  8
0
 10
102.474541
 20
104.855865
 40
0.836583
 50
345.895691
 51
14.104298
  0
ARC
  8
0
 10
102.255981
 20
104.775757
 40
1.068354
 50
15.414776
 51
51.382622
  0
ARC
  8
0
 10
101.651123
 20
103.892204
 40
2.137660
 50
53.496387
 51
126.503609
  0
ARC
  8
0
 10
101.046265
 20
104.775757
 40
1.068356
 50
128.617386
 51
164.585220
  0
ARC
  8
0
 10
100.827705
 20
104.855865
 40
0.836583
 50
165.895706
 51
194.104294
  0
ARC
  8
0
 10
101.046265
 20
104.935974
 40
1.068354
 50
195.414780
 51
231.382614
  0
ARC
  8
0
 10
101.651123
 20
105.819527
 40
2.137660
 50
233.496384
 51
306.503601
  0
ARC
  8
0
 10
102.255981
 20
104.935974
 40
1.068356
 50
308.617371
 51
344.585236
  0
ARC
  8
0
 10
102.082245
 20
104.668373
 40
0.437381
 50
345.890808
 51
14.109205
  0
ARC
  8
0
 10
101.967819
 20
104.626411
 40
0.558731
 50
15.422135
 51
51.395786
  0
ARC
  8
0
 10
101.651123
 20
104.163635
 40
1.118733
 50
53.509045
 51
126.490959
  0
ARC
  8
0
 10
101.334427
 20
104.626411
 40
0.558726
 50
128.604218
 51
164.577866
  0
ARC
  8
0
 10
101.220001
 20
104.668373
 40
0.437381
 50
165.890793
 51
194.109207
  0
ARC
  8
0
 10
101.334427
 20
104.710335
 40
0.558731
 50
195.422134
 51
231.395782
  0
ARC
  8
0
 10
101.651123
 20
105.173111
 40
1.118733
 50
233.509048
 51
306.490967
  0
ARC
  8
0
 10
101.967819
 20
104.710335
 40
0.558726
 50
308.604218
 51
344.577850
  0
ARC
  8
0
 10
84.645309
 20
92.305847
 40
1.112883
 50
345.893341
 51
14.106646
  0
ARC
  8
0
 10
84.354370
 20
92.199188
 40
1.421417
 50
15.418113
 51
51.388462
  0
ARC
  8
0
 10
83.549194
 20
91.022827
 40
2.845014
 50
53.502182
 51
126.497818
  0
ARC
  8
0
 10
82.744019
 20
92.199188
 40
1.421416
 50
128.611542
 51
164.581894
  0
ARC
  8
0
 10
82.453079
 20
92.305847
 40
1.112883
 50
165.893356
 51
194.106644
  0
ARC
  8
0
 10
82.744019
 20
92.412506
 40
1.421417
 50
195.418106
 51
231.388458
  0
ARC
  8
0
 10
83.549194
 20
93.588867
 40
2.845014
 50
233.502182
 51
306.497833
  0
ARC
  8
0
 10
84.354370
 20
92.412506
 40
1.421416
 50
308.611542
 51
344.581879
  0
ARC
  8
0
 10
84.373314
 20
92.055862
 40
0.835880
 50
345.890076
 51
14.109936
  0
ARC
  8
0
 10
84.154572
 20
91.975655
 40
1.067856
 50
15.422569
 51
51.396961
  0
ARC
  8
0
 10
83.549194
 20
91.090973
 40
2.138390
 50
53.510860
 51
126.489143
  0
ARC
  8
0
 10
82.943817
 20
91.975655
 40
1.067859
 50
128.603043
 51
164.577423
  0
ARC
  8
0
 10
82.725075
 20
92.055862
 40
0.835880
 50
165.890060
 51
194.109940
  0
ARC
  8
0
 10
82.943817
 20
92.136070
 40
1.067856
 50
195.422577
 51
231.396957
  0
ARC
  8
0
 10
83.549194
 20
93.020752
 40
2.138390
 50
233.510864
 51
306.489136
  0
ARC
  8
0
 10
84.154572
 20
92.136070
 40
1.067859
 50
308.603027
 51
344.577423
  0
ARC
  8
0
 10
83.980316
 20
91.868370
 40
0.437381
 50
345.890808
 51
14.109205
  0
ARC
  8
0
 10
83.865891
 20
91.826408
 40
0.558731
 50
15.422135
 51
51.395786
  0
ARC
  8
0
 10
83.549194
 20
91.363632
 40
1.118733
 50
53.509045
 51
126.490959
  0
ARC
  8
0
 10
83.232498
 20
91.826408
 40
0.558726
 50
128.604218
 51
164.577866
  0
ARC
  8
0
 10
83.118073
 20
91.868370
 40
0.437381
 50
165.890793
 51
194.109207
  0
ARC
  8
0
 10
83.232498
 20
91.910332
 40
0.558731
 50
195.422134
 51
231.395782
  0
ARC
  8
0
 10
83.549194
 20
92.373108
 40
1.118733
 50
233.509048
 51
306.490967
  0
ARC
  8
0
 10
83.865891
 20
91.910332
 40
0.558726
 50
308.604218
 51
344.577850
  0
ARC
  8
0
 10
92.600159
 20
96.834114
 40
5.215768
 50
67.016098
 51
112.994186
  0
ARC
  8
0
 10
95.081215
 20
99.752953
 40
2.518942
 50
3.001149
 51
14.106490
  0
ARC
  8
0
 10
94.422676
 20
99.511528
 40
3.217310
 50
15.418065
 51
51.388783
  0
ARC
  8
0
 10
92.600159
 20
96.848801
 40
6.439651
 50
53.502529
 51
126.497475
  0
ARC
  8
0
 10
90.777641
 20
99.511528
 40
3.217309
 50
128.611221
 51
164.581940
  0
ARC
  8
0
 10
90.119102
 20
99.752953
 40
2.518946
 50
165.893509
 51
177.484634
  0
ARC
  8
0
 10
92.600159
 20
97.400955
 40
5.215768
 50
54.603336
 51
125.396591
  0
ARC
  8
0
 10
92.600151
 20
106.112358
 40
14.102446
 50
290.681061
 51
306.498688
  0
ARC
  8
0
 10
96.591217
 20
100.281570
 40
7.046140
 50
308.612396
 51
344.582611
  0
ARC
  8
0
 10
98.033310
 20
99.752914
 40
5.516848
 50
345.893951
 51
14.106215
  0
ARC
  8
0
 10
96.591217
 20
99.224258
 40
7.046141
 50
15.417515
 51
34.738270
  0
ARC
  8
0
 10
85.729927
 20
76.575928
 40
1.544322
 50
222.904343
 51
231.388458
  0
ARC
  8
0
 10
86.604729
 20
77.854004
 40
3.091017
 50
233.502090
 51
288.700134
  0
POINT
  8
0
 10
266.631287
 20
199.374619
  0
POINT
  8
0
 10
321.631287
 20
199.374619
  0
LINE
  8
0
 10
248.953613
 20
204.324371
 11
254.893311
 21
210.264069
  0
LINE
  8
0
 10
281.480530
 20
201.495941
 11
265.924194
 21
217.052292
  0
LINE
  8
0
 10
244.496490
 20
169.686874
 11
261.631287
 21
179.579651
  0
LINE
  8
0
 10
234.924805
 20
160.597061
 11
242.425415
 21
168.097687
  0
LINE
  8
0
 10
225.170563
 20
169.675995
 11
234.363098
 21
177.389450
  0
LINE
  8
0
 10
239.993652
 20
178.393845
 11
245.596466
 21
183.996658
  0
LINE
  8
0
 10
248.953613
 20
200.081726
 11
248.953613
 21
204.324371
  0
LINE
  8
0
 10
261.681549
 20
217.052292
 11
265.924194
 21
217.052292
  0
LINE
  8
0
 10
288.766052
 20
169.686859
 11
271.631287
 21
179.579651
  0
LINE
  8
0
 10
298.337738
 20
160.597046
 11
290.837128
 21
168.097672
  0
LINE
  8
0
 10
308.091980
 20
169.675980
 11
298.899475
 21
177.389435
  0
LINE
  8
0
 10
293.268890
 20
178.393829
 11
285.850677
 21
185.812057
  0
LINE
  8
0
 10
281.480530
 20
197.253296
 11
281.480530
 21
201.495941
  0
LINE
  8
0
 10
266.277740
 20
190.535782
 11
257.792450
 21
199.021072
  0
LINE
  8
0
 10
266.984833
 20
190.535782
 11
275.470123
 21
199.021072
  0
LINE
  8
0
 10
275.470123
 20
199.728165
 11
266.984833
 21
208.213455
  0
LINE
  8
0
 10
257.085358
 20
199.728165
 11
261.257263
 21
203.900101
  0
LINE
  8
0
 10
276.177216
 20
199.728165
 11
266.984833
 21
208.920563
  0
LINE
  8
0
 10
266.984833
 20
189.828674
 11
276.177216
 21
199.021072
  0
LINE
  8
0
 10
266.277740
 20
189.828674
 11
257.085358
 21
199.021072
  0
LINE
  8
0
 10
262.459351
 20
204.395081
 11
255.741837
 21
211.112595
  0
LINE
  8
0
 10
261.610840
 20
203.546555
 11
254.893311
 21
210.264069
  0
LINE
  8
0
 10
257.792450
 20
199.728165
 11
266.277740
 21
208.213455
  0
LINE
  8
0
 10
262.105804
 20
204.748627
 11
266.277740
 21
208.920563
  0
LINE
  8
0
 10
255.741852
 20
211.112595
 11
264.509979
 21
219.880707
  0
LINE
  8
0
 10
260.550171
 20
204.607208
 11
261.398712
 21
205.455734
  0
LINE
  8
0
 10
256.307526
 20
208.849854
 11
257.156067
 21
209.698380
  0
LINE
  8
0
 10
271.322205
 20
213.775574
 11
265.475891
 21
219.621887
  0
LINE
  8
0
 10
271.581024
 20
212.809647
 11
264.509979
 21
219.880707
  0
LINE
  8
0
 10
271.581024
 20
212.809647
 11
271.322205
 21
213.775574
  0
LINE
  8
0
 10
264.509949
 20
219.880707
 11
265.475891
 21
219.621887
  0
LINE
  8
0
 10
270.873932
 20
212.102539
 11
271.581024
 21
212.809647
  0
LINE
  8
0
 10
244.130798
 20
207.774628
 11
217.175446
 21
234.729980
  0
LINE
  8
0
 10
217.175446
 20
164.019272
 11
244.130798
 21
190.974625
  0
LINE
  8
0
 10
217.175430
 20
164.019257
 11
195.130798
 21
186.063904
  0
LINE
  8
0
 10
195.130783
 20
212.685333
 11
217.175446
 21
234.729996
  0
LINE
  8
0
 10
244.130798
 20
190.974625
 11
244.130798
 21
207.774628
  0
LINE
  8
0
 10
195.130798
 20
186.188217
 11
195.130798
 21
212.561035
  0
LINE
  8
0
 10
223.539398
 20
228.366013
 11
230.256912
 21
235.083527
  0
LINE
  8
0
 10
230.610489
 20
221.294937
 11
237.328003
 21
228.012451
  0
LINE
  8
0
 10
231.282242
 20
234.765350
 11
231.917999
 21
235.401093
  0
LINE
  8
0
 10
237.009796
 20
229.037766
 11
237.645554
 21
229.673523
  0
LINE
  8
0
 10
237.477448
 20
228.570129
 11
230.814621
 21
235.232941
  0
LINE
  8
0
 10
231.917999
 20
235.401077
 11
237.645569
 21
229.673508
  0
LINE
  8
0
 10
237.328003
 20
228.012451
 11
237.477432
 21
228.570129
  0
LINE
  8
0
 10
230.256943
 20
235.083527
 11
230.814621
 21
235.232956
  0
LINE
  8
0
 10
237.328003
 20
228.012451
 11
230.256943
 21
235.083527
  0
LINE
  8
0
 10
207.437164
 20
189.101791
 11
211.354126
 21
191.549377
  0
LINE
  8
0
 10
203.197800
 20
195.886169
 11
207.114761
 21
198.333755
  0
LINE
  8
0
 10
207.437180
 20
189.101807
 11
203.359009
 21
191.270203
  0
LINE
  8
0
 10
211.192932
 20
196.165359
 11
207.114777
 21
198.333755
  0
LINE
  8
0
 10
203.358994
 20
191.270172
 11
203.197800
 21
195.886169
  0
LINE
  8
0
 10
211.354095
 20
191.549377
 11
211.192902
 21
196.165359
  0
LINE
  8
0
 10
207.975159
 20
191.843979
 11
205.898315
 21
195.167633
  0
LINE
  8
0
 10
208.653610
 20
192.267914
 11
206.576752
 21
195.591568
  0
LINE
  8
0
 10
210.708405
 20
201.940903
 11
211.668716
 21
206.458771
  0
LINE
  8
0
 10
202.883255
 20
203.604187
 11
203.843552
 21
208.122055
  0
LINE
  8
0
 10
210.708405
 20
201.940887
 11
206.315659
 21
200.513596
  0
LINE
  8
0
 10
208.236282
 20
209.549332
 11
203.843536
 21
208.122040
  0
LINE
  8
0
 10
206.315659
 20
200.513611
 11
202.883224
 21
203.604187
  0
LINE
  8
0
 10
211.668701
 20
206.458771
 11
208.236267
 21
209.549347
  0
LINE
  8
0
 10
209.109573
 20
204.232803
 11
205.276031
 21
205.047638
  0
LINE
  8
0
 10
209.275909
 20
205.015320
 11
205.442368
 21
205.830170
  0
LINE
  8
0
 10
257.131287
 20
164.249847
 11
257.131287
 21
176.981583
  0
LINE
  8
0
 10
257.131287
 20
212.502029
 11
257.131287
 21
234.499390
  0
LINE
  8
0
 10
195.131287
 20
185.974609
 11
195.131287
 21
186.188217
  0
LINE
  8
0
 10
217.098022
 20
164.007858
 11
195.131271
 21
185.974609
  0
LINE
  8
0
 10
195.131271
 20
212.774643
 11
217.098022
 21
234.741394
  0
LINE
  8
0
 10
195.131287
 20
212.561035
 11
195.131287
 21
212.774643
  0
LINE
  8
0
 10
217.098038
 20
164.007858
 11
217.142441
 21
164.052261
  0
LINE
  8
0
 10
218.695038
 20
164.548935
 11
223.644791
 21
169.498688
  0
LINE
  8
0
 10
219.614288
 20
164.902481
 11
223.291245
 21
168.579437
  0
LINE
  8
0
 10
222.455841
 20
165.693420
 11
222.500305
 21
165.737885
  0
LINE
  8
0
 10
223.291229
 20
168.579422
 11
223.008392
 21
168.862274
  0
LINE
  8
0
 10
219.614273
 20
164.902481
 11
219.331436
 21
165.185333
  0
LINE
  8
0
 10
223.644775
 20
169.498657
 11
223.149811
 21
169.993637
  0
LINE
  8
0
 10
218.695038
 20
164.548920
 11
218.200073
 21
165.043900
  0
LINE
  8
0
 10
231.495056
 20
177.348938
 11
236.444794
 21
182.298676
  0
LINE
  8
0
 10
232.414291
 20
177.702484
 11
236.091248
 21
181.379440
  0
LINE
  8
0
 10
235.255844
 20
178.493423
 11
235.300308
 21
178.537888
  0
LINE
  8
0
 10
236.091248
 20
181.379440
 11
235.808395
 21
181.662277
  0
LINE
  8
0
 10
232.414291
 20
177.702469
 11
232.131454
 21
177.985321
  0
LINE
  8
0
 10
236.444794
 20
182.298676
 11
235.949829
 21
182.793640
  0
LINE
  8
0
 10
231.495056
 20
177.348923
 11
231.000092
 21
177.843903
  0
LINE
  8
0
 10
236.444809
 20
216.450562
 11
231.495056
 21
221.400314
  0
LINE
  8
0
 10
236.091248
 20
217.369812
 11
232.414307
 21
221.046753
  0
LINE
  8
0
 10
235.300323
 20
220.211365
 11
235.255859
 21
220.255829
  0
LINE
  8
0
 10
232.414291
 20
221.046753
 11
232.131454
 21
220.763916
  0
LINE
  8
0
 10
236.091248
 20
217.369812
 11
235.808411
 21
217.086960
  0
LINE
  8
0
 10
231.495056
 20
221.400314
 11
231.000092
 21
220.905350
  0
LINE
  8
0
 10
236.444824
 20
216.450562
 11
235.949844
 21
215.955597
  0
LINE
  8
0
 10
223.644806
 20
229.250565
 11
218.695053
 21
234.200317
  0
LINE
  8
0
 10
223.291260
 20
230.169815
 11
219.614304
 21
233.846771
  0
LINE
  8
0
 10
222.500320
 20
233.011353
 11
222.455856
 21
233.055817
  0
LINE
  8
0
 10
219.614319
 20
233.846771
 11
219.331467
 21
233.563919
  0
LINE
  8
0
 10
223.291260
 20
230.169800
 11
223.008423
 21
229.886963
  0
LINE
  8
0
 10
218.695068
 20
234.200302
 11
218.200089
 21
233.705338
  0
LINE
  8
0
 10
223.644821
 20
229.250565
 11
223.149841
 21
228.755600
  0
LINE
  8
0
 10
217.098038
 20
234.741394
 11
217.142456
 21
234.696976
  0
LINE
  8
0
 10
260.835724
 20
249.427536
 11
260.367065
 21
247.678467
  0
LINE
  8
0
 10
272.426849
 20
249.427536
 11
272.895508
 21
247.678467
  0
LINE
  8
0
 10
260.835724
 20
149.321716
 11
260.367065
 21
151.070786
  0
LINE
  8
0
 10
272.426819
 20
149.321701
 11
272.895477
 21
151.070770
  0
LINE
  8
0
 10
311.595764
 20
180.647644
 11
312.876160
 21
179.367233
  0
LINE
  8
0
 10
311.595764
 20
218.101532
 11
312.876190
 21
219.381958
  0
LINE
  8
0
 10
305.331573
 20
228.951492
 11
307.080627
 21
229.420151
  0
LINE
  8
0
 10
259.856445
 20
219.329529
 11
257.131287
 21
227.716675
  0
LINE
  8
0
 10
257.131287
 20
171.032776
 11
259.510498
 21
178.355225
  0
LINE
  8
0
 10
277.473877
 20
166.900604
 11
273.752014
 21
178.355240
  0
LINE
  8
0
 10
300.175903
 20
192.527557
 11
287.300171
 21
195.264374
  0
LINE
  8
0
 10
300.175903
 20
206.221619
 11
287.300232
 21
203.484802
  0
LINE
  8
0
 10
280.525330
 20
215.219284
 11
289.333344
 21
225.001572
  0
LINE
  8
0
 10
273.406219
 20
219.329529
 11
277.473938
 21
231.848602
  0
LINE
  8
0
 10
281.930542
 20
205.875549
 11
279.910919
 21
209.373627
  0
LINE
  8
0
 10
310.131287
 20
184.183182
 11
310.131287
 21
214.565994
  0
LINE
  8
0
 10
301.537476
 20
229.450989
 11
275.225128
 21
244.642426
  0
LINE
  8
0
 10
258.037415
 20
154.106812
 11
239.269958
 21
164.942230
  0
LINE
  8
0
 10
275.225128
 20
154.106781
 11
293.992615
 21
164.942200
  0
LINE
  8
0
 10
236.488724
 20
232.201294
 11
258.037445
 21
244.642441
  0
LINE
  8
0
 10
223.020737
 20
168.874619
 11
225.756470
 21
168.874619
  0
LINE
  8
0
 10
266.242920
 20
191.984818
 11
259.241486
 21
198.986252
  0
LINE
  8
0
 10
267.019653
 20
191.984818
 11
274.021088
 21
198.986237
  0
LINE
  8
0
 10
259.241486
 20
199.763000
 11
266.242920
 21
206.764420
  0
LINE
  8
0
 10
274.021088
 20
199.762985
 11
267.019653
 21
206.764420
  0
LINE
  8
0
 10
267.019653
 20
206.764420
 11
267.465149
 21
207.733139
  0
LINE
  8
0
 10
266.242920
 20
206.764420
 11
265.797394
 21
207.733124
  0
LINE
  8
0
 10
259.241486
 20
199.763000
 11
258.272797
 21
200.208511
  0
LINE
  8
0
 10
258.272766
 20
198.540756
 11
259.241486
 21
198.986267
  0
LINE
  8
0
 10
265.797394
 20
191.016113
 11
266.242920
 21
191.984818
  0
LINE
  8
0
 10
267.465149
 20
191.016129
 11
267.019653
 21
191.984833
  0
LINE
  8
0
 10
274.021088
 20
198.986252
 11
274.989777
 21
198.540741
  0
LINE
  8
0
 10
274.989807
 20
200.208496
 11
274.021088
 21
199.762985
  0
LINE
  8
0
 10
224.778229
 20
170.487946
 11
230.505783
 21
176.215500
  0
LINE
  8
0
 10
224.778183
 20
170.487946
 11
224.211151
 21
171.054993
  0
LINE
  8
0
 10
230.505768
 20
176.215485
 11
229.938705
 21
176.782532
  0
LINE
  8
0
 10
252.595398
 20
229.674622
 11
250.863342
 21
232.674622
  0
LINE
  8
0
 10
250.863342
 20
232.674622
 11
247.399231
 21
232.674622
  0
LINE
  8
0
 10
245.667191
 20
229.674622
 11
247.399231
 21
232.674622
  0
LINE
  8
0
 10
247.399231
 20
226.674622
 11
245.667191
 21
229.674622
  0
LINE
  8
0
 10
250.863342
 20
226.674622
 11
247.399231
 21
226.674622
  0
LINE
  8
0
 10
252.595398
 20
229.674622
 11
250.863342
 21
226.674622
  0
LINE
  8
0
 10
252.595383
 20
169.074615
 11
250.863342
 21
172.074615
  0
LINE
  8
0
 10
250.863342
 20
172.074615
 11
248.632187
 21
172.074615
  0
LINE
  8
0
 10
245.667175
 20
169.074615
 11
246.782761
 21
171.006851
  0
LINE
  8
0
 10
247.399231
 20
166.074615
 11
245.667175
 21
169.074615
  0
LINE
  8
0
 10
250.863342
 20
166.074615
 11
247.399231
 21
166.074615
  0
LINE
  8
0
 10
252.595383
 20
169.074615
 11
250.863342
 21
166.074615
  0
LINE
  8
0
 10
232.731812
 20
188.029327
 11
231.731812
 21
187.451965
  0
LINE
  8
0
 10
231.731812
 20
187.451965
 11
231.731812
 21
186.297272
  0
LINE
  8
0
 10
232.731812
 20
185.719925
 11
231.731812
 21
186.297272
  0
LINE
  8
0
 10
233.731812
 20
186.297272
 11
232.731812
 21
185.719925
  0
LINE
  8
0
 10
233.731812
 20
187.451965
 11
233.731812
 21
186.297272
  0
LINE
  8
0
 10
232.731812
 20
188.029327
 11
233.731812
 21
187.451981
  0
LINE
  8
0
 10
232.731812
 20
213.029327
 11
231.731812
 21
212.451981
  0
LINE
  8
0
 10
231.731812
 20
212.451981
 11
231.731812
 21
211.297272
  0
LINE
  8
0
 10
232.731812
 20
210.719925
 11
231.731812
 21
211.297272
  0
LINE
  8
0
 10
233.731812
 20
211.297272
 11
232.731812
 21
210.719925
  0
LINE
  8
0
 10
233.731812
 20
212.451981
 11
233.731812
 21
211.297272
  0
LINE
  8
0
 10
232.731812
 20
213.029327
 11
233.731812
 21
212.451981
  0
LINE
  8
0
 10
220.710999
 20
182.782745
 11
220.710999
 21
177.782745
  0
LINE
  8
0
 10
218.210999
 20
180.282745
 11
223.210999
 21
180.282745
  0
LINE
  8
0
 10
220.710999
 20
220.966507
 11
220.710999
 21
215.966507
  0
LINE
  8
0
 10
218.210999
 20
218.466507
 11
223.210999
 21
218.466507
  0
LINE
  8
0
 10
245.504608
 20
162.282181
 11
246.104996
 21
163.322098
  0
LINE
  8
0
 10
245.071411
 20
162.531876
 11
245.671783
 21
163.571732
  0
LINE
  8
0
 10
245.071472
 20
236.217407
 11
245.671844
 21
235.177551
  0
LINE
  8
0
 10
245.504669
 20
236.467087
 11
246.105072
 21
235.427185
  0
ARC
  8
0
 10
266.631287
 20
199.374619
 40
51.000004
 50
215.614349
 51
229.588623
  0
ARC
  8
0
 10
234.217697
 20
161.304169
 40
1.000002
 50
229.588837
 51
315.000000
  0
ARC
  8
0
 10
249.496490
 20
161.026611
 40
10.000008
 50
119.999977
 51
135.000000
  0
ARC
  8
0
 10
236.458115
 20
181.929367
 40
4.999994
 50
245.228287
 51
315.000000
  0
ARC
  8
0
 10
234.989868
 20
194.603256
 40
14.999994
 50
315.000000
 51
21.421829
  0
ARC
  8
0
 10
283.766052
 20
161.026611
 40
10.000010
 50
45.000000
 51
59.999981
  0
ARC
  8
0
 10
299.044861
 20
161.304153
 40
1.000012
 50
224.999374
 51
310.410492
  0
ARC
  8
0
 10
266.631287
 20
199.374619
 40
50.999996
 50
310.411469
 51
324.385651
  0
ARC
  8
0
 10
296.804443
 20
181.929352
 40
4.999995
 50
225.000122
 51
294.771881
  0
ARC
  8
0
 10
296.457275
 20
196.418655
 40
14.999985
 50
176.810257
 51
225.000000
  0
ARC
  8
0
 10
266.631287
 20
170.919403
 40
9.999994
 50
59.999981
 51
120.000015
  0
ARC
  8
0
 10
258.145996
 20
199.374619
 40
0.499990
 50
135.000000
 51
225.000000
  0
ARC
  8
0
 10
266.631287
 20
190.889343
 40
0.500001
 50
225.001236
 51
314.998749
  0
ARC
  8
0
 10
275.116577
 20
199.374619
 40
0.499990
 50
315.000000
 51
45.000000
  0
ARC
  8
0
 10
266.631287
 20
207.859894
 40
0.500001
 50
45.001236
 51
134.998764
  0
ARC
  8
0
 10
257.438904
 20
199.374619
 40
0.499990
 50
135.000000
 51
225.000000
  0
ARC
  8
0
 10
266.631287
 20
190.182236
 40
0.500001
 50
225.001236
 51
314.998749
  0
ARC
  8
0
 10
275.823669
 20
199.374619
 40
0.499990
 50
315.000000
 51
45.000000
  0
ARC
  8
0
 10
266.631287
 20
208.567001
 40
0.500001
 50
45.001236
 51
134.998764
  0
CIRCLE
  8
0
 10
232.731812
 20
199.374619
 40
0.750000
  0
CIRCLE
  8
0
 10
232.731812
 20
199.374619
 40
9.200000
  0
ARC
  8
0
 10
232.731812
 20
199.374619
 40
9.999999
 50
103.304726
 51
256.695282
  0
ARC
  8
0
 10
229.903397
 20
227.658890
 40
7.999995
 50
14.585675
 51
75.414459
  0
CIRCLE
  8
0
 10
207.275970
 20
193.717773
 40
2.000000
  0
CIRCLE
  8
0
 10
207.275970
 20
193.717773
 40
1.750000
  0
CIRCLE
  8
0
 10
207.275970
 20
193.717773
 40
4.000000
  0
CIRCLE
  8
0
 10
207.275970
 20
205.031479
 40
2.000000
  0
CIRCLE
  8
0
 10
207.275970
 20
205.031479
 40
1.750000
  0
CIRCLE
  8
0
 10
207.275970
 20
205.031479
 40
4.000000
  0
ARC
  8
0
 10
232.731812
 20
199.374619
 40
9.999995
 50
283.304657
 51
76.695274
  0
ARC
  8
0
 10
266.631287
 20
199.374619
 40
42.999996
 50
112.431503
 51
133.157013
  0
ARC
  8
0
 10
266.631287
 20
199.374619
 40
43.000004
 50
231.677383
 51
247.568527
  0
ARC
  8
0
 10
252.131287
 20
164.249847
 40
5.000008
 50
247.568481
 51
0.000000
  0
ARC
  8
0
 10
252.131287
 20
234.499390
 40
5.000000
 50
0.000000
 51
112.431519
  0
ARC
  8
0
 10
229.415939
 20
170.668915
 40
3.999993
 50
69.476570
 51
82.878700
  0
CIRCLE
  8
0
 10
220.710999
 20
180.282745
 40
5.150000
  0
CIRCLE
  8
0
 10
220.710999
 20
218.466507
 40
5.150000
  0
CIRCLE
  8
0
 10
220.710999
 20
218.466507
 40
4.966500
  0
CIRCLE
  8
0
 10
232.731812
 20
186.874619
 40
2.600000
  0
CIRCLE
  8
0
 10
232.731812
 20
186.874619
 40
3.500000
  0
CIRCLE
  8
0
 10
232.731812
 20
211.874619
 40
2.600000
  0
CIRCLE
  8
0
 10
232.731812
 20
211.874619
 40
3.500000
  0
ARC
  8
0
 10
220.334534
 20
167.814743
 40
3.000004
 50
256.108643
 51
314.999786
  0
ARC
  8
0
 10
220.378998
 20
167.859207
 40
2.999992
 50
314.999786
 51
13.891067
  0
ARC
  8
0
 10
233.134537
 20
180.614746
 40
3.000000
 50
256.108948
 51
315.000000
  0
ARC
  8
0
 10
233.179001
 20
180.659210
 40
3.000003
 50
315.000000
 51
13.891067
  0
ARC
  8
0
 10
233.179001
 20
218.090042
 40
3.000000
 50
346.108948
 51
45.000000
  0
ARC
  8
0
 10
233.134537
 20
218.134506
 40
3.000003
 50
45.000000
 51
103.891068
  0
ARC
  8
0
 10
220.378998
 20
230.890045
 40
3.000000
 50
346.108948
 51
44.999794
  0
ARC
  8
0
 10
220.334534
 20
230.934509
 40
2.999992
 50
44.999794
 51
103.891068
  0
ARC
  8
0
 10
266.631287
 20
199.374619
 40
15.000001
 50
8.130111
 51
70.841904
  0
ARC
  8
0
 10
266.631287
 20
199.374619
 40
24.999994
 50
79.110039
 51
100.889740
  0
ARC
  8
0
 10
284.131256
 20
169.063721
 40
3.999994
 50
104.416595
 51
15.583054
  0
CIRCLE
  8
0
 10
301.631287
 20
199.374588
 40
4.000000
  0
CIRCLE
  8
0
 10
284.131317
 20
229.685486
 40
4.000000
  0
ARC
  8
0
 10
284.131256
 20
169.063721
 40
3.374993
 50
92.162476
 51
27.837154
  0
CIRCLE
  8
0
 10
301.631287
 20
199.374588
 40
3.375000
  0
CIRCLE
  8
0
 10
284.131317
 20
229.685486
 40
3.375000
  0
ARC
  8
0
 10
284.131256
 20
169.063721
 40
6.999988
 50
198.000137
 51
350.437073
  0
ARC
  8
0
 10
301.631287
 20
199.374588
 40
7.000013
 50
258.000000
 51
102.000015
  0
ARC
  8
0
 10
284.131317
 20
229.685486
 40
7.000010
 50
318.000061
 51
161.999985
  0
ARC
  8
0
 10
266.631287
 20
247.874619
 40
6.000009
 50
15.000010
 51
164.999985
  0
ARC
  8
0
 10
266.631287
 20
150.874619
 40
6.000009
 50
195.000015
 51
344.999908
  0
ARC
  8
0
 10
308.633514
 20
175.124603
 40
6.000000
 50
261.441223
 51
45.000000
  0
ARC
  8
0
 10
308.633545
 20
223.624588
 40
5.999985
 50
314.999786
 51
105.000008
  0
ARC
  8
0
 10
286.260620
 20
190.373627
 40
5.000007
 50
78.000107
 51
150.782028
  0
ARC
  8
0
 10
286.260651
 20
208.375549
 40
4.999984
 50
210.000107
 51
282.000244
  0
ARC
  8
0
 10
284.241028
 20
211.873627
 40
4.999984
 50
137.999771
 51
210.000107
  0
ARC
  8
0
 10
268.650940
 20
220.874619
 40
4.999998
 50
276.231079
 51
341.999939
  0
ARC
  8
0
 10
264.611725
 20
220.874619
 40
4.999999
 50
198.000061
 51
232.248138
  0
ARC
  8
0
 10
266.631287
 20
199.374619
 40
25.000008
 50
324.206848
 51
340.889771
  0
ARC
  8
0
 10
266.631287
 20
199.374619
 40
24.999994
 50
19.110041
 51
40.889759
  0
ARC
  8
0
 10
262.474976
 20
177.770798
 40
2.999998
 50
168.487000
 51
259.110596
  0
ARC
  8
0
 10
270.787537
 20
177.770782
 40
2.999994
 50
280.890015
 51
11.513852
  0
ARC
  8
0
 10
287.418884
 20
192.172119
 40
2.999986
 50
340.889618
 51
78.000336
  0
ARC
  8
0
 10
287.418915
 20
206.577057
 40
3.000002
 50
281.999664
 51
19.110100
  0
ARC
  8
0
 10
283.262634
 20
213.775940
 40
3.000005
 50
40.889793
 51
137.999832
  0
ARC
  8
0
 10
270.787598
 20
220.978439
 40
3.000009
 50
342.000122
 51
79.109970
  0
ARC
  8
0
 10
262.475067
 20
220.978455
 40
3.000009
 50
100.889977
 51
197.999878
  0
ARC
  8
0
 10
255.537445
 20
248.972565
 40
5.000010
 50
299.999939
 51
344.999939
  0
ARC
  8
0
 10
255.537430
 20
149.776688
 40
5.000003
 50
14.999842
 51
59.999832
  0
ARC
  8
0
 10
277.725128
 20
149.776672
 40
4.999997
 50
120.000015
 51
165.000031
  0
ARC
  8
0
 10
315.131287
 20
184.183167
 40
5.000000
 50
179.999832
 51
225.000000
  0
ARC
  8
0
 10
315.131287
 20
214.565994
 40
4.999995
 50
134.999878
 51
180.000000
  0
ARC
  8
0
 10
304.037476
 20
233.781113
 40
4.999997
 50
239.999985
 51
285.000061
  0
ARC
  8
0
 10
277.725128
 20
248.972565
 40
4.999992
 50
195.000061
 51
240.000076
  0
ARC
  8
0
 10
266.631287
 20
199.374619
 40
54.999996
 50
217.119308
 51
142.797852
  0
ARC
  8
0
 10
266.631287
 20
199.374619
 40
7.399999
 50
176.991623
 51
183.008377
  0
ARC
  8
0
 10
266.631287
 20
199.374619
 40
7.399999
 50
266.991608
 51
273.008392
  0
ARC
  8
0
 10
266.631287
 20
199.374619
 40
7.400000
 50
356.991516
 51
3.008379
  0
ARC
  8
0
 10
266.631287
 20
199.374619
 40
7.399999
 50
86.991623
 51
93.008377
  0
CIRCLE
  8
0
 10
266.631287
 20
247.874619
 40
2.600000
  0
CIRCLE
  8
0
 10
266.631287
 20
150.874619
 40
2.600000
  0
CIRCLE
  8
0
 10
308.633514
 20
175.124619
 40
2.600000
  0
CIRCLE
  8
0
 10
308.633545
 20
223.624588
 40
2.600000
  0
ARC
  8
0
 10
222.763611
 20
178.230133
 40
8.000010
 50
284.585632
 51
345.414337
  0
CIRCLE
  8
0
 10
220.710999
 20
180.282745
 40
4.966500
  0
ARC
  8
0
 10
249.131287
 20
169.074615
 40
7.699998
 50
241.900940
 51
51.704678
  0
ARC
  8
0
 10
249.131287
 20
229.674622
 40
7.700009
 50
121.819702
 51
118.098549
  0
CIRCLE
  8
0
 10
249.131287
 20
229.674622
 40
6.500000
  0
ARC
  8
0
 10
249.131287
 20
169.074615
 40
6.500010
 50
186.447906
 51
55.982513
  0
ARC
  8
0
 10
249.131287
 20
169.074615
 40
5.699997
 50
180.027451
 51
59.972511
  0
CIRCLE
  8
0
 10
249.131287
 20
229.674622
 40
5.700000
  0
ARC
  8
0
 10
266.631287
 20
199.374619
 40
25.000002
 50
259.110107
 51
280.889832
  0
ARC
  8
0
 10
266.631287
 20
199.374619
 40
8.399996
 50
84.302902
 51
95.697304
  0
ARC
  8
0
 10
266.631287
 20
199.374619
 40
8.400015
 50
174.302704
 51
185.697083
  0
ARC
  8
0
 10
266.631287
 20
199.374619
 40
8.400013
 50
354.302795
 51
5.697192
  0
ARC
  8
0
 10
266.631287
 20
199.374619
 40
8.400000
 50
264.302704
 51
275.697113
  0
ARC
  8
0
 10
266.631287
 20
199.374619
 40
35.000011
 50
11.546618
 51
48.453262
  0
ARC
  8
0
 10
266.631287
 20
199.374619
 40
35.000008
 50
71.546638
 51
105.749290
  0
ARC
  8
0
 10
266.631287
 20
199.374619
 40
34.999996
 50
208.448715
 51
218.437561
  0
ARC
  8
0
 10
266.631287
 20
199.374619
 40
35.000000
 50
254.250702
 51
288.453247
  0
ARC
  8
0
 10
266.631287
 20
199.374619
 40
35.000015
 50
321.562408
 51
348.453217
  0
POINT
  8
0
 10
-329.149841
 20
-69.375381
  0
POINT
  8
0
 10
-272.649841
 20
-69.375381
  0
LINE
  8
0
 10
-311.649841
 20
-104.730728
 11
-311.649841
 21
-108.894470
  0
LINE
  8
0
 10
-324.649841
 20
-82.686066
 11
-288.649841
 21
-82.686066
  0
LINE
  8
0
 10
-324.649841
 20
-56.064705
 11
-288.649841
 21
-56.064705
  0
LINE
  8
0
 10
-329.149841
 20
-104.742149
 11
-324.649841
 21
-104.742149
  0
LINE
  8
0
 10
-324.649841
 20
-104.730728
 11
-288.649841
 21
-104.730728
  0
LINE
  8
0
 10
-324.649841
 20
-34.020046
 11
-288.649841
 21
-34.020046
  0
LINE
  8
0
 10
-324.649841
 20
-34.020046
 11
-324.649841
 21
-104.742149
  0
LINE
  8
0
 10
-288.649841
 20
-34.020058
 11
-288.649841
 21
-104.730736
  0
LINE
  8
0
 10
-272.649841
 20
-61.675396
 11
-272.649841
 21
-77.075401
  0
LINE
  8
0
 10
-278.149841
 20
-62.018539
 11
-278.149841
 21
-65.418533
  0
LINE
  8
0
 10
-285.149841
 20
-59.914314
 11
-285.149841
 21
-66.691116
  0
LINE
  8
0
 10
-288.649841
 20
-70.416245
 11
-285.499847
 21
-70.416245
  0
LINE
  8
0
 10
-288.649841
 20
-72.863846
 11
-285.499847
 21
-72.863846
  0
LINE
  8
0
 10
-288.649841
 20
-77.479828
 11
-285.499847
 21
-77.479828
  0
LINE
  8
0
 10
-288.649841
 20
-79.648224
 11
-285.499847
 21
-79.648224
  0
LINE
  8
0
 10
-285.149841
 20
-73.032242
 11
-278.449829
 21
-73.032242
  0
LINE
  8
0
 10
-285.149841
 20
-77.032242
 11
-278.449829
 21
-77.032242
  0
LINE
  8
0
 10
-288.649841
 20
-68.236397
 11
-285.499847
 21
-68.236397
  0
LINE
  8
0
 10
-288.649841
 20
-65.145813
 11
-285.499847
 21
-65.145813
  0
LINE
  8
0
 10
-288.649841
 20
-60.627949
 11
-285.499847
 21
-60.627949
  0
LINE
  8
0
 10
-288.649841
 20
-59.200657
 11
-285.499847
 21
-59.200657
  0
LINE
  8
0
 10
-285.149841
 20
-61.718529
 11
-278.449829
 21
-61.718529
  0
LINE
  8
0
 10
-285.149841
 20
-65.718529
 11
-278.449829
 21
-65.718529
  0
LINE
  8
0
 10
-285.149841
 20
-71.640053
 11
-285.149841
 21
-78.564041
  0
LINE
  8
0
 10
-278.449860
 20
-77.032242
 11
-278.149841
 21
-76.732239
  0
LINE
  8
0
 10
-278.149811
 20
-62.018509
 11
-278.449829
 21
-61.718506
  0
LINE
  8
0
 10
-278.149841
 20
-73.332245
 11
-278.149841
 21
-76.732246
  0
LINE
  8
0
 10
-278.149811
 20
-73.332237
 11
-278.449829
 21
-73.032234
  0
LINE
  8
0
 10
-278.449860
 20
-65.718536
 11
-278.149841
 21
-65.418533
  0
LINE
  8
0
 10
-278.449768
 20
-77.032257
 11
-278.449768
 21
-73.032242
  0
LINE
  8
0
 10
-278.449677
 20
-65.718544
 11
-278.449677
 21
-61.718536
  0
LINE
  8
0
 10
-285.149841
 20
-76.782242
 11
-278.199829
 21
-76.782242
  0
LINE
  8
0
 10
-285.149841
 20
-73.282242
 11
-278.199829
 21
-73.282242
  0
LINE
  8
0
 10
-285.149841
 20
-61.968529
 11
-278.199829
 21
-61.968529
  0
LINE
  8
0
 10
-285.149841
 20
-65.468529
 11
-278.149841
 21
-65.468529
  0
LINE
  8
0
 10
-285.149841
 20
-60.175385
 11
-274.149841
 21
-60.175385
  0
LINE
  8
0
 10
-285.149841
 20
-78.575386
 11
-274.149841
 21
-78.575386
  0
LINE
  8
0
 10
-329.149841
 20
-34.008617
 11
-324.649841
 21
-34.008617
  0
LINE
  8
0
 10
-324.649841
 20
-55.975380
 11
-329.149841
 21
-55.975380
  0
LINE
  8
0
 10
-324.649841
 20
-82.775383
 11
-329.149841
 21
-82.775383
  0
LINE
  8
0
 10
-287.949829
 20
-83.378517
 11
-287.949829
 21
-79.648232
  0
LINE
  8
0
 10
-287.549835
 20
-83.413513
 11
-287.549835
 21
-79.648232
  0
LINE
  8
0
 10
-286.099854
 20
-81.906837
 11
-286.099854
 21
-81.843956
  0
LINE
  8
0
 10
-287.949829
 20
-59.200661
 11
-287.949829
 21
-55.372272
  0
LINE
  8
0
 10
-287.549835
 20
-59.200661
 11
-287.549835
 21
-55.337276
  0
LINE
  8
0
 10
-286.099854
 20
-56.906830
 11
-286.099854
 21
-56.843948
  0
LINE
  8
0
 10
-286.549866
 20
-93.433548
 11
-286.549866
 21
-83.500999
  0
LINE
  8
0
 10
-286.549866
 20
-93.433571
 11
-288.649841
 21
-93.617294
  0
LINE
  8
0
 10
-286.549835
 20
-83.501007
 11
-288.649841
 21
-83.317276
  0
LINE
  8
0
 10
-286.549835
 20
-55.249783
 11
-286.549835
 21
-45.317238
  0
LINE
  8
0
 10
-286.549835
 20
-55.249786
 11
-288.649841
 21
-55.433514
  0
LINE
  8
0
 10
-286.549805
 20
-45.317223
 11
-288.649841
 21
-45.133495
  0
LINE
  8
0
 10
-335.749817
 20
-43.361904
 11
-335.749817
 21
-52.988857
  0
LINE
  8
0
 10
-335.349823
 20
-43.175381
 11
-335.349823
 21
-53.175381
  0
LINE
  8
0
 10
-335.349823
 20
-43.175381
 11
-329.749817
 21
-43.175381
  0
LINE
  8
0
 10
-335.349823
 20
-53.175381
 11
-329.749817
 21
-53.175381
  0
LINE
  8
0
 10
-335.749847
 20
-43.361897
 11
-335.349854
 21
-43.175369
  0
LINE
  8
0
 10
-335.749817
 20
-52.988853
 11
-335.349823
 21
-53.175373
  0
LINE
  8
0
 10
-335.349823
 20
-45.175381
 11
-332.304535
 21
-45.175381
  0
LINE
  8
0
 10
-335.349823
 20
-47.175381
 11
-333.459229
 21
-47.175381
  0
LINE
  8
0
 10
-335.349823
 20
-49.175381
 11
-334.613953
 21
-49.175381
  0
LINE
  8
0
 10
-335.749847
 20
-85.761902
 11
-335.749847
 21
-95.388855
  0
LINE
  8
0
 10
-335.349854
 20
-85.575378
 11
-335.349854
 21
-95.575378
  0
LINE
  8
0
 10
-335.349854
 20
-85.575378
 11
-329.749847
 21
-85.575378
  0
LINE
  8
0
 10
-335.349854
 20
-95.575378
 11
-329.749847
 21
-95.575378
  0
LINE
  8
0
 10
-335.749847
 20
-85.761909
 11
-335.349854
 21
-85.575386
  0
LINE
  8
0
 10
-335.749847
 20
-95.388870
 11
-335.349854
 21
-95.575394
  0
LINE
  8
0
 10
-335.349854
 20
-87.575378
 11
-332.304565
 21
-87.575378
  0
LINE
  8
0
 10
-335.349854
 20
-89.575378
 11
-333.459259
 21
-89.575378
  0
LINE
  8
0
 10
-335.349854
 20
-91.575378
 11
-334.613953
 21
-91.575378
  0
LINE
  8
0
 10
-329.149841
 20
-33.064381
 11
-329.149841
 21
-105.686386
  0
LINE
  8
0
 10
-329.749847
 20
-42.925381
 11
-329.749847
 21
-53.425381
  0
LINE
  8
0
 10
-329.749847
 20
-85.325378
 11
-329.149841
 21
-85.325378
  0
LINE
  8
0
 10
-329.749847
 20
-95.825378
 11
-329.149841
 21
-95.825378
  0
LINE
  8
0
 10
-329.749847
 20
-42.925381
 11
-329.149841
 21
-42.925381
  0
LINE
  8
0
 10
-329.749847
 20
-53.425381
 11
-329.149841
 21
-53.425381
  0
LINE
  8
0
 10
-329.749847
 20
-85.325378
 11
-329.749847
 21
-95.825378
  0
LINE
  8
0
 10
-301.649841
 20
-104.730728
 11
-301.649841
 21
-108.894470
  0
LINE
  8
0
 10
-309.649841
 20
-110.894470
 11
-303.649841
 21
-110.894470
  0
ARC
  8
0
 10
-287.004089
 20
-78.564041
 40
1.854246
 50
324.217438
 51
35.782570
  0
ARC
  8
0
 10
-292.934631
 20
-75.171844
 40
7.784782
 50
342.753998
 51
17.245989
  0
ARC
  8
0
 10
-287.464386
 20
-71.640053
 40
2.314563
 50
328.079895
 51
31.920101
  0
ARC
  8
0
 10
-288.736176
 20
-66.691116
 40
3.586350
 50
334.476685
 51
25.523420
  0
ARC
  8
0
 10
-292.614563
 20
-62.886890
 40
7.464713
 50
342.385284
 51
17.614758
  0
ARC
  8
0
 10
-286.052399
 20
-59.914314
 40
0.902554
 50
307.749390
 51
52.250774
  0
ARC
  8
0
 10
-274.149841
 20
-77.075401
 40
1.500000
 50
270.000000
 51
0.000291
  0
ARC
  8
0
 10
-274.149841
 20
-61.675396
 40
1.500000
 50
0.000000
 51
90.000000
  0
ARC
  8
0
 10
-289.099854
 20
-81.906837
 40
3.000006
 50
327.916840
 51
0.000000
  0
ARC
  8
0
 10
-289.099854
 20
-81.843956
 40
3.000000
 50
0.000000
 51
47.046558
  0
ARC
  8
0
 10
-289.099854
 20
-56.906830
 40
3.000015
 50
310.128021
 51
359.999939
  0
ARC
  8
0
 10
-289.099854
 20
-56.843948
 40
3.000000
 50
0.000000
 51
32.083042
  0
ARC
  8
0
 10
-298.381775
 20
-88.467278
 40
12.831907
 50
337.230530
 51
22.769514
  0
ARC
  8
0
 10
-298.381775
 20
-50.283508
 40
12.831937
 50
337.230560
 51
22.769445
  0
CIRCLE
  8
0
 10
-318.649841
 20
-69.375381
 40
1.900000
  0
ARC
  8
0
 10
-309.649841
 20
-108.894470
 40
2.000000
 50
180.000000
 51
270.000000
  0
ARC
  8
0
 10
-303.649841
 20
-108.894470
 40
2.000000
 50
270.000000
 51
0.000000
  0
ARC
  8
0
 10
-319.358032
 20
-98.366776
 40
1.108161
 50
345.892181
 51
14.107806
  0
ARC
  8
0
 10
-319.647827
 20
-98.473022
 40
1.415484
 50
15.419636
 51
51.391121
  0
ARC
  8
0
 10
-320.449860
 20
-99.644905
 40
2.833630
 50
53.505157
 51
126.494843
  0
ARC
  8
0
 10
-321.251892
 20
-98.473022
 40
1.415496
 50
128.608871
 51
164.580368
  0
ARC
  8
0
 10
-321.541687
 20
-98.366776
 40
1.108161
 50
165.892197
 51
194.107803
  0
ARC
  8
0
 10
-321.251892
 20
-98.260529
 40
1.415484
 50
195.419632
 51
231.391129
  0
ARC
  8
0
 10
-320.449860
 20
-97.088646
 40
2.833630
 50
233.505157
 51
306.494843
  0
ARC
  8
0
 10
-319.647827
 20
-98.260529
 40
1.415496
 50
308.608887
 51
344.580353
  0
ARC
  8
0
 10
-319.358002
 20
-40.383995
 40
1.108160
 50
345.892395
 51
14.107615
  0
ARC
  8
0
 10
-319.647797
 20
-40.490246
 40
1.415484
 50
15.419636
 51
51.391220
  0
ARC
  8
0
 10
-320.449829
 20
-41.662117
 40
2.833624
 50
53.505066
 51
126.494934
  0
ARC
  8
0
 10
-321.251862
 20
-40.490246
 40
1.415499
 50
128.608780
 51
164.580368
  0
ARC
  8
0
 10
-321.541656
 20
-40.383995
 40
1.108160
 50
165.892380
 51
194.107620
  0
ARC
  8
0
 10
-321.251862
 20
-40.277744
 40
1.415484
 50
195.419632
 51
231.391220
  0
ARC
  8
0
 10
-320.449829
 20
-39.105873
 40
2.833624
 50
233.505066
 51
306.494934
  0
ARC
  8
0
 10
-319.647797
 20
-40.277744
 40
1.415499
 50
308.608795
 51
344.580353
  0
POINT
  8
0
 10
-329.149841
 20
-216.553406
  0
POINT
  8
0
 10
-301.649841
 20
-216.553406
  0
LINE
  8
0
 10
-301.649841
 20
-177.034348
 11
-301.649841
 21
-234.231079
  0
LINE
  8
0
 10
-311.649841
 20
-177.034348
 11
-311.649841
 21
-211.923676
  0
LINE
  8
0
 10
-321.649841
 20
-205.553406
 11
-321.649841
 21
-234.231079
  0
LINE
  8
0
 10
-309.649841
 20
-175.034348
 11
-303.649841
 21
-175.034348
  0
LINE
  8
0
 10
-309.649841
 20
-186.936386
 11
-303.649841
 21
-186.936386
  0
LINE
  8
0
 10
-311.649841
 20
-194.649841
 11
-301.649841
 21
-194.649841
  0
LINE
  8
0
 10
-311.649841
 20
-202.057709
 11
-301.649841
 21
-202.057709
  0
LINE
  8
0
 10
-321.649841
 20
-217.967621
 11
-301.649841
 21
-217.967621
  0
LINE
  8
0
 10
-321.649841
 20
-234.231079
 11
-301.649841
 21
-234.231079
  0
LINE
  8
0
 10
-321.649841
 20
-215.280045
 11
-314.649841
 21
-215.280045
  0
LINE
  8
0
 10
-324.649841
 20
-145.052917
 11
-288.649841
 21
-145.052917
  0
LINE
  8
0
 10
-314.649841
 20
-194.052917
 11
-311.649841
 21
-194.052917
  0
LINE
  8
0
 10
-324.649841
 20
-167.097580
 11
-288.649841
 21
-167.097580
  0
LINE
  8
0
 10
-324.649841
 20
-145.052917
 11
-324.649841
 21
-207.119400
  0
LINE
  8
0
 10
-288.649841
 20
-145.052917
 11
-288.649841
 21
-194.052917
  0
LINE
  8
0
 10
-329.149841
 20
-145.053406
 11
-329.149841
 21
-257.553406
  0
LINE
  8
0
 10
-272.649841
 20
-174.953934
 11
-272.649841
 21
-190.353928
  0
LINE
  8
0
 10
-285.149841
 20
-153.200531
 11
-285.149841
 21
-159.317764
  0
LINE
  8
0
 10
-278.149841
 20
-155.498093
 11
-278.149841
 21
-158.898087
  0
LINE
  8
0
 10
-288.649841
 20
-161.276245
 11
-285.499847
 21
-161.276245
  0
LINE
  8
0
 10
-288.649841
 20
-157.359283
 11
-285.499847
 21
-157.359283
  0
LINE
  8
0
 10
-288.649841
 20
-153.281128
 11
-285.499847
 21
-153.281128
  0
LINE
  8
0
 10
-288.649841
 20
-153.119934
 11
-285.499847
 21
-153.119934
  0
LINE
  8
0
 10
-285.149841
 20
-155.198090
 11
-278.449829
 21
-155.198090
  0
LINE
  8
0
 10
-285.149841
 20
-159.198090
 11
-278.449829
 21
-159.198090
  0
LINE
  8
0
 10
-278.449860
 20
-155.198074
 11
-278.149841
 21
-155.498077
  0
LINE
  8
0
 10
-278.149841
 20
-158.898087
 11
-278.449860
 21
-159.198074
  0
LINE
  8
0
 10
-285.149841
 20
-155.448090
 11
-278.199860
 21
-155.448090
  0
LINE
  8
0
 10
-285.149841
 20
-158.948090
 11
-278.199860
 21
-158.948090
  0
LINE
  8
0
 10
-278.449829
 20
-155.198090
 11
-278.449829
 21
-159.198090
  0
LINE
  8
0
 10
-288.649841
 20
-191.853928
 11
-274.149841
 21
-191.853928
  0
LINE
  8
0
 10
-285.863708
 20
-173.453934
 11
-274.149841
 21
-173.453934
  0
LINE
  8
0
 10
-318.300812
 20
-183.892029
 11
-318.300812
 21
-184.181152
  0
LINE
  8
0
 10
-313.100800
 20
-183.885803
 11
-313.100800
 21
-184.174866
  0
LINE
  8
0
 10
-319.200806
 20
-183.395599
 11
-319.200806
 21
-183.893539
  0
LINE
  8
0
 10
-312.200806
 20
-183.395599
 11
-312.200806
 21
-183.893539
  0
LINE
  8
0
 10
-301.098877
 20
-170.595596
 11
-301.098877
 21
-171.093536
  0
LINE
  8
0
 10
-294.098877
 20
-170.595596
 11
-294.098877
 21
-171.093536
  0
LINE
  8
0
 10
-294.998871
 20
-171.085800
 11
-294.998871
 21
-171.374863
  0
LINE
  8
0
 10
-300.198883
 20
-171.092148
 11
-300.198883
 21
-171.381149
  0
LINE
  8
0
 10
-286.549835
 20
-175.599396
 11
-286.549835
 21
-165.666840
  0
LINE
  8
0
 10
-286.549866
 20
-175.599396
 11
-288.649841
 21
-175.783112
  0
LINE
  8
0
 10
-286.549835
 20
-165.666809
 11
-288.649841
 21
-165.483093
  0
LINE
  8
0
 10
-287.949829
 20
-186.153931
 11
-287.949829
 21
-179.153931
  0
LINE
  8
0
 10
-287.549835
 20
-185.253922
 11
-287.549835
 21
-180.053925
  0
LINE
  8
0
 10
-286.099854
 20
-182.685364
 11
-286.099854
 21
-182.622498
  0
LINE
  8
0
 10
-287.549835
 20
-180.053925
 11
-287.949829
 21
-180.053925
  0
LINE
  8
0
 10
-287.549835
 20
-185.253922
 11
-287.949829
 21
-185.253922
  0
LINE
  8
0
 10
-287.949829
 20
-179.153931
 11
-288.649841
 21
-179.153931
  0
LINE
  8
0
 10
-287.949829
 20
-186.153931
 11
-288.649841
 21
-186.153931
  0
LINE
  8
0
 10
-329.149841
 20
-145.052917
 11
-324.649841
 21
-145.052917
  0
LINE
  8
0
 10
-329.149841
 20
-207.053406
 11
-324.649841
 21
-207.053406
  0
LINE
  8
0
 10
-329.149841
 20
-167.020157
 11
-324.649841
 21
-167.020157
  0
LINE
  8
0
 10
-314.649841
 20
-205.320251
 11
-314.649841
 21
-192.786560
  0
LINE
  8
0
 10
-315.149841
 20
-205.553406
 11
-315.149841
 21
-192.553406
  0
LINE
  8
0
 10
-315.149841
 20
-205.553406
 11
-322.649841
 21
-205.553406
  0
LINE
  8
0
 10
-315.149841
 20
-192.553406
 11
-322.649841
 21
-192.553406
  0
LINE
  8
0
 10
-314.649841
 20
-205.320267
 11
-315.149841
 21
-205.553406
  0
LINE
  8
0
 10
-314.649811
 20
-192.786530
 11
-315.149811
 21
-192.553375
  0
LINE
  8
0
 10
-315.149841
 20
-203.553406
 11
-319.620148
 21
-203.553406
  0
LINE
  8
0
 10
-315.149841
 20
-201.553406
 11
-318.465454
 21
-201.553406
  0
LINE
  8
0
 10
-315.149841
 20
-199.553406
 11
-317.310730
 21
-199.553406
  0
LINE
  8
0
 10
-315.149841
 20
-197.553406
 11
-316.156036
 21
-197.553406
  0
LINE
  8
0
 10
-335.749847
 20
-154.505447
 11
-335.749847
 21
-164.132401
  0
LINE
  8
0
 10
-335.349854
 20
-154.318924
 11
-335.349854
 21
-164.318924
  0
LINE
  8
0
 10
-335.349854
 20
-154.318924
 11
-329.749847
 21
-154.318924
  0
LINE
  8
0
 10
-335.349854
 20
-164.318924
 11
-329.749847
 21
-164.318924
  0
LINE
  8
0
 10
-335.749847
 20
-154.505432
 11
-335.349854
 21
-154.318909
  0
LINE
  8
0
 10
-335.749817
 20
-164.132385
 11
-335.349823
 21
-164.318909
  0
LINE
  8
0
 10
-335.349854
 20
-156.318924
 11
-332.304535
 21
-156.318924
  0
LINE
  8
0
 10
-335.349854
 20
-158.318924
 11
-333.459229
 21
-158.318924
  0
LINE
  8
0
 10
-335.349854
 20
-160.318924
 11
-334.613953
 21
-160.318924
  0
LINE
  8
0
 10
-326.149841
 20
-207.053406
 11
-326.149841
 21
-231.253403
  0
LINE
  8
0
 10
-328.749847
 20
-231.553406
 11
-326.449829
 21
-231.553406
  0
LINE
  8
0
 10
-326.149841
 20
-225.053406
 11
-322.199829
 21
-225.053406
  0
LINE
  8
0
 10
-326.149841
 20
-208.053406
 11
-322.199829
 21
-208.053406
  0
LINE
  8
0
 10
-326.449829
 20
-231.553436
 11
-326.149811
 21
-231.253433
  0
LINE
  8
0
 10
-322.149841
 20
-208.103409
 11
-322.149841
 21
-225.003403
  0
LINE
  8
0
 10
-322.149841
 20
-224.953400
 11
-321.649841
 21
-224.953400
  0
LINE
  8
0
 10
-322.149841
 20
-208.153412
 11
-321.649841
 21
-208.153412
  0
LINE
  8
0
 10
-322.149841
 20
-208.103394
 11
-322.199829
 21
-208.053391
  0
LINE
  8
0
 10
-322.199829
 20
-225.053421
 11
-322.149841
 21
-225.003418
  0
LINE
  8
0
 10
-329.749847
 20
-154.068924
 11
-329.749847
 21
-164.568924
  0
LINE
  8
0
 10
-329.749847
 20
-164.568924
 11
-329.149841
 21
-164.568924
  0
LINE
  8
0
 10
-329.749847
 20
-154.068924
 11
-329.149841
 21
-154.068924
  0
LINE
  8
0
 10
-322.649841
 20
-191.353409
 11
-322.649841
 21
-206.753403
  0
LINE
  8
0
 10
-322.649841
 20
-191.353409
 11
-324.649841
 21
-191.353409
  0
LINE
  8
0
 10
-322.649841
 20
-206.753403
 11
-324.649841
 21
-206.753403
  0
LINE
  8
0
 10
-324.649841
 20
-200.208099
 11
-322.649841
 21
-199.053406
  0
LINE
  8
0
 10
-324.649841
 20
-199.399811
 11
-322.649841
 21
-198.245117
  0
LINE
  8
0
 10
-301.649841
 20
-194.052917
 11
-288.649841
 21
-194.052917
  0
ARC
  8
0
 10
-303.649841
 20
-188.936386
 40
2.000000
 50
0.000000
 51
90.000000
  0
ARC
  8
0
 10
-309.649841
 20
-188.936386
 40
2.000000
 50
90.000000
 51
180.000000
  0
ARC
  8
0
 10
-303.649841
 20
-177.034348
 40
2.000000
 50
0.000000
 51
90.000000
  0
ARC
  8
0
 10
-309.649841
 20
-177.034348
 40
2.000000
 50
90.000000
 51
180.000000
  0
ARC
  8
0
 10
-290.804382
 20
-159.317764
 40
5.654532
 50
339.735413
 51
20.264589
  0
ARC
  8
0
 10
-291.264648
 20
-155.320190
 40
6.114804
 50
340.520569
 51
19.479149
  0
ARC
  8
0
 10
-274.149841
 20
-174.953934
 40
1.500000
 50
0.000000
 51
90.000000
  0
ARC
  8
0
 10
-274.149841
 20
-190.353928
 40
1.500000
 50
270.000000
 51
0.000000
  0
CIRCLE
  8
0
 10
-297.598877
 20
-172.117371
 40
0.010000
  0
CIRCLE
  8
0
 10
-315.700806
 20
-184.917358
 40
0.010000
  0
ARC
  8
0
 10
-298.381775
 20
-170.633118
 40
12.831942
 50
337.230499
 51
22.769430
  0
ARC
  8
0
 10
-289.099854
 20
-182.685364
 40
3.000021
 50
301.109100
 51
0.000000
  0
ARC
  8
0
 10
-289.099854
 20
-182.622498
 40
3.000000
 50
0.000000
 51
58.890907
  0
ARC
  8
0
 10
-328.749847
 20
-231.953400
 40
0.399994
 50
90.000000
 51
180.000000
  0
ARC
  8
0
 10
-312.649841
 20
-231.074417
 40
3.863763
 50
305.298737
 51
306.497681
  0
ARC
  8
0
 10
-311.556335
 20
-232.672012
 40
1.930390
 50
308.610992
 51
344.582031
  0
ARC
  8
0
 10
-311.161224
 20
-232.816864
 40
1.511397
 50
345.893616
 51
14.106391
  0
ARC
  8
0
 10
-311.556335
 20
-232.961716
 40
1.930403
 50
15.417976
 51
51.388996
  0
ARC
  8
0
 10
-312.649841
 20
-234.559311
 40
3.863760
 50
53.502323
 51
126.497673
  0
ARC
  8
0
 10
-313.743347
 20
-232.961716
 40
1.930390
 50
128.611008
 51
164.582031
  0
ARC
  8
0
 10
-314.138458
 20
-232.816864
 40
1.511397
 50
165.893616
 51
194.106384
  0
ARC
  8
0
 10
-313.743347
 20
-232.672012
 40
1.930403
 50
195.417969
 51
231.388992
  0
ARC
  8
0
 10
-312.649841
 20
-231.074417
 40
3.863760
 50
233.502319
 51
234.678543
  0
ARC
  8
0
 10
-312.649841
 20
-231.422913
 40
3.091003
 50
295.298523
 51
306.497681
  0
ARC
  8
0
 10
-311.775055
 20
-232.700989
 40
1.544323
 50
308.611542
 51
344.582062
  0
ARC
  8
0
 10
-311.458954
 20
-232.816864
 40
1.209100
 50
345.893250
 51
14.106742
  0
ARC
  8
0
 10
-311.775055
 20
-232.932739
 40
1.544315
 50
15.417927
 51
51.388466
  0
ARC
  8
0
 10
-312.649841
 20
-234.210815
 40
3.091008
 50
53.502323
 51
126.497673
  0
ARC
  8
0
 10
-313.524628
 20
-232.932739
 40
1.544323
 50
128.611542
 51
164.582077
  0
ARC
  8
0
 10
-313.840729
 20
-232.816864
 40
1.209100
 50
165.893265
 51
194.106735
  0
ARC
  8
0
 10
-313.524628
 20
-232.700989
 40
1.544315
 50
195.417923
 51
231.388458
  0
ARC
  8
0
 10
-312.649841
 20
-231.422913
 40
3.091008
 50
233.502319
 51
244.701477
  0
ARC
  8
0
 10
-314.649841
 20
-192.356720
 40
8.499496
 50
270.000000
 51
285.687103
  0
ARC
  8
0
 10
-312.653717
 20
-199.337051
 40
1.239917
 50
284.097137
 51
320.613495
  0
ARC
  8
0
 10
-311.932465
 20
-199.969940
 40
0.282636
 50
327.008301
 51
0.000000
  0
ARC
  8
0
 10
-314.648804
 20
-212.593460
 40
2.686585
 50
269.977875
 51
281.268829
  0
ARC
  8
0
 10
-314.700653
 20
-212.415756
 40
2.871046
 50
281.590607
 51
313.688141
  0
ARC
  8
0
 10
-315.270050
 20
-211.924637
 40
3.620204
 50
314.835724
 51
0.015214
  0
ARC
  8
0
 10
-285.499847
 20
-152.016769
 40
1.264252
 50
270.000000
 51
282.243042
  0
ARC
  8
0
 10
-285.258209
 20
-153.102127
 40
0.152460
 50
279.994019
 51
312.513611
  0
ARC
  8
0
 10
-285.170898
 20
-153.200531
 40
0.021033
 50
318.352661
 51
41.647346
  0
ARC
  8
0
 10
-285.258209
 20
-153.298935
 40
0.152460
 50
47.486382
 51
80.005974
  0
ARC
  8
0
 10
-285.499847
 20
-154.384293
 40
1.264257
 50
77.756966
 51
90.000000
  0
ARC
  8
0
 10
-319.358002
 20
-160.733612
 40
1.108161
 50
345.892181
 51
14.107806
  0
ARC
  8
0
 10
-319.647797
 20
-160.839859
 40
1.415484
 50
15.419636
 51
51.391315
  0
ARC
  8
0
 10
-320.449829
 20
-162.011719
 40
2.833618
 50
53.504974
 51
126.495026
  0
ARC
  8
0
 10
-321.251862
 20
-160.839859
 40
1.415502
 50
128.608688
 51
164.580368
  0
ARC
  8
0
 10
-321.541656
 20
-160.733612
 40
1.108161
 50
165.892197
 51
194.107803
  0
ARC
  8
0
 10
-321.251862
 20
-160.627365
 40
1.415484
 50
195.419632
 51
231.391312
  0
ARC
  8
0
 10
-320.449829
 20
-159.455505
 40
2.833618
 50
233.504974
 51
306.495026
  0
ARC
  8
0
 10
-319.647797
 20
-160.627365
 40
1.415502
 50
308.608673
 51
344.580353
  0
ARC
  8
0
 10
-295.862335
 20
-170.597076
 40
1.763459
 50
0.053543
 51
14.105742
  0
ARC
  8
0
 10
-296.323273
 20
-170.766037
 40
2.252276
 50
15.416729
 51
51.386627
  0
ARC
  8
0
 10
-297.598877
 20
-172.629623
 40
4.507541
 50
53.500561
 51
126.499435
  0
ARC
  8
0
 10
-298.874481
 20
-170.766037
 40
2.252257
 50
128.613373
 51
164.583267
  0
ARC
  8
0
 10
-299.335419
 20
-170.597076
 40
1.763469
 50
165.894257
 51
179.942993
  0
ARC
  8
0
 10
-313.964264
 20
-183.397079
 40
1.763459
 50
0.054039
 51
14.105742
  0
ARC
  8
0
 10
-314.425201
 20
-183.566040
 40
2.252276
 50
15.416729
 51
51.386627
  0
ARC
  8
0
 10
-315.700806
 20
-185.429626
 40
4.507541
 50
53.500561
 51
126.499435
  0
ARC
  8
0
 10
-316.976410
 20
-183.566040
 40
2.252257
 50
128.613373
 51
164.583267
  0
ARC
  8
0
 10
-317.437347
 20
-183.397079
 40
1.763469
 50
165.894257
 51
179.942993
  0
ARC
  8
0
 10
-295.862335
 20
-171.092056
 40
1.763469
 50
345.894257
 51
14.105742
  0
ARC
  8
0
 10
-296.323273
 20
-171.261017
 40
2.252276
 50
15.416729
 51
51.386627
  0
ARC
  8
0
 10
-297.598877
 20
-173.124588
 40
4.507528
 50
53.500446
 51
126.499557
  0
ARC
  8
0
 10
-298.874481
 20
-171.261017
 40
2.252257
 50
128.613373
 51
164.583267
  0
ARC
  8
0
 10
-299.335419
 20
-171.092056
 40
1.763469
 50
165.894257
 51
194.105743
  0
ARC
  8
0
 10
-298.874481
 20
-170.923096
 40
2.252276
 50
195.416733
 51
231.386627
  0
ARC
  8
0
 10
-297.598877
 20
-169.059525
 40
4.507528
 50
233.500443
 51
306.499542
  0
ARC
  8
0
 10
-296.323273
 20
-170.923096
 40
2.252257
 50
308.613373
 51
344.583282
  0
ARC
  8
0
 10
-313.964264
 20
-183.892059
 40
1.763469
 50
345.894257
 51
14.105742
  0
ARC
  8
0
 10
-314.425201
 20
-184.061020
 40
2.252276
 50
15.416729
 51
51.386627
  0
ARC
  8
0
 10
-315.700806
 20
-185.924606
 40
4.507541
 50
53.500561
 51
126.499435
  0
ARC
  8
0
 10
-316.976410
 20
-184.061020
 40
2.252257
 50
128.613373
 51
164.583267
  0
ARC
  8
0
 10
-317.437347
 20
-183.892059
 40
1.763469
 50
165.894257
 51
194.105743
  0
ARC
  8
0
 10
-316.976410
 20
-183.723099
 40
2.252276
 50
195.416733
 51
231.386627
  0
ARC
  8
0
 10
-315.700806
 20
-181.859512
 40
4.507541
 50
233.500565
 51
306.499451
  0
ARC
  8
0
 10
-314.425201
 20
-183.723099
 40
2.252257
 50
308.613373
 51
344.583282
  0
ARC
  8
0
 10
-296.308777
 20
-171.092056
 40
1.309920
 50
0.268970
 51
14.105849
  0
ARC
  8
0
 10
-296.651184
 20
-171.217590
 40
1.673029
 50
15.417593
 51
51.388344
  0
ARC
  8
0
 10
-297.598877
 20
-172.602142
 40
3.348587
 50
53.501839
 51
126.498161
  0
ARC
  8
0
 10
-298.546570
 20
-171.217590
 40
1.673033
 50
128.611664
 51
164.582413
  0
ARC
  8
0
 10
-298.888977
 20
-171.092056
 40
1.309914
 50
165.894150
 51
180.000000
  0
ARC
  8
0
 10
-314.410706
 20
-183.888885
 40
1.309909
 50
0.130148
 51
14.247650
  0
ARC
  8
0
 10
-314.752808
 20
-184.015259
 40
1.673034
 50
15.559076
 51
51.530018
  0
ARC
  8
0
 10
-315.697083
 20
-185.402130
 40
3.348578
 50
53.643192
 51
126.639412
  0
ARC
  8
0
 10
-316.648163
 20
-184.019928
 40
1.673041
 50
128.753326
 51
164.723389
  0
ARC
  8
0
 10
-316.990906
 20
-183.895233
 40
1.309895
 50
166.034988
 51
179.861176
  0
ARC
  8
0
 10
-296.308777
 20
-171.374908
 40
1.309914
 50
345.894165
 51
14.105849
  0
ARC
  8
0
 10
-296.651184
 20
-171.500443
 40
1.673029
 50
15.417593
 51
51.388344
  0
ARC
  8
0
 10
-297.598877
 20
-172.884995
 40
3.348587
 50
53.501839
 51
126.498161
  0
ARC
  8
0
 10
-298.546570
 20
-171.500443
 40
1.673033
 50
128.611664
 51
164.582413
  0
ARC
  8
0
 10
-298.888977
 20
-171.374908
 40
1.309914
 50
165.894150
 51
194.105850
  0
ARC
  8
0
 10
-298.546570
 20
-171.249374
 40
1.673029
 50
195.417587
 51
231.388336
  0
ARC
  8
0
 10
-297.598877
 20
-169.864822
 40
3.348587
 50
233.501831
 51
306.498169
  0
ARC
  8
0
 10
-296.651184
 20
-171.249374
 40
1.673033
 50
308.611664
 51
344.582397
  0
ARC
  8
0
 10
-314.410706
 20
-184.171722
 40
1.309895
 50
346.034973
 51
14.247650
  0
ARC
  8
0
 10
-314.752808
 20
-184.298096
 40
1.673034
 50
15.559076
 51
51.530018
  0
ARC
  8
0
 10
-315.697083
 20
-185.684967
 40
3.348578
 50
53.643192
 51
126.639412
  0
ARC
  8
0
 10
-316.648163
 20
-184.302765
 40
1.673041
 50
128.753326
 51
164.723389
  0
ARC
  8
0
 10
-316.990906
 20
-184.178070
 40
1.309895
 50
166.034988
 51
194.247650
  0
ARC
  8
0
 10
-316.648804
 20
-184.051697
 40
1.673034
 50
195.559082
 51
231.530014
  0
ARC
  8
0
 10
-315.704529
 20
-182.664825
 40
3.348578
 50
233.643188
 51
306.639404
  0
ARC
  8
0
 10
-314.753448
 20
-184.047028
 40
1.673041
 50
308.753326
 51
344.723389
  0
ARC
  8
0
 10
-306.649841
 20
-183.356522
 40
14.102459
 50
66.837936
 51
126.498627
  0
ARC
  8
0
 10
-310.640900
 20
-177.525726
 40
7.046135
 50
128.612335
 51
164.582642
  0
ARC
  8
0
 10
-312.082977
 20
-176.997070
 40
5.516846
 50
165.894043
 51
194.106125
  0
ARC
  8
0
 10
-310.640900
 20
-176.468414
 40
7.046132
 50
195.417465
 51
219.419083
  0
ARC
  8
0
 10
-306.649841
 20
-170.637619
 40
14.102461
 50
246.931091
 51
306.498627
  0
ARC
  8
0
 10
-302.658783
 20
-176.468414
 40
7.046135
 50
308.612335
 51
344.582642
  0
ARC
  8
0
 10
-301.216705
 20
-176.997070
 40
5.516846
 50
345.894043
 51
14.106118
  0
ARC
  8
0
 10
-302.658783
 20
-177.525726
 40
7.046132
 50
15.417472
 51
34.738102
  0
ARC
  8
0
 10
-296.502777
 20
-171.644135
 40
1.112905
 50
345.893646
 51
14.106358
  0
ARC
  8
0
 10
-296.793701
 20
-171.750793
 40
1.421424
 50
15.418032
 51
51.388222
  0
ARC
  8
0
 10
-297.598877
 20
-172.927155
 40
2.845018
 50
53.502056
 51
126.497940
  0
ARC
  8
0
 10
-298.404053
 20
-171.750793
 40
1.421421
 50
128.611786
 51
164.581970
  0
ARC
  8
0
 10
-298.694977
 20
-171.644135
 40
1.112905
 50
165.893646
 51
194.106354
  0
ARC
  8
0
 10
-298.404053
 20
-171.537476
 40
1.421424
 50
195.418030
 51
231.388214
  0
ARC
  8
0
 10
-297.598877
 20
-170.361115
 40
2.845018
 50
233.502060
 51
306.497955
  0
ARC
  8
0
 10
-296.793701
 20
-171.537476
 40
1.421421
 50
308.611786
 51
344.581970
  0
ARC
  8
0
 10
-296.775452
 20
-171.894135
 40
0.836589
 50
345.896332
 51
14.103663
  0
ARC
  8
0
 10
-296.994019
 20
-171.974243
 40
1.068367
 50
15.414164
 51
51.382877
  0
ARC
  8
0
 10
-297.598877
 20
-172.857788
 40
2.137660
 50
53.496387
 51
126.503609
  0
ARC
  8
0
 10
-298.203735
 20
-171.974243
 40
1.068362
 50
128.617126
 51
164.585831
  0
ARC
  8
0
 10
-298.422302
 20
-171.894135
 40
0.836589
 50
165.896332
 51
194.103668
  0
ARC
  8
0
 10
-298.203735
 20
-171.814026
 40
1.068367
 50
195.414169
 51
231.382874
  0
ARC
  8
0
 10
-297.598877
 20
-170.930481
 40
2.137660
 50
233.496384
 51
306.503601
  0
ARC
  8
0
 10
-296.994019
 20
-171.814026
 40
1.068362
 50
308.617126
 51
344.585846
  0
ARC
  8
0
 10
-297.167755
 20
-172.081619
 40
0.437387
 50
345.891998
 51
14.107992
  0
ARC
  8
0
 10
-297.282196
 20
-172.123581
 40
0.558751
 50
15.420757
 51
51.393951
  0
ARC
  8
0
 10
-297.598877
 20
-172.586365
 40
1.118744
 50
53.508961
 51
126.491035
  0
ARC
  8
0
 10
-297.915558
 20
-172.123581
 40
0.558740
 50
128.606049
 51
164.579239
  0
ARC
  8
0
 10
-298.029999
 20
-172.081619
 40
0.437387
 50
165.892014
 51
194.107986
  0
ARC
  8
0
 10
-297.915558
 20
-172.039658
 40
0.558751
 50
195.420761
 51
231.393951
  0
ARC
  8
0
 10
-297.598877
 20
-171.576874
 40
1.118744
 50
233.508957
 51
306.491028
  0
ARC
  8
0
 10
-297.282196
 20
-172.039658
 40
0.558740
 50
308.606049
 51
344.579254
  0
ARC
  8
0
 10
-314.604706
 20
-184.444153
 40
1.112905
 50
345.893646
 51
14.106358
  0
ARC
  8
0
 10
-314.895630
 20
-184.550812
 40
1.421424
 50
15.418032
 51
51.388222
  0
ARC
  8
0
 10
-315.700806
 20
-185.727173
 40
2.845018
 50
53.502056
 51
126.497940
  0
ARC
  8
0
 10
-316.505981
 20
-184.550812
 40
1.421421
 50
128.611786
 51
164.581970
  0
ARC
  8
0
 10
-316.796906
 20
-184.444153
 40
1.112905
 50
165.893646
 51
194.106354
  0
ARC
  8
0
 10
-316.505981
 20
-184.337494
 40
1.421424
 50
195.418030
 51
231.388214
  0
ARC
  8
0
 10
-315.700806
 20
-183.161133
 40
2.845018
 50
233.502060
 51
306.497955
  0
ARC
  8
0
 10
-314.895630
 20
-184.337494
 40
1.421421
 50
308.611786
 51
344.581970
  0
ARC
  8
0
 10
-314.876678
 20
-184.694122
 40
0.835889
 50
345.889679
 51
14.110315
  0
ARC
  8
0
 10
-315.095428
 20
-184.774338
 40
1.067875
 50
15.423141
 51
51.397472
  0
ARC
  8
0
 10
-315.700806
 20
-185.659012
 40
2.138396
 50
53.510983
 51
126.489021
  0
ARC
  8
0
 10
-316.306183
 20
-184.774338
 40
1.067871
 50
128.602524
 51
164.576859
  0
ARC
  8
0
 10
-316.524933
 20
-184.694122
 40
0.835889
 50
165.889679
 51
194.110321
  0
ARC
  8
0
 10
-316.306183
 20
-184.613907
 40
1.067875
 50
195.423141
 51
231.397476
  0
ARC
  8
0
 10
-315.700806
 20
-183.729233
 40
2.138396
 50
233.510986
 51
306.489014
  0
ARC
  8
0
 10
-315.095428
 20
-184.613907
 40
1.067871
 50
308.602539
 51
344.576874
  0
ARC
  8
0
 10
-315.269684
 20
-184.881622
 40
0.437387
 50
345.891998
 51
14.107992
  0
ARC
  8
0
 10
-315.384125
 20
-184.923584
 40
0.558751
 50
15.420757
 51
51.393951
  0
ARC
  8
0
 10
-315.700806
 20
-185.386368
 40
1.118744
 50
53.508961
 51
126.491035
  0
ARC
  8
0
 10
-316.017487
 20
-184.923584
 40
0.558740
 50
128.606049
 51
164.579239
  0
ARC
  8
0
 10
-316.131927
 20
-184.881622
 40
0.437387
 50
165.892014
 51
194.107986
  0
ARC
  8
0
 10
-316.017487
 20
-184.839661
 40
0.558751
 50
195.420761
 51
231.393951
  0
ARC
  8
0
 10
-315.700806
 20
-184.376877
 40
1.118744
 50
233.508957
 51
306.491028
  0
ARC
  8
0
 10
-315.384125
 20
-184.839661
 40
0.558740
 50
308.606049
 51
344.579254
  0
ARC
  8
0
 10
-306.649841
 20
-179.915878
 40
5.215759
 50
68.764847
 51
111.263916
  0
ARC
  8
0
 10
-304.168793
 20
-176.997040
 40
2.518963
 50
5.826286
 51
14.106616
  0
ARC
  8
0
 10
-304.827332
 20
-177.238464
 40
3.217319
 50
15.418159
 51
51.388657
  0
ARC
  8
0
 10
-306.649841
 20
-179.901184
 40
6.439656
 50
53.502476
 51
126.497528
  0
ARC
  8
0
 10
-308.472351
 20
-177.238464
 40
3.217324
 50
128.611343
 51
164.581833
  0
ARC
  8
0
 10
-309.130890
 20
-176.997040
 40
2.518955
 50
165.893387
 51
174.310822
  0
ARC
  8
0
 10
-306.649841
 20
-179.349030
 40
5.215764
 50
55.642887
 51
124.379990
  0
POINT
  8
0
 10
-132.618713
 20
-69.375381
  0
POINT
  8
0
 10
-77.618713
 20
-69.375381
  0
LINE
  8
0
 10
-121.729271
 20
-57.637409
 11
-130.497391
 21
-48.869286
  0
LINE
  8
0
 10
-148.175064
 20
-67.961166
 11
-131.911606
 21
-51.697716
  0
LINE
  8
0
 10
-161.544922
 20
-89.816307
 11
-155.599686
 21
-83.871071
  0
LINE
  8
0
 10
-174.137772
 20
-98.992401
 11
-164.945236
 21
-91.278946
  0
LINE
  8
0
 10
-155.599686
 20
-83.871071
 11
-150.877258
 21
-77.126732
  0
LINE
  8
0
 10
-127.668968
 20
-51.697716
 11
-131.911606
 21
-51.697716
  0
LINE
  8
0
 10
-128.446777
 20
-64.354919
 11
-121.729271
 21
-57.637409
  0
LINE
  8
0
 10
-162.235733
 20
-110.894440
 11
-154.522278
 21
-101.701904
  0
LINE
  8
0
 10
-153.059647
 20
-98.301590
 11
-147.114410
 21
-92.356354
  0
LINE
  8
0
 10
-147.114410
 20
-92.356354
 11
-140.370071
 21
-87.633926
  0
LINE
  8
0
 10
-131.204498
 20
-84.931732
 11
-114.941048
 21
-68.668274
  0
LINE
  8
0
 10
-114.941048
 20
-64.425636
 11
-114.941048
 21
-68.668274
  0
LINE
  8
0
 10
-120.880745
 20
-58.485939
 11
-114.941048
 21
-64.425636
  0
LINE
  8
0
 10
-127.598251
 20
-65.203453
 11
-120.880737
 21
-58.485939
  0
LINE
  8
0
 10
-132.972260
 20
-78.214218
 11
-141.457550
 21
-69.728935
  0
LINE
  8
0
 10
-132.265167
 20
-78.214218
 11
-123.779877
 21
-69.728935
  0
LINE
  8
0
 10
-141.457550
 20
-69.021828
 11
-132.972260
 21
-60.536549
  0
LINE
  8
0
 10
-142.164658
 20
-69.021828
 11
-132.972260
 21
-59.829441
  0
LINE
  8
0
 10
-123.072769
 20
-69.021828
 11
-127.244705
 21
-64.849899
  0
LINE
  8
0
 10
-132.265167
 20
-78.921326
 11
-123.072769
 21
-69.728935
  0
LINE
  8
0
 10
-132.972260
 20
-78.921326
 11
-142.164658
 21
-69.728935
  0
LINE
  8
0
 10
-123.779877
 20
-69.021828
 11
-132.265167
 21
-60.536549
  0
LINE
  8
0
 10
-128.093231
 20
-64.001373
 11
-132.265167
 21
-59.829441
  0
LINE
  8
0
 10
-123.143486
 20
-59.051620
 11
-122.294952
 21
-59.900150
  0
LINE
  8
0
 10
-127.386124
 20
-63.294266
 11
-126.537598
 21
-64.142792
  0
LINE
  8
0
 10
-137.309647
 20
-54.974426
 11
-131.463318
 21
-49.128105
  0
LINE
  8
0
 10
-137.568466
 20
-55.940353
 11
-130.497391
 21
-48.869286
  0
LINE
  8
0
 10
-137.568466
 20
-55.940353
 11
-136.861359
 21
-56.647461
  0
LINE
  8
0
 10
-137.568466
 20
-55.940353
 11
-137.309647
 21
-54.974426
  0
LINE
  8
0
 10
-130.497391
 20
-48.869301
 11
-131.463318
 21
-49.128117
  0
LINE
  8
0
 10
-155.119202
 20
-60.975376
 11
-182.074554
 21
-34.020020
  0
LINE
  8
0
 10
-182.074554
 20
-104.730728
 11
-155.119202
 21
-77.775383
  0
LINE
  8
0
 10
-182.074570
 20
-104.730743
 11
-204.119202
 21
-82.686096
  0
LINE
  8
0
 10
-204.119217
 20
-56.064659
 11
-182.074554
 21
-34.020008
  0
LINE
  8
0
 10
-155.119202
 20
-77.775383
 11
-155.119202
 21
-60.975376
  0
LINE
  8
0
 10
-204.119202
 20
-82.561790
 11
-204.119202
 21
-56.188957
  0
LINE
  8
0
 10
-175.710602
 20
-40.383980
 11
-168.993088
 21
-33.666470
  0
LINE
  8
0
 10
-168.639511
 20
-47.455063
 11
-161.921997
 21
-40.737549
  0
LINE
  8
0
 10
-167.967758
 20
-33.984653
 11
-167.332001
 21
-33.348900
  0
LINE
  8
0
 10
-162.240204
 20
-39.712238
 11
-161.604446
 21
-39.076477
  0
LINE
  8
0
 10
-161.772552
 20
-40.179871
 11
-168.435379
 21
-33.517052
  0
LINE
  8
0
 10
-167.332001
 20
-33.348927
 11
-161.604431
 21
-39.076492
  0
LINE
  8
0
 10
-161.921997
 20
-40.737549
 11
-161.772568
 21
-40.179878
  0
LINE
  8
0
 10
-168.993057
 20
-33.666470
 11
-168.435379
 21
-33.517040
  0
LINE
  8
0
 10
-161.921997
 20
-40.737549
 11
-168.993057
 21
-33.666481
  0
LINE
  8
0
 10
-191.812836
 20
-79.648216
 11
-187.895874
 21
-77.200623
  0
LINE
  8
0
 10
-196.052200
 20
-72.863831
 11
-192.135239
 21
-70.416245
  0
LINE
  8
0
 10
-191.812820
 20
-79.648193
 11
-195.890991
 21
-77.479797
  0
LINE
  8
0
 10
-188.057068
 20
-72.584633
 11
-192.135223
 21
-70.416237
  0
LINE
  8
0
 10
-195.891006
 20
-77.479828
 11
-196.052200
 21
-72.863831
  0
LINE
  8
0
 10
-187.895905
 20
-77.200630
 11
-188.057098
 21
-72.584641
  0
LINE
  8
0
 10
-191.274841
 20
-76.906029
 11
-193.351685
 21
-73.582375
  0
LINE
  8
0
 10
-190.596390
 20
-76.482086
 11
-192.673248
 21
-73.158432
  0
LINE
  8
0
 10
-188.541595
 20
-66.809105
 11
-187.581284
 21
-62.291237
  0
LINE
  8
0
 10
-196.366745
 20
-65.145813
 11
-195.406448
 21
-60.627937
  0
LINE
  8
0
 10
-188.541595
 20
-66.809113
 11
-192.934341
 21
-68.236397
  0
LINE
  8
0
 10
-191.013718
 20
-59.200668
 11
-195.406464
 21
-60.627960
  0
LINE
  8
0
 10
-192.934341
 20
-68.236389
 11
-196.366776
 21
-65.145805
  0
LINE
  8
0
 10
-187.581299
 20
-62.291237
 11
-191.013733
 21
-59.200653
  0
LINE
  8
0
 10
-190.140427
 20
-64.517197
 11
-193.973969
 21
-63.702354
  0
LINE
  8
0
 10
-189.974091
 20
-63.734680
 11
-193.807632
 21
-62.919838
  0
LINE
  8
0
 10
-142.118713
 20
-104.500160
 11
-142.118713
 21
-88.858337
  0
LINE
  8
0
 10
-142.118713
 20
-57.767193
 11
-142.118713
 21
-34.250603
  0
LINE
  8
0
 10
-204.118713
 20
-82.775391
 11
-204.118713
 21
-82.561790
  0
LINE
  8
0
 10
-182.151978
 20
-104.742142
 11
-204.118729
 21
-82.775391
  0
LINE
  8
0
 10
-204.118729
 20
-55.975365
 11
-182.151978
 21
-34.008606
  0
LINE
  8
0
 10
-204.118713
 20
-56.188957
 11
-204.118713
 21
-55.975365
  0
LINE
  8
0
 10
-182.151962
 20
-104.742142
 11
-182.107559
 21
-104.697739
  0
LINE
  8
0
 10
-180.554962
 20
-104.201065
 11
-175.605209
 21
-99.251320
  0
LINE
  8
0
 10
-179.635712
 20
-103.847519
 11
-175.958755
 21
-100.170563
  0
LINE
  8
0
 10
-176.794159
 20
-103.056580
 11
-176.749695
 21
-103.012115
  0
LINE
  8
0
 10
-175.958771
 20
-100.170578
 11
-176.241608
 21
-99.887733
  0
LINE
  8
0
 10
-179.635727
 20
-103.847519
 11
-179.918564
 21
-103.564674
  0
LINE
  8
0
 10
-175.605225
 20
-99.251335
 11
-176.100189
 21
-98.756363
  0
LINE
  8
0
 10
-180.554962
 20
-104.201065
 11
-181.049927
 21
-103.706100
  0
LINE
  8
0
 10
-167.754944
 20
-91.401070
 11
-162.805206
 21
-86.451324
  0
LINE
  8
0
 10
-166.835709
 20
-91.047516
 11
-163.158752
 21
-87.370560
  0
LINE
  8
0
 10
-163.994156
 20
-90.256577
 11
-163.949692
 21
-90.212112
  0
LINE
  8
0
 10
-163.158752
 20
-87.370567
 11
-163.441605
 21
-87.087723
  0
LINE
  8
0
 10
-166.835709
 20
-91.047531
 11
-167.118546
 21
-90.764679
  0
LINE
  8
0
 10
-162.805206
 20
-86.451324
 11
-163.300171
 21
-85.956352
  0
LINE
  8
0
 10
-167.754944
 20
-91.401077
 11
-168.249908
 21
-90.906105
  0
LINE
  8
0
 10
-162.805191
 20
-52.299435
 11
-167.754944
 21
-47.349686
  0
LINE
  8
0
 10
-163.158752
 20
-51.380196
 11
-166.835693
 21
-47.703239
  0
LINE
  8
0
 10
-163.949677
 20
-48.538643
 11
-163.994141
 21
-48.494179
  0
LINE
  8
0
 10
-166.835709
 20
-47.703247
 11
-167.118546
 21
-47.986092
  0
LINE
  8
0
 10
-163.158752
 20
-51.380196
 11
-163.441589
 21
-51.663036
  0
LINE
  8
0
 10
-167.754944
 20
-47.349682
 11
-168.249908
 21
-47.844654
  0
LINE
  8
0
 10
-162.805176
 20
-52.299435
 11
-163.300156
 21
-52.794407
  0
LINE
  8
0
 10
-175.605194
 20
-39.499432
 11
-180.554947
 21
-34.549686
  0
LINE
  8
0
 10
-175.958740
 20
-38.580193
 11
-179.635696
 21
-34.903236
  0
LINE
  8
0
 10
-176.749680
 20
-35.738640
 11
-176.794144
 21
-35.694176
  0
LINE
  8
0
 10
-179.635681
 20
-34.903236
 11
-179.918533
 21
-35.186081
  0
LINE
  8
0
 10
-175.958740
 20
-38.580193
 11
-176.241577
 21
-38.863037
  0
LINE
  8
0
 10
-180.554932
 20
-34.549694
 11
-181.049911
 21
-35.044666
  0
LINE
  8
0
 10
-175.605179
 20
-39.499432
 11
-176.100159
 21
-39.994408
  0
LINE
  8
0
 10
-182.151962
 20
-34.008614
 11
-182.107544
 21
-34.053020
  0
LINE
  8
0
 10
-138.414261
 20
-19.322464
 11
-138.882935
 21
-21.071533
  0
LINE
  8
0
 10
-126.823158
 20
-19.322468
 11
-126.354492
 21
-21.071537
  0
LINE
  8
0
 10
-138.414261
 20
-119.428291
 11
-138.882935
 21
-117.679214
  0
LINE
  8
0
 10
-126.823166
 20
-119.428299
 11
-126.354507
 21
-117.679230
  0
LINE
  8
0
 10
-93.918488
 20
-98.952293
 11
-92.169403
 21
-99.420959
  0
LINE
  8
0
 10
-87.654251
 20
-88.102356
 11
-86.373856
 21
-89.382759
  0
LINE
  8
0
 10
-87.654243
 20
-50.648472
 11
-86.373825
 21
-49.368050
  0
LINE
  8
0
 10
-93.918427
 20
-39.798508
 11
-92.169380
 21
-39.329857
  0
LINE
  8
0
 10
-139.393570
 20
-49.420464
 11
-142.118713
 21
-41.033325
  0
LINE
  8
0
 10
-142.118713
 20
-97.717216
 11
-139.393631
 21
-89.330292
  0
LINE
  8
0
 10
-121.776131
 20
-101.849403
 11
-125.843834
 21
-89.330299
  0
LINE
  8
0
 10
-109.916725
 20
-95.002373
 11
-118.724716
 21
-85.220100
  0
LINE
  8
0
 10
-99.074097
 20
-76.222450
 11
-111.949814
 21
-73.485626
  0
LINE
  8
0
 10
-99.074097
 20
-62.528381
 11
-111.949783
 21
-65.265190
  0
LINE
  8
0
 10
-118.724678
 20
-53.530724
 11
-109.916664
 21
-43.748428
  0
LINE
  8
0
 10
-125.843765
 20
-49.420464
 11
-121.776070
 21
-36.901394
  0
LINE
  8
0
 10
-134.638351
 20
-85.875381
 11
-130.599121
 21
-85.875381
  0
LINE
  8
0
 10
-119.339119
 20
-79.374443
 11
-117.319496
 21
-75.876366
  0
LINE
  8
0
 10
-118.449478
 20
-60.917206
 11
-119.339073
 21
-59.376373
  0
LINE
  8
0
 10
-89.118713
 20
-84.566826
 11
-89.118713
 21
-54.184006
  0
LINE
  8
0
 10
-97.712517
 20
-39.299011
 11
-124.024857
 21
-24.107571
  0
LINE
  8
0
 10
-141.212570
 20
-114.643188
 11
-157.493805
 21
-105.243217
  0
LINE
  8
0
 10
-124.024872
 20
-114.643219
 11
-97.712578
 21
-99.451805
  0
LINE
  8
0
 10
-162.761276
 20
-36.548706
 11
-141.212555
 21
-24.107555
  0
LINE
  8
0
 10
-176.229263
 20
-99.875381
 11
-173.493530
 21
-99.875381
  0
LINE
  8
0
 10
-133.007095
 20
-76.765190
 11
-140.008514
 21
-69.763756
  0
LINE
  8
0
 10
-132.230331
 20
-76.765182
 11
-125.228912
 21
-69.763756
  0
LINE
  8
0
 10
-140.008514
 20
-68.987007
 11
-133.007095
 21
-61.985577
  0
LINE
  8
0
 10
-125.228905
 20
-68.987007
 11
-132.230331
 21
-61.985577
  0
LINE
  8
0
 10
-132.230362
 20
-61.985573
 11
-131.784851
 21
-61.016865
  0
LINE
  8
0
 10
-133.007095
 20
-61.985584
 11
-133.452606
 21
-61.016880
  0
LINE
  8
0
 10
-140.008514
 20
-68.987000
 11
-140.977219
 21
-68.541489
  0
LINE
  8
0
 10
-140.977234
 20
-70.209244
 11
-140.008514
 21
-69.763741
  0
LINE
  8
0
 10
-133.452606
 20
-77.733887
 11
-133.007080
 21
-76.765182
  0
LINE
  8
0
 10
-131.784851
 20
-77.733871
 11
-132.230347
 21
-76.765167
  0
LINE
  8
0
 10
-125.228928
 20
-69.763748
 11
-124.260223
 21
-70.209251
  0
LINE
  8
0
 10
-124.260208
 20
-68.541504
 11
-125.228912
 21
-68.987015
  0
LINE
  8
0
 10
-174.471771
 20
-98.262054
 11
-168.744217
 21
-92.534492
  0
LINE
  8
0
 10
-174.471817
 20
-98.262054
 11
-175.038849
 21
-97.695007
  0
LINE
  8
0
 10
-168.744232
 20
-92.534508
 11
-169.311295
 21
-91.967461
  0
LINE
  8
0
 10
-146.654602
 20
-39.075382
 11
-148.386658
 21
-36.075378
  0
LINE
  8
0
 10
-148.386658
 20
-36.075378
 11
-151.850769
 21
-36.075378
  0
LINE
  8
0
 10
-153.582809
 20
-39.075378
 11
-151.850769
 21
-36.075382
  0
LINE
  8
0
 10
-151.850769
 20
-42.075382
 11
-153.582809
 21
-39.075378
  0
LINE
  8
0
 10
-148.386658
 20
-42.075378
 11
-151.850769
 21
-42.075378
  0
LINE
  8
0
 10
-146.654602
 20
-39.075382
 11
-148.386658
 21
-42.075378
  0
LINE
  8
0
 10
-146.654617
 20
-99.675377
 11
-148.386658
 21
-96.675377
  0
LINE
  8
0
 10
-148.386658
 20
-96.675377
 11
-151.850769
 21
-96.675377
  0
LINE
  8
0
 10
-153.582825
 20
-99.675377
 11
-151.850769
 21
-96.675377
  0
LINE
  8
0
 10
-151.850769
 20
-102.675385
 11
-153.582825
 21
-99.675377
  0
LINE
  8
0
 10
-148.386658
 20
-102.675377
 11
-151.850769
 21
-102.675377
  0
LINE
  8
0
 10
-146.654617
 20
-99.675377
 11
-148.386658
 21
-102.675377
  0
LINE
  8
0
 10
-166.518188
 20
-80.720673
 11
-167.518188
 21
-81.298027
  0
LINE
  8
0
 10
-167.518188
 20
-81.298027
 11
-167.518188
 21
-82.452728
  0
LINE
  8
0
 10
-166.518188
 20
-83.030075
 11
-167.518188
 21
-82.452728
  0
LINE
  8
0
 10
-165.518188
 20
-82.452728
 11
-166.518188
 21
-83.030075
  0
LINE
  8
0
 10
-165.518188
 20
-81.298027
 11
-165.518188
 21
-82.452728
  0
LINE
  8
0
 10
-166.518188
 20
-80.720673
 11
-165.518188
 21
-81.298027
  0
LINE
  8
0
 10
-166.518188
 20
-55.720673
 11
-167.518188
 21
-56.298027
  0
LINE
  8
0
 10
-167.518188
 20
-56.298027
 11
-167.518188
 21
-57.452728
  0
LINE
  8
0
 10
-166.518188
 20
-58.030075
 11
-167.518188
 21
-57.452724
  0
LINE
  8
0
 10
-165.518188
 20
-57.452728
 11
-166.518188
 21
-58.030079
  0
LINE
  8
0
 10
-165.518188
 20
-56.298027
 11
-165.518188
 21
-57.452728
  0
LINE
  8
0
 10
-166.518188
 20
-55.720673
 11
-165.518188
 21
-56.298027
  0
LINE
  8
0
 10
-178.539001
 20
-85.967262
 11
-178.539001
 21
-90.967262
  0
LINE
  8
0
 10
-181.039001
 20
-88.467262
 11
-176.039001
 21
-88.467262
  0
LINE
  8
0
 10
-178.539001
 20
-47.783493
 11
-178.539001
 21
-52.783493
  0
LINE
  8
0
 10
-181.039001
 20
-50.283493
 11
-176.039001
 21
-50.283493
  0
LINE
  8
0
 10
-153.745392
 20
-106.467819
 11
-153.145004
 21
-105.427902
  0
LINE
  8
0
 10
-154.178589
 20
-106.218124
 11
-153.578217
 21
-105.178268
  0
LINE
  8
0
 10
-154.178528
 20
-32.532600
 11
-153.578156
 21
-33.572453
  0
LINE
  8
0
 10
-153.745331
 20
-32.282909
 11
-153.144928
 21
-33.322819
  0
ARC
  8
0
 10
-132.618713
 20
-69.375381
 40
50.999996
 50
215.501633
 51
234.498444
  0
ARC
  8
0
 10
-165.080460
 20
-86.280777
 40
4.999998
 50
271.549744
 51
315.000000
  0
ARC
  8
0
 10
-163.164536
 20
-68.523087
 40
14.999996
 50
325.000000
 51
2.146879
  0
ARC
  8
0
 10
-149.524109
 20
-101.837128
 40
5.000005
 50
135.000000
 51
178.450272
  0
ARC
  8
0
 10
-131.766418
 20
-99.921204
 40
15.000000
 50
87.853119
 51
125.000031
  0
ARC
  8
0
 10
-132.618713
 20
-77.860664
 40
0.499995
 50
225.000626
 51
314.999390
  0
ARC
  8
0
 10
-124.133430
 20
-69.375381
 40
0.500001
 50
315.000000
 51
45.000000
  0
ARC
  8
0
 10
-132.618713
 20
-60.890099
 40
0.499995
 50
45.000618
 51
134.999374
  0
ARC
  8
0
 10
-141.103989
 20
-69.375381
 40
0.500006
 50
135.000626
 51
224.999374
  0
ARC
  8
0
 10
-132.618713
 20
-78.567772
 40
0.499995
 50
225.000626
 51
314.999390
  0
ARC
  8
0
 10
-123.426323
 20
-69.375381
 40
0.500001
 50
315.000000
 51
45.000000
  0
ARC
  8
0
 10
-132.618713
 20
-60.182995
 40
0.499995
 50
45.000618
 51
134.999374
  0
ARC
  8
0
 10
-141.811096
 20
-69.375381
 40
0.500006
 50
135.000626
 51
224.999374
  0
CIRCLE
  8
0
 10
-166.518188
 20
-69.375381
 40
0.750000
  0
CIRCLE
  8
0
 10
-166.518188
 20
-69.375381
 40
9.200000
  0
ARC
  8
0
 10
-166.518188
 20
-69.375381
 40
10.000007
 50
103.304718
 51
256.695282
  0
ARC
  8
0
 10
-169.346603
 20
-41.091106
 40
7.999993
 50
14.585622
 51
75.414444
  0
CIRCLE
  8
0
 10
-191.974030
 20
-75.032227
 40
2.000000
  0
CIRCLE
  8
0
 10
-191.974030
 20
-75.032227
 40
1.750000
  0
CIRCLE
  8
0
 10
-191.974030
 20
-75.032227
 40
4.000000
  0
CIRCLE
  8
0
 10
-191.974030
 20
-63.718521
 40
2.000000
  0
CIRCLE
  8
0
 10
-191.974030
 20
-63.718521
 40
1.750000
  0
CIRCLE
  8
0
 10
-191.974030
 20
-63.718521
 40
4.000000
  0
ARC
  8
0
 10
-166.518188
 20
-69.375381
 40
9.999995
 50
283.304657
 51
76.695282
  0
ARC
  8
0
 10
-132.618713
 20
-69.375381
 40
14.999998
 50
129.296478
 51
171.869919
  0
ARC
  8
0
 10
-132.618713
 20
-69.375381
 40
42.999996
 50
112.431503
 51
133.157013
  0
ARC
  8
0
 10
-132.618713
 20
-69.375381
 40
43.000000
 50
235.337509
 51
247.568527
  0
ARC
  8
0
 10
-147.118713
 20
-104.500160
 40
5.000001
 50
247.568451
 51
0.000000
  0
ARC
  8
0
 10
-147.118713
 20
-34.250603
 40
5.000000
 50
0.000000
 51
112.431557
  0
ARC
  8
0
 10
-169.834061
 20
-98.081093
 40
3.999998
 50
71.135796
 51
82.878708
  0
CIRCLE
  8
0
 10
-178.539001
 20
-88.467262
 40
5.150000
  0
CIRCLE
  8
0
 10
-178.539001
 20
-50.283493
 40
5.150000
  0
CIRCLE
  8
0
 10
-178.539001
 20
-50.283493
 40
4.966500
  0
CIRCLE
  8
0
 10
-166.518188
 20
-81.875381
 40
2.600000
  0
CIRCLE
  8
0
 10
-166.518188
 20
-81.875381
 40
3.500000
  0
CIRCLE
  8
0
 10
-166.518188
 20
-56.875374
 40
2.600000
  0
CIRCLE
  8
0
 10
-166.518188
 20
-56.875374
 40
3.500000
  0
ARC
  8
0
 10
-178.915466
 20
-100.935257
 40
3.000004
 50
256.108643
 51
314.999786
  0
ARC
  8
0
 10
-178.871002
 20
-100.890793
 40
2.999992
 50
314.999786
 51
13.891067
  0
ARC
  8
0
 10
-166.115463
 20
-88.135262
 40
3.000000
 50
256.108948
 51
315.000092
  0
ARC
  8
0
 10
-166.070999
 20
-88.090797
 40
2.999998
 50
315.000092
 51
13.891067
  0
ARC
  8
0
 10
-166.070999
 20
-50.659962
 40
3.000000
 50
346.108948
 51
44.999947
  0
ARC
  8
0
 10
-166.115463
 20
-50.615498
 40
3.000000
 50
44.999947
 51
103.891068
  0
ARC
  8
0
 10
-178.871002
 20
-37.859959
 40
3.000000
 50
346.108948
 51
44.999947
  0
ARC
  8
0
 10
-178.915466
 20
-37.815495
 40
3.000000
 50
44.999947
 51
103.891068
  0
ARC
  8
0
 10
-132.618713
 20
-69.375381
 40
15.000001
 50
278.130096
 51
351.869904
  0
ARC
  8
0
 10
-132.618713
 20
-69.375381
 40
24.999998
 50
79.110023
 51
100.889748
  0
CIRCLE
  8
0
 10
-115.118736
 20
-99.686287
 40
4.000000
  0
CIRCLE
  8
0
 10
-97.618713
 20
-69.375420
 40
4.000000
  0
CIRCLE
  8
0
 10
-115.118675
 20
-39.064514
 40
4.000000
  0
CIRCLE
  8
0
 10
-115.118736
 20
-99.686287
 40
3.375000
  0
CIRCLE
  8
0
 10
-97.618713
 20
-69.375420
 40
3.375000
  0
CIRCLE
  8
0
 10
-115.118675
 20
-39.064514
 40
3.375000
  0
ARC
  8
0
 10
-115.118736
 20
-99.686287
 40
7.000000
 50
198.000046
 51
42.000015
  0
ARC
  8
0
 10
-97.618713
 20
-69.375420
 40
6.999998
 50
257.999969
 51
102.000000
  0
ARC
  8
0
 10
-115.118675
 20
-39.064514
 40
6.999998
 50
318.000000
 51
161.999985
  0
ARC
  8
0
 10
-132.618713
 20
-20.875381
 40
6.000007
 50
14.999975
 51
164.999985
  0
ARC
  8
0
 10
-132.618729
 20
-117.875381
 40
5.999994
 50
195.000046
 51
344.999969
  0
ARC
  8
0
 10
-90.616486
 20
-93.625397
 40
6.000009
 50
254.999985
 51
45.000053
  0
ARC
  8
0
 10
-90.616470
 20
-45.125412
 40
6.000001
 50
315.000061
 51
104.999962
  0
ARC
  8
0
 10
-134.638351
 20
-90.875381
 40
5.000000
 50
90.000000
 51
162.000076
  0
ARC
  8
0
 10
-130.599121
 20
-90.875381
 40
5.000003
 50
17.999952
 51
90.000000
  0
ARC
  8
0
 10
-115.008987
 20
-81.874451
 40
5.000004
 50
150.000031
 51
221.999939
  0
ARC
  8
0
 10
-112.989372
 20
-78.376366
 40
4.999994
 50
77.999985
 51
149.999985
  0
ARC
  8
0
 10
-112.989342
 20
-60.374454
 40
5.000000
 50
247.024277
 51
282.000000
  0
ARC
  8
0
 10
-115.008957
 20
-56.876373
 40
4.999998
 50
137.999969
 51
210.000015
  0
ARC
  8
0
 10
-130.599045
 20
-47.875381
 40
4.999996
 50
307.750854
 51
341.999969
  0
ARC
  8
0
 10
-134.638290
 20
-47.875381
 40
4.999998
 50
198.000015
 51
263.768188
  0
ARC
  8
0
 10
-132.618713
 20
-69.375381
 40
25.000002
 50
259.110107
 51
280.889801
  0
ARC
  8
0
 10
-132.618713
 20
-69.375381
 40
25.000000
 50
319.110046
 51
340.889771
  0
ARC
  8
0
 10
-132.618713
 20
-69.375381
 40
25.000002
 50
19.110035
 51
40.889759
  0
ARC
  8
0
 10
-136.775009
 20
-90.979202
 40
3.000009
 50
162.000122
 51
259.109985
  0
ARC
  8
0
 10
-128.462463
 20
-90.979218
 40
3.000000
 50
280.889862
 51
18.000063
  0
ARC
  8
0
 10
-115.987411
 20
-83.776756
 40
2.999998
 50
222.000061
 51
319.110016
  0
ARC
  8
0
 10
-111.831116
 20
-76.577881
 40
3.000000
 50
340.889709
 51
78.000023
  0
ARC
  8
0
 10
-111.831100
 20
-62.172943
 40
3.000005
 50
281.999939
 51
19.109957
  0
ARC
  8
0
 10
-115.987366
 20
-54.974052
 40
3.000000
 50
40.889683
 51
138.000000
  0
ARC
  8
0
 10
-128.462387
 20
-47.771561
 40
2.999997
 50
341.999878
 51
79.110130
  0
ARC
  8
0
 10
-136.774948
 20
-47.771545
 40
2.999998
 50
100.889717
 51
198.000046
  0
ARC
  8
0
 10
-143.712555
 20
-19.777443
 40
5.000000
 50
300.000000
 51
344.999939
  0
ARC
  8
0
 10
-143.712570
 20
-118.973312
 40
5.000005
 50
14.999926
 51
59.999981
  0
ARC
  8
0
 10
-121.524879
 20
-118.973328
 40
4.999997
 50
120.000015
 51
164.999969
  0
ARC
  8
0
 10
-95.212585
 20
-103.781921
 40
5.000007
 50
74.999992
 51
119.999977
  0
ARC
  8
0
 10
-84.118713
 20
-84.566826
 40
5.000000
 50
180.000000
 51
224.999939
  0
ARC
  8
0
 10
-84.118713
 20
-54.184006
 40
5.000003
 50
135.000031
 51
179.999954
  0
ARC
  8
0
 10
-95.212524
 20
-34.968884
 40
5.000000
 50
240.000000
 51
285.000031
  0
ARC
  8
0
 10
-121.524864
 20
-19.777443
 40
5.000000
 50
195.000031
 51
240.000000
  0
ARC
  8
0
 10
-132.618713
 20
-69.375381
 40
54.999996
 50
217.119308
 51
142.797852
  0
ARC
  8
0
 10
-132.618713
 20
-69.375381
 40
8.400000
 50
174.302689
 51
185.697052
  0
ARC
  8
0
 10
-132.618713
 20
-69.375381
 40
7.400000
 50
176.991562
 51
183.008438
  0
ARC
  8
0
 10
-132.618713
 20
-69.375381
 40
7.399999
 50
266.991608
 51
273.008484
  0
ARC
  8
0
 10
-132.618713
 20
-69.375381
 40
7.400000
 50
356.991577
 51
3.008379
  0
ARC
  8
0
 10
-132.618713
 20
-69.375381
 40
7.399999
 50
86.991623
 51
93.008377
  0
CIRCLE
  8
0
 10
-132.618713
 20
-20.875381
 40
2.600000
  0
CIRCLE
  8
0
 10
-132.618713
 20
-117.875381
 40
2.600000
  0
CIRCLE
  8
0
 10
-90.616486
 20
-93.625389
 40
2.600000
  0
CIRCLE
  8
0
 10
-90.616470
 20
-45.125412
 40
2.600000
  0
ARC
  8
0
 10
-132.618713
 20
-69.375381
 40
42.599995
 50
250.359268
 51
109.640701
  0
ARC
  8
0
 10
-176.486389
 20
-90.519867
 40
8.000002
 50
284.585663
 51
345.414337
  0
CIRCLE
  8
0
 10
-178.539001
 20
-88.467262
 40
4.966500
  0
ARC
  8
0
 10
-150.118713
 20
-99.675377
 40
7.700006
 50
214.399811
 51
68.699066
  0
ARC
  8
0
 10
-150.118713
 20
-39.075378
 40
7.700003
 50
121.819733
 51
118.098534
  0
CIRCLE
  8
0
 10
-150.118713
 20
-39.075378
 40
6.500000
  0
ARC
  8
0
 10
-150.118713
 20
-99.675377
 40
6.500006
 50
211.423569
 51
72.994041
  0
ARC
  8
0
 10
-150.118713
 20
-99.675377
 40
5.699996
 50
208.698181
 51
77.361412
  0
CIRCLE
  8
0
 10
-150.118713
 20
-39.075378
 40
5.700000
  0
ARC
  8
0
 10
-132.618713
 20
-69.375381
 40
8.400000
 50
264.302704
 51
275.697205
  0
ARC
  8
0
 10
-132.618713
 20
-69.375381
 40
8.400000
 50
84.302902
 51
95.697304
  0
ARC
  8
0
 10
-132.618713
 20
-69.375381
 40
8.399998
 50
354.302795
 51
5.697203
  0
ARC
  8
0
 10
-132.618713
 20
-69.375381
 40
34.999996
 50
11.546635
 51
48.453239
  0
ARC
  8
0
 10
-132.618713
 20
-69.375381
 40
35.000000
 50
71.546631
 51
105.749321
  0
ARC
  8
0
 10
-132.618713
 20
-69.375381
 40
35.000000
 50
208.448730
 51
215.129105
  0
ARC
  8
0
 10
-132.618713
 20
-69.375381
 40
35.000004
 50
254.250687
 51
288.453247
  0
ARC
  8
0
 10
-132.618713
 20
-69.375381
 40
34.999996
 50
311.478271
 51
348.453247
  0
ENDSEC
  0
EOF
