  0
SECTION
  2
HEADER
  0
ENDSEC
  0
SECTION
  2
TABLES
  0
TABLE
  2
LTYPE
 70
     4
  0
LTYPE
  2
CONTINUOUS
 70
    64
  3
Solid line
 72
    65
 73
     0
 40
0.000000
  0
LTYPE
  2
DASHED
 70
    64
  3
__ __ __ __ __ __ __ __ __ __ __ __ __ __ __
 72
    65
 73
     2
 40
3.500000
 49
2.000000
 49
-1.500000
  0
LTYPE
  2
CENTER
 70
    64
  3
____ _ ____ _ ____ _ ____ _ ____ _ ____ _ ____
 72
    65
 73
     4
 40
17.500000
 49
13.000000
 49
-1.500000
 49
1.500000
 49
-1.500000
  0
LTYPE
  2
PHANTOM
 70
    64
  3
_____ _ _ _____ _ _ _____ _ _ _____ _ _ ____  
 72
    65
 73
     6
 40
15.500000
 49
8.000000
 49
-1.500000
 49
1.500000
 49
-1.500000
 49
1.500000
 49
-1.500000
  0
LTYPE
  2
DASHED1
 70
    64
  3
__ __ __ __ __ __ __ __ __ __ __ __ __ __ __
 72
    65
 73
     2
 40
1.500000
 49
1.000000
 49
-0.500000
  0
LTYPE
  2
DASHED2
 70
    64
  3
__ __ __ __ __ __ __ __ __ __ __ __ __ __ __
 72
    65
 73
     2
 40
3.500000
 49
2.500000
 49
-1.000000
  0
LTYPE
  2
DASHED3
 70
    64
  3
__ __ __ __ __ __ __ __ __ __ __ __ __ __ __
 72
    65
 73
     2
 40
6.000000
 49
4.000000
 49
-2.000000
  0
LTYPE
  2
DASHED4
 70
    64
  3
__ __ __ __ __ __ __ __ __ __ __ __ __ __ __
 72
    65
 73
     2
 40
12.000000
 49
10.000000
 49
-2.000000
  0
LTYPE
  2
DASHED5
 70
    64
  3
__ __ __ __ __ __ __ __ __ __ __ __ __ __ __
 72
    65
 73
     2
 40
17.000000
 49
15.000000
 49
-2.000000
  0
LTYPE
  2
DASHED6
 70
    64
  3
__ __ __ __ __ __ __ __ __ __ __ __ __ __ __
 72
    65
 73
     2
 40
29.000000
 49
27.000000
 49
-2.000000
  0
LTYPE
  2
PHANTOM1
 70
    64
  3
_____ _ _ _____ _ _ _____ _ _ _____ _ _ ____  
 72
    65
 73
     6
 40
31.000000
 49
25.000000
 49
-1.500000
 49
1.000000
 49
-1.000000
 49
1.000000
 49
-1.500000
  0
LTYPE
  2
PHANTOM2
 70
    64
  3
_____ _ _ _____ _ _ _____ _ _ _____ _ _ ____  
 72
    65
 73
     6
 40
36.000000
 49
27.000000
 49
-1.500000
 49
2.500000
 49
-1.000000
 49
2.500000
 49
-1.500000
  0
LTYPE
  2
PHANTOM3
 70
    64
  3
_____ _ _ _____ _ _ _____ _ _ _____ _ _ ____  
 72
    65
 73
     6
 40
78.000000
 49
64.000000
 49
-2.000000
 49
4.000000
 49
-2.000000
 49
4.000000
 49
-2.000000
  0
LTYPE
  2
CENTER1
 70
    64
  3
____ _ ____ _ ____ _ ____ _ ____ _ ____ _ ____
 72
    65
 73
     4
 40
19.000000
 49
14.000000
 49
-1.000000
 49
3.000000
 49
-1.000000
  0
LTYPE
  2
CENTER2
 70
    64
  3
____ _ ____ _ ____ _ ____ _ ____ _ ____ _ ____
 72
    65
 73
     4
 40
28.500000
 49
25.000000
 49
-1.000000
 49
1.500000
 49
-1.000000
  0
LTYPE
  2
CENTER3
 70
    64
  3
____ _ ____ _ ____ _ ____ _ ____ _ ____ _ ____
 72
    65
 73
     4
 40
31.500000
 49
27.000000
 49
-1.000000
 49
2.500000
 49
-1.000000
  0
LTYPE
  2
CENTER4
 70
    64
  3
____ _ ____ _ ____ _ ____ _ ____ _ ____ _ ____
 72
    65
 73
     4
 40
50.000000
 49
45.000000
 49
-1.000000
 49
3.000000
 49
-1.000000
  0
LTYPE
  2
CENTER5
 70
    64
  3
____ _ ____ _ ____ _ ____ _ ____ _ ____ _ ____
 72
    65
 73
     4
 40
100.000000
 49
92.000000
 49
-2.000000
 49
4.000000
 49
-2.000000
  0
LTYPE
  2
SBK1
 70
    64
  3
______ _ _ _ ______ _ _ _ ______ _ _ _ _____  
 72
    65
 73
     8
 40
60.500000
 49
45.000000
 49
-2.000000
 49
2.500000
 49
-2.000000
 49
2.500000
 49
-2.000000
 49
2.500000
 49
-2.000000
  0
LTYPE
  2
SBK2
 70
    64
  3
______ _ _ _ ______ _ _ _ ______ _ _ _ _____  
 72
    65
 73
     8
 40
84.000000
 49
64.000000
 49
-2.000000
 49
4.000000
 49
-2.000000
 49
4.000000
 49
-2.000000
 49
4.000000
 49
-2.000000
  0
LTYPE
  2
STCH
 70
    64
  3
__ __ __ __ __ __ __ __ __ __ __ __ __ __ __
 72
    65
 73
     2
 40
3.000000
 49
1.000000
 49
-2.000000
  0
LTYPE
  2
MTCH
 70
    64
  3
_____ _ _ _____ _ _ _____ _ _ _____ _ _ ____  
 72
    65
 73
     6
 40
80.000000
 49
66.000000
 49
-2.000000
 49
4.000000
 49
-2.000000
 49
4.000000
 49
-2.000000
  0
ENDTAB
  0
TABLE
  2
LAYER
 70
     1
  0
LAYER
  2
0
 70
     0
 62
     7
  6
CONTINUOUS
  0
ENDTAB
  0
TABLE
  2
STYLE
 70
     1
  0
STYLE
  2
STANDARD
 70
     0
 40
0.000000
 41
1.000000
 50
0.000000
 71
     0
 42
0.200000
  3
txt
  4
BIGFONT
  0
ENDTAB
  0
TABLE
  2
VIEW
 70
     0
  0
ENDTAB
  0
ENDSEC
  0
SECTION
  2
BLOCKS
  0
ENDSEC
  0
SECTION
  2
ENTITIES
  0
LINE
  8
0
 10
-420.500000
 20
297.000000
 11
420.500000
 21
297.000000
  0
LINE
  8
0
 10
-420.500000
 20
-297.000000
 11
420.500000
 21
-297.000000
  0
LINE
  8
0
 10
420.500000
 20
297.000000
 11
420.500000
 21
-297.000000
  0
LINE
  8
0
 10
-420.500000
 20
297.000000
 11
-420.500000
 21
-297.000000
  0
LINE
  8
0
 10
399.799988
 20
276.250000
 11
399.799988
 21
-276.750000
  0
LINE
  8
0
 10
-399.250000
 20
276.250000
 11
-399.250000
 21
-276.750000
  0
LINE
  8
0
 10
-399.250000
 20
276.250000
 11
399.799988
 21
276.250000
  0
LINE
  8
0
 10
-399.250000
 20
-276.750000
 11
399.799988
 21
-276.750000
  0
LINE
  8
0
 10
-399.250000
 20
-0.250000
 11
399.799988
 21
-0.250000
  0
LINE
  8
0
 10
0.274994
 20
-276.750000
 11
0.274994
 21
276.250000
  0
LINE
  8
0
 10
-399.250000
 20
14.750000
 11
399.799988
 21
14.750000
  0
LINE
  8
0
 10
299.799988
 20
-256.750000
 11
399.799988
 21
-256.750000
  0
LINE
  8
0
 10
299.799988
 20
276.250000
 11
299.799988
 21
261.250000
  0
LINE
  8
0
 10
299.799988
 20
261.250000
 11
399.799988
 21
261.250000
  0
LINE
  8
0
 10
-399.250000
 20
261.250000
 11
-299.250000
 21
261.250000
  0
LINE
  8
0
 10
-299.250000
 20
276.250000
 11
-299.250000
 21
261.250000
  0
LINE
  8
0
 10
-399.250000
 20
-261.750000
 11
0.274994
 21
-261.750000
  0
LINE
  8
0
 10
299.799988
 20
-256.750000
 11
299.799988
 21
-276.750000
  0
TEXT
  8
0
 10
-269.231873
 20
2.975000
 40
6.000000
  1
SWING ANGLE : 90 DEGREE
 50
0.000000
 41
1.052632
 51
0.000000
  7
STANDARD
  0
TEXT
  8
0
 10
127.293121
 20
2.975000
 40
6.000000
  1
SWING ANGLE : 180 DEGREE
 50
0.000000
 41
1.052631
 51
0.000000
  7
STANDARD
  0
TEXT
  8
0
 10
148.430618
 20
-142.899994
 40
6.000000
  1
MODEL : RAK150-US
 50
0.000000
 41
1.052632
 51
0.000000
  7
STANDARD
  0
TEXT
  8
0
 10
303.465027
 20
-271.149994
 40
6.000000
  1
ＫＯＧＡＮＥＩ，ＣＯＲＰ．
 50
0.000000
 41
0.902367
 51
15.000000
  7
STANDARD
  0
TEXT
  8
0
 10
304.193115
 20
264.350006
 40
6.000000
  1
DATE: MAY ,1992
 50
0.000000
 41
1.052632
 51
0.000000
  7
STANDARD
  0
TEXT
  8
0
 10
-394.856873
 20
264.350006
 40
6.000000
  1
ROTARY ACTUATER
 50
0.000000
 41
1.052631
 51
0.000000
  7
STANDARD
  0
TEXT
  8
0
 10
-272.094391
 20
-273.649994
 40
6.000000
  1
SWING ANGLE : 270 DEGREE
 50
0.000000
 41
1.052631
 51
0.000000
  7
STANDARD
  0
POINT
  8
0
 10
-312.422852
 20
196.836792
  0
POINT
  8
0
 10
-288.922852
 20
196.836792
  0
LINE
  8
0
 10
-311.222839
 20
158.192657
 11
-311.222839
 21
148.336792
  0
LINE
  8
0
 10
-317.422852
 20
158.192657
 11
-317.422852
 21
148.336792
  0
LINE
  8
0
 10
-317.422852
 20
148.336792
 11
-311.222839
 21
148.336792
  0
LINE
  8
0
 10
-317.422852
 20
245.336792
 11
-311.222839
 21
245.336792
  0
LINE
  8
0
 10
-311.222839
 20
245.336792
 11
-311.222839
 21
166.335220
  0
LINE
  8
0
 10
-317.422852
 20
245.336792
 11
-317.422852
 21
166.335220
  0
LINE
  8
0
 10
-295.722870
 20
209.836792
 11
-295.722870
 21
175.234665
  0
LINE
  8
0
 10
-294.522858
 20
209.836792
 11
-294.522858
 21
168.906082
  0
LINE
  8
0
 10
-293.722839
 20
206.836792
 11
-293.722839
 21
186.836792
  0
LINE
  8
0
 10
-301.722870
 20
175.234665
 11
-301.722870
 21
169.471771
  0
LINE
  8
0
 10
-295.722870
 20
170.850616
 11
-295.722870
 21
169.471771
  0
LINE
  8
0
 10
-302.922852
 20
209.836792
 11
-294.522858
 21
209.836792
  0
LINE
  8
0
 10
-302.922852
 20
209.836792
 11
-302.922852
 21
183.836792
  0
LINE
  8
0
 10
-302.922852
 20
183.836792
 11
-295.722870
 21
183.836792
  0
LINE
  8
0
 10
-294.522858
 20
206.836792
 11
-293.722839
 21
206.836792
  0
LINE
  8
0
 10
-294.522858
 20
186.836792
 11
-293.722839
 21
186.836792
  0
LINE
  8
0
 10
-301.922852
 20
159.289444
 11
-294.522888
 21
159.289444
  0
LINE
  8
0
 10
-302.722839
 20
157.309540
 11
-293.722870
 21
157.309540
  0
LINE
  8
0
 10
-302.722839
 20
151.859802
 11
-293.722870
 21
151.859802
  0
LINE
  8
0
 10
-301.922852
 20
151.011261
 11
-294.522888
 21
151.011261
  0
LINE
  8
0
 10
-301.922852
 20
163.673492
 11
-294.522888
 21
163.673492
  0
LINE
  8
0
 10
-294.022888
 20
163.173492
 11
-294.022888
 21
158.375244
  0
LINE
  8
0
 10
-293.222870
 20
161.759293
 11
-293.222870
 21
152.359802
  0
LINE
  8
0
 10
-302.422852
 20
163.173492
 11
-302.422852
 21
158.375244
  0
LINE
  8
0
 10
-303.222839
 20
161.759293
 11
-303.222839
 21
152.359802
  0
LINE
  8
0
 10
-301.922852
 20
157.875244
 11
-294.522888
 21
157.875244
  0
LINE
  8
0
 10
-303.722870
 20
162.259293
 11
-302.422852
 21
162.259293
  0
LINE
  8
0
 10
-302.422852
 20
151.859802
 11
-302.422852
 21
151.511261
  0
LINE
  8
0
 10
-294.022888
 20
151.859802
 11
-294.022888
 21
151.511261
  0
LINE
  8
0
 10
-294.022888
 20
162.259293
 11
-292.722839
 21
162.259293
  0
LINE
  8
0
 10
-309.722870
 20
161.976440
 11
-303.722870
 21
161.976440
  0
LINE
  8
0
 10
-292.722839
 20
163.956360
 11
-292.722839
 21
156.319595
  0
LINE
  8
0
 10
-303.722870
 20
166.784790
 11
-303.722870
 21
156.319580
  0
LINE
  8
0
 10
-294.722839
 20
163.956360
 11
-292.722839
 21
163.956360
  0
LINE
  8
0
 10
-303.722870
 20
166.784790
 11
-301.722839
 21
166.784790
  0
LINE
  8
0
 10
-309.722870
 20
166.077667
 11
-303.722870
 21
166.077667
  0
LINE
  8
0
 10
-294.722839
 20
169.471771
 11
-294.722839
 21
163.673492
  0
LINE
  8
0
 10
-301.722839
 20
169.471771
 11
-301.722839
 21
163.673492
  0
LINE
  8
0
 10
-292.722839
 20
161.976440
 11
-287.722839
 21
161.976440
  0
LINE
  8
0
 10
-296.722839
 20
166.643356
 11
-296.722839
 21
169.471771
  0
LINE
  8
0
 10
-299.722870
 20
166.643341
 11
-299.722870
 21
169.471771
  0
LINE
  8
0
 10
-301.722839
 20
169.471771
 11
-299.722870
 21
169.471771
  0
LINE
  8
0
 10
-296.722839
 20
169.471771
 11
-294.722839
 21
169.471771
  0
LINE
  8
0
 10
-294.722839
 20
166.077667
 11
-287.722839
 21
166.077667
  0
LINE
  8
0
 10
-287.722839
 20
167.421173
 11
-287.722839
 21
156.319595
  0
LINE
  8
0
 10
-309.722870
 20
168.552567
 11
-309.722870
 21
165.263733
  0
LINE
  8
0
 10
-309.722870
 20
156.319580
 11
-303.722870
 21
156.319580
  0
LINE
  8
0
 10
-303.722870
 20
156.602432
 11
-303.222839
 21
156.602432
  0
LINE
  8
0
 10
-293.222870
 20
156.602432
 11
-292.722839
 21
156.602432
  0
LINE
  8
0
 10
-292.722839
 20
156.319580
 11
-287.722839
 21
156.319580
  0
LINE
  8
0
 10
-309.722870
 20
167.421173
 11
-301.722839
 21
167.421173
  0
LINE
  8
0
 10
-299.722870
 20
167.845428
 11
-296.722870
 21
167.845428
  0
LINE
  8
0
 10
-299.722870
 20
168.906082
 11
-296.722839
 21
168.906082
  0
LINE
  8
0
 10
-299.722870
 20
167.421173
 11
-296.722870
 21
167.421173
  0
LINE
  8
0
 10
-294.722839
 20
167.421173
 11
-287.722839
 21
167.421173
  0
LINE
  8
0
 10
-294.722839
 20
167.845428
 11
-289.722839
 21
167.845428
  0
LINE
  8
0
 10
-294.722839
 20
168.906082
 11
-289.722839
 21
168.906082
  0
LINE
  8
0
 10
-289.722839
 20
168.906082
 11
-289.722839
 21
167.421173
  0
LINE
  8
0
 10
-302.722839
 20
168.552567
 11
-301.722839
 21
167.845474
  0
LINE
  8
0
 10
-302.722839
 20
169.613220
 11
-301.722870
 21
168.906113
  0
LINE
  8
0
 10
-311.222870
 20
169.613220
 11
-302.722839
 21
169.613220
  0
LINE
  8
0
 10
-309.722870
 20
168.552567
 11
-302.722839
 21
168.552567
  0
LINE
  8
0
 10
-302.722839
 20
169.613220
 11
-302.722839
 21
168.552567
  0
LINE
  8
0
 10
-285.722870
 20
163.769348
 11
-285.722870
 21
158.769348
  0
LINE
  8
0
 10
-287.722839
 20
163.769333
 11
-285.722870
 21
163.769333
  0
LINE
  8
0
 10
-285.722870
 20
163.269333
 11
-268.644958
 21
163.269333
  0
LINE
  8
0
 10
-285.722870
 20
159.269333
 11
-268.644958
 21
159.269333
  0
LINE
  8
0
 10
-287.722839
 20
158.769333
 11
-285.722870
 21
158.769333
  0
LINE
  8
0
 10
-323.222870
 20
166.335220
 11
-321.722870
 21
166.335220
  0
LINE
  8
0
 10
-324.722870
 20
165.263733
 11
-321.722870
 21
165.263733
  0
LINE
  8
0
 10
-324.722870
 20
158.192657
 11
-321.722870
 21
158.192657
  0
LINE
  8
0
 10
-324.722870
 20
168.340424
 11
-324.722870
 21
158.192657
  0
LINE
  8
0
 10
-323.222870
 20
167.193130
 11
-323.222870
 21
166.335220
  0
LINE
  8
0
 10
-321.722870
 20
169.401077
 11
-321.722870
 21
165.263733
  0
LINE
  8
0
 10
-317.722870
 20
169.401077
 11
-317.722870
 21
165.263733
  0
LINE
  8
0
 10
-317.722870
 20
166.335220
 11
-311.222870
 21
166.335220
  0
LINE
  8
0
 10
-321.722870
 20
166.496033
 11
-317.722870
 21
166.496033
  0
LINE
  8
0
 10
-321.722870
 20
157.303650
 11
-317.722870
 21
157.303650
  0
LINE
  8
0
 10
-317.722870
 20
158.192657
 11
-309.722870
 21
158.192657
  0
LINE
  8
0
 10
-317.722870
 20
165.263733
 11
-309.722870
 21
165.263733
  0
LINE
  8
0
 10
-321.722870
 20
158.192657
 11
-321.722870
 21
157.303650
  0
LINE
  8
0
 10
-317.722870
 20
158.192657
 11
-317.722870
 21
157.303650
  0
LINE
  8
0
 10
-321.722870
 20
169.401077
 11
-317.722870
 21
169.401077
  0
LINE
  8
0
 10
-324.722870
 20
168.340424
 11
-321.722870
 21
168.340424
  0
LINE
  8
0
 10
-324.722870
 20
167.193130
 11
-321.722870
 21
167.193130
  0
LINE
  8
0
 10
-317.722870
 20
168.340424
 11
-317.422882
 21
168.340424
  0
LINE
  8
0
 10
-317.722870
 20
167.193130
 11
-317.422882
 21
167.193130
  0
LINE
  8
0
 10
-298.922882
 20
211.120361
 11
-302.066956
 21
209.836792
  0
LINE
  8
0
 10
-295.778748
 20
209.836807
 11
-298.922852
 21
211.120361
  0
LINE
  8
0
 10
-298.922852
 20
211.120346
 11
-298.922852
 21
209.836792
  0
LINE
  8
0
 10
-301.722870
 20
175.234665
 11
-294.522858
 21
175.234665
  0
LINE
  8
0
 10
-301.722870
 20
171.699127
 11
-294.522858
 21
171.699127
  0
LINE
  8
0
 10
-301.722870
 20
170.850616
 11
-295.722870
 21
170.850616
  0
LINE
  8
0
 10
-299.722870
 20
166.784790
 11
-296.722839
 21
166.784790
  0
LINE
  8
0
 10
-268.644958
 20
163.269333
 11
-268.644958
 21
159.269333
  0
LINE
  8
0
 10
-268.644958
 20
160.969330
 11
-265.644958
 21
160.969330
  0
LINE
  8
0
 10
-268.644958
 20
161.569336
 11
-265.644958
 21
161.569336
  0
LINE
  8
0
 10
-268.644958
 20
159.969330
 11
-265.644958
 21
159.969330
  0
LINE
  8
0
 10
-268.644958
 20
162.569336
 11
-265.644958
 21
162.569336
  0
LINE
  8
0
 10
-265.644958
 20
162.569336
 11
-265.644958
 21
161.569336
  0
LINE
  8
0
 10
-265.644958
 20
160.969330
 11
-265.644958
 21
159.969330
  0
LINE
  8
0
 10
-265.644958
 20
162.444336
 11
-264.144958
 21
162.444336
  0
LINE
  8
0
 10
-265.644958
 20
162.319336
 11
-264.144958
 21
162.319336
  0
LINE
  8
0
 10
-265.644958
 20
162.194336
 11
-264.144958
 21
162.194336
  0
LINE
  8
0
 10
-265.644958
 20
162.069336
 11
-264.144958
 21
162.069336
  0
LINE
  8
0
 10
-265.644958
 20
161.944336
 11
-264.144958
 21
161.944336
  0
LINE
  8
0
 10
-265.644958
 20
161.819336
 11
-264.144958
 21
161.819336
  0
LINE
  8
0
 10
-265.644958
 20
161.694336
 11
-264.144958
 21
161.694336
  0
LINE
  8
0
 10
-265.644958
 20
160.844330
 11
-264.144958
 21
160.844330
  0
LINE
  8
0
 10
-265.644958
 20
160.719330
 11
-264.144958
 21
160.719330
  0
LINE
  8
0
 10
-265.644958
 20
160.594330
 11
-264.144958
 21
160.594330
  0
LINE
  8
0
 10
-265.644958
 20
160.469330
 11
-264.144958
 21
160.469330
  0
LINE
  8
0
 10
-265.644958
 20
160.344330
 11
-264.144958
 21
160.344330
  0
LINE
  8
0
 10
-265.644958
 20
160.219330
 11
-264.144958
 21
160.219330
  0
LINE
  8
0
 10
-265.644958
 20
160.094330
 11
-264.144958
 21
160.094330
  0
LINE
  8
0
 10
-309.722870
 20
165.263733
 11
-309.722870
 21
156.319580
  0
LINE
  8
0
 10
-309.422852
 20
211.536789
 11
-309.422852
 21
203.723373
  0
LINE
  8
0
 10
-288.922852
 20
204.236786
 11
-288.922852
 21
189.436783
  0
LINE
  8
0
 10
-327.922852
 20
239.436798
 11
-327.922852
 21
154.236786
  0
LINE
  8
0
 10
-311.222839
 20
181.836792
 11
-309.722839
 21
181.836792
  0
LINE
  8
0
 10
-309.422852
 20
188.336792
 11
-305.472839
 21
188.336792
  0
LINE
  8
0
 10
-322.922852
 20
189.836792
 11
-317.422852
 21
189.836792
  0
LINE
  8
0
 10
-322.922852
 20
203.836792
 11
-317.422852
 21
203.836792
  0
LINE
  8
0
 10
-309.422852
 20
205.336792
 11
-305.472839
 21
205.336792
  0
LINE
  8
0
 10
-311.222839
 20
211.836792
 11
-309.722839
 21
211.836792
  0
LINE
  8
0
 10
-324.443237
 20
234.147797
 11
-317.422852
 21
234.147797
  0
LINE
  8
0
 10
-309.722839
 20
181.836761
 11
-309.422821
 21
182.136765
  0
LINE
  8
0
 10
-309.422821
 20
211.536819
 11
-309.722839
 21
211.836823
  0
LINE
  8
0
 10
-327.922852
 20
154.236786
 11
-324.722870
 21
159.100784
  0
LINE
  8
0
 10
-327.922852
 20
239.436798
 11
-324.443268
 21
234.147797
  0
LINE
  8
0
 10
-305.422852
 20
205.286789
 11
-305.422852
 21
188.386795
  0
LINE
  8
0
 10
-305.422852
 20
188.436798
 11
-304.922852
 21
188.436798
  0
LINE
  8
0
 10
-305.422852
 20
205.236786
 11
-304.922852
 21
205.236786
  0
LINE
  8
0
 10
-289.922852
 20
188.436813
 11
-288.922852
 21
189.436798
  0
LINE
  8
0
 10
-289.922913
 20
205.236740
 11
-288.922913
 21
204.236740
  0
LINE
  8
0
 10
-289.922852
 20
205.236786
 11
-289.922852
 21
188.436798
  0
LINE
  8
0
 10
-305.472839
 20
205.336777
 11
-305.422852
 21
205.286789
  0
LINE
  8
0
 10
-305.472839
 20
188.336777
 11
-305.422852
 21
188.386780
  0
LINE
  8
0
 10
-322.922852
 20
223.031326
 11
-322.922852
 21
203.937134
  0
LINE
  8
0
 10
-304.922852
 20
205.195297
 11
-304.922852
 21
197.670685
  0
LINE
  8
0
 10
-304.922852
 20
197.670685
 11
-302.922852
 21
197.670685
  0
LINE
  8
0
 10
-304.922852
 20
196.002930
 11
-302.922852
 21
196.002930
  0
LINE
  8
0
 10
-304.922852
 20
205.195297
 11
-302.922852
 21
205.195297
  0
LINE
  8
0
 10
-304.922852
 20
188.478287
 11
-302.922852
 21
188.478287
  0
LINE
  8
0
 10
-304.922852
 20
205.195572
 11
-302.922852
 21
204.192291
  0
LINE
  8
0
 10
-289.922882
 20
197.670639
 11
-288.922882
 21
197.225113
  0
LINE
  8
0
 10
-289.922852
 20
196.002930
 11
-293.722839
 21
194.096695
  0
LINE
  8
0
 10
-289.922852
 20
196.002930
 11
-288.922852
 21
196.448441
  0
LINE
  8
0
 10
-289.922852
 20
205.195297
 11
-288.922852
 21
204.226593
  0
LINE
  8
0
 10
-289.922821
 20
205.195297
 11
-293.722839
 21
203.289032
  0
LINE
  8
0
 10
-289.922821
 20
188.478241
 11
-288.922821
 21
189.446945
  0
LINE
  8
0
 10
-304.922852
 20
196.002792
 11
-302.922852
 21
194.999512
  0
LINE
  8
0
 10
-304.922852
 20
196.002930
 11
-304.922852
 21
188.478287
  0
LINE
  8
0
 10
-322.922852
 20
189.736465
 11
-322.922852
 21
170.642258
  0
LINE
  8
0
 10
-293.722839
 20
188.436798
 11
-289.922852
 21
188.436798
  0
LINE
  8
0
 10
-293.722839
 20
205.236786
 11
-289.922852
 21
205.236786
  0
LINE
  8
0
 10
-309.422852
 20
189.950211
 11
-309.422852
 21
182.136795
  0
LINE
  8
0
 10
-293.722839
 20
205.195297
 11
-289.922852
 21
205.195297
  0
LINE
  8
0
 10
-302.922852
 20
198.673935
 11
-304.922852
 21
197.670654
  0
LINE
  8
0
 10
-293.722839
 20
199.577194
 11
-289.922729
 21
197.670898
  0
LINE
  8
0
 10
-293.722839
 20
197.670685
 11
-289.922852
 21
197.670685
  0
LINE
  8
0
 10
-293.722839
 20
196.002930
 11
-289.922852
 21
196.002930
  0
LINE
  8
0
 10
-302.922852
 20
189.481567
 11
-304.922852
 21
188.478287
  0
LINE
  8
0
 10
-293.722839
 20
190.384384
 11
-289.922913
 21
188.478180
  0
LINE
  8
0
 10
-293.722839
 20
188.478287
 11
-289.922852
 21
188.478287
  0
ARC
  8
0
 10
-315.827026
 20
196.836792
 40
9.404159
 50
299.313446
 51
60.686543
  0
ARC
  8
0
 10
-301.922852
 20
163.173492
 40
0.500000
 50
90.000000
 51
180.000000
  0
ARC
  8
0
 10
-294.522858
 20
163.173492
 40
0.500000
 50
0.000000
 51
90.000000
  0
ARC
  8
0
 10
-293.722870
 20
161.759293
 40
0.500000
 50
0.000000
 51
90.000000
  0
ARC
  8
0
 10
-302.722839
 20
161.759293
 40
0.500000
 50
90.000000
 51
180.000000
  0
ARC
  8
0
 10
-302.722839
 20
152.359802
 40
0.500000
 50
180.000000
 51
270.000000
  0
ARC
  8
0
 10
-293.722870
 20
152.359802
 40
0.500000
 50
270.000000
 51
0.000000
  0
ARC
  8
0
 10
-294.522858
 20
151.511261
 40
0.500000
 50
270.000000
 51
0.000000
  0
ARC
  8
0
 10
-301.922852
 20
151.511261
 40
0.500000
 50
180.000000
 51
270.000000
  0
ARC
  8
0
 10
-294.522858
 20
158.375244
 40
0.500000
 50
270.000000
 51
0.000000
  0
ARC
  8
0
 10
-301.922852
 20
158.375244
 40
0.500000
 50
180.000000
 51
270.000000
  0
ARC
  8
0
 10
-298.967163
 20
166.643341
 40
0.755707
 50
180.000000
 51
194.105835
  0
ARC
  8
0
 10
-298.769623
 20
166.715759
 40
0.965183
 50
195.417343
 51
231.388000
  0
ARC
  8
0
 10
-298.222870
 20
167.514572
 40
1.931895
 50
233.502090
 51
306.497894
  0
ARC
  8
0
 10
-297.676117
 20
166.715759
 40
0.965198
 50
308.612000
 51
344.581787
  0
ARC
  8
0
 10
-297.478577
 20
166.643341
 40
0.755700
 50
345.893036
 51
0.000000
  0
ARC
  8
0
 10
-320.542572
 20
161.728195
 40
2.130294
 50
176.237244
 51
191.772812
  0
ARC
  8
0
 10
-320.325012
 20
161.794662
 40
2.356927
 50
192.275543
 51
225.305038
  0
ARC
  8
0
 10
-319.722870
 20
162.527740
 40
3.302728
 50
226.824173
 51
313.174500
  0
ARC
  8
0
 10
-319.120728
 20
161.794647
 40
2.356923
 50
314.693390
 51
347.723022
  0
ARC
  8
0
 10
-318.903168
 20
161.728165
 40
2.130301
 50
348.225983
 51
356.237671
  0
ARC
  8
0
 10
-306.004181
 20
159.148010
 40
0.425078
 50
345.894928
 51
14.107077
  0
ARC
  8
0
 10
-306.115295
 20
159.107269
 40
0.542917
 50
15.418950
 51
51.388477
  0
ARC
  8
0
 10
-306.422852
 20
158.657944
 40
1.086693
 50
53.501793
 51
126.498207
  0
ARC
  8
0
 10
-306.730408
 20
159.107269
 40
0.542927
 50
128.611526
 51
164.582596
  0
ARC
  8
0
 10
-306.841522
 20
159.148010
 40
0.425078
 50
165.894913
 51
194.107071
  0
ARC
  8
0
 10
-306.730408
 20
159.188751
 40
0.542917
 50
195.418945
 51
231.388474
  0
ARC
  8
0
 10
-306.422852
 20
159.638077
 40
1.086693
 50
233.501785
 51
306.498199
  0
ARC
  8
0
 10
-306.115295
 20
159.188751
 40
0.542927
 50
308.611511
 51
344.582611
  0
ARC
  8
0
 10
-318.259094
 20
161.728195
 40
1.486227
 50
354.668701
 51
14.105866
  0
ARC
  8
0
 10
-318.647614
 20
161.585754
 40
1.898237
 50
15.417706
 51
51.388241
  0
ARC
  8
0
 10
-319.722870
 20
160.014816
 40
3.799335
 50
53.501961
 51
126.497765
  0
ARC
  8
0
 10
-320.798126
 20
161.585770
 40
1.898240
 50
128.611465
 51
164.581848
  0
ARC
  8
0
 10
-321.186646
 20
161.728195
 40
1.486228
 50
165.892990
 51
185.354355
  0
ARC
  8
0
 10
-319.722900
 20
165.129700
 40
4.532882
 50
245.098267
 51
294.888550
  0
ARC
  8
0
 10
-305.678558
 20
159.148010
 40
0.755696
 50
345.894165
 51
14.106952
  0
ARC
  8
0
 10
-305.876099
 20
159.075592
 40
0.965187
 50
15.418217
 51
51.388004
  0
ARC
  8
0
 10
-306.422852
 20
158.276779
 40
1.931895
 50
53.502094
 51
126.497902
  0
ARC
  8
0
 10
-306.969604
 20
159.075592
 40
0.965198
 50
128.612000
 51
164.582657
  0
ARC
  8
0
 10
-307.167145
 20
159.148010
 40
0.755696
 50
165.894165
 51
194.106949
  0
ARC
  8
0
 10
-306.969604
 20
159.220428
 40
0.965187
 50
195.418213
 51
231.388000
  0
ARC
  8
0
 10
-306.422852
 20
160.019241
 40
1.931895
 50
233.502090
 51
306.497894
  0
ARC
  8
0
 10
-305.876099
 20
159.220428
 40
0.965198
 50
308.612000
 51
344.582642
  0
ARC
  8
0
 10
-299.042542
 20
154.481110
 40
2.130294
 50
176.237244
 51
191.773209
  0
ARC
  8
0
 10
-298.824982
 20
154.547577
 40
2.356930
 50
192.275894
 51
225.305573
  0
ARC
  8
0
 10
-298.222839
 20
155.280670
 40
3.302718
 50
226.824738
 51
313.175079
  0
ARC
  8
0
 10
-297.620697
 20
154.547577
 40
2.356934
 50
314.694183
 51
347.723724
  0
ARC
  8
0
 10
-297.403137
 20
154.481110
 40
2.130298
 50
348.226379
 51
356.237244
  0
ARC
  8
0
 10
-296.759064
 20
154.481110
 40
1.486225
 50
354.669281
 51
14.106438
  0
ARC
  8
0
 10
-297.147583
 20
154.338684
 40
1.898237
 50
15.417706
 51
51.388241
  0
ARC
  8
0
 10
-298.222839
 20
152.767731
 40
3.799348
 50
53.502098
 51
126.497902
  0
ARC
  8
0
 10
-299.298096
 20
154.338684
 40
1.898228
 50
128.611755
 51
164.582291
  0
ARC
  8
0
 10
-299.686615
 20
154.481110
 40
1.486224
 50
165.893570
 51
185.353775
  0
ARC
  8
0
 10
-298.222870
 20
157.882629
 40
4.532881
 50
245.097824
 51
294.888184
  0
ARC
  8
0
 10
-298.129211
 20
209.918259
 40
2.862133
 50
3.361671
 51
11.306099
  0
ARC
  8
0
 10
-298.339844
 20
209.856476
 40
3.080871
 50
11.664829
 51
43.965755
  0
ARC
  8
0
 10
-298.922852
 20
209.175079
 40
3.974458
 50
45.201271
 51
134.799347
  0
ARC
  8
0
 10
-299.505829
 20
209.856476
 40
3.080889
 50
136.035446
 51
168.336121
  0
ARC
  8
0
 10
-299.716492
 20
209.918259
 40
2.862145
 50
168.694794
 51
178.338379
  0
ARC
  8
0
 10
-298.193848
 20
209.821701
 40
1.286908
 50
23.807772
 51
51.388145
  0
ARC
  8
0
 10
-298.922852
 20
208.756622
 40
2.575860
 50
53.502094
 51
126.497902
  0
ARC
  8
0
 10
-299.651855
 20
209.821686
 40
1.286947
 50
128.611435
 51
156.228027
  0
ARC
  8
0
 10
-297.108826
 20
209.918259
 40
1.841756
 50
357.451965
 51
14.106472
  0
ARC
  8
0
 10
-297.590332
 20
209.741745
 40
2.352387
 50
15.417837
 51
51.388714
  0
ARC
  8
0
 10
-298.922852
 20
207.794907
 40
4.708364
 50
53.502510
 51
126.497787
  0
ARC
  8
0
 10
-300.255371
 20
209.741745
 40
2.352387
 50
128.611862
 51
164.582169
  0
ARC
  8
0
 10
-300.736877
 20
209.918259
 40
1.841764
 50
165.893524
 51
182.552765
  0
POLYLINE
  8
0
 66
     1
  0
VERTEX
  8
0
 10
-324.443237
 20
234.147797
  0
VERTEX
  8
0
 10
-325.354431
 20
234.105103
  0
VERTEX
  8
0
 10
-326.316071
 20
233.890152
  0
VERTEX
  8
0
 10
-327.111877
 20
233.536484
  0
VERTEX
  8
0
 10
-327.525482
 20
233.077621
  0
VERTEX
  8
0
 10
-327.513123
 20
232.340652
  0
VERTEX
  8
0
 10
-327.258362
 20
231.498978
  0
VERTEX
  8
0
 10
-326.986328
 20
230.635315
  0
VERTEX
  8
0
 10
-326.707062
 20
229.783051
  0
VERTEX
  8
0
 10
-326.463867
 20
229.145447
  0
VERTEX
  8
0
 10
-326.190704
 20
228.508606
  0
VERTEX
  8
0
 10
-325.889282
 20
227.861221
  0
VERTEX
  8
0
 10
-325.544037
 20
227.166245
  0
VERTEX
  8
0
 10
-325.183411
 20
226.482864
  0
VERTEX
  8
0
 10
-324.839966
 20
225.870743
  0
VERTEX
  8
0
 10
-324.428040
 20
225.187729
  0
VERTEX
  8
0
 10
-323.980743
 20
224.498001
  0
VERTEX
  8
0
 10
-323.464325
 20
223.755432
  0
VERTEX
  8
0
 10
-322.922852
 20
223.031326
  0
SEQEND
  0
POLYLINE
  8
0
 66
     1
  0
VERTEX
  8
0
 10
-324.722198
 20
159.514526
  0
VERTEX
  8
0
 10
-325.556000
 20
159.588287
  0
VERTEX
  8
0
 10
-326.428162
 20
159.812698
  0
VERTEX
  8
0
 10
-327.148193
 20
160.158386
  0
VERTEX
  8
0
 10
-327.525482
 20
160.595963
  0
VERTEX
  8
0
 10
-327.513123
 20
161.332932
  0
VERTEX
  8
0
 10
-327.258362
 20
162.174606
  0
VERTEX
  8
0
 10
-326.986328
 20
163.038269
  0
VERTEX
  8
0
 10
-326.707062
 20
163.890533
  0
VERTEX
  8
0
 10
-326.463867
 20
164.528137
  0
VERTEX
  8
0
 10
-326.190704
 20
165.164978
  0
VERTEX
  8
0
 10
-325.889282
 20
165.812363
  0
VERTEX
  8
0
 10
-325.544037
 20
166.507339
  0
VERTEX
  8
0
 10
-325.183411
 20
167.190720
  0
VERTEX
  8
0
 10
-324.839966
 20
167.802841
  0
VERTEX
  8
0
 10
-324.428040
 20
168.485855
  0
VERTEX
  8
0
 10
-323.980743
 20
169.175583
  0
VERTEX
  8
0
 10
-323.464325
 20
169.918152
  0
VERTEX
  8
0
 10
-322.922852
 20
170.642258
  0
SEQEND
  0
POLYLINE
  8
0
 66
     1
  0
VERTEX
  8
0
 10
-322.922638
 20
189.736435
  0
VERTEX
  8
0
 10
-323.671051
 20
189.891998
  0
VERTEX
  8
0
 10
-324.394562
 20
190.203751
  0
VERTEX
  8
0
 10
-325.145599
 20
190.760361
  0
VERTEX
  8
0
 10
-325.776123
 20
191.342087
  0
VERTEX
  8
0
 10
-326.153259
 20
191.694229
  0
VERTEX
  8
0
 10
-326.497192
 20
192.100372
  0
VERTEX
  8
0
 10
-326.782928
 20
192.653778
  0
VERTEX
  8
0
 10
-326.986023
 20
193.267197
  0
VERTEX
  8
0
 10
-327.166443
 20
193.903290
  0
VERTEX
  8
0
 10
-327.320862
 20
194.571304
  0
VERTEX
  8
0
 10
-327.444275
 20
195.369614
  0
VERTEX
  8
0
 10
-327.509705
 20
196.149948
  0
VERTEX
  8
0
 10
-327.528076
 20
196.823273
  0
VERTEX
  8
0
 10
-327.509705
 20
197.523636
  0
VERTEX
  8
0
 10
-327.440613
 20
198.332367
  0
VERTEX
  8
0
 10
-327.320862
 20
199.102280
  0
VERTEX
  8
0
 10
-327.167908
 20
199.760361
  0
VERTEX
  8
0
 10
-326.986023
 20
200.406387
  0
VERTEX
  8
0
 10
-326.776764
 20
201.025970
  0
VERTEX
  8
0
 10
-326.497192
 20
201.573212
  0
VERTEX
  8
0
 10
-326.195526
 20
201.936127
  0
VERTEX
  8
0
 10
-325.776123
 20
202.331497
  0
VERTEX
  8
0
 10
-325.097778
 20
202.952881
  0
VERTEX
  8
0
 10
-324.394562
 20
203.469833
  0
VERTEX
  8
0
 10
-323.682312
 20
203.774353
  0
VERTEX
  8
0
 10
-322.922668
 20
203.937149
  0
SEQEND
  0
POINT
  8
0
 10
-312.422852
 20
75.774483
  0
POINT
  8
0
 10
-288.922852
 20
75.774483
  0
LINE
  8
0
 10
-311.222839
 20
114.418617
 11
-311.222839
 21
124.274483
  0
LINE
  8
0
 10
-317.422852
 20
114.418617
 11
-317.422852
 21
124.274483
  0
LINE
  8
0
 10
-317.422882
 20
124.274483
 11
-311.222870
 21
124.274483
  0
LINE
  8
0
 10
-317.422882
 20
27.274483
 11
-311.222870
 21
27.274483
  0
LINE
  8
0
 10
-311.222839
 20
27.274483
 11
-311.222839
 21
37.130348
  0
LINE
  8
0
 10
-317.422852
 20
27.274483
 11
-317.422852
 21
37.130348
  0
LINE
  8
0
 10
-295.722870
 20
62.774483
 11
-295.722870
 21
97.376610
  0
LINE
  8
0
 10
-294.522858
 20
62.774483
 11
-294.522858
 21
103.705193
  0
LINE
  8
0
 10
-293.722839
 20
65.774483
 11
-293.722839
 21
85.774483
  0
LINE
  8
0
 10
-301.722870
 20
97.376610
 11
-301.722870
 21
102.998055
  0
LINE
  8
0
 10
-295.722870
 20
101.760658
 11
-295.722870
 21
103.139503
  0
LINE
  8
0
 10
-302.922882
 20
62.774483
 11
-294.522858
 21
62.774483
  0
LINE
  8
0
 10
-302.922852
 20
62.774483
 11
-302.922852
 21
88.774483
  0
LINE
  8
0
 10
-302.922882
 20
88.774483
 11
-295.722870
 21
88.774483
  0
LINE
  8
0
 10
-294.522858
 20
65.774483
 11
-293.722870
 21
65.774483
  0
LINE
  8
0
 10
-294.522858
 20
85.774483
 11
-293.722870
 21
85.774483
  0
LINE
  8
0
 10
-301.922882
 20
113.321831
 11
-294.522888
 21
113.321831
  0
LINE
  8
0
 10
-302.722870
 20
115.301735
 11
-293.722900
 21
115.301735
  0
LINE
  8
0
 10
-302.722870
 20
120.751472
 11
-293.722900
 21
120.751472
  0
LINE
  8
0
 10
-301.922882
 20
121.600014
 11
-294.522888
 21
121.600014
  0
LINE
  8
0
 10
-301.922882
 20
108.937782
 11
-294.522888
 21
108.937782
  0
LINE
  8
0
 10
-294.022888
 20
109.437782
 11
-294.022888
 21
114.236031
  0
LINE
  8
0
 10
-293.222870
 20
110.851982
 11
-293.222870
 21
120.251472
  0
LINE
  8
0
 10
-302.422852
 20
109.437782
 11
-302.422852
 21
114.236031
  0
LINE
  8
0
 10
-303.222839
 20
110.851982
 11
-303.222839
 21
120.251472
  0
LINE
  8
0
 10
-301.922882
 20
114.736031
 11
-294.522888
 21
114.736031
  0
LINE
  8
0
 10
-303.722900
 20
110.351982
 11
-302.422882
 21
110.351982
  0
LINE
  8
0
 10
-302.422852
 20
120.751472
 11
-302.422852
 21
121.100014
  0
LINE
  8
0
 10
-294.022888
 20
120.751472
 11
-294.022888
 21
121.100014
  0
LINE
  8
0
 10
-294.022888
 20
110.351982
 11
-292.722870
 21
110.351982
  0
LINE
  8
0
 10
-309.722900
 20
110.634834
 11
-303.722900
 21
110.634834
  0
LINE
  8
0
 10
-292.722839
 20
110.351982
 11
-292.722839
 21
116.291679
  0
LINE
  8
0
 10
-303.722870
 20
110.351982
 11
-303.722870
 21
116.291695
  0
LINE
  8
0
 10
-294.722839
 20
103.139503
 11
-294.722839
 21
108.937782
  0
LINE
  8
0
 10
-301.722839
 20
103.139503
 11
-301.722839
 21
108.937782
  0
LINE
  8
0
 10
-292.722870
 20
110.634834
 11
-287.722870
 21
110.634834
  0
LINE
  8
0
 10
-296.722839
 20
105.967918
 11
-296.722839
 21
103.139503
  0
LINE
  8
0
 10
-299.722870
 20
105.967934
 11
-299.722870
 21
103.139503
  0
LINE
  8
0
 10
-301.722870
 20
103.139503
 11
-299.722900
 21
103.139503
  0
LINE
  8
0
 10
-296.722870
 20
103.139503
 11
-294.722870
 21
103.139503
  0
LINE
  8
0
 10
-287.722870
 20
105.190102
 11
-287.722870
 21
116.291687
  0
LINE
  8
0
 10
-309.722870
 20
104.058708
 11
-309.722870
 21
107.347542
  0
LINE
  8
0
 10
-309.722900
 20
116.291695
 11
-303.722900
 21
116.291695
  0
LINE
  8
0
 10
-303.722900
 20
116.008842
 11
-303.222870
 21
116.008842
  0
LINE
  8
0
 10
-293.222900
 20
116.008842
 11
-292.722870
 21
116.008842
  0
LINE
  8
0
 10
-292.722870
 20
116.291695
 11
-287.722870
 21
116.291695
  0
LINE
  8
0
 10
-309.722900
 20
105.190102
 11
-301.722870
 21
105.190102
  0
LINE
  8
0
 10
-299.722900
 20
104.765846
 11
-296.722900
 21
104.765846
  0
LINE
  8
0
 10
-299.722900
 20
103.705193
 11
-296.722870
 21
103.705193
  0
LINE
  8
0
 10
-299.722900
 20
105.190102
 11
-296.722900
 21
105.190102
  0
LINE
  8
0
 10
-294.722870
 20
105.190102
 11
-287.722870
 21
105.190102
  0
LINE
  8
0
 10
-294.722870
 20
104.765846
 11
-289.722870
 21
104.765846
  0
LINE
  8
0
 10
-294.722870
 20
103.705193
 11
-289.722870
 21
103.705193
  0
LINE
  8
0
 10
-289.722839
 20
103.705193
 11
-289.722839
 21
105.190102
  0
LINE
  8
0
 10
-302.722839
 20
104.058716
 11
-301.722839
 21
104.765808
  0
LINE
  8
0
 10
-302.722870
 20
102.998055
 11
-301.722870
 21
103.705162
  0
LINE
  8
0
 10
-311.222900
 20
102.998055
 11
-302.722870
 21
102.998055
  0
LINE
  8
0
 10
-309.722900
 20
104.058708
 11
-302.722870
 21
104.058708
  0
LINE
  8
0
 10
-302.722839
 20
102.998055
 11
-302.722839
 21
104.058708
  0
LINE
  8
0
 10
-285.722870
 20
108.841934
 11
-285.722870
 21
113.841934
  0
LINE
  8
0
 10
-287.722870
 20
108.841942
 11
-285.722870
 21
108.841942
  0
LINE
  8
0
 10
-285.722870
 20
109.341942
 11
-270.644958
 21
109.341942
  0
LINE
  8
0
 10
-285.722870
 20
113.341942
 11
-270.644958
 21
113.341942
  0
LINE
  8
0
 10
-287.722870
 20
113.841942
 11
-285.722900
 21
113.841942
  0
LINE
  8
0
 10
-323.222870
 20
106.276054
 11
-321.722870
 21
106.276054
  0
LINE
  8
0
 10
-324.722870
 20
107.347542
 11
-321.722870
 21
107.347542
  0
LINE
  8
0
 10
-324.722870
 20
114.418617
 11
-321.722870
 21
114.418617
  0
LINE
  8
0
 10
-324.722870
 20
104.270851
 11
-324.722870
 21
114.418617
  0
LINE
  8
0
 10
-323.222870
 20
105.418144
 11
-323.222870
 21
106.276054
  0
LINE
  8
0
 10
-321.722870
 20
103.210197
 11
-321.722870
 21
107.347542
  0
LINE
  8
0
 10
-317.722870
 20
103.210197
 11
-317.722870
 21
107.347542
  0
LINE
  8
0
 10
-317.722870
 20
106.276054
 11
-311.222900
 21
106.276054
  0
LINE
  8
0
 10
-321.722870
 20
106.115242
 11
-317.722870
 21
106.115242
  0
LINE
  8
0
 10
-321.722870
 20
115.307625
 11
-317.722870
 21
115.307625
  0
LINE
  8
0
 10
-317.722870
 20
114.418617
 11
-309.722900
 21
114.418617
  0
LINE
  8
0
 10
-317.722870
 20
107.347542
 11
-309.722900
 21
107.347542
  0
LINE
  8
0
 10
-321.722870
 20
114.418617
 11
-321.722870
 21
115.307625
  0
LINE
  8
0
 10
-317.722870
 20
114.418617
 11
-317.722870
 21
115.307625
  0
LINE
  8
0
 10
-321.722870
 20
103.210197
 11
-317.722870
 21
103.210197
  0
LINE
  8
0
 10
-324.722870
 20
104.270851
 11
-321.722870
 21
104.270851
  0
LINE
  8
0
 10
-324.722870
 20
105.418144
 11
-321.722870
 21
105.418144
  0
LINE
  8
0
 10
-317.722870
 20
104.270851
 11
-317.422882
 21
104.270851
  0
LINE
  8
0
 10
-317.722870
 20
105.418144
 11
-317.422882
 21
105.418144
  0
LINE
  8
0
 10
-298.922882
 20
61.490944
 11
-302.066956
 21
62.774509
  0
LINE
  8
0
 10
-295.778748
 20
62.774471
 11
-298.922852
 21
61.490906
  0
LINE
  8
0
 10
-298.922852
 20
61.490921
 11
-298.922852
 21
62.774483
  0
LINE
  8
0
 10
-301.722870
 20
97.376610
 11
-294.522858
 21
97.376610
  0
LINE
  8
0
 10
-301.722870
 20
100.912148
 11
-294.522858
 21
100.912148
  0
LINE
  8
0
 10
-301.722870
 20
101.760658
 11
-295.722870
 21
101.760658
  0
LINE
  8
0
 10
-301.922882
 20
38.227135
 11
-294.522888
 21
38.227135
  0
LINE
  8
0
 10
-302.722870
 20
36.247231
 11
-293.722870
 21
36.247231
  0
LINE
  8
0
 10
-302.722870
 20
30.797493
 11
-293.722870
 21
30.797493
  0
LINE
  8
0
 10
-301.922882
 20
29.948952
 11
-294.522888
 21
29.948952
  0
LINE
  8
0
 10
-301.922882
 20
42.611183
 11
-294.522888
 21
42.611183
  0
LINE
  8
0
 10
-294.022888
 20
42.111183
 11
-294.022888
 21
37.312935
  0
LINE
  8
0
 10
-293.222870
 20
40.696983
 11
-293.222870
 21
31.297493
  0
LINE
  8
0
 10
-302.422852
 20
42.111183
 11
-302.422852
 21
37.312935
  0
LINE
  8
0
 10
-303.222839
 20
40.696983
 11
-303.222839
 21
31.297493
  0
LINE
  8
0
 10
-301.922882
 20
36.812935
 11
-294.522888
 21
36.812935
  0
LINE
  8
0
 10
-303.722870
 20
41.196983
 11
-302.422882
 21
41.196983
  0
LINE
  8
0
 10
-302.422852
 20
30.797493
 11
-302.422852
 21
30.448952
  0
LINE
  8
0
 10
-294.022888
 20
30.797493
 11
-294.022888
 21
30.448952
  0
LINE
  8
0
 10
-294.022888
 20
41.196983
 11
-292.722870
 21
41.196983
  0
LINE
  8
0
 10
-309.722870
 20
40.914131
 11
-303.722870
 21
40.914131
  0
LINE
  8
0
 10
-292.722839
 20
41.196983
 11
-292.722839
 21
35.257286
  0
LINE
  8
0
 10
-303.722870
 20
41.196983
 11
-303.722870
 21
35.257271
  0
LINE
  8
0
 10
-294.722839
 20
48.409462
 11
-294.722839
 21
42.611183
  0
LINE
  8
0
 10
-301.722839
 20
48.409462
 11
-301.722839
 21
42.611183
  0
LINE
  8
0
 10
-292.722870
 20
40.914131
 11
-287.722870
 21
40.914131
  0
LINE
  8
0
 10
-296.722839
 20
45.581047
 11
-296.722839
 21
48.409462
  0
LINE
  8
0
 10
-299.722870
 20
45.581032
 11
-299.722870
 21
48.409462
  0
LINE
  8
0
 10
-301.722870
 20
48.409462
 11
-299.722870
 21
48.409462
  0
LINE
  8
0
 10
-296.722870
 20
48.409462
 11
-294.722870
 21
48.409462
  0
LINE
  8
0
 10
-287.722870
 20
46.358864
 11
-287.722870
 21
35.257290
  0
LINE
  8
0
 10
-309.722870
 20
47.490257
 11
-309.722870
 21
44.201424
  0
LINE
  8
0
 10
-309.722870
 20
35.257271
 11
-303.722870
 21
35.257271
  0
LINE
  8
0
 10
-303.722870
 20
35.540123
 11
-303.222870
 21
35.540123
  0
LINE
  8
0
 10
-293.222870
 20
35.540123
 11
-292.722870
 21
35.540123
  0
LINE
  8
0
 10
-292.722870
 20
35.257271
 11
-287.722870
 21
35.257271
  0
LINE
  8
0
 10
-309.722870
 20
46.358864
 11
-301.722870
 21
46.358864
  0
LINE
  8
0
 10
-299.722870
 20
46.783119
 11
-296.722870
 21
46.783119
  0
LINE
  8
0
 10
-299.722870
 20
47.843773
 11
-296.722870
 21
47.843773
  0
LINE
  8
0
 10
-299.722870
 20
46.358864
 11
-296.722870
 21
46.358864
  0
LINE
  8
0
 10
-294.722870
 20
46.358864
 11
-287.722870
 21
46.358864
  0
LINE
  8
0
 10
-294.722870
 20
46.783119
 11
-289.722870
 21
46.783119
  0
LINE
  8
0
 10
-294.722870
 20
47.843773
 11
-289.722870
 21
47.843773
  0
LINE
  8
0
 10
-289.722839
 20
47.843773
 11
-289.722839
 21
46.358864
  0
LINE
  8
0
 10
-302.722839
 20
47.490265
 11
-301.722839
 21
46.783161
  0
LINE
  8
0
 10
-302.722870
 20
48.550903
 11
-301.722870
 21
47.843803
  0
LINE
  8
0
 10
-311.222870
 20
48.550911
 11
-302.722870
 21
48.550911
  0
LINE
  8
0
 10
-309.722870
 20
47.490257
 11
-302.722870
 21
47.490257
  0
LINE
  8
0
 10
-302.722839
 20
48.550911
 11
-302.722839
 21
47.490257
  0
LINE
  8
0
 10
-285.722870
 20
42.707043
 11
-285.722870
 21
37.707043
  0
LINE
  8
0
 10
-287.722870
 20
42.707024
 11
-285.722870
 21
42.707024
  0
LINE
  8
0
 10
-285.722870
 20
42.207024
 11
-270.644958
 21
42.207024
  0
LINE
  8
0
 10
-285.722870
 20
38.207024
 11
-270.644958
 21
38.207024
  0
LINE
  8
0
 10
-287.722870
 20
37.707024
 11
-285.722870
 21
37.707024
  0
LINE
  8
0
 10
-323.222870
 20
45.272911
 11
-321.722870
 21
45.272911
  0
LINE
  8
0
 10
-324.722870
 20
44.201424
 11
-321.722870
 21
44.201424
  0
LINE
  8
0
 10
-324.722870
 20
37.130348
 11
-321.722870
 21
37.130348
  0
LINE
  8
0
 10
-324.722870
 20
47.278114
 11
-324.722870
 21
37.130348
  0
LINE
  8
0
 10
-323.222870
 20
46.130821
 11
-323.222870
 21
45.272911
  0
LINE
  8
0
 10
-321.722870
 20
48.338768
 11
-321.722870
 21
44.201424
  0
LINE
  8
0
 10
-317.722870
 20
48.338768
 11
-317.722870
 21
44.201424
  0
LINE
  8
0
 10
-317.722870
 20
45.272911
 11
-311.222870
 21
45.272911
  0
LINE
  8
0
 10
-321.722870
 20
45.433723
 11
-317.722870
 21
45.433723
  0
LINE
  8
0
 10
-321.722870
 20
36.241341
 11
-317.722870
 21
36.241341
  0
LINE
  8
0
 10
-317.722870
 20
37.130348
 11
-309.722870
 21
37.130348
  0
LINE
  8
0
 10
-317.722870
 20
44.201424
 11
-309.722870
 21
44.201424
  0
LINE
  8
0
 10
-321.722870
 20
37.130348
 11
-321.722870
 21
36.241341
  0
LINE
  8
0
 10
-317.722870
 20
37.130348
 11
-317.722870
 21
36.241341
  0
LINE
  8
0
 10
-321.722870
 20
48.338768
 11
-317.722870
 21
48.338768
  0
LINE
  8
0
 10
-324.722870
 20
47.278114
 11
-321.722870
 21
47.278114
  0
LINE
  8
0
 10
-324.722870
 20
46.130821
 11
-321.722870
 21
46.130821
  0
LINE
  8
0
 10
-317.722870
 20
47.278114
 11
-317.422882
 21
47.278114
  0
LINE
  8
0
 10
-317.722870
 20
46.130821
 11
-317.422882
 21
46.130821
  0
LINE
  8
0
 10
-311.222839
 20
45.272911
 11
-311.222839
 21
106.276054
  0
LINE
  8
0
 10
-317.422852
 20
45.272911
 11
-317.422852
 21
106.276054
  0
LINE
  8
0
 10
-270.644958
 20
113.341942
 11
-270.644958
 21
109.341942
  0
LINE
  8
0
 10
-270.644958
 20
111.041946
 11
-267.644958
 21
111.041946
  0
LINE
  8
0
 10
-270.644958
 20
111.641937
 11
-267.644958
 21
111.641937
  0
LINE
  8
0
 10
-270.644958
 20
110.041946
 11
-267.644958
 21
110.041946
  0
LINE
  8
0
 10
-270.644958
 20
112.641937
 11
-267.644958
 21
112.641937
  0
LINE
  8
0
 10
-267.644958
 20
112.641937
 11
-267.644958
 21
111.641937
  0
LINE
  8
0
 10
-267.644958
 20
111.041946
 11
-267.644958
 21
110.041946
  0
LINE
  8
0
 10
-267.644958
 20
112.516937
 11
-266.144958
 21
112.516937
  0
LINE
  8
0
 10
-267.644958
 20
112.391937
 11
-266.144958
 21
112.391937
  0
LINE
  8
0
 10
-267.644958
 20
112.266937
 11
-266.144958
 21
112.266937
  0
LINE
  8
0
 10
-267.644958
 20
112.141937
 11
-266.144958
 21
112.141937
  0
LINE
  8
0
 10
-267.644958
 20
112.016937
 11
-266.144958
 21
112.016937
  0
LINE
  8
0
 10
-267.644958
 20
111.891937
 11
-266.144958
 21
111.891937
  0
LINE
  8
0
 10
-267.644958
 20
111.766937
 11
-266.144958
 21
111.766937
  0
LINE
  8
0
 10
-267.644958
 20
110.916946
 11
-266.144958
 21
110.916946
  0
LINE
  8
0
 10
-267.644958
 20
110.791946
 11
-266.144958
 21
110.791946
  0
LINE
  8
0
 10
-267.644958
 20
110.666946
 11
-266.144958
 21
110.666946
  0
LINE
  8
0
 10
-267.644958
 20
110.541946
 11
-266.144958
 21
110.541946
  0
LINE
  8
0
 10
-267.644958
 20
110.416946
 11
-266.144958
 21
110.416946
  0
LINE
  8
0
 10
-267.644958
 20
110.291946
 11
-266.144958
 21
110.291946
  0
LINE
  8
0
 10
-267.644958
 20
110.166946
 11
-266.144958
 21
110.166946
  0
LINE
  8
0
 10
-270.644958
 20
42.207024
 11
-270.644958
 21
38.207024
  0
LINE
  8
0
 10
-270.644958
 20
39.907024
 11
-267.644958
 21
39.907024
  0
LINE
  8
0
 10
-270.644958
 20
40.507023
 11
-267.644958
 21
40.507023
  0
LINE
  8
0
 10
-270.644958
 20
38.907024
 11
-267.644958
 21
38.907024
  0
LINE
  8
0
 10
-270.644958
 20
41.507023
 11
-267.644958
 21
41.507023
  0
LINE
  8
0
 10
-267.644958
 20
41.507023
 11
-267.644958
 21
40.507023
  0
LINE
  8
0
 10
-267.644958
 20
39.907024
 11
-267.644958
 21
38.907024
  0
LINE
  8
0
 10
-267.644958
 20
41.382023
 11
-266.144958
 21
41.382023
  0
LINE
  8
0
 10
-267.644958
 20
41.257023
 11
-266.144958
 21
41.257023
  0
LINE
  8
0
 10
-267.644958
 20
41.132023
 11
-266.144958
 21
41.132023
  0
LINE
  8
0
 10
-267.644958
 20
41.007023
 11
-266.144958
 21
41.007023
  0
LINE
  8
0
 10
-267.644958
 20
40.882023
 11
-266.144958
 21
40.882023
  0
LINE
  8
0
 10
-267.644958
 20
40.757023
 11
-266.144958
 21
40.757023
  0
LINE
  8
0
 10
-267.644958
 20
40.632023
 11
-266.144958
 21
40.632023
  0
LINE
  8
0
 10
-267.644958
 20
39.782024
 11
-266.144958
 21
39.782024
  0
LINE
  8
0
 10
-267.644958
 20
39.657024
 11
-266.144958
 21
39.657024
  0
LINE
  8
0
 10
-267.644958
 20
39.532024
 11
-266.144958
 21
39.532024
  0
LINE
  8
0
 10
-267.644958
 20
39.407024
 11
-266.144958
 21
39.407024
  0
LINE
  8
0
 10
-267.644958
 20
39.282024
 11
-266.144958
 21
39.282024
  0
LINE
  8
0
 10
-267.644958
 20
39.157024
 11
-266.144958
 21
39.157024
  0
LINE
  8
0
 10
-267.644958
 20
39.032024
 11
-266.144958
 21
39.032024
  0
LINE
  8
0
 10
-309.722870
 20
44.201424
 11
-309.722870
 21
35.257271
  0
LINE
  8
0
 10
-309.722870
 20
107.347542
 11
-309.722870
 21
116.291695
  0
LINE
  8
0
 10
-309.422852
 20
90.474487
 11
-309.422852
 21
61.074478
  0
LINE
  8
0
 10
-288.922852
 20
83.174484
 11
-288.922852
 21
68.374481
  0
LINE
  8
0
 10
-327.922852
 20
118.374481
 11
-327.922852
 21
33.174484
  0
LINE
  8
0
 10
-327.528107
 20
33.774483
 11
-317.422852
 21
33.774483
  0
LINE
  8
0
 10
-322.922852
 20
51.274483
 11
-317.422852
 21
51.274483
  0
LINE
  8
0
 10
-311.222839
 20
60.774483
 11
-309.722839
 21
60.774483
  0
LINE
  8
0
 10
-309.422852
 20
67.274483
 11
-305.472839
 21
67.274483
  0
LINE
  8
0
 10
-309.422852
 20
84.274483
 11
-305.472839
 21
84.274483
  0
LINE
  8
0
 10
-311.222839
 20
90.774483
 11
-309.722839
 21
90.774483
  0
LINE
  8
0
 10
-322.922852
 20
100.274483
 11
-317.422852
 21
100.274483
  0
LINE
  8
0
 10
-327.528107
 20
117.774483
 11
-317.422852
 21
117.774483
  0
LINE
  8
0
 10
-309.722839
 20
60.774460
 11
-309.422821
 21
61.074455
  0
LINE
  8
0
 10
-309.722870
 20
90.774483
 11
-309.422852
 21
90.474480
  0
LINE
  8
0
 10
-305.422852
 20
84.224480
 11
-305.422852
 21
67.324486
  0
LINE
  8
0
 10
-305.422852
 20
67.374481
 11
-302.922852
 21
67.374481
  0
LINE
  8
0
 10
-305.422852
 20
84.174484
 11
-302.922852
 21
84.174484
  0
LINE
  8
0
 10
-289.922852
 20
67.374504
 11
-288.922852
 21
68.374496
  0
LINE
  8
0
 10
-289.922943
 20
84.174423
 11
-288.922943
 21
83.174423
  0
LINE
  8
0
 10
-289.922852
 20
84.174484
 11
-289.922852
 21
67.374481
  0
LINE
  8
0
 10
-305.422852
 20
84.224503
 11
-305.472839
 21
84.274506
  0
LINE
  8
0
 10
-305.472839
 20
67.274460
 11
-305.422852
 21
67.324463
  0
LINE
  8
0
 10
-327.922852
 20
33.174484
 11
-327.528137
 21
33.774483
  0
LINE
  8
0
 10
-327.922852
 20
118.374481
 11
-327.528137
 21
117.774483
  0
LINE
  8
0
 10
-304.922729
 20
76.608376
 11
-302.922852
 21
76.608376
  0
LINE
  8
0
 10
-304.922943
 20
74.940620
 11
-302.922852
 21
74.940620
  0
LINE
  8
0
 10
-304.922607
 20
84.132988
 11
-302.922852
 21
84.132988
  0
LINE
  8
0
 10
-304.922913
 20
67.415977
 11
-302.922852
 21
67.415977
  0
LINE
  8
0
 10
-304.922607
 20
84.132988
 11
-302.922852
 21
83.129837
  0
LINE
  8
0
 10
-289.922852
 20
76.608360
 11
-288.922852
 21
76.162842
  0
LINE
  8
0
 10
-289.922882
 20
74.940636
 11
-293.722839
 21
73.034409
  0
LINE
  8
0
 10
-289.922852
 20
74.940628
 11
-288.922852
 21
75.386131
  0
LINE
  8
0
 10
-289.922852
 20
84.132965
 11
-288.922852
 21
83.164261
  0
LINE
  8
0
 10
-289.922821
 20
84.132942
 11
-293.722839
 21
82.226692
  0
LINE
  8
0
 10
-289.922821
 20
67.415932
 11
-288.922821
 21
68.384636
  0
LINE
  8
0
 10
-304.922943
 20
74.940620
 11
-302.922852
 21
73.937302
  0
LINE
  8
0
 10
-322.922852
 20
104.270851
 11
-322.922852
 21
100.274483
  0
LINE
  8
0
 10
-322.922852
 20
86.892647
 11
-322.922852
 21
64.656319
  0
LINE
  8
0
 10
-322.922852
 20
51.274483
 11
-322.922852
 21
47.278114
  0
LINE
  8
0
 10
-293.722839
 20
67.374481
 11
-289.922852
 21
67.374481
  0
LINE
  8
0
 10
-293.722839
 20
84.174484
 11
-289.922852
 21
84.174484
  0
LINE
  8
0
 10
-304.922913
 20
67.415977
 11
-304.922607
 21
84.132988
  0
LINE
  8
0
 10
-293.722839
 20
84.132988
 11
-289.922852
 21
84.132988
  0
LINE
  8
0
 10
-293.722839
 20
67.415977
 11
-289.922852
 21
67.415977
  0
LINE
  8
0
 10
-302.922852
 20
68.419289
 11
-304.922913
 21
67.415977
  0
LINE
  8
0
 10
-293.722839
 20
69.322174
 11
-289.922852
 21
67.415939
  0
LINE
  8
0
 10
-293.722839
 20
74.940620
 11
-289.922852
 21
74.940620
  0
LINE
  8
0
 10
-293.722839
 20
76.608376
 11
-289.922852
 21
76.608376
  0
LINE
  8
0
 10
-302.922852
 20
77.611588
 11
-304.922729
 21
76.608376
  0
LINE
  8
0
 10
-293.722839
 20
78.514740
 11
-289.922791
 21
76.608467
  0
ARC
  8
0
 10
-315.827026
 20
40.774483
 40
9.404159
 50
299.313446
 51
324.078430
  0
ARC
  8
0
 10
-301.922882
 20
109.437782
 40
0.500000
 50
180.000000
 51
270.000000
  0
ARC
  8
0
 10
-294.522888
 20
109.437782
 40
0.500000
 50
270.000000
 51
0.000000
  0
ARC
  8
0
 10
-293.722900
 20
110.851982
 40
0.500000
 50
270.000000
 51
0.000000
  0
ARC
  8
0
 10
-302.722870
 20
110.851982
 40
0.500000
 50
180.000000
 51
270.000000
  0
ARC
  8
0
 10
-302.722870
 20
120.251472
 40
0.500000
 50
90.000000
 51
180.000000
  0
ARC
  8
0
 10
-293.722900
 20
120.251472
 40
0.500000
 50
0.000000
 51
90.000000
  0
ARC
  8
0
 10
-294.522888
 20
121.100014
 40
0.500000
 50
0.000000
 51
90.000000
  0
ARC
  8
0
 10
-301.922882
 20
121.100014
 40
0.500000
 50
90.000000
 51
180.000000
  0
ARC
  8
0
 10
-294.522888
 20
114.236031
 40
0.500000
 50
0.000000
 51
90.000000
  0
ARC
  8
0
 10
-301.922882
 20
114.236031
 40
0.500000
 50
90.000000
 51
180.000000
  0
ARC
  8
0
 10
-301.922882
 20
42.111183
 40
0.500000
 50
90.000000
 51
180.000000
  0
ARC
  8
0
 10
-294.522858
 20
42.111183
 40
0.500000
 50
0.000000
 51
90.000000
  0
ARC
  8
0
 10
-293.722870
 20
40.696983
 40
0.500000
 50
0.000000
 51
90.000000
  0
ARC
  8
0
 10
-302.722870
 20
40.696983
 40
0.500000
 50
90.000000
 51
180.000000
  0
ARC
  8
0
 10
-302.722870
 20
31.297493
 40
0.500000
 50
180.000000
 51
270.000000
  0
ARC
  8
0
 10
-293.722870
 20
31.297493
 40
0.500000
 50
270.000000
 51
0.000000
  0
ARC
  8
0
 10
-294.522858
 20
30.448952
 40
0.500000
 50
270.000000
 51
0.000000
  0
ARC
  8
0
 10
-301.922882
 20
30.448952
 40
0.500000
 50
180.000000
 51
270.000000
  0
ARC
  8
0
 10
-294.522858
 20
37.312935
 40
0.500000
 50
270.000000
 51
0.000000
  0
ARC
  8
0
 10
-301.922882
 20
37.312935
 40
0.500000
 50
180.000000
 51
270.000000
  0
ARC
  8
0
 10
-315.827026
 20
110.774483
 40
9.404174
 50
35.921604
 51
60.686565
  0
ARC
  8
0
 10
-297.478577
 20
105.967934
 40
0.755707
 50
0.000578
 51
14.106391
  0
ARC
  8
0
 10
-297.676117
 20
105.895508
 40
0.965187
 50
15.418217
 51
51.388287
  0
ARC
  8
0
 10
-298.222870
 20
105.096710
 40
1.931889
 50
53.501961
 51
126.498039
  0
ARC
  8
0
 10
-298.769623
 20
105.895508
 40
0.965204
 50
128.611710
 51
164.581787
  0
ARC
  8
0
 10
-298.967163
 20
105.967934
 40
0.755698
 50
165.893616
 51
180.000000
  0
ARC
  8
0
 10
-318.903198
 20
110.883087
 40
2.130294
 50
3.762753
 51
11.774215
  0
ARC
  8
0
 10
-319.120758
 20
110.816620
 40
2.356939
 50
12.276806
 51
45.306618
  0
ARC
  8
0
 10
-319.722900
 20
110.083511
 40
3.302731
 50
46.825668
 51
133.175827
  0
ARC
  8
0
 10
-320.325043
 20
110.816605
 40
2.356934
 50
134.695221
 51
167.724640
  0
ARC
  8
0
 10
-320.542603
 20
110.883072
 40
2.130290
 50
168.227386
 51
183.762756
  0
ARC
  8
0
 10
-306.004211
 20
113.463264
 40
0.425082
 50
345.892914
 51
14.105082
  0
ARC
  8
0
 10
-306.115326
 20
113.422523
 40
0.542913
 50
15.417397
 51
51.388477
  0
ARC
  8
0
 10
-306.422882
 20
112.973198
 40
1.086693
 50
53.501793
 51
126.497971
  0
ARC
  8
0
 10
-306.730438
 20
113.422531
 40
0.542927
 50
128.611526
 51
164.581833
  0
ARC
  8
0
 10
-306.841553
 20
113.463264
 40
0.425082
 50
165.892929
 51
194.105087
  0
ARC
  8
0
 10
-306.730438
 20
113.504005
 40
0.542913
 50
195.417404
 51
231.388474
  0
ARC
  8
0
 10
-306.422882
 20
113.953331
 40
1.086693
 50
233.501785
 51
306.497955
  0
ARC
  8
0
 10
-306.115326
 20
113.503998
 40
0.542927
 50
308.611511
 51
344.581818
  0
ARC
  8
0
 10
-321.186676
 20
110.883087
 40
1.486221
 50
174.645935
 51
194.106430
  0
ARC
  8
0
 10
-320.798157
 20
111.025520
 40
1.898239
 50
195.417923
 51
231.388382
  0
ARC
  8
0
 10
-319.722900
 20
112.596466
 40
3.799348
 50
233.502106
 51
306.497955
  0
ARC
  8
0
 10
-318.647644
 20
111.025520
 40
1.898228
 50
308.611755
 51
344.582306
  0
ARC
  8
0
 10
-318.259125
 20
110.883087
 40
1.486222
 50
345.893860
 51
5.331300
  0
ARC
  8
0
 10
-319.722931
 20
107.481583
 40
4.532871
 50
65.111382
 51
114.901817
  0
ARC
  8
0
 10
-305.678589
 20
113.463264
 40
0.755698
 50
345.893616
 51
14.106391
  0
ARC
  8
0
 10
-305.876129
 20
113.390839
 40
0.965187
 50
15.418217
 51
51.388287
  0
ARC
  8
0
 10
-306.422882
 20
112.592041
 40
1.931889
 50
53.501961
 51
126.498039
  0
ARC
  8
0
 10
-306.969635
 20
113.390839
 40
0.965204
 50
128.611710
 51
164.581787
  0
ARC
  8
0
 10
-307.167175
 20
113.463264
 40
0.755698
 50
165.893616
 51
194.106384
  0
ARC
  8
0
 10
-306.969635
 20
113.535690
 40
0.965187
 50
195.418213
 51
231.388290
  0
ARC
  8
0
 10
-306.422882
 20
114.334488
 40
1.931889
 50
233.501953
 51
306.498047
  0
ARC
  8
0
 10
-305.876129
 20
113.535690
 40
0.965204
 50
308.611725
 51
344.581787
  0
ARC
  8
0
 10
-297.403168
 20
118.130165
 40
2.130295
 50
3.762957
 51
11.773612
  0
ARC
  8
0
 10
-297.620728
 20
118.063698
 40
2.356934
 50
12.276262
 51
45.305832
  0
ARC
  8
0
 10
-298.222870
 20
117.330597
 40
3.302735
 50
46.825008
 51
133.175171
  0
ARC
  8
0
 10
-298.825012
 20
118.063698
 40
2.356923
 50
134.694427
 51
167.724106
  0
ARC
  8
0
 10
-299.042572
 20
118.130165
 40
2.130295
 50
168.226791
 51
183.762955
  0
ARC
  8
0
 10
-299.686646
 20
118.130157
 40
1.486222
 50
174.645340
 51
194.106430
  0
ARC
  8
0
 10
-299.298126
 20
118.272591
 40
1.898239
 50
195.417923
 51
231.388382
  0
ARC
  8
0
 10
-298.222870
 20
119.843544
 40
3.799354
 50
233.502167
 51
306.497955
  0
ARC
  8
0
 10
-297.147614
 20
118.272598
 40
1.898228
 50
308.611755
 51
344.582520
  0
ARC
  8
0
 10
-296.759094
 20
118.130173
 40
1.486222
 50
345.893860
 51
5.331007
  0
ARC
  8
0
 10
-298.222900
 20
114.728653
 40
4.532878
 50
65.111420
 51
114.902168
  0
ARC
  8
0
 10
-299.716522
 20
62.693024
 40
2.862135
 50
181.661621
 51
191.304977
  0
ARC
  8
0
 10
-299.505859
 20
62.754803
 40
3.080889
 50
191.663605
 51
223.964310
  0
ARC
  8
0
 10
-298.922882
 20
63.436199
 40
3.974444
 50
225.200455
 51
314.798584
  0
ARC
  8
0
 10
-298.339874
 20
62.754791
 40
3.080869
 50
316.034180
 51
348.334839
  0
ARC
  8
0
 10
-298.129242
 20
62.693008
 40
2.862126
 50
348.693542
 51
356.638641
  0
ARC
  8
0
 10
-299.651886
 20
62.789581
 40
1.286926
 50
203.772522
 51
231.388260
  0
ARC
  8
0
 10
-298.922882
 20
63.854649
 40
2.575854
 50
233.501999
 51
306.498016
  0
ARC
  8
0
 10
-298.193878
 20
62.789581
 40
1.286938
 50
308.611755
 51
336.192169
  0
ARC
  8
0
 10
-300.736908
 20
62.693024
 40
1.841763
 50
177.447586
 51
194.106247
  0
ARC
  8
0
 10
-300.255402
 20
62.869534
 40
2.352384
 50
195.417572
 51
231.387955
  0
ARC
  8
0
 10
-298.922882
 20
64.816360
 40
4.708364
 50
233.502045
 51
306.497498
  0
ARC
  8
0
 10
-297.590363
 20
62.869522
 40
2.352368
 50
308.611298
 51
344.581970
  0
ARC
  8
0
 10
-297.108856
 20
62.693008
 40
1.841766
 50
345.893311
 51
2.548266
  0
ARC
  8
0
 10
-306.004181
 20
38.085705
 40
0.425080
 50
345.893921
 51
14.106578
  0
ARC
  8
0
 10
-306.115295
 20
38.044964
 40
0.542916
 50
15.418562
 51
51.388729
  0
ARC
  8
0
 10
-306.422852
 20
37.595638
 40
1.086696
 50
53.501911
 51
126.498444
  0
ARC
  8
0
 10
-306.730408
 20
38.044960
 40
0.542924
 50
128.611771
 51
164.582214
  0
ARC
  8
0
 10
-306.841522
 20
38.085697
 40
0.425080
 50
165.893921
 51
194.106583
  0
ARC
  8
0
 10
-306.730408
 20
38.126438
 40
0.542916
 50
195.418564
 51
231.388733
  0
ARC
  8
0
 10
-306.422852
 20
38.575764
 40
1.086696
 50
233.501907
 51
306.498444
  0
ARC
  8
0
 10
-306.115295
 20
38.126442
 40
0.542924
 50
308.611786
 51
344.582214
  0
ARC
  8
0
 10
-320.542572
 20
40.665897
 40
2.130294
 50
176.237457
 51
191.772705
  0
ARC
  8
0
 10
-320.325012
 20
40.732361
 40
2.356926
 50
192.275360
 51
225.304779
  0
ARC
  8
0
 10
-319.722870
 20
41.465454
 40
3.302728
 50
226.824173
 51
313.174347
  0
ARC
  8
0
 10
-319.120728
 20
40.732346
 40
2.356923
 50
314.693390
 51
347.723206
  0
ARC
  8
0
 10
-318.903168
 20
40.665874
 40
2.130302
 50
348.225891
 51
356.237335
  0
ARC
  8
0
 10
-318.259094
 20
40.665874
 40
1.486226
 50
354.669006
 51
14.106295
  0
ARC
  8
0
 10
-318.647614
 20
40.523445
 40
1.898237
 50
15.417706
 51
51.388313
  0
ARC
  8
0
 10
-319.722870
 20
38.952499
 40
3.799345
 50
53.502064
 51
126.497902
  0
ARC
  8
0
 10
-320.798126
 20
40.523449
 40
1.898231
 50
128.611694
 51
164.582184
  0
ARC
  8
0
 10
-321.186646
 20
40.665882
 40
1.486223
 50
165.893707
 51
185.354218
  0
ARC
  8
0
 10
-305.678589
 20
38.085701
 40
0.755698
 50
345.893616
 51
14.106391
  0
ARC
  8
0
 10
-305.876129
 20
38.013279
 40
0.965186
 50
15.417998
 51
51.388145
  0
ARC
  8
0
 10
-306.422882
 20
37.214478
 40
1.931889
 50
53.501961
 51
126.498039
  0
ARC
  8
0
 10
-306.969635
 20
38.013275
 40
0.965204
 50
128.611710
 51
164.581787
  0
ARC
  8
0
 10
-307.167175
 20
38.085701
 40
0.755698
 50
165.893616
 51
194.106384
  0
ARC
  8
0
 10
-306.969635
 20
38.158123
 40
0.965186
 50
195.417999
 51
231.388153
  0
ARC
  8
0
 10
-306.422882
 20
38.956924
 40
1.931889
 50
233.501953
 51
306.498047
  0
ARC
  8
0
 10
-305.876129
 20
38.158127
 40
0.965204
 50
308.611725
 51
344.581787
  0
ARC
  8
0
 10
-299.042572
 20
33.418800
 40
2.130295
 50
176.237045
 51
191.773315
  0
ARC
  8
0
 10
-298.825012
 20
33.485268
 40
2.356931
 50
192.275986
 51
225.305634
  0
ARC
  8
0
 10
-298.222870
 20
34.218369
 40
3.302727
 50
226.824875
 51
313.175049
  0
ARC
  8
0
 10
-297.620728
 20
33.485268
 40
2.356931
 50
314.694244
 51
347.723816
  0
ARC
  8
0
 10
-297.403168
 20
33.418800
 40
2.130297
 50
348.226501
 51
356.237152
  0
ARC
  8
0
 10
-319.722900
 20
44.067387
 40
4.532881
 50
245.097824
 51
294.888153
  0
ARC
  8
0
 10
-298.222900
 20
36.820316
 40
4.532874
 50
245.097794
 51
294.888611
  0
ARC
  8
0
 10
-296.759094
 20
33.418797
 40
1.486226
 50
354.669006
 51
14.106009
  0
ARC
  8
0
 10
-297.147614
 20
33.276363
 40
1.898236
 50
15.417595
 51
51.388241
  0
ARC
  8
0
 10
-298.222870
 20
31.705421
 40
3.799338
 50
53.501995
 51
126.497833
  0
ARC
  8
0
 10
-299.298126
 20
33.276371
 40
1.898237
 50
128.611542
 51
164.581955
  0
ARC
  8
0
 10
-299.686646
 20
33.418804
 40
1.486225
 50
165.893417
 51
185.354355
  0
ARC
  8
0
 10
-298.967163
 20
45.581032
 40
0.755707
 50
180.000000
 51
194.106384
  0
ARC
  8
0
 10
-298.769623
 20
45.653458
 40
0.965187
 50
195.418213
 51
231.388290
  0
ARC
  8
0
 10
-298.222870
 20
46.452259
 40
1.931892
 50
233.502029
 51
306.497986
  0
ARC
  8
0
 10
-297.676117
 20
45.653454
 40
0.965201
 50
308.611847
 51
344.581787
  0
ARC
  8
0
 10
-297.478577
 20
45.581032
 40
0.755699
 50
345.893341
 51
0.000000
  0
POLYLINE
  8
0
 66
     1
  0
VERTEX
  8
0
 10
-322.922852
 20
100.274483
  0
VERTEX
  8
0
 10
-323.943451
 20
100.220444
  0
VERTEX
  8
0
 10
-325.028534
 20
99.977089
  0
VERTEX
  8
0
 10
-326.043091
 20
99.588066
  0
VERTEX
  8
0
 10
-326.852203
 20
99.096992
  0
VERTEX
  8
0
 10
-327.320862
 20
98.547516
  0
VERTEX
  8
0
 10
-327.522461
 20
97.706406
  0
VERTEX
  8
0
 10
-327.528107
 20
96.756409
  0
VERTEX
  8
0
 10
-327.489685
 20
96.078468
  0
VERTEX
  8
0
 10
-327.425018
 20
95.417892
  0
VERTEX
  8
0
 10
-327.320862
 20
94.709442
  0
VERTEX
  8
0
 10
-327.159149
 20
93.890709
  0
VERTEX
  8
0
 10
-326.948425
 20
93.076782
  0
VERTEX
  8
0
 10
-326.672180
 20
92.214691
  0
VERTEX
  8
0
 10
-326.399811
 20
91.485077
  0
VERTEX
  8
0
 10
-326.090729
 20
90.777756
  0
VERTEX
  8
0
 10
-325.731110
 20
90.085258
  0
VERTEX
  8
0
 10
-325.307068
 20
89.400108
  0
VERTEX
  8
0
 10
-324.790771
 20
88.703156
  0
VERTEX
  8
0
 10
-324.215607
 20
88.051033
  0
VERTEX
  8
0
 10
-323.590149
 20
87.446579
  0
VERTEX
  8
0
 10
-322.922852
 20
86.892647
  0
SEQEND
  0
POLYLINE
  8
0
 66
     1
  0
VERTEX
  8
0
 10
-322.922852
 20
51.274483
  0
VERTEX
  8
0
 10
-323.943451
 20
51.328522
  0
VERTEX
  8
0
 10
-325.028534
 20
51.571873
  0
VERTEX
  8
0
 10
-326.043091
 20
51.960899
  0
VERTEX
  8
0
 10
-326.852203
 20
52.451969
  0
VERTEX
  8
0
 10
-327.320862
 20
53.001450
  0
VERTEX
  8
0
 10
-327.522461
 20
53.842556
  0
VERTEX
  8
0
 10
-327.528107
 20
54.792553
  0
VERTEX
  8
0
 10
-327.489685
 20
55.470493
  0
VERTEX
  8
0
 10
-327.425018
 20
56.131073
  0
VERTEX
  8
0
 10
-327.320862
 20
56.839523
  0
VERTEX
  8
0
 10
-327.159149
 20
57.658253
  0
VERTEX
  8
0
 10
-326.948425
 20
58.472183
  0
VERTEX
  8
0
 10
-326.672180
 20
59.334270
  0
VERTEX
  8
0
 10
-326.399811
 20
60.063889
  0
VERTEX
  8
0
 10
-326.090729
 20
60.771206
  0
VERTEX
  8
0
 10
-325.731110
 20
61.463707
  0
VERTEX
  8
0
 10
-325.307068
 20
62.148857
  0
VERTEX
  8
0
 10
-324.790771
 20
62.845810
  0
VERTEX
  8
0
 10
-324.215607
 20
63.497932
  0
VERTEX
  8
0
 10
-323.590149
 20
64.102386
  0
VERTEX
  8
0
 10
-322.922852
 20
64.656319
  0
SEQEND
  0
POLYLINE
  8
0
 66
     1
  0
VERTEX
  8
0
 10
-327.528107
 20
117.774483
  0
VERTEX
  8
0
 10
-327.358795
 20
117.466026
  0
VERTEX
  8
0
 10
-327.155090
 20
117.098198
  0
VERTEX
  8
0
 10
-326.855774
 20
116.562363
  0
VERTEX
  8
0
 10
-326.507080
 20
115.946777
  0
VERTEX
  8
0
 10
-326.152130
 20
115.327881
  0
VERTEX
  8
0
 10
-325.793945
 20
114.710861
  0
VERTEX
  8
0
 10
-325.467590
 20
114.155678
  0
VERTEX
  8
0
 10
-325.097076
 20
113.534943
  0
VERTEX
  8
0
 10
-324.722473
 20
112.916679
  0
SEQEND
  0
POLYLINE
  8
0
 66
     1
  0
VERTEX
  8
0
 10
-327.528107
 20
33.774483
  0
VERTEX
  8
0
 10
-327.358795
 20
34.082935
  0
VERTEX
  8
0
 10
-327.155090
 20
34.450768
  0
VERTEX
  8
0
 10
-326.855774
 20
34.986603
  0
VERTEX
  8
0
 10
-326.507080
 20
35.602188
  0
VERTEX
  8
0
 10
-326.152130
 20
36.221085
  0
VERTEX
  8
0
 10
-325.793945
 20
36.838100
  0
VERTEX
  8
0
 10
-325.467590
 20
37.393288
  0
VERTEX
  8
0
 10
-325.097076
 20
38.014023
  0
VERTEX
  8
0
 10
-324.722473
 20
38.632286
  0
SEQEND
  0
POINT
  8
0
 10
-132.618698
 20
196.836792
  0
POINT
  8
0
 10
-77.618698
 20
196.836792
  0
LINE
  8
0
 10
-157.756348
 20
162.577469
 11
-166.878021
 21
171.699158
  0
LINE
  8
0
 10
-154.220795
 20
166.113007
 11
-155.069321
 21
166.961548
  0
LINE
  8
0
 10
-154.220810
 20
166.113007
 11
-157.756332
 21
162.577469
  0
LINE
  8
0
 10
-163.342484
 20
175.234665
 11
-166.878021
 21
171.699127
  0
LINE
  8
0
 10
-155.776443
 20
166.254425
 11
-157.897766
 21
164.133102
  0
LINE
  8
0
 10
-163.201065
 20
173.679031
 11
-165.322388
 21
171.557709
  0
LINE
  8
0
 10
-153.124786
 20
173.502258
 11
-157.367416
 21
169.259628
  0
LINE
  8
0
 10
-155.953217
 20
176.330688
 11
-160.195862
 21
172.088043
  0
LINE
  8
0
 10
-153.124786
 20
173.502274
 11
-155.953217
 21
176.330688
  0
LINE
  8
0
 10
-156.518906
 20
170.108154
 11
-159.347336
 21
172.936584
  0
LINE
  8
0
 10
-162.493942
 20
174.386169
 11
-163.342468
 21
175.234695
  0
LINE
  8
0
 10
-158.074524
 20
169.966751
 11
-159.488739
 21
171.380966
  0
LINE
  8
0
 10
-120.597885
 20
203.200745
 11
-126.254738
 21
208.857605
  0
LINE
  8
0
 10
-118.714081
 20
205.842422
 11
-123.613068
 21
210.741394
  0
LINE
  8
0
 10
-118.553925
 20
205.244720
 11
-120.597885
 21
203.200760
  0
LINE
  8
0
 10
-124.210770
 20
210.901581
 11
-126.254730
 21
208.857605
  0
LINE
  8
0
 10
-120.128288
 20
206.498779
 11
-122.012093
 21
204.614975
  0
LINE
  8
0
 10
-122.956718
 20
209.327209
 11
-124.840523
 21
207.443390
  0
LINE
  8
0
 10
-118.714073
 20
205.842438
 11
-118.553917
 21
205.244720
  0
LINE
  8
0
 10
-123.613060
 20
210.741364
 11
-124.210770
 21
210.901520
  0
LINE
  8
0
 10
-117.062355
 20
207.443390
 11
-122.012100
 21
212.393127
  0
LINE
  8
0
 10
-120.951439
 20
211.332489
 11
-122.577789
 21
209.706116
  0
LINE
  8
0
 10
-118.123001
 20
208.504059
 11
-119.749352
 21
206.877701
  0
LINE
  8
0
 10
-118.405853
 20
208.786896
 11
-120.032196
 21
207.160553
  0
LINE
  8
0
 10
-120.668594
 20
211.049637
 11
-122.294937
 21
209.423294
  0
LINE
  8
0
 10
-97.970459
 20
167.845398
 11
-103.627319
 21
162.188553
  0
LINE
  8
0
 10
-93.445000
 20
152.006210
 11
-104.687996
 21
163.249207
  0
LINE
  8
0
 10
-87.788132
 20
157.663055
 11
-99.031128
 21
168.906067
  0
LINE
  8
0
 10
-92.101456
 20
161.976410
 11
-97.758316
 21
156.319565
  0
LINE
  8
0
 10
-99.031128
 20
168.906052
 11
-104.687981
 21
163.249207
  0
LINE
  8
0
 10
-99.031128
 20
169.471741
 11
-105.253670
 21
163.249207
  0
LINE
  8
0
 10
-98.324036
 20
156.319565
 11
-105.253677
 21
163.249207
  0
LINE
  8
0
 10
-92.101486
 20
162.542114
 11
-99.031128
 21
169.471756
  0
LINE
  8
0
 10
-97.546188
 20
167.421127
 11
-103.203049
 21
161.764282
  0
LINE
  8
0
 10
-90.970123
 20
163.673462
 11
-92.384331
 21
162.259247
  0
LINE
  8
0
 10
-87.788124
 20
156.955933
 11
-92.737869
 21
152.006195
  0
LINE
  8
0
 10
-86.939613
 20
158.935837
 11
-88.000275
 21
157.875183
  0
LINE
  8
0
 10
-98.041183
 20
156.602402
 11
-99.455399
 21
155.188187
  0
LINE
  8
0
 10
-95.424904
 20
151.157684
 11
-99.455406
 21
155.188202
  0
LINE
  8
0
 10
-86.939606
 20
159.642960
 11
-90.970116
 21
163.673462
  0
LINE
  8
0
 10
-93.657135
 20
152.218323
 11
-94.717789
 21
151.157654
  0
LINE
  8
0
 10
-98.324036
 20
167.491913
 11
-97.616928
 21
167.491913
  0
LINE
  8
0
 10
-103.273788
 20
162.542114
 11
-103.273788
 21
161.835007
  0
LINE
  8
0
 10
-97.263351
 20
168.552505
 11
-97.687622
 21
168.128235
  0
LINE
  8
0
 10
-177.449280
 20
157.663086
 11
-166.206284
 21
168.906082
  0
LINE
  8
0
 10
-171.792419
 20
152.006226
 11
-160.549423
 21
163.249222
  0
LINE
  8
0
 10
-167.479065
 20
156.319580
 11
-173.135925
 21
161.976440
  0
LINE
  8
0
 10
-98.324020
 20
169.613159
 11
-98.748283
 21
169.188904
  0
LINE
  8
0
 10
-159.983749
 20
163.249237
 11
-166.206299
 21
169.471771
  0
LINE
  8
0
 10
-173.135925
 20
162.542114
 11
-166.206268
 21
169.471771
  0
LINE
  8
0
 10
-166.913391
 20
156.319580
 11
-159.983734
 21
163.249222
  0
LINE
  8
0
 10
-162.034348
 20
161.764297
 11
-167.691193
 21
167.421158
  0
LINE
  8
0
 10
-165.782013
 20
155.188202
 11
-167.196228
 21
156.602417
  0
LINE
  8
0
 10
-170.519653
 20
151.157715
 11
-171.580307
 21
152.218369
  0
LINE
  8
0
 10
-172.853088
 20
162.259277
 11
-174.267303
 21
163.673492
  0
LINE
  8
0
 10
-178.297806
 20
159.642975
 11
-174.267303
 21
163.673492
  0
LINE
  8
0
 10
-169.812531
 20
151.157700
 11
-165.782028
 21
155.188202
  0
LINE
  8
0
 10
-177.237152
 20
157.875229
 11
-178.297821
 21
158.935883
  0
LINE
  8
0
 10
-161.963593
 20
162.542114
 11
-161.963593
 21
161.835007
  0
LINE
  8
0
 10
-166.913391
 20
167.491867
 11
-167.620483
 21
167.491867
  0
LINE
  8
0
 10
-93.974548
 20
165.263702
 11
-98.324020
 21
169.613174
  0
LINE
  8
0
 10
-101.045624
 20
158.192627
 11
-105.395096
 21
162.542099
  0
LINE
  8
0
 10
-160.549438
 20
163.249222
 11
-166.206284
 21
168.906067
  0
LINE
  8
0
 10
-161.610092
 20
162.188568
 11
-167.266937
 21
167.845428
  0
LINE
  8
0
 10
-103.910164
 20
161.905701
 11
-104.334427
 21
161.481445
  0
LINE
  8
0
 10
-104.970825
 20
162.966354
 11
-105.395088
 21
162.542099
  0
LINE
  8
0
 10
-93.085541
 20
166.496002
 11
-94.164719
 21
167.575180
  0
LINE
  8
0
 10
-102.277939
 20
157.303619
 11
-103.357117
 21
158.382797
  0
LINE
  8
0
 10
-101.859589
 20
160.420792
 11
-96.202744
 21
166.077652
  0
LINE
  8
0
 10
-172.151855
 20
166.496017
 11
-171.072693
 21
167.575195
  0
LINE
  8
0
 10
-171.262863
 20
165.263718
 11
-166.913391
 21
169.613190
  0
LINE
  8
0
 10
-167.549789
 20
168.128265
 11
-167.974060
 21
168.552536
  0
LINE
  8
0
 10
-166.489120
 20
169.188919
 11
-166.913391
 21
169.613190
  0
LINE
  8
0
 10
-159.842316
 20
162.542114
 11
-160.266586
 21
162.966370
  0
LINE
  8
0
 10
-164.191788
 20
158.192642
 11
-159.842316
 21
162.542114
  0
LINE
  8
0
 10
-160.902985
 20
161.481461
 11
-161.327255
 21
161.905731
  0
LINE
  8
0
 10
-162.959473
 20
157.303635
 11
-161.880310
 21
158.382812
  0
LINE
  8
0
 10
-177.449280
 20
156.955963
 11
-172.499542
 21
152.006226
  0
LINE
  8
0
 10
-155.069336
 20
166.961548
 11
-125.591957
 21
185.899490
  0
LINE
  8
0
 10
-162.493958
 20
174.386139
 11
-143.556000
 21
203.863541
  0
LINE
  8
0
 10
-169.034683
 20
166.077667
 11
-163.377838
 21
160.420822
  0
LINE
  8
0
 10
-170.376419
 20
199.594513
 11
-164.860977
 21
194.079071
  0
LINE
  8
0
 10
-100.376419
 20
199.594513
 11
-94.860985
 21
194.079071
  0
LINE
  8
0
 10
-170.376419
 20
194.079071
 11
-164.860977
 21
199.594513
  0
LINE
  8
0
 10
-100.376419
 20
194.079071
 11
-94.860985
 21
199.594513
  0
LINE
  8
0
 10
-138.414246
 20
246.889709
 11
-138.941254
 21
244.922913
  0
LINE
  8
0
 10
-126.823143
 20
246.889709
 11
-126.296143
 21
244.922913
  0
LINE
  8
0
 10
-138.414246
 20
146.783875
 11
-138.941254
 21
148.750671
  0
LINE
  8
0
 10
-126.823151
 20
146.783875
 11
-126.296150
 21
148.750671
  0
LINE
  8
0
 10
-94.136185
 20
167.318207
 11
-92.169388
 21
166.791214
  0
LINE
  8
0
 10
-87.813629
 20
178.269196
 11
-86.373840
 21
176.829407
  0
LINE
  8
0
 10
-87.813599
 20
215.404327
 11
-86.373810
 21
216.844116
  0
LINE
  8
0
 10
-94.136154
 20
226.355316
 11
-92.169365
 21
226.882324
  0
LINE
  8
0
 10
-161.985809
 20
202.795868
 11
-166.163315
 21
203.683823
  0
LINE
  8
0
 10
-99.074081
 20
189.989716
 11
-103.251541
 21
190.877670
  0
LINE
  8
0
 10
-99.074081
 20
203.683792
 11
-103.251625
 21
202.795822
  0
LINE
  8
0
 10
-183.618698
 20
222.336792
 11
-183.118698
 21
222.336792
  0
LINE
  8
0
 10
-183.618698
 20
171.336792
 11
-183.118698
 21
171.336792
  0
LINE
  8
0
 10
-178.118698
 20
227.336792
 11
-170.328110
 21
227.336792
  0
LINE
  8
0
 10
-178.118698
 20
166.336792
 11
-172.041397
 21
166.336792
  0
LINE
  8
0
 10
-183.618698
 20
171.336792
 11
-183.618698
 21
222.336792
  0
LINE
  8
0
 10
-183.118698
 20
171.336792
 11
-183.118698
 21
222.336792
  0
LINE
  8
0
 10
-140.977203
 20
197.670670
 11
-133.452576
 21
205.195297
  0
LINE
  8
0
 10
-131.784821
 20
188.478287
 11
-124.260193
 21
196.002914
  0
LINE
  8
0
 10
-124.260193
 20
197.670670
 11
-131.784805
 21
205.195297
  0
LINE
  8
0
 10
-133.452591
 20
188.478287
 11
-140.977203
 21
196.002914
  0
LINE
  8
0
 10
-133.007080
 20
189.446991
 11
-140.008499
 21
196.448425
  0
LINE
  8
0
 10
-132.230316
 20
189.446991
 11
-125.228897
 21
196.448410
  0
LINE
  8
0
 10
-140.008499
 20
197.225174
 11
-133.007080
 21
204.226593
  0
LINE
  8
0
 10
-125.228889
 20
197.225159
 11
-132.230316
 21
204.226593
  0
LINE
  8
0
 10
-132.230347
 20
204.226593
 11
-131.784836
 21
205.195312
  0
LINE
  8
0
 10
-133.007080
 20
204.226593
 11
-133.452591
 21
205.195297
  0
LINE
  8
0
 10
-140.008499
 20
197.225174
 11
-140.977203
 21
197.670685
  0
LINE
  8
0
 10
-140.977219
 20
196.002930
 11
-140.008499
 21
196.448441
  0
LINE
  8
0
 10
-133.452591
 20
188.478287
 11
-133.007065
 21
189.446991
  0
LINE
  8
0
 10
-131.784836
 20
188.478302
 11
-132.230331
 21
189.447006
  0
LINE
  8
0
 10
-125.228912
 20
196.448425
 11
-124.260208
 21
196.002914
  0
LINE
  8
0
 10
-124.260193
 20
197.670670
 11
-125.228897
 21
197.225159
  0
LINE
  8
0
 10
-161.985825
 20
190.877716
 11
-166.163315
 21
189.989761
  0
CIRCLE
  8
0
 10
-97.618698
 20
196.836792
 40
8.200000
  0
ARC
  8
0
 10
-123.991989
 20
205.463486
 40
3.999998
 50
15.000039
 51
74.999992
  0
ARC
  8
0
 10
-119.891457
 20
205.321396
 40
1.200959
 50
348.626617
 51
101.373466
  0
ARC
  8
0
 10
-124.134094
 20
209.564026
 40
1.200959
 50
348.626617
 51
101.373322
  0
ARC
  8
0
 10
-120.283768
 20
209.171722
 40
3.655767
 50
331.785828
 51
118.214119
  0
ARC
  8
0
 10
-88.141693
 20
157.309509
 40
0.499995
 50
315.000610
 51
44.999382
  0
ARC
  8
0
 10
-93.091446
 20
152.359756
 40
0.499995
 50
224.999374
 51
315.000610
  0
ARC
  8
0
 10
-95.071335
 20
151.511230
 40
0.499995
 50
224.999374
 51
315.000610
  0
ARC
  8
0
 10
-87.293167
 20
159.289413
 40
0.500006
 50
314.999390
 51
44.999382
  0
ARC
  8
0
 10
-91.620331
 20
155.838394
 40
3.519536
 50
258.051575
 51
11.948416
  0
CIRCLE
  8
0
 10
-97.051239
 20
161.269318
 40
2.500000
  0
CIRCLE
  8
0
 10
-97.051239
 20
161.269318
 40
2.000000
  0
CIRCLE
  8
0
 10
-168.186188
 20
161.269333
 40
2.500000
  0
CIRCLE
  8
0
 10
-168.186188
 20
161.269333
 40
2.000000
  0
ARC
  8
0
 10
-172.145981
 20
152.359787
 40
0.500001
 50
225.001236
 51
315.000000
  0
ARC
  8
0
 10
-177.095718
 20
157.309540
 40
0.500001
 50
135.001236
 51
225.000000
  0
ARC
  8
0
 10
-177.944244
 20
159.289429
 40
0.500001
 50
135.001236
 51
224.998764
  0
ARC
  8
0
 10
-170.166077
 20
151.511261
 40
0.500001
 50
225.001236
 51
314.998749
  0
ARC
  8
0
 10
-173.617096
 20
155.838409
 40
3.519524
 50
168.051285
 51
281.948456
  0
ARC
  8
0
 10
-122.719208
 20
186.937302
 40
36.000000
 50
304.597839
 51
307.979614
  0
ARC
  8
0
 10
-122.719208
 20
186.937302
 40
36.000004
 50
322.020325
 51
325.402069
  0
ARC
  8
0
 10
-142.518188
 20
186.937302
 40
36.000019
 50
214.597839
 51
217.979599
  0
ARC
  8
0
 10
-142.518188
 20
186.937302
 40
36.000015
 50
232.020340
 51
235.402084
  0
ARC
  8
0
 10
-132.618698
 20
196.836792
 40
48.500008
 50
320.917267
 51
219.082657
  0
CIRCLE
  8
0
 10
-167.618698
 20
196.836792
 40
8.200000
  0
CIRCLE
  8
0
 10
-115.118713
 20
227.147690
 40
4.500000
  0
CIRCLE
  8
0
 10
-132.618698
 20
196.836792
 40
10.000000
  0
ARC
  8
0
 10
-132.618698
 20
196.836792
 40
13.000004
 50
302.718964
 51
147.280991
  0
CIRCLE
  8
0
 10
-132.618698
 20
196.836792
 40
8.650000
  0
ARC
  8
0
 10
-132.618698
 20
196.836792
 40
48.499996
 50
230.917267
 51
309.082672
  0
CIRCLE
  8
0
 10
-167.618698
 20
196.836792
 40
4.000000
  0
CIRCLE
  8
0
 10
-97.618698
 20
196.836761
 40
4.000000
  0
CIRCLE
  8
0
 10
-115.118660
 20
227.147659
 40
4.000000
  0
CIRCLE
  8
0
 10
-167.618698
 20
196.836792
 40
3.375000
  0
CIRCLE
  8
0
 10
-97.618698
 20
196.836761
 40
3.375000
  0
CIRCLE
  8
0
 10
-115.118660
 20
227.147659
 40
3.375000
  0
ARC
  8
0
 10
-167.618698
 20
196.836792
 40
6.999998
 50
77.999985
 51
281.999908
  0
ARC
  8
0
 10
-97.618698
 20
196.836761
 40
7.000013
 50
258.000000
 51
102.000015
  0
ARC
  8
0
 10
-132.618698
 20
245.336792
 40
6.000009
 50
15.000010
 51
164.999954
  0
ARC
  8
0
 10
-132.618713
 20
148.336792
 40
5.999994
 50
195.000046
 51
344.999969
  0
ARC
  8
0
 10
-90.616470
 20
172.586777
 40
6.000009
 50
254.999985
 51
45.000000
  0
ARC
  8
0
 10
-90.616455
 20
221.086761
 40
6.000007
 50
315.000000
 51
104.999939
  0
ARC
  8
0
 10
-84.118698
 20
181.645355
 40
5.000007
 50
222.391541
 51
225.000000
  0
ARC
  8
0
 10
-132.618698
 20
196.836792
 40
54.999996
 50
217.119308
 51
218.737076
  0
ARC
  8
0
 10
-186.043228
 20
156.403885
 40
12.000001
 50
37.119267
 51
58.149742
  0
ARC
  8
0
 10
-186.043213
 20
237.269714
 40
12.000010
 50
301.850067
 51
322.880676
  0
ARC
  8
0
 10
-132.618698
 20
196.836792
 40
35.000004
 50
346.545502
 51
348.453217
  0
ARC
  8
0
 10
-132.618698
 20
196.836792
 40
35.000000
 50
166.545532
 51
168.521667
  0
CIRCLE
  8
0
 10
-132.618698
 20
196.836792
 40
8.400000
  0
CIRCLE
  8
0
 10
-132.618698
 20
196.836792
 40
8.400000
  0
ARC
  8
0
 10
-132.618698
 20
196.836792
 40
7.399999
 50
176.991623
 51
183.008377
  0
ARC
  8
0
 10
-132.618698
 20
196.836792
 40
7.399999
 50
266.991608
 51
273.008484
  0
ARC
  8
0
 10
-132.618698
 20
196.836792
 40
7.400000
 50
356.991516
 51
3.008379
  0
ARC
  8
0
 10
-132.618698
 20
196.836792
 40
7.399999
 50
86.991623
 51
93.008377
  0
ARC
  8
0
 10
-132.618698
 20
245.336792
 40
2.600009
 50
358.464142
 51
181.535873
  0
ARC
  8
0
 10
-174.620926
 20
221.086792
 40
2.600002
 50
58.464291
 51
241.535767
  0
ARC
  8
0
 10
-174.620911
 20
172.586761
 40
2.600004
 50
118.464066
 51
301.536163
  0
ARC
  8
0
 10
-132.618698
 20
148.336792
 40
2.600009
 50
178.464142
 51
1.535866
  0
ARC
  8
0
 10
-90.616470
 20
172.586792
 40
2.600006
 50
238.464142
 51
61.535931
  0
ARC
  8
0
 10
-90.616455
 20
221.086761
 40
2.600004
 50
298.464081
 51
121.535713
  0
ARC
  8
0
 10
-178.118698
 20
222.336792
 40
5.000000
 50
90.000000
 51
180.000000
  0
ARC
  8
0
 10
-178.118698
 20
171.336792
 40
5.000000
 50
180.000000
 51
270.000000
  0
ARC
  8
0
 10
-132.618698
 20
196.836792
 40
55.000000
 50
231.262878
 51
308.737061
  0
ARC
  8
0
 10
-132.618698
 20
196.836792
 40
55.000004
 50
321.262909
 51
142.880722
  0
POINT
  8
0
 10
87.102142
 20
196.836792
  0
POINT
  8
0
 10
110.602142
 20
196.836792
  0
LINE
  8
0
 10
88.302139
 20
158.192657
 11
88.302139
 21
148.336792
  0
LINE
  8
0
 10
82.102127
 20
158.192657
 11
82.102127
 21
148.336792
  0
LINE
  8
0
 10
82.102127
 20
148.336792
 11
88.302139
 21
148.336792
  0
LINE
  8
0
 10
82.102127
 20
245.336792
 11
88.302139
 21
245.336792
  0
LINE
  8
0
 10
88.302139
 20
245.336792
 11
88.302139
 21
166.335220
  0
LINE
  8
0
 10
82.102127
 20
245.336792
 11
82.102127
 21
166.335220
  0
LINE
  8
0
 10
97.602119
 20
159.289444
 11
105.002113
 21
159.289444
  0
LINE
  8
0
 10
96.802132
 20
157.309540
 11
105.802116
 21
157.309540
  0
LINE
  8
0
 10
96.802132
 20
151.859802
 11
105.802116
 21
151.859802
  0
LINE
  8
0
 10
97.602119
 20
151.011261
 11
105.002113
 21
151.011261
  0
LINE
  8
0
 10
97.602119
 20
163.673492
 11
105.002113
 21
163.673492
  0
LINE
  8
0
 10
105.502113
 20
163.173492
 11
105.502113
 21
158.375244
  0
LINE
  8
0
 10
106.302116
 20
161.759293
 11
106.302116
 21
152.359802
  0
LINE
  8
0
 10
97.102119
 20
163.173492
 11
97.102119
 21
158.375244
  0
LINE
  8
0
 10
96.302132
 20
161.759293
 11
96.302132
 21
152.359802
  0
LINE
  8
0
 10
97.602119
 20
157.875244
 11
105.002113
 21
157.875244
  0
LINE
  8
0
 10
95.802116
 20
162.259293
 11
97.102119
 21
162.259293
  0
LINE
  8
0
 10
97.102119
 20
151.859802
 11
97.102119
 21
151.511261
  0
LINE
  8
0
 10
105.502113
 20
151.859802
 11
105.502113
 21
151.511261
  0
LINE
  8
0
 10
105.502113
 20
162.259293
 11
106.802132
 21
162.259293
  0
LINE
  8
0
 10
89.802124
 20
161.976440
 11
95.802116
 21
161.976440
  0
LINE
  8
0
 10
106.802132
 20
162.259293
 11
106.802132
 21
156.319595
  0
LINE
  8
0
 10
95.802116
 20
162.259293
 11
95.802116
 21
156.319580
  0
LINE
  8
0
 10
104.802132
 20
169.471771
 11
104.802132
 21
163.673492
  0
LINE
  8
0
 10
97.802132
 20
169.471771
 11
97.802132
 21
163.673492
  0
LINE
  8
0
 10
106.802132
 20
161.976440
 11
111.802132
 21
161.976440
  0
LINE
  8
0
 10
102.802162
 20
166.643356
 11
102.802162
 21
169.471771
  0
LINE
  8
0
 10
99.802116
 20
166.643341
 11
99.802116
 21
169.471771
  0
LINE
  8
0
 10
97.802132
 20
169.471771
 11
99.802116
 21
169.471771
  0
LINE
  8
0
 10
102.802132
 20
169.471771
 11
104.802132
 21
169.471771
  0
LINE
  8
0
 10
111.802132
 20
167.421173
 11
111.802132
 21
156.319595
  0
LINE
  8
0
 10
89.802124
 20
168.552567
 11
89.802124
 21
165.263733
  0
LINE
  8
0
 10
89.802124
 20
156.319580
 11
95.802116
 21
156.319580
  0
LINE
  8
0
 10
95.802116
 20
156.602432
 11
96.302132
 21
156.602432
  0
LINE
  8
0
 10
106.302116
 20
156.602432
 11
106.802132
 21
156.602432
  0
LINE
  8
0
 10
106.802132
 20
156.319580
 11
111.802132
 21
156.319580
  0
LINE
  8
0
 10
89.802124
 20
167.421173
 11
97.802132
 21
167.421173
  0
LINE
  8
0
 10
99.802116
 20
167.845428
 11
102.802116
 21
167.845428
  0
LINE
  8
0
 10
99.802116
 20
168.906082
 11
102.802132
 21
168.906082
  0
LINE
  8
0
 10
99.802116
 20
167.421173
 11
102.802116
 21
167.421173
  0
LINE
  8
0
 10
104.802132
 20
167.421173
 11
111.802132
 21
167.421173
  0
LINE
  8
0
 10
104.802132
 20
167.845428
 11
109.802132
 21
167.845428
  0
LINE
  8
0
 10
104.802132
 20
168.906082
 11
109.802132
 21
168.906082
  0
LINE
  8
0
 10
109.802132
 20
168.906082
 11
109.802132
 21
167.421173
  0
LINE
  8
0
 10
96.802162
 20
168.552567
 11
97.802147
 21
167.845459
  0
LINE
  8
0
 10
96.802155
 20
169.613220
 11
97.802139
 21
168.906128
  0
LINE
  8
0
 10
88.302124
 20
169.613220
 11
96.802132
 21
169.613220
  0
LINE
  8
0
 10
89.802124
 20
168.552567
 11
96.802132
 21
168.552567
  0
LINE
  8
0
 10
96.802132
 20
169.613220
 11
96.802132
 21
168.552567
  0
LINE
  8
0
 10
113.802116
 20
163.769348
 11
113.802116
 21
158.769348
  0
LINE
  8
0
 10
111.802132
 20
163.769333
 11
113.802116
 21
163.769333
  0
LINE
  8
0
 10
113.802116
 20
163.269333
 11
128.880035
 21
163.269333
  0
LINE
  8
0
 10
113.802116
 20
159.269333
 11
128.880035
 21
159.269333
  0
LINE
  8
0
 10
111.802132
 20
158.769333
 11
113.802116
 21
158.769333
  0
LINE
  8
0
 10
76.302124
 20
166.335220
 11
77.802124
 21
166.335220
  0
LINE
  8
0
 10
74.802124
 20
165.263733
 11
77.802124
 21
165.263733
  0
LINE
  8
0
 10
74.802124
 20
158.192657
 11
77.802124
 21
158.192657
  0
LINE
  8
0
 10
74.802124
 20
168.340424
 11
74.802124
 21
158.192657
  0
LINE
  8
0
 10
76.302124
 20
167.193130
 11
76.302124
 21
166.335220
  0
LINE
  8
0
 10
77.802124
 20
169.401077
 11
77.802124
 21
165.263733
  0
LINE
  8
0
 10
81.802124
 20
169.401077
 11
81.802124
 21
165.263733
  0
LINE
  8
0
 10
81.802124
 20
166.335220
 11
88.302124
 21
166.335220
  0
LINE
  8
0
 10
77.802124
 20
166.496033
 11
81.802124
 21
166.496033
  0
LINE
  8
0
 10
77.802124
 20
157.303650
 11
81.802124
 21
157.303650
  0
LINE
  8
0
 10
81.802124
 20
158.192657
 11
89.802124
 21
158.192657
  0
LINE
  8
0
 10
81.802124
 20
165.263733
 11
89.802124
 21
165.263733
  0
LINE
  8
0
 10
77.802124
 20
158.192657
 11
77.802124
 21
157.303650
  0
LINE
  8
0
 10
81.802124
 20
158.192657
 11
81.802124
 21
157.303650
  0
LINE
  8
0
 10
77.802124
 20
169.401077
 11
81.802124
 21
169.401077
  0
LINE
  8
0
 10
74.802124
 20
168.340424
 11
77.802124
 21
168.340424
  0
LINE
  8
0
 10
74.802124
 20
167.193130
 11
77.802124
 21
167.193130
  0
LINE
  8
0
 10
81.802124
 20
168.340424
 11
82.102112
 21
168.340424
  0
LINE
  8
0
 10
81.802124
 20
167.193130
 11
82.102112
 21
167.193130
  0
LINE
  8
0
 10
102.802170
 20
233.252762
 11
102.802170
 21
224.201797
  0
LINE
  8
0
 10
99.802124
 20
233.252777
 11
99.802124
 21
224.201797
  0
LINE
  8
0
 10
97.602127
 20
242.662323
 11
105.002121
 21
242.662323
  0
LINE
  8
0
 10
96.802124
 20
241.813782
 11
97.102127
 21
241.813782
  0
LINE
  8
0
 10
97.602127
 20
238.485367
 11
105.002121
 21
238.485367
  0
LINE
  8
0
 10
95.802124
 20
237.071136
 11
97.802124
 21
237.071136
  0
LINE
  8
0
 10
97.102127
 20
242.162323
 11
97.102127
 21
237.071136
  0
LINE
  8
0
 10
105.502121
 20
242.162323
 11
105.502121
 21
237.071136
  0
LINE
  8
0
 10
106.302124
 20
241.313782
 11
106.302124
 21
237.071136
  0
LINE
  8
0
 10
96.302139
 20
241.313782
 11
96.302139
 21
237.071136
  0
LINE
  8
0
 10
106.802139
 20
237.353989
 11
106.802139
 21
237.071136
  0
LINE
  8
0
 10
89.802124
 20
237.353989
 11
95.802124
 21
237.353989
  0
LINE
  8
0
 10
106.802124
 20
237.353989
 11
111.802124
 21
237.353989
  0
LINE
  8
0
 10
105.502121
 20
241.813782
 11
105.802124
 21
241.813782
  0
LINE
  8
0
 10
105.002121
 20
238.061096
 11
105.002121
 21
237.071136
  0
LINE
  8
0
 10
97.602127
 20
238.061096
 11
97.602127
 21
237.071136
  0
LINE
  8
0
 10
97.602127
 20
238.061096
 11
105.002121
 21
238.061096
  0
LINE
  8
0
 10
99.802124
 20
230.424347
 11
102.802170
 21
230.424347
  0
LINE
  8
0
 10
97.802124
 20
224.201797
 11
99.802124
 21
224.201797
  0
LINE
  8
0
 10
97.802139
 20
238.061096
 11
97.802139
 21
224.201797
  0
LINE
  8
0
 10
104.802139
 20
238.061096
 11
104.802139
 21
224.201797
  0
LINE
  8
0
 10
102.802170
 20
224.201797
 11
104.802139
 21
224.201797
  0
LINE
  8
0
 10
104.802139
 20
237.071136
 11
106.802124
 21
237.071136
  0
LINE
  8
0
 10
89.802124
 20
237.353989
 11
89.802124
 21
235.480927
  0
LINE
  8
0
 10
111.802139
 20
237.353989
 11
111.802139
 21
226.252411
  0
LINE
  8
0
 10
113.802124
 20
234.904251
 11
113.802124
 21
229.904251
  0
LINE
  8
0
 10
99.802124
 20
231.909271
 11
102.802170
 21
231.909271
  0
LINE
  8
0
 10
99.802124
 20
231.485001
 11
102.802170
 21
231.485001
  0
LINE
  8
0
 10
99.802124
 20
224.767487
 11
102.802170
 21
224.767487
  0
LINE
  8
0
 10
104.802139
 20
231.485001
 11
109.802139
 21
231.485001
  0
LINE
  8
0
 10
104.802139
 20
224.767487
 11
109.802139
 21
224.767487
  0
LINE
  8
0
 10
109.802139
 20
231.485001
 11
109.802139
 21
224.767487
  0
LINE
  8
0
 10
109.802139
 20
226.252411
 11
111.802124
 21
226.252411
  0
LINE
  8
0
 10
111.802124
 20
234.904251
 11
113.802124
 21
234.904251
  0
LINE
  8
0
 10
113.802124
 20
234.404251
 11
128.880051
 21
234.404251
  0
LINE
  8
0
 10
113.802124
 20
230.404251
 11
128.880051
 21
230.404251
  0
LINE
  8
0
 10
111.802124
 20
229.904251
 11
113.802124
 21
229.904251
  0
LINE
  8
0
 10
104.802139
 20
231.909271
 11
111.802124
 21
231.909271
  0
LINE
  8
0
 10
96.802147
 20
231.131470
 11
97.802132
 21
230.424377
  0
LINE
  8
0
 10
96.802147
 20
232.192123
 11
97.802139
 21
231.485016
  0
LINE
  8
0
 10
89.802124
 20
232.192139
 11
96.802139
 21
232.192139
  0
LINE
  8
0
 10
88.302124
 20
231.131470
 11
96.802139
 21
231.131470
  0
LINE
  8
0
 10
88.302124
 20
224.060394
 11
96.802124
 21
224.060394
  0
LINE
  8
0
 10
96.802132
 20
231.131470
 11
96.802147
 21
232.192139
  0
LINE
  8
0
 10
96.802086
 20
224.060440
 11
97.802094
 21
224.767548
  0
LINE
  8
0
 10
74.802124
 20
235.480927
 11
77.802124
 21
235.480927
  0
LINE
  8
0
 10
76.302139
 20
234.409424
 11
77.802124
 21
234.409424
  0
LINE
  8
0
 10
88.302124
 20
235.480927
 11
89.802124
 21
235.480927
  0
LINE
  8
0
 10
74.802124
 20
233.551514
 11
77.802124
 21
233.551514
  0
LINE
  8
0
 10
74.802124
 20
232.404236
 11
82.102112
 21
232.404236
  0
LINE
  8
0
 10
74.802139
 20
235.480927
 11
74.802139
 21
225.333160
  0
LINE
  8
0
 10
76.302139
 20
234.409424
 11
76.302139
 21
233.551514
  0
LINE
  8
0
 10
77.802124
 20
236.369934
 11
77.802124
 21
232.404236
  0
LINE
  8
0
 10
81.802139
 20
236.369934
 11
81.802139
 21
232.404236
  0
LINE
  8
0
 10
81.802124
 20
234.409424
 11
82.102112
 21
234.409424
  0
LINE
  8
0
 10
81.802124
 20
235.480927
 11
82.102112
 21
235.480927
  0
LINE
  8
0
 10
81.802124
 20
233.551514
 11
82.102112
 21
233.551514
  0
LINE
  8
0
 10
77.802124
 20
233.464890
 11
81.802124
 21
233.464890
  0
LINE
  8
0
 10
77.802124
 20
236.369934
 11
81.802124
 21
236.369934
  0
LINE
  8
0
 10
77.802124
 20
225.333160
 11
77.802124
 21
224.272507
  0
LINE
  8
0
 10
81.802139
 20
225.333160
 11
81.802139
 21
224.272507
  0
LINE
  8
0
 10
77.802124
 20
224.272507
 11
81.802124
 21
224.272507
  0
LINE
  8
0
 10
74.802124
 20
225.333160
 11
78.749634
 21
225.333160
  0
LINE
  8
0
 10
77.802139
 20
228.868683
 11
77.802139
 21
226.535233
  0
LINE
  8
0
 10
81.802139
 20
228.868698
 11
81.802139
 21
226.535233
  0
LINE
  8
0
 10
80.855881
 20
225.333160
 11
82.102112
 21
225.333160
  0
LINE
  8
0
 10
128.880035
 20
234.404251
 11
128.880035
 21
230.404251
  0
LINE
  8
0
 10
128.880035
 20
232.104248
 11
131.880035
 21
232.104248
  0
LINE
  8
0
 10
128.880035
 20
232.704254
 11
131.880035
 21
232.704254
  0
LINE
  8
0
 10
128.880035
 20
231.104248
 11
131.880035
 21
231.104248
  0
LINE
  8
0
 10
128.880035
 20
233.704254
 11
131.880035
 21
233.704254
  0
LINE
  8
0
 10
131.880035
 20
233.704254
 11
131.880035
 21
232.704254
  0
LINE
  8
0
 10
131.880035
 20
232.104248
 11
131.880035
 21
231.104248
  0
LINE
  8
0
 10
131.880035
 20
233.579254
 11
133.380035
 21
233.579254
  0
LINE
  8
0
 10
131.880035
 20
233.454254
 11
133.380035
 21
233.454254
  0
LINE
  8
0
 10
131.880035
 20
233.329254
 11
133.380035
 21
233.329254
  0
LINE
  8
0
 10
131.880035
 20
233.204254
 11
133.380035
 21
233.204254
  0
LINE
  8
0
 10
131.880035
 20
233.079254
 11
133.380035
 21
233.079254
  0
LINE
  8
0
 10
131.880035
 20
232.954254
 11
133.380035
 21
232.954254
  0
LINE
  8
0
 10
131.880035
 20
232.829254
 11
133.380035
 21
232.829254
  0
LINE
  8
0
 10
131.880035
 20
231.979248
 11
133.380035
 21
231.979248
  0
LINE
  8
0
 10
131.880035
 20
231.854248
 11
133.380035
 21
231.854248
  0
LINE
  8
0
 10
131.880035
 20
231.729248
 11
133.380035
 21
231.729248
  0
LINE
  8
0
 10
131.880035
 20
231.604248
 11
133.380035
 21
231.604248
  0
LINE
  8
0
 10
131.880035
 20
231.479248
 11
133.380035
 21
231.479248
  0
LINE
  8
0
 10
131.880035
 20
231.354248
 11
133.380035
 21
231.354248
  0
LINE
  8
0
 10
131.880035
 20
231.229248
 11
133.380035
 21
231.229248
  0
LINE
  8
0
 10
128.880035
 20
163.269333
 11
128.880035
 21
159.269333
  0
LINE
  8
0
 10
128.880035
 20
160.969330
 11
131.880035
 21
160.969330
  0
LINE
  8
0
 10
128.880035
 20
161.569336
 11
131.880035
 21
161.569336
  0
LINE
  8
0
 10
128.880035
 20
159.969330
 11
131.880035
 21
159.969330
  0
LINE
  8
0
 10
128.880035
 20
162.569336
 11
131.880035
 21
162.569336
  0
LINE
  8
0
 10
131.880035
 20
162.569336
 11
131.880035
 21
161.569336
  0
LINE
  8
0
 10
131.880035
 20
160.969330
 11
131.880035
 21
159.969330
  0
LINE
  8
0
 10
131.880035
 20
162.444336
 11
133.380035
 21
162.444336
  0
LINE
  8
0
 10
131.880035
 20
162.319336
 11
133.380035
 21
162.319336
  0
LINE
  8
0
 10
131.880035
 20
162.194336
 11
133.380035
 21
162.194336
  0
LINE
  8
0
 10
131.880035
 20
162.069336
 11
133.380035
 21
162.069336
  0
LINE
  8
0
 10
131.880035
 20
161.944336
 11
133.380035
 21
161.944336
  0
LINE
  8
0
 10
131.880035
 20
161.819336
 11
133.380035
 21
161.819336
  0
LINE
  8
0
 10
131.880035
 20
161.694336
 11
133.380035
 21
161.694336
  0
LINE
  8
0
 10
131.880035
 20
160.844330
 11
133.380035
 21
160.844330
  0
LINE
  8
0
 10
131.880035
 20
160.719330
 11
133.380035
 21
160.719330
  0
LINE
  8
0
 10
131.880035
 20
160.594330
 11
133.380035
 21
160.594330
  0
LINE
  8
0
 10
131.880035
 20
160.469330
 11
133.380035
 21
160.469330
  0
LINE
  8
0
 10
131.880035
 20
160.344330
 11
133.380035
 21
160.344330
  0
LINE
  8
0
 10
131.880035
 20
160.219330
 11
133.380035
 21
160.219330
  0
LINE
  8
0
 10
131.880035
 20
160.094330
 11
133.380035
 21
160.094330
  0
LINE
  8
0
 10
89.802124
 20
165.263733
 11
89.802124
 21
156.319580
  0
LINE
  8
0
 10
89.802124
 20
235.480927
 11
89.802124
 21
232.192139
  0
LINE
  8
0
 10
90.102142
 20
211.536789
 11
90.102142
 21
203.723358
  0
LINE
  8
0
 10
71.602142
 20
239.436798
 11
71.602142
 21
154.236786
  0
LINE
  8
0
 10
88.302139
 20
181.836792
 11
89.802139
 21
181.836792
  0
LINE
  8
0
 10
76.602142
 20
189.836792
 11
82.102127
 21
189.836792
  0
LINE
  8
0
 10
76.602142
 20
203.836792
 11
82.102127
 21
203.836792
  0
LINE
  8
0
 10
88.302139
 20
211.836792
 11
89.802139
 21
211.836792
  0
LINE
  8
0
 10
89.802170
 20
181.836761
 11
90.102165
 21
182.136765
  0
LINE
  8
0
 10
90.102165
 20
211.536819
 11
89.802170
 21
211.836823
  0
LINE
  8
0
 10
71.602135
 20
154.236786
 11
74.802124
 21
159.100769
  0
LINE
  8
0
 10
71.602135
 20
239.436798
 11
74.802139
 21
234.572784
  0
LINE
  8
0
 10
76.602142
 20
223.031326
 11
76.602142
 21
203.937134
  0
LINE
  8
0
 10
76.602142
 20
189.736465
 11
76.602142
 21
170.642258
  0
LINE
  8
0
 10
90.102142
 20
189.950226
 11
90.102142
 21
182.136795
  0
LINE
  8
0
 10
95.802124
 20
237.353989
 11
95.802124
 21
237.071136
  0
LINE
  8
0
 10
103.802132
 20
209.836792
 11
103.802132
 21
175.234665
  0
LINE
  8
0
 10
105.002144
 20
209.836792
 11
105.002144
 21
168.906082
  0
LINE
  8
0
 10
105.802147
 20
206.836792
 11
105.802147
 21
186.836792
  0
LINE
  8
0
 10
97.802132
 20
175.234665
 11
97.802132
 21
169.471771
  0
LINE
  8
0
 10
103.802132
 20
170.850616
 11
103.802132
 21
169.471771
  0
LINE
  8
0
 10
96.602135
 20
209.836792
 11
105.002144
 21
209.836792
  0
LINE
  8
0
 10
96.602135
 20
209.836792
 11
96.602135
 21
183.836792
  0
LINE
  8
0
 10
96.602135
 20
183.836792
 11
103.802132
 21
183.836792
  0
LINE
  8
0
 10
105.002144
 20
206.836792
 11
105.802147
 21
206.836792
  0
LINE
  8
0
 10
105.002144
 20
186.836792
 11
105.802147
 21
186.836792
  0
LINE
  8
0
 10
100.602127
 20
211.120361
 11
97.458046
 21
209.836792
  0
LINE
  8
0
 10
103.746239
 20
209.836807
 11
100.602158
 21
211.120361
  0
LINE
  8
0
 10
100.602135
 20
211.120346
 11
100.602135
 21
209.836792
  0
LINE
  8
0
 10
97.802132
 20
175.234665
 11
105.002144
 21
175.234665
  0
LINE
  8
0
 10
97.802132
 20
171.699127
 11
105.002144
 21
171.699127
  0
LINE
  8
0
 10
97.802132
 20
170.850616
 11
103.802132
 21
170.850616
  0
LINE
  8
0
 10
110.602142
 20
204.236786
 11
110.602142
 21
189.436783
  0
LINE
  8
0
 10
90.102142
 20
188.336792
 11
94.052139
 21
188.336792
  0
LINE
  8
0
 10
90.102142
 20
205.336792
 11
94.052139
 21
205.336792
  0
LINE
  8
0
 10
94.102142
 20
205.286789
 11
94.102142
 21
188.386795
  0
LINE
  8
0
 10
94.102142
 20
188.436798
 11
94.602142
 21
188.436798
  0
LINE
  8
0
 10
94.102142
 20
205.236786
 11
94.602142
 21
205.236786
  0
LINE
  8
0
 10
109.602135
 20
188.436813
 11
110.602127
 21
189.436798
  0
LINE
  8
0
 10
109.602089
 20
205.236740
 11
110.602089
 21
204.236740
  0
LINE
  8
0
 10
109.602142
 20
205.236786
 11
109.602142
 21
188.436798
  0
LINE
  8
0
 10
94.052139
 20
205.336777
 11
94.102142
 21
205.286789
  0
LINE
  8
0
 10
94.052147
 20
188.336777
 11
94.102142
 21
188.386780
  0
LINE
  8
0
 10
94.602142
 20
205.195297
 11
94.602142
 21
197.670685
  0
LINE
  8
0
 10
94.602142
 20
197.670685
 11
96.602135
 21
197.670685
  0
LINE
  8
0
 10
94.602142
 20
196.002930
 11
96.602135
 21
196.002930
  0
LINE
  8
0
 10
94.602142
 20
205.195297
 11
96.602135
 21
205.195297
  0
LINE
  8
0
 10
94.602142
 20
188.478287
 11
96.602135
 21
188.478287
  0
LINE
  8
0
 10
94.602142
 20
205.195572
 11
96.602135
 21
204.192291
  0
LINE
  8
0
 10
109.602112
 20
197.670639
 11
110.602119
 21
197.225113
  0
LINE
  8
0
 10
109.602127
 20
196.002930
 11
105.802147
 21
194.096695
  0
LINE
  8
0
 10
109.602142
 20
196.002930
 11
110.602142
 21
196.448441
  0
LINE
  8
0
 10
109.602142
 20
205.195297
 11
110.602142
 21
204.226593
  0
LINE
  8
0
 10
109.602180
 20
205.195297
 11
105.802147
 21
203.289032
  0
LINE
  8
0
 10
109.602188
 20
188.478241
 11
110.602173
 21
189.446930
  0
LINE
  8
0
 10
94.602142
 20
196.002792
 11
96.602135
 21
194.999512
  0
LINE
  8
0
 10
94.602142
 20
196.002930
 11
94.602142
 21
188.478287
  0
LINE
  8
0
 10
105.802147
 20
188.436798
 11
109.602142
 21
188.436798
  0
LINE
  8
0
 10
105.802147
 20
205.236786
 11
109.602142
 21
205.236786
  0
LINE
  8
0
 10
105.802147
 20
205.195297
 11
109.602142
 21
205.195297
  0
LINE
  8
0
 10
96.602135
 20
198.673935
 11
94.602142
 21
197.670654
  0
LINE
  8
0
 10
105.802147
 20
199.577194
 11
109.602264
 21
197.670898
  0
LINE
  8
0
 10
105.802147
 20
197.670685
 11
109.602142
 21
197.670685
  0
LINE
  8
0
 10
105.802147
 20
196.002930
 11
109.602142
 21
196.002930
  0
LINE
  8
0
 10
96.602135
 20
189.481567
 11
94.602142
 21
188.478287
  0
LINE
  8
0
 10
105.802147
 20
190.384384
 11
109.602089
 21
188.478180
  0
LINE
  8
0
 10
105.802147
 20
188.478287
 11
109.602142
 21
188.478287
  0
LINE
  8
0
 10
104.802139
 20
230.424347
 11
109.802139
 21
230.424347
  0
ARC
  8
0
 10
83.697968
 20
196.836792
 40
9.404159
 50
299.313446
 51
60.686543
  0
ARC
  8
0
 10
97.602119
 20
163.173492
 40
0.500000
 50
90.000000
 51
180.000000
  0
ARC
  8
0
 10
105.002129
 20
163.173492
 40
0.500000
 50
0.000000
 51
90.000000
  0
ARC
  8
0
 10
105.802116
 20
161.759293
 40
0.500000
 50
0.000000
 51
90.000000
  0
ARC
  8
0
 10
96.802132
 20
161.759293
 40
0.500000
 50
90.000000
 51
180.000000
  0
ARC
  8
0
 10
96.802132
 20
152.359802
 40
0.500000
 50
180.000000
 51
270.000000
  0
ARC
  8
0
 10
105.802116
 20
152.359802
 40
0.500000
 50
270.000000
 51
0.000000
  0
ARC
  8
0
 10
105.002129
 20
151.511261
 40
0.500000
 50
270.000000
 51
0.000000
  0
ARC
  8
0
 10
97.602119
 20
151.511261
 40
0.500000
 50
180.000000
 51
270.000000
  0
ARC
  8
0
 10
105.002129
 20
158.375244
 40
0.500000
 50
270.000000
 51
0.000000
  0
ARC
  8
0
 10
97.602119
 20
158.375244
 40
0.500000
 50
180.000000
 51
270.000000
  0
ARC
  8
0
 10
97.602127
 20
242.162323
 40
0.500000
 50
90.000000
 51
180.000000
  0
ARC
  8
0
 10
105.002121
 20
242.162323
 40
0.500000
 50
0.000000
 51
90.000000
  0
ARC
  8
0
 10
105.002121
 20
237.985367
 40
0.500000
 50
0.000000
 51
90.000000
  0
ARC
  8
0
 10
97.602127
 20
237.985367
 40
0.500000
 50
90.000000
 51
180.000000
  0
ARC
  8
0
 10
105.802124
 20
241.313782
 40
0.500000
 50
0.000000
 51
90.000000
  0
ARC
  8
0
 10
96.802124
 20
241.313782
 40
0.500000
 50
90.000000
 51
180.000000
  0
ARC
  8
0
 10
100.557816
 20
166.643341
 40
0.755692
 50
180.000000
 51
194.105972
  0
ARC
  8
0
 10
100.755371
 20
166.715759
 40
0.965190
 50
195.417221
 51
231.388367
  0
ARC
  8
0
 10
101.302124
 20
167.514572
 40
1.931890
 50
233.502274
 51
306.497711
  0
ARC
  8
0
 10
101.848877
 20
166.715759
 40
0.965194
 50
308.611633
 51
344.581909
  0
ARC
  8
0
 10
102.046432
 20
166.643341
 40
0.755693
 50
345.892914
 51
0.000000
  0
ARC
  8
0
 10
78.982414
 20
161.728195
 40
2.130286
 50
176.237228
 51
191.772858
  0
ARC
  8
0
 10
79.199989
 20
161.794662
 40
2.356935
 50
192.275497
 51
225.305038
  0
ARC
  8
0
 10
79.802132
 20
162.527740
 40
3.302728
 50
226.824173
 51
313.174500
  0
ARC
  8
0
 10
80.404266
 20
161.794647
 40
2.356929
 50
314.693512
 51
347.722961
  0
ARC
  8
0
 10
80.621834
 20
161.728165
 40
2.130286
 50
348.225891
 51
356.237640
  0
ARC
  8
0
 10
93.520805
 20
159.148010
 40
0.425078
 50
345.894928
 51
14.107077
  0
ARC
  8
0
 10
93.409683
 20
159.107269
 40
0.542925
 50
15.418736
 51
51.389107
  0
ARC
  8
0
 10
93.102135
 20
158.657944
 40
1.086684
 50
53.502438
 51
126.497887
  0
ARC
  8
0
 10
92.794586
 20
159.107269
 40
0.542927
 50
128.611526
 51
164.582809
  0
ARC
  8
0
 10
92.683464
 20
159.148010
 40
0.425078
 50
165.894913
 51
194.107071
  0
ARC
  8
0
 10
92.794586
 20
159.188751
 40
0.542925
 50
195.418732
 51
231.389099
  0
ARC
  8
0
 10
93.102135
 20
159.638077
 40
1.086684
 50
233.502441
 51
306.497894
  0
ARC
  8
0
 10
93.409683
 20
159.188751
 40
0.542927
 50
308.611511
 51
344.582825
  0
ARC
  8
0
 10
81.265907
 20
161.728195
 40
1.486211
 50
354.668640
 51
14.105939
  0
ARC
  8
0
 10
80.877380
 20
161.585754
 40
1.898237
 50
15.417706
 51
51.388062
  0
ARC
  8
0
 10
79.802116
 20
160.014816
 40
3.799345
 50
53.501778
 51
126.497581
  0
ARC
  8
0
 10
78.726868
 20
161.585770
 40
1.898235
 50
128.611298
 51
164.581787
  0
ARC
  8
0
 10
78.338341
 20
161.728195
 40
1.486213
 50
165.892853
 51
185.354385
  0
ARC
  8
0
 10
79.802086
 20
165.129700
 40
4.532885
 50
245.098175
 51
294.888458
  0
ARC
  8
0
 10
93.846436
 20
159.148010
 40
0.755689
 50
345.894043
 51
14.107093
  0
ARC
  8
0
 10
93.648872
 20
159.075592
 40
0.965201
 50
15.417976
 51
51.388004
  0
ARC
  8
0
 10
93.102127
 20
158.276779
 40
1.931890
 50
53.502277
 51
126.497726
  0
ARC
  8
0
 10
92.555382
 20
159.075592
 40
0.965198
 50
128.612000
 51
164.582901
  0
ARC
  8
0
 10
92.357819
 20
159.148010
 40
0.755689
 50
165.894028
 51
194.107086
  0
ARC
  8
0
 10
92.555382
 20
159.220428
 40
0.965201
 50
195.417969
 51
231.388000
  0
ARC
  8
0
 10
93.102127
 20
160.019241
 40
1.931890
 50
233.502274
 51
306.497711
  0
ARC
  8
0
 10
93.648872
 20
159.220428
 40
0.965198
 50
308.612000
 51
344.582886
  0
ARC
  8
0
 10
100.482430
 20
154.481110
 40
2.130286
 50
176.237228
 51
191.773254
  0
ARC
  8
0
 10
100.700005
 20
154.547577
 40
2.356938
 50
192.275864
 51
225.305435
  0
ARC
  8
0
 10
101.302139
 20
155.280670
 40
3.302718
 50
226.824738
 51
313.175079
  0
ARC
  8
0
 10
101.904274
 20
154.547577
 40
2.356939
 50
314.694305
 51
347.723724
  0
ARC
  8
0
 10
102.121849
 20
154.481110
 40
2.130283
 50
348.226318
 51
356.237244
  0
ARC
  8
0
 10
102.765923
 20
154.481110
 40
1.486210
 50
354.669220
 51
14.106581
  0
ARC
  8
0
 10
102.377396
 20
154.338684
 40
1.898229
 50
15.417768
 51
51.388241
  0
ARC
  8
0
 10
101.302139
 20
152.767731
 40
3.799348
 50
53.502098
 51
126.497902
  0
ARC
  8
0
 10
100.226883
 20
154.338684
 40
1.898228
 50
128.611755
 51
164.582230
  0
ARC
  8
0
 10
99.838356
 20
154.481110
 40
1.486209
 50
165.893417
 51
185.353806
  0
ARC
  8
0
 10
101.302109
 20
157.882629
 40
4.532875
 50
245.098007
 51
294.888367
  0
ARC
  8
0
 10
102.046440
 20
233.252777
 40
0.755692
 50
0.000000
 51
14.107093
  0
ARC
  8
0
 10
101.848885
 20
233.180359
 40
0.965194
 50
15.418097
 51
51.388359
  0
ARC
  8
0
 10
101.302132
 20
232.381546
 40
1.931890
 50
53.502277
 51
126.497726
  0
ARC
  8
0
 10
100.755379
 20
233.180359
 40
0.965194
 50
128.611633
 51
164.582779
  0
ARC
  8
0
 10
100.557823
 20
233.252777
 40
0.755689
 50
165.894028
 51
180.000000
  0
ARC
  8
0
 10
80.596054
 20
226.535233
 40
0.806076
 50
345.893799
 51
14.106215
  0
ARC
  8
0
 10
80.385330
 20
226.457977
 40
1.029544
 50
15.417927
 51
51.388863
  0
ARC
  8
0
 10
79.802132
 20
225.605927
 40
2.060677
 50
53.502350
 51
126.497650
  0
ARC
  8
0
 10
79.218933
 20
226.457977
 40
1.029549
 50
128.611130
 51
164.582077
  0
ARC
  8
0
 10
79.008209
 20
226.535233
 40
0.806076
 50
165.893784
 51
194.106216
  0
ARC
  8
0
 10
79.218933
 20
226.612488
 40
1.029544
 50
195.417923
 51
231.388870
  0
ARC
  8
0
 10
79.802132
 20
227.464539
 40
2.060677
 50
233.502350
 51
306.497650
  0
ARC
  8
0
 10
80.385330
 20
226.612488
 40
1.029549
 50
308.611145
 51
344.582062
  0
ARC
  8
0
 10
80.794533
 20
226.535233
 40
1.007595
 50
345.893585
 51
14.106426
  0
ARC
  8
0
 10
80.531120
 20
226.438675
 40
1.286935
 50
15.417509
 51
51.388412
  0
ARC
  8
0
 10
79.802124
 20
225.373596
 40
2.575851
 50
53.502369
 51
126.497635
  0
ARC
  8
0
 10
79.073128
 20
226.438660
 40
1.286942
 50
128.611160
 51
164.581833
  0
ARC
  8
0
 10
78.809715
 20
226.535233
 40
1.007595
 50
165.893570
 51
194.106430
  0
ARC
  8
0
 10
79.073128
 20
226.631790
 40
1.286935
 50
195.417511
 51
231.388412
  0
ARC
  8
0
 10
79.802124
 20
227.696869
 40
2.575851
 50
233.502365
 51
306.497620
  0
ARC
  8
0
 10
80.531120
 20
226.631805
 40
1.286942
 50
308.611176
 51
344.581848
  0
ARC
  8
0
 10
80.794533
 20
228.868698
 40
1.007594
 50
359.873322
 51
14.106426
  0
ARC
  8
0
 10
80.531120
 20
228.772141
 40
1.286935
 50
15.417509
 51
51.388412
  0
ARC
  8
0
 10
79.802124
 20
227.707062
 40
2.575851
 50
53.502369
 51
126.497635
  0
ARC
  8
0
 10
79.073128
 20
228.772125
 40
1.286942
 50
128.611160
 51
164.581833
  0
ARC
  8
0
 10
78.809715
 20
228.868698
 40
1.007595
 50
165.893570
 51
180.105850
  0
POLYLINE
  8
0
 66
     1
  0
VERTEX
  8
0
 10
74.802780
 20
234.159058
  0
VERTEX
  8
0
 10
73.968994
 20
234.085297
  0
VERTEX
  8
0
 10
73.096825
 20
233.860886
  0
VERTEX
  8
0
 10
72.376808
 20
233.515198
  0
VERTEX
  8
0
 10
71.999512
 20
233.077621
  0
VERTEX
  8
0
 10
72.011879
 20
232.340652
  0
VERTEX
  8
0
 10
72.266617
 20
231.498978
  0
VERTEX
  8
0
 10
72.538658
 20
230.635315
  0
VERTEX
  8
0
 10
72.817932
 20
229.783051
  0
VERTEX
  8
0
 10
73.061134
 20
229.145447
  0
VERTEX
  8
0
 10
73.334282
 20
228.508606
  0
VERTEX
  8
0
 10
73.635696
 20
227.861221
  0
VERTEX
  8
0
 10
74.006775
 20
227.121902
  0
VERTEX
  8
0
 10
74.393219
 20
226.394180
  0
VERTEX
  8
0
 10
74.685036
 20
225.870743
  0
VERTEX
  8
0
 10
74.743675
 20
225.770554
  0
VERTEX
  8
0
 10
74.802780
 20
225.670639
  0
SEQEND
  0
POLYLINE
  8
0
 66
     1
  0
VERTEX
  8
0
 10
74.802780
 20
159.514526
  0
VERTEX
  8
0
 10
73.968994
 20
159.588287
  0
VERTEX
  8
0
 10
73.096825
 20
159.812698
  0
VERTEX
  8
0
 10
72.376808
 20
160.158386
  0
VERTEX
  8
0
 10
71.999512
 20
160.595963
  0
VERTEX
  8
0
 10
72.011879
 20
161.332932
  0
VERTEX
  8
0
 10
72.266617
 20
162.174606
  0
VERTEX
  8
0
 10
72.538658
 20
163.038269
  0
VERTEX
  8
0
 10
72.817932
 20
163.890533
  0
VERTEX
  8
0
 10
73.061134
 20
164.528137
  0
VERTEX
  8
0
 10
73.334282
 20
165.164978
  0
VERTEX
  8
0
 10
73.635696
 20
165.812363
  0
VERTEX
  8
0
 10
74.006775
 20
166.551682
  0
VERTEX
  8
0
 10
74.393219
 20
167.279404
  0
VERTEX
  8
0
 10
74.685036
 20
167.802841
  0
VERTEX
  8
0
 10
74.743675
 20
167.903030
  0
VERTEX
  8
0
 10
74.802780
 20
168.002945
  0
SEQEND
  0
POLYLINE
  8
0
 66
     1
  0
VERTEX
  8
0
 10
76.602341
 20
189.736435
  0
VERTEX
  8
0
 10
75.853928
 20
189.891998
  0
VERTEX
  8
0
 10
75.130432
 20
190.203751
  0
VERTEX
  8
0
 10
74.379387
 20
190.760361
  0
VERTEX
  8
0
 10
73.748856
 20
191.342087
  0
VERTEX
  8
0
 10
73.371712
 20
191.694229
  0
VERTEX
  8
0
 10
73.027802
 20
192.100372
  0
VERTEX
  8
0
 10
72.742073
 20
192.653778
  0
VERTEX
  8
0
 10
72.538986
 20
193.267197
  0
VERTEX
  8
0
 10
72.358559
 20
193.903290
  0
VERTEX
  8
0
 10
72.204117
 20
194.571304
  0
VERTEX
  8
0
 10
72.080734
 20
195.369614
  0
VERTEX
  8
0
 10
72.015305
 20
196.149948
  0
VERTEX
  8
0
 10
71.996933
 20
196.823273
  0
VERTEX
  8
0
 10
72.015305
 20
197.523636
  0
VERTEX
  8
0
 10
72.084373
 20
198.332367
  0
VERTEX
  8
0
 10
72.204117
 20
199.102280
  0
VERTEX
  8
0
 10
72.357079
 20
199.760361
  0
VERTEX
  8
0
 10
72.538986
 20
200.406387
  0
VERTEX
  8
0
 10
72.748253
 20
201.025970
  0
VERTEX
  8
0
 10
73.027802
 20
201.573212
  0
VERTEX
  8
0
 10
73.329460
 20
201.936127
  0
VERTEX
  8
0
 10
73.748856
 20
202.331497
  0
VERTEX
  8
0
 10
74.427200
 20
202.952881
  0
VERTEX
  8
0
 10
75.130432
 20
203.469833
  0
VERTEX
  8
0
 10
75.842690
 20
203.774353
  0
VERTEX
  8
0
 10
76.602333
 20
203.937149
  0
SEQEND
  0
POLYLINE
  8
0
 66
     1
  0
VERTEX
  8
0
 10
75.006989
 20
225.333359
  0
VERTEX
  8
0
 10
75.243103
 20
224.955673
  0
VERTEX
  8
0
 10
75.544250
 20
224.498001
  0
VERTEX
  8
0
 10
76.060654
 20
223.755432
  0
VERTEX
  8
0
 10
76.602142
 20
223.031326
  0
SEQEND
  0
POLYLINE
  8
0
 66
     1
  0
VERTEX
  8
0
 10
75.006989
 20
168.340225
  0
VERTEX
  8
0
 10
75.243103
 20
168.717911
  0
VERTEX
  8
0
 10
75.544250
 20
169.175583
  0
VERTEX
  8
0
 10
76.060654
 20
169.918152
  0
VERTEX
  8
0
 10
76.602142
 20
170.642258
  0
SEQEND
  0
ARC
  8
0
 10
101.395782
 20
209.918259
 40
2.862133
 50
3.361671
 51
11.306189
  0
ARC
  8
0
 10
101.185127
 20
209.856476
 40
3.080871
 50
11.664829
 51
43.965561
  0
ARC
  8
0
 10
100.602142
 20
209.175079
 40
3.974452
 50
45.201351
 51
134.799347
  0
ARC
  8
0
 10
100.019142
 20
209.856476
 40
3.080872
 50
136.035141
 51
168.336029
  0
ARC
  8
0
 10
99.808487
 20
209.918259
 40
2.862130
 50
168.694733
 51
178.338379
  0
ARC
  8
0
 10
101.331131
 20
209.821701
 40
1.286929
 50
23.807360
 51
51.388412
  0
ARC
  8
0
 10
100.602135
 20
208.756622
 40
2.575851
 50
53.502369
 51
126.497635
  0
ARC
  8
0
 10
99.873138
 20
209.821686
 40
1.286942
 50
128.611160
 51
156.227127
  0
ARC
  8
0
 10
102.416153
 20
209.918259
 40
1.841764
 50
357.451996
 51
14.106472
  0
ARC
  8
0
 10
101.934669
 20
209.741745
 40
2.352365
 50
15.417986
 51
51.388859
  0
ARC
  8
0
 10
100.602135
 20
207.794907
 40
4.708368
 50
53.502438
 51
126.497635
  0
ARC
  8
0
 10
99.269600
 20
209.741745
 40
2.352368
 50
128.611282
 51
164.582016
  0
ARC
  8
0
 10
98.788116
 20
209.918259
 40
1.841764
 50
165.893524
 51
182.552765
  0
POINT
  8
0
 10
87.102142
 20
75.774483
  0
POINT
  8
0
 10
110.602142
 20
75.774483
  0
LINE
  8
0
 10
88.302139
 20
114.418617
 11
88.302139
 21
124.274483
  0
LINE
  8
0
 10
82.102135
 20
114.418617
 11
82.102135
 21
124.274483
  0
LINE
  8
0
 10
82.102112
 20
124.274483
 11
88.302132
 21
124.274483
  0
LINE
  8
0
 10
82.102127
 20
27.274483
 11
88.302132
 21
27.274483
  0
LINE
  8
0
 10
97.602119
 20
113.321831
 11
105.002113
 21
113.321831
  0
LINE
  8
0
 10
96.802132
 20
115.301735
 11
105.802109
 21
115.301735
  0
LINE
  8
0
 10
96.802124
 20
120.751472
 11
105.802109
 21
120.751472
  0
LINE
  8
0
 10
97.602112
 20
121.600014
 11
105.002106
 21
121.600014
  0
LINE
  8
0
 10
97.602119
 20
108.937782
 11
105.002113
 21
108.937782
  0
LINE
  8
0
 10
105.502121
 20
109.437782
 11
105.502121
 21
114.236031
  0
LINE
  8
0
 10
106.302124
 20
110.851982
 11
106.302124
 21
120.251472
  0
LINE
  8
0
 10
97.102127
 20
109.437782
 11
97.102127
 21
114.236031
  0
LINE
  8
0
 10
96.302139
 20
110.851982
 11
96.302139
 21
120.251472
  0
LINE
  8
0
 10
97.602119
 20
114.736031
 11
105.002106
 21
114.736031
  0
LINE
  8
0
 10
95.802116
 20
110.351982
 11
97.102119
 21
110.351982
  0
LINE
  8
0
 10
97.102127
 20
120.751472
 11
97.102127
 21
121.100014
  0
LINE
  8
0
 10
105.502121
 20
120.751472
 11
105.502121
 21
121.100014
  0
LINE
  8
0
 10
105.502113
 20
110.351982
 11
106.802132
 21
110.351982
  0
LINE
  8
0
 10
89.802116
 20
110.634834
 11
95.802116
 21
110.634834
  0
LINE
  8
0
 10
106.802139
 20
108.654915
 11
106.802139
 21
116.291679
  0
LINE
  8
0
 10
95.802124
 20
105.826485
 11
95.802124
 21
116.291695
  0
LINE
  8
0
 10
104.802132
 20
108.654915
 11
106.802132
 21
108.654915
  0
LINE
  8
0
 10
95.802116
 20
105.826485
 11
97.802139
 21
105.826485
  0
LINE
  8
0
 10
89.802116
 20
106.533607
 11
95.802116
 21
106.533607
  0
LINE
  8
0
 10
104.802139
 20
103.139503
 11
104.802139
 21
108.937782
  0
LINE
  8
0
 10
97.802139
 20
103.139503
 11
97.802139
 21
108.937782
  0
LINE
  8
0
 10
106.802132
 20
110.634834
 11
111.802132
 21
110.634834
  0
LINE
  8
0
 10
102.802170
 20
105.967918
 11
102.802170
 21
103.139503
  0
LINE
  8
0
 10
99.802124
 20
105.967934
 11
99.802124
 21
103.139503
  0
LINE
  8
0
 10
97.802132
 20
103.139503
 11
99.802116
 21
103.139503
  0
LINE
  8
0
 10
102.802132
 20
103.139503
 11
104.802132
 21
103.139503
  0
LINE
  8
0
 10
104.802132
 20
106.533607
 11
111.802132
 21
106.533607
  0
LINE
  8
0
 10
111.802139
 20
105.190102
 11
111.802139
 21
116.291687
  0
LINE
  8
0
 10
89.802124
 20
104.058708
 11
89.802124
 21
107.347542
  0
LINE
  8
0
 10
89.802116
 20
116.291695
 11
95.802116
 21
116.291695
  0
LINE
  8
0
 10
95.802116
 20
116.008842
 11
96.302132
 21
116.008842
  0
LINE
  8
0
 10
106.302109
 20
116.008842
 11
106.802124
 21
116.008842
  0
LINE
  8
0
 10
106.802124
 20
116.291695
 11
111.802124
 21
116.291695
  0
LINE
  8
0
 10
89.802116
 20
105.190102
 11
97.802132
 21
105.190102
  0
LINE
  8
0
 10
99.802116
 20
104.765846
 11
102.802116
 21
104.765846
  0
LINE
  8
0
 10
99.802116
 20
103.705193
 11
102.802132
 21
103.705193
  0
LINE
  8
0
 10
99.802116
 20
105.190102
 11
102.802116
 21
105.190102
  0
LINE
  8
0
 10
104.802132
 20
105.190102
 11
111.802132
 21
105.190102
  0
LINE
  8
0
 10
104.802132
 20
104.765846
 11
109.802132
 21
104.765846
  0
LINE
  8
0
 10
104.802132
 20
103.705193
 11
109.802132
 21
103.705193
  0
LINE
  8
0
 10
109.802139
 20
103.705193
 11
109.802139
 21
105.190102
  0
LINE
  8
0
 10
96.802155
 20
104.058708
 11
97.802139
 21
104.765808
  0
LINE
  8
0
 10
96.802132
 20
102.998062
 11
97.802124
 21
103.705162
  0
LINE
  8
0
 10
88.302116
 20
102.998055
 11
96.802132
 21
102.998055
  0
LINE
  8
0
 10
89.802116
 20
104.058708
 11
96.802132
 21
104.058708
  0
LINE
  8
0
 10
96.802139
 20
102.998055
 11
96.802139
 21
104.058708
  0
LINE
  8
0
 10
113.802124
 20
108.841934
 11
113.802124
 21
113.841934
  0
LINE
  8
0
 10
111.802132
 20
108.841942
 11
113.802116
 21
108.841942
  0
LINE
  8
0
 10
113.802116
 20
109.341942
 11
128.880020
 21
109.341942
  0
LINE
  8
0
 10
113.802116
 20
113.341942
 11
128.880020
 21
113.341942
  0
LINE
  8
0
 10
111.802124
 20
113.841942
 11
113.802109
 21
113.841942
  0
LINE
  8
0
 10
76.302132
 20
106.276054
 11
77.802132
 21
106.276054
  0
LINE
  8
0
 10
74.802132
 20
107.347542
 11
77.802132
 21
107.347542
  0
LINE
  8
0
 10
74.802132
 20
114.418617
 11
77.802132
 21
114.418617
  0
LINE
  8
0
 10
74.802132
 20
104.270851
 11
74.802132
 21
114.418617
  0
LINE
  8
0
 10
76.302132
 20
105.418144
 11
76.302132
 21
106.276054
  0
LINE
  8
0
 10
77.802132
 20
103.210197
 11
77.802132
 21
107.347542
  0
LINE
  8
0
 10
81.802132
 20
103.210197
 11
81.802132
 21
107.347542
  0
LINE
  8
0
 10
81.802132
 20
106.276054
 11
88.302116
 21
106.276054
  0
LINE
  8
0
 10
77.802132
 20
106.115242
 11
81.802132
 21
106.115242
  0
LINE
  8
0
 10
77.802132
 20
115.307625
 11
81.802132
 21
115.307625
  0
LINE
  8
0
 10
81.802132
 20
114.418617
 11
89.802116
 21
114.418617
  0
LINE
  8
0
 10
81.802132
 20
107.347542
 11
89.802116
 21
107.347542
  0
LINE
  8
0
 10
77.802132
 20
114.418617
 11
77.802132
 21
115.307625
  0
LINE
  8
0
 10
81.802132
 20
114.418617
 11
81.802132
 21
115.307625
  0
LINE
  8
0
 10
77.802132
 20
103.210197
 11
81.802132
 21
103.210197
  0
LINE
  8
0
 10
74.802132
 20
104.270851
 11
77.802132
 21
104.270851
  0
LINE
  8
0
 10
74.802132
 20
105.418144
 11
77.802132
 21
105.418144
  0
LINE
  8
0
 10
81.802132
 20
104.270851
 11
82.102119
 21
104.270851
  0
LINE
  8
0
 10
81.802132
 20
105.418144
 11
82.102119
 21
105.418144
  0
LINE
  8
0
 10
88.302139
 20
27.274483
 11
88.302139
 21
106.276054
  0
LINE
  8
0
 10
82.102135
 20
27.274483
 11
82.102135
 21
106.276054
  0
LINE
  8
0
 10
102.802193
 20
39.358482
 11
102.802193
 21
48.409447
  0
LINE
  8
0
 10
99.802139
 20
39.358475
 11
99.802139
 21
48.409447
  0
LINE
  8
0
 10
97.602142
 20
29.948929
 11
105.002136
 21
29.948929
  0
LINE
  8
0
 10
96.802139
 20
30.797462
 11
97.102142
 21
30.797462
  0
LINE
  8
0
 10
97.602135
 20
34.125885
 11
105.002136
 21
34.125885
  0
LINE
  8
0
 10
95.802132
 20
35.540108
 11
97.802139
 21
35.540108
  0
LINE
  8
0
 10
97.102142
 20
30.448929
 11
97.102142
 21
35.540100
  0
LINE
  8
0
 10
105.502144
 20
30.448921
 11
105.502144
 21
35.540100
  0
LINE
  8
0
 10
106.302139
 20
31.297447
 11
106.302139
 21
35.540092
  0
LINE
  8
0
 10
96.302147
 20
31.297455
 11
96.302147
 21
35.540100
  0
LINE
  8
0
 10
95.802139
 20
35.257256
 11
95.802139
 21
40.065598
  0
LINE
  8
0
 10
106.802147
 20
35.257256
 11
106.802147
 21
37.237175
  0
LINE
  8
0
 10
91.313660
 20
35.257263
 11
95.802132
 21
35.257263
  0
LINE
  8
0
 10
106.802139
 20
35.257263
 11
111.802155
 21
35.257263
  0
LINE
  8
0
 10
105.502136
 20
30.797462
 11
105.802139
 21
30.797462
  0
LINE
  8
0
 10
105.002136
 20
34.550148
 11
105.002136
 21
35.540100
  0
LINE
  8
0
 10
97.602142
 20
34.550148
 11
97.602142
 21
35.540100
  0
LINE
  8
0
 10
97.602135
 20
34.550156
 11
105.002136
 21
34.550156
  0
LINE
  8
0
 10
99.802139
 20
42.186913
 11
102.802193
 21
42.186913
  0
LINE
  8
0
 10
97.802147
 20
48.409454
 11
99.802139
 21
48.409454
  0
LINE
  8
0
 10
97.802147
 20
34.550148
 11
97.802147
 21
48.409447
  0
LINE
  8
0
 10
104.802155
 20
34.550156
 11
104.802155
 21
48.409447
  0
LINE
  8
0
 10
102.802193
 20
48.409454
 11
104.802155
 21
48.409454
  0
LINE
  8
0
 10
104.802155
 20
35.540108
 11
106.802139
 21
35.540108
  0
LINE
  8
0
 10
111.802147
 20
35.257259
 11
111.802147
 21
46.358833
  0
LINE
  8
0
 10
113.802139
 20
37.706997
 11
113.802139
 21
42.706997
  0
LINE
  8
0
 10
92.994926
 20
39.358498
 11
95.802139
 21
39.358498
  0
LINE
  8
0
 10
104.802155
 20
37.237183
 11
106.802139
 21
37.237183
  0
LINE
  8
0
 10
95.802139
 20
40.065598
 11
97.802147
 21
40.065598
  0
LINE
  8
0
 10
104.802155
 20
39.358498
 11
111.802147
 21
39.358498
  0
LINE
  8
0
 10
99.802139
 20
40.701988
 11
102.802185
 21
40.701988
  0
LINE
  8
0
 10
99.802139
 20
41.126251
 11
102.802185
 21
41.126251
  0
LINE
  8
0
 10
99.802139
 20
47.843765
 11
102.802193
 21
47.843765
  0
LINE
  8
0
 10
104.802155
 20
41.126251
 11
109.802155
 21
41.126251
  0
LINE
  8
0
 10
104.802155
 20
47.843765
 11
109.802155
 21
47.843765
  0
LINE
  8
0
 10
109.802155
 20
41.126244
 11
109.802155
 21
47.843758
  0
LINE
  8
0
 10
109.802155
 20
46.358841
 11
111.802139
 21
46.358841
  0
LINE
  8
0
 10
111.802155
 20
37.707001
 11
113.802139
 21
37.707001
  0
LINE
  8
0
 10
113.802139
 20
38.207001
 11
128.880066
 21
38.207001
  0
LINE
  8
0
 10
113.802139
 20
42.207001
 11
128.880066
 21
42.207001
  0
LINE
  8
0
 10
111.802139
 20
42.707001
 11
113.802139
 21
42.707001
  0
LINE
  8
0
 10
104.802155
 20
40.701988
 11
111.802139
 21
40.701988
  0
LINE
  8
0
 10
96.802170
 20
41.479771
 11
97.802162
 21
42.186867
  0
LINE
  8
0
 10
96.802155
 20
40.419113
 11
97.802155
 21
41.126221
  0
LINE
  8
0
 10
93.095428
 20
40.419113
 11
96.802155
 21
40.419113
  0
LINE
  8
0
 10
93.075653
 20
41.479782
 11
96.802155
 21
41.479782
  0
LINE
  8
0
 10
88.986282
 20
48.550865
 11
96.802139
 21
48.550865
  0
LINE
  8
0
 10
96.802139
 20
41.479786
 11
96.802155
 21
40.419125
  0
LINE
  8
0
 10
96.802078
 20
48.550774
 11
97.802078
 21
47.843689
  0
LINE
  8
0
 10
74.802132
 20
37.130318
 11
77.802132
 21
37.130318
  0
LINE
  8
0
 10
76.302162
 20
38.201820
 11
77.802132
 21
38.201820
  0
LINE
  8
0
 10
74.802132
 20
39.059731
 11
77.802132
 21
39.059731
  0
LINE
  8
0
 10
74.802132
 20
40.207024
 11
82.102119
 21
40.207024
  0
LINE
  8
0
 10
74.802162
 20
37.130310
 11
74.802162
 21
47.278084
  0
LINE
  8
0
 10
76.302162
 20
38.201813
 11
76.302162
 21
39.059723
  0
LINE
  8
0
 10
77.802132
 20
36.241302
 11
77.802132
 21
40.207016
  0
LINE
  8
0
 10
81.802162
 20
36.241302
 11
81.802162
 21
40.207016
  0
LINE
  8
0
 10
81.802132
 20
38.201820
 11
82.102119
 21
38.201820
  0
LINE
  8
0
 10
81.802132
 20
37.130318
 11
82.102119
 21
37.130318
  0
LINE
  8
0
 10
81.802132
 20
39.059731
 11
82.102119
 21
39.059731
  0
LINE
  8
0
 10
77.802132
 20
39.146362
 11
81.802132
 21
39.146362
  0
LINE
  8
0
 10
77.802132
 20
36.241318
 11
81.802132
 21
36.241318
  0
LINE
  8
0
 10
77.802132
 20
47.278084
 11
77.802132
 21
48.338737
  0
LINE
  8
0
 10
81.802162
 20
47.278084
 11
81.802162
 21
48.338737
  0
LINE
  8
0
 10
77.802132
 20
48.338745
 11
81.802132
 21
48.338745
  0
LINE
  8
0
 10
74.802132
 20
47.278091
 11
78.749641
 21
47.278091
  0
LINE
  8
0
 10
77.802162
 20
43.742554
 11
77.802162
 21
46.076004
  0
LINE
  8
0
 10
81.802162
 20
43.742546
 11
81.802162
 21
46.076004
  0
LINE
  8
0
 10
80.855904
 20
47.278091
 11
82.102119
 21
47.278091
  0
LINE
  8
0
 10
99.802139
 20
40.065598
 11
102.802193
 21
40.065598
  0
LINE
  8
0
 10
99.802124
 20
105.826485
 11
102.802170
 21
105.826485
  0
LINE
  8
0
 10
128.880066
 20
113.341942
 11
128.880066
 21
109.341942
  0
LINE
  8
0
 10
128.880066
 20
111.041946
 11
131.880066
 21
111.041946
  0
LINE
  8
0
 10
128.880066
 20
111.641937
 11
131.880066
 21
111.641937
  0
LINE
  8
0
 10
128.880066
 20
110.041946
 11
131.880066
 21
110.041946
  0
LINE
  8
0
 10
128.880066
 20
112.641937
 11
131.880066
 21
112.641937
  0
LINE
  8
0
 10
131.880066
 20
112.641937
 11
131.880066
 21
111.641937
  0
LINE
  8
0
 10
131.880066
 20
111.041946
 11
131.880066
 21
110.041946
  0
LINE
  8
0
 10
131.880066
 20
112.516937
 11
133.380066
 21
112.516937
  0
LINE
  8
0
 10
131.880066
 20
112.391937
 11
133.380066
 21
112.391937
  0
LINE
  8
0
 10
131.880066
 20
112.266937
 11
133.380066
 21
112.266937
  0
LINE
  8
0
 10
131.880066
 20
112.141937
 11
133.380066
 21
112.141937
  0
LINE
  8
0
 10
131.880066
 20
112.016937
 11
133.380066
 21
112.016937
  0
LINE
  8
0
 10
131.880066
 20
111.891937
 11
133.380066
 21
111.891937
  0
LINE
  8
0
 10
131.880066
 20
111.766937
 11
133.380066
 21
111.766937
  0
LINE
  8
0
 10
131.880066
 20
110.916946
 11
133.380066
 21
110.916946
  0
LINE
  8
0
 10
131.880066
 20
110.791946
 11
133.380066
 21
110.791946
  0
LINE
  8
0
 10
131.880066
 20
110.666946
 11
133.380066
 21
110.666946
  0
LINE
  8
0
 10
131.880066
 20
110.541946
 11
133.380066
 21
110.541946
  0
LINE
  8
0
 10
131.880066
 20
110.416946
 11
133.380066
 21
110.416946
  0
LINE
  8
0
 10
131.880066
 20
110.291946
 11
133.380066
 21
110.291946
  0
LINE
  8
0
 10
131.880066
 20
110.166946
 11
133.380066
 21
110.166946
  0
LINE
  8
0
 10
128.880066
 20
42.207001
 11
128.880066
 21
38.207001
  0
LINE
  8
0
 10
128.880066
 20
39.907001
 11
131.880066
 21
39.907001
  0
LINE
  8
0
 10
128.880066
 20
40.507000
 11
131.880066
 21
40.507000
  0
LINE
  8
0
 10
128.880066
 20
38.907001
 11
131.880066
 21
38.907001
  0
LINE
  8
0
 10
128.880066
 20
41.507000
 11
131.880066
 21
41.507000
  0
LINE
  8
0
 10
131.880066
 20
41.507000
 11
131.880066
 21
40.507000
  0
LINE
  8
0
 10
131.880066
 20
39.907001
 11
131.880066
 21
38.907001
  0
LINE
  8
0
 10
131.880066
 20
41.382000
 11
133.380066
 21
41.382000
  0
LINE
  8
0
 10
131.880066
 20
41.257000
 11
133.380066
 21
41.257000
  0
LINE
  8
0
 10
131.880066
 20
41.132000
 11
133.380066
 21
41.132000
  0
LINE
  8
0
 10
131.880066
 20
41.007000
 11
133.380066
 21
41.007000
  0
LINE
  8
0
 10
131.880066
 20
40.882000
 11
133.380066
 21
40.882000
  0
LINE
  8
0
 10
131.880066
 20
40.757000
 11
133.380066
 21
40.757000
  0
LINE
  8
0
 10
131.880066
 20
40.632000
 11
133.380066
 21
40.632000
  0
LINE
  8
0
 10
131.880066
 20
39.782001
 11
133.380066
 21
39.782001
  0
LINE
  8
0
 10
131.880066
 20
39.657001
 11
133.380066
 21
39.657001
  0
LINE
  8
0
 10
131.880066
 20
39.532001
 11
133.380066
 21
39.532001
  0
LINE
  8
0
 10
131.880066
 20
39.407001
 11
133.380066
 21
39.407001
  0
LINE
  8
0
 10
131.880066
 20
39.282001
 11
133.380066
 21
39.282001
  0
LINE
  8
0
 10
131.880066
 20
39.157001
 11
133.380066
 21
39.157001
  0
LINE
  8
0
 10
131.880066
 20
39.032001
 11
133.380066
 21
39.032001
  0
LINE
  8
0
 10
89.802124
 20
107.347542
 11
89.802124
 21
116.291695
  0
LINE
  8
0
 10
90.102142
 20
90.474487
 11
90.102142
 21
61.074478
  0
LINE
  8
0
 10
71.602142
 20
118.374481
 11
71.602142
 21
33.174484
  0
LINE
  8
0
 10
71.996880
 20
33.774483
 11
82.102135
 21
33.774483
  0
LINE
  8
0
 10
76.602142
 20
51.274483
 11
82.102135
 21
51.274483
  0
LINE
  8
0
 10
88.302139
 20
60.774483
 11
89.802139
 21
60.774483
  0
LINE
  8
0
 10
88.302139
 20
90.774483
 11
89.802139
 21
90.774483
  0
LINE
  8
0
 10
76.602142
 20
100.274483
 11
82.102135
 21
100.274483
  0
LINE
  8
0
 10
71.996880
 20
117.774483
 11
82.102135
 21
117.774483
  0
LINE
  8
0
 10
89.802170
 20
60.774460
 11
90.102165
 21
61.074455
  0
LINE
  8
0
 10
89.802139
 20
90.774483
 11
90.102142
 21
90.474480
  0
LINE
  8
0
 10
71.602135
 20
33.174484
 11
71.996872
 21
33.774483
  0
LINE
  8
0
 10
71.602135
 20
118.374481
 11
71.996872
 21
117.774483
  0
LINE
  8
0
 10
76.602142
 20
104.270851
 11
76.602142
 21
100.274483
  0
LINE
  8
0
 10
76.602142
 20
86.892647
 11
76.602142
 21
64.656319
  0
LINE
  8
0
 10
76.602142
 20
51.274483
 11
76.602142
 21
47.278091
  0
LINE
  8
0
 10
103.802132
 20
62.774483
 11
103.802132
 21
97.376610
  0
LINE
  8
0
 10
105.002144
 20
62.774483
 11
105.002144
 21
103.705193
  0
LINE
  8
0
 10
105.802147
 20
65.774483
 11
105.802147
 21
85.774483
  0
LINE
  8
0
 10
97.802132
 20
97.376610
 11
97.802132
 21
102.998055
  0
LINE
  8
0
 10
103.802132
 20
101.760658
 11
103.802132
 21
103.139503
  0
LINE
  8
0
 10
96.602119
 20
62.774483
 11
105.002129
 21
62.774483
  0
LINE
  8
0
 10
96.602135
 20
62.774483
 11
96.602135
 21
88.774483
  0
LINE
  8
0
 10
96.602119
 20
88.774483
 11
103.802109
 21
88.774483
  0
LINE
  8
0
 10
105.002129
 20
65.774483
 11
105.802132
 21
65.774483
  0
LINE
  8
0
 10
105.002121
 20
85.774483
 11
105.802132
 21
85.774483
  0
LINE
  8
0
 10
100.602127
 20
61.490944
 11
97.458046
 21
62.774509
  0
LINE
  8
0
 10
103.746231
 20
62.774471
 11
100.602150
 21
61.490906
  0
LINE
  8
0
 10
100.602135
 20
61.490921
 11
100.602135
 21
62.774483
  0
LINE
  8
0
 10
97.802109
 20
97.376610
 11
105.002121
 21
97.376610
  0
LINE
  8
0
 10
97.802109
 20
100.912148
 11
105.002121
 21
100.912148
  0
LINE
  8
0
 10
97.802109
 20
101.760658
 11
103.802109
 21
101.760658
  0
LINE
  8
0
 10
110.602142
 20
83.174484
 11
110.602142
 21
68.374481
  0
LINE
  8
0
 10
90.102142
 20
67.274483
 11
94.052139
 21
67.274483
  0
LINE
  8
0
 10
90.102142
 20
84.274483
 11
94.052139
 21
84.274483
  0
LINE
  8
0
 10
94.102142
 20
84.224480
 11
94.102142
 21
67.324486
  0
LINE
  8
0
 10
94.102142
 20
67.374481
 11
96.602135
 21
67.374481
  0
LINE
  8
0
 10
94.102142
 20
84.174484
 11
96.602135
 21
84.174484
  0
LINE
  8
0
 10
109.602135
 20
67.374504
 11
110.602127
 21
68.374496
  0
LINE
  8
0
 10
109.602066
 20
84.174423
 11
110.602066
 21
83.174423
  0
LINE
  8
0
 10
109.602142
 20
84.174484
 11
109.602142
 21
67.374481
  0
LINE
  8
0
 10
94.102142
 20
84.224503
 11
94.052147
 21
84.274506
  0
LINE
  8
0
 10
94.052147
 20
67.274460
 11
94.102142
 21
67.324463
  0
LINE
  8
0
 10
94.602264
 20
76.608376
 11
96.602135
 21
76.608376
  0
LINE
  8
0
 10
94.602058
 20
74.940620
 11
96.602135
 21
74.940620
  0
LINE
  8
0
 10
94.602394
 20
84.132988
 11
96.602135
 21
84.132988
  0
LINE
  8
0
 10
94.602081
 20
67.415977
 11
96.602135
 21
67.415977
  0
LINE
  8
0
 10
94.602394
 20
84.132988
 11
96.602135
 21
83.129837
  0
LINE
  8
0
 10
109.602142
 20
76.608360
 11
110.602142
 21
76.162842
  0
LINE
  8
0
 10
109.602112
 20
74.940636
 11
105.802147
 21
73.034409
  0
LINE
  8
0
 10
109.602142
 20
74.940628
 11
110.602142
 21
75.386131
  0
LINE
  8
0
 10
109.602142
 20
84.132965
 11
110.602142
 21
83.164261
  0
LINE
  8
0
 10
109.602180
 20
84.132942
 11
105.802147
 21
82.226692
  0
LINE
  8
0
 10
109.602188
 20
67.415932
 11
110.602188
 21
68.384636
  0
LINE
  8
0
 10
94.602058
 20
74.940620
 11
96.602135
 21
73.937302
  0
LINE
  8
0
 10
105.802147
 20
67.374481
 11
109.602142
 21
67.374481
  0
LINE
  8
0
 10
105.802147
 20
84.174484
 11
109.602142
 21
84.174484
  0
LINE
  8
0
 10
94.602081
 20
67.415977
 11
94.602394
 21
84.132988
  0
LINE
  8
0
 10
105.802147
 20
84.132988
 11
109.602142
 21
84.132988
  0
LINE
  8
0
 10
105.802147
 20
67.415977
 11
109.602142
 21
67.415977
  0
LINE
  8
0
 10
96.602135
 20
68.419289
 11
94.602081
 21
67.415977
  0
LINE
  8
0
 10
105.802147
 20
69.322174
 11
109.602142
 21
67.415939
  0
LINE
  8
0
 10
105.802147
 20
74.940620
 11
109.602142
 21
74.940620
  0
LINE
  8
0
 10
105.802147
 20
76.608376
 11
109.602142
 21
76.608376
  0
LINE
  8
0
 10
96.602135
 20
77.611588
 11
94.602264
 21
76.608376
  0
LINE
  8
0
 10
105.802147
 20
78.514740
 11
109.602211
 21
76.608467
  0
LINE
  8
0
 10
104.802155
 20
42.186913
 11
109.802155
 21
42.186913
  0
ARC
  8
0
 10
83.697975
 20
40.774483
 40
9.404162
 50
299.313507
 51
60.686501
  0
ARC
  8
0
 10
97.602119
 20
109.437782
 40
0.500000
 50
180.000000
 51
270.000000
  0
ARC
  8
0
 10
105.002129
 20
109.437782
 40
0.500000
 50
270.000000
 51
0.000000
  0
ARC
  8
0
 10
105.802116
 20
110.851982
 40
0.500000
 50
270.000000
 51
0.000000
  0
ARC
  8
0
 10
96.802132
 20
110.851982
 40
0.500000
 50
180.000000
 51
270.000000
  0
ARC
  8
0
 10
96.802124
 20
120.251472
 40
0.500000
 50
90.000000
 51
180.000000
  0
ARC
  8
0
 10
105.802109
 20
120.251472
 40
0.500000
 50
0.000000
 51
90.000000
  0
ARC
  8
0
 10
105.002121
 20
121.100014
 40
0.500000
 50
0.000000
 51
90.000000
  0
ARC
  8
0
 10
97.602112
 20
121.100014
 40
0.500000
 50
90.000000
 51
180.000000
  0
ARC
  8
0
 10
105.002121
 20
114.236031
 40
0.500000
 50
0.000000
 51
90.000000
  0
ARC
  8
0
 10
97.602119
 20
114.236031
 40
0.500000
 50
90.000000
 51
180.000000
  0
ARC
  8
0
 10
83.697975
 20
110.774483
 40
9.404161
 50
35.921661
 51
60.686565
  0
ARC
  8
0
 10
97.602142
 20
30.448929
 40
0.500000
 50
180.000000
 51
270.000885
  0
ARC
  8
0
 10
105.002136
 20
30.448921
 40
0.500000
 50
270.000000
 51
0.000000
  0
ARC
  8
0
 10
105.002151
 20
34.625885
 40
0.500000
 50
270.000000
 51
0.000000
  0
ARC
  8
0
 10
97.602142
 20
34.625885
 40
0.500000
 50
180.000000
 51
270.000000
  0
ARC
  8
0
 10
105.802139
 20
31.297447
 40
0.500000
 50
270.000000
 51
0.000000
  0
ARC
  8
0
 10
96.802155
 20
31.297455
 40
0.500000
 50
180.000000
 51
270.000000
  0
ARC
  8
0
 10
102.046432
 20
105.967934
 40
0.755692
 50
0.000578
 51
14.106531
  0
ARC
  8
0
 10
101.848877
 20
105.895508
 40
0.965194
 50
15.418097
 51
51.388641
  0
ARC
  8
0
 10
101.302124
 20
105.096710
 40
1.931884
 50
53.502144
 51
126.497856
  0
ARC
  8
0
 10
100.755371
 20
105.895508
 40
0.965200
 50
128.611359
 51
164.581909
  0
ARC
  8
0
 10
100.557816
 20
105.967934
 40
0.755691
 50
165.893463
 51
180.000000
  0
ARC
  8
0
 10
80.621826
 20
110.883087
 40
2.130286
 50
3.762766
 51
11.774299
  0
ARC
  8
0
 10
80.404259
 20
110.816620
 40
2.356931
 50
12.276846
 51
45.306488
  0
ARC
  8
0
 10
79.802124
 20
110.083511
 40
3.302731
 50
46.825668
 51
133.175827
  0
ARC
  8
0
 10
79.199982
 20
110.816605
 40
2.356934
 50
134.695221
 51
167.724686
  0
ARC
  8
0
 10
78.982407
 20
110.883072
 40
2.130283
 50
168.227356
 51
183.762772
  0
ARC
  8
0
 10
93.520805
 20
113.463264
 40
0.425082
 50
345.892914
 51
14.105082
  0
ARC
  8
0
 10
93.409683
 20
113.422523
 40
0.542921
 50
15.417183
 51
51.388477
  0
ARC
  8
0
 10
93.102127
 20
112.973198
 40
1.086693
 50
53.501793
 51
126.497002
  0
ARC
  8
0
 10
92.794586
 20
113.422531
 40
0.542922
 50
128.610901
 51
164.582047
  0
ARC
  8
0
 10
92.683464
 20
113.463264
 40
0.425082
 50
165.892929
 51
194.105087
  0
ARC
  8
0
 10
92.794586
 20
113.504005
 40
0.542921
 50
195.417191
 51
231.388474
  0
ARC
  8
0
 10
93.102142
 20
113.953331
 40
1.086693
 50
233.501785
 51
306.497009
  0
ARC
  8
0
 10
93.409683
 20
113.503998
 40
0.542922
 50
308.610901
 51
344.582031
  0
ARC
  8
0
 10
78.338333
 20
110.883087
 40
1.486205
 50
174.646164
 51
194.106583
  0
ARC
  8
0
 10
78.726860
 20
111.025520
 40
1.898232
 50
195.417984
 51
231.388382
  0
ARC
  8
0
 10
79.802116
 20
112.596466
 40
3.799348
 50
233.502106
 51
306.497955
  0
ARC
  8
0
 10
80.877373
 20
111.025520
 40
1.898228
 50
308.611755
 51
344.582245
  0
ARC
  8
0
 10
81.265900
 20
110.883087
 40
1.486207
 50
345.893707
 51
5.331382
  0
ARC
  8
0
 10
79.802071
 20
107.481583
 40
4.532868
 50
65.111465
 51
114.901909
  0
ARC
  8
0
 10
93.846436
 20
113.463264
 40
0.755691
 50
345.893463
 51
14.106531
  0
ARC
  8
0
 10
93.648872
 20
113.390839
 40
0.965201
 50
15.417976
 51
51.388287
  0
ARC
  8
0
 10
93.102127
 20
112.592041
 40
1.931884
 50
53.502144
 51
126.497856
  0
ARC
  8
0
 10
92.555382
 20
113.390839
 40
0.965204
 50
128.611710
 51
164.582031
  0
ARC
  8
0
 10
92.357819
 20
113.463264
 40
0.755691
 50
165.893463
 51
194.106537
  0
ARC
  8
0
 10
92.555382
 20
113.535690
 40
0.965201
 50
195.417969
 51
231.388290
  0
ARC
  8
0
 10
93.102127
 20
114.334488
 40
1.931884
 50
233.502136
 51
306.497864
  0
ARC
  8
0
 10
93.648872
 20
113.535690
 40
0.965204
 50
308.611725
 51
344.582031
  0
ARC
  8
0
 10
102.121849
 20
118.130165
 40
2.130287
 50
3.762971
 51
11.773696
  0
ARC
  8
0
 10
101.904274
 20
118.063698
 40
2.356934
 50
12.276262
 51
45.305698
  0
ARC
  8
0
 10
101.302139
 20
117.330597
 40
3.302735
 50
46.825008
 51
133.175171
  0
ARC
  8
0
 10
100.700005
 20
118.063698
 40
2.356928
 50
134.694565
 51
167.724136
  0
ARC
  8
0
 10
100.482430
 20
118.130165
 40
2.130287
 50
168.226746
 51
183.762970
  0
ARC
  8
0
 10
99.838356
 20
118.130157
 40
1.486214
 50
174.645325
 51
194.106583
  0
ARC
  8
0
 10
100.226883
 20
118.272591
 40
1.898232
 50
195.417984
 51
231.388565
  0
ARC
  8
0
 10
101.302132
 20
119.843544
 40
3.799345
 50
233.502350
 51
306.498169
  0
ARC
  8
0
 10
102.377396
 20
118.272598
 40
1.898233
 50
308.611938
 51
344.582520
  0
ARC
  8
0
 10
102.765923
 20
118.130173
 40
1.486215
 50
345.893768
 51
5.331034
  0
ARC
  8
0
 10
101.302101
 20
114.728653
 40
4.532875
 50
65.111511
 51
114.901993
  0
ARC
  8
0
 10
100.557846
 20
39.358475
 40
0.755692
 50
180.000000
 51
194.106537
  0
ARC
  8
0
 10
100.755402
 20
39.430901
 40
0.965194
 50
195.418091
 51
231.388641
  0
ARC
  8
0
 10
101.302155
 20
40.229702
 40
1.931887
 50
233.502213
 51
306.497803
  0
ARC
  8
0
 10
101.848907
 20
39.430897
 40
0.965197
 50
308.611511
 51
344.581909
  0
ARC
  8
0
 10
102.046463
 20
39.358475
 40
0.755692
 50
345.893188
 51
359.999725
  0
ARC
  8
0
 10
80.596069
 20
46.076000
 40
0.806078
 50
345.893005
 51
14.105952
  0
ARC
  8
0
 10
80.385345
 20
45.998749
 40
1.029542
 50
15.417518
 51
51.388134
  0
ARC
  8
0
 10
79.802139
 20
45.146702
 40
2.060674
 50
53.501759
 51
126.497185
  0
ARC
  8
0
 10
79.218948
 20
45.998760
 40
1.029545
 50
128.610809
 51
164.581451
  0
ARC
  8
0
 10
79.008224
 20
46.076015
 40
0.806078
 50
165.892990
 51
194.105957
  0
ARC
  8
0
 10
79.218948
 20
46.153267
 40
1.029542
 50
195.417511
 51
231.388138
  0
ARC
  8
0
 10
79.802155
 20
47.005314
 40
2.060674
 50
233.501755
 51
306.497192
  0
ARC
  8
0
 10
80.385345
 20
46.153255
 40
1.029545
 50
308.610809
 51
344.581451
  0
ARC
  8
0
 10
80.794540
 20
46.076004
 40
1.007595
 50
345.893585
 51
14.106426
  0
ARC
  8
0
 10
80.531128
 20
45.979439
 40
1.286937
 50
15.417837
 51
51.388519
  0
ARC
  8
0
 10
79.802132
 20
44.914371
 40
2.575845
 50
53.502266
 51
126.497734
  0
ARC
  8
0
 10
79.073135
 20
45.979439
 40
1.286933
 50
128.611481
 51
164.582169
  0
ARC
  8
0
 10
78.809723
 20
46.076004
 40
1.007595
 50
165.893570
 51
194.106430
  0
ARC
  8
0
 10
79.073135
 20
46.172569
 40
1.286937
 50
195.417831
 51
231.388519
  0
ARC
  8
0
 10
79.802132
 20
47.237637
 40
2.575845
 50
233.502274
 51
306.497742
  0
ARC
  8
0
 10
80.531128
 20
46.172569
 40
1.286933
 50
308.611481
 51
344.582153
  0
ARC
  8
0
 10
78.809723
 20
43.742546
 40
1.007593
 50
179.894363
 51
194.106216
  0
ARC
  8
0
 10
79.073135
 20
43.839111
 40
1.286936
 50
195.417679
 51
231.388519
  0
ARC
  8
0
 10
79.802132
 20
44.904175
 40
2.575842
 50
233.502213
 51
306.497742
  0
ARC
  8
0
 10
80.531128
 20
43.839111
 40
1.286936
 50
308.611389
 51
344.582001
  0
ARC
  8
0
 10
80.794540
 20
43.742546
 40
1.007596
 50
345.893372
 51
0.126464
  0
POLYLINE
  8
0
 66
     1
  0
VERTEX
  8
0
 10
76.602142
 20
100.274483
  0
VERTEX
  8
0
 10
75.581535
 20
100.220444
  0
VERTEX
  8
0
 10
74.496460
 20
99.977089
  0
VERTEX
  8
0
 10
73.481880
 20
99.588066
  0
VERTEX
  8
0
 10
72.672775
 20
99.097000
  0
VERTEX
  8
0
 10
72.204117
 20
98.547516
  0
VERTEX
  8
0
 10
72.002533
 20
97.706406
  0
VERTEX
  8
0
 10
71.996880
 20
96.756409
  0
VERTEX
  8
0
 10
72.035301
 20
96.078468
  0
VERTEX
  8
0
 10
72.099960
 20
95.417892
  0
VERTEX
  8
0
 10
72.204117
 20
94.709442
  0
VERTEX
  8
0
 10
72.365837
 20
93.890717
  0
VERTEX
  8
0
 10
72.576553
 20
93.076782
  0
VERTEX
  8
0
 10
72.852798
 20
92.214691
  0
VERTEX
  8
0
 10
73.125175
 20
91.485077
  0
VERTEX
  8
0
 10
73.434265
 20
90.777756
  0
VERTEX
  8
0
 10
73.793900
 20
90.085258
  0
VERTEX
  8
0
 10
74.217934
 20
89.400108
  0
VERTEX
  8
0
 10
74.734245
 20
88.703156
  0
VERTEX
  8
0
 10
75.309380
 20
88.051033
  0
VERTEX
  8
0
 10
75.934845
 20
87.446579
  0
VERTEX
  8
0
 10
76.602142
 20
86.892647
  0
SEQEND
  0
POLYLINE
  8
0
 66
     1
  0
VERTEX
  8
0
 10
76.602142
 20
51.274483
  0
VERTEX
  8
0
 10
75.581535
 20
51.328522
  0
VERTEX
  8
0
 10
74.496460
 20
51.571873
  0
VERTEX
  8
0
 10
73.481880
 20
51.960899
  0
VERTEX
  8
0
 10
72.672775
 20
52.451969
  0
VERTEX
  8
0
 10
72.204117
 20
53.001450
  0
VERTEX
  8
0
 10
72.002533
 20
53.842556
  0
VERTEX
  8
0
 10
71.996880
 20
54.792553
  0
VERTEX
  8
0
 10
72.035301
 20
55.470493
  0
VERTEX
  8
0
 10
72.099960
 20
56.131073
  0
VERTEX
  8
0
 10
72.204117
 20
56.839523
  0
VERTEX
  8
0
 10
72.365837
 20
57.658253
  0
VERTEX
  8
0
 10
72.576553
 20
58.472183
  0
VERTEX
  8
0
 10
72.852798
 20
59.334270
  0
VERTEX
  8
0
 10
73.125175
 20
60.063889
  0
VERTEX
  8
0
 10
73.434265
 20
60.771210
  0
VERTEX
  8
0
 10
73.793900
 20
61.463707
  0
VERTEX
  8
0
 10
74.217934
 20
62.148857
  0
VERTEX
  8
0
 10
74.734245
 20
62.845810
  0
VERTEX
  8
0
 10
75.309380
 20
63.497932
  0
VERTEX
  8
0
 10
75.934845
 20
64.102386
  0
VERTEX
  8
0
 10
76.602142
 20
64.656319
  0
SEQEND
  0
POLYLINE
  8
0
 66
     1
  0
VERTEX
  8
0
 10
71.996880
 20
117.774483
  0
VERTEX
  8
0
 10
72.166183
 20
117.466026
  0
VERTEX
  8
0
 10
72.369904
 20
117.098198
  0
VERTEX
  8
0
 10
72.669235
 20
116.562363
  0
VERTEX
  8
0
 10
73.017929
 20
115.946777
  0
VERTEX
  8
0
 10
73.372864
 20
115.327881
  0
VERTEX
  8
0
 10
73.731064
 20
114.710861
  0
VERTEX
  8
0
 10
74.057404
 20
114.155678
  0
VERTEX
  8
0
 10
74.427902
 20
113.534943
  0
VERTEX
  8
0
 10
74.802513
 20
112.916679
  0
SEQEND
  0
POLYLINE
  8
0
 66
     1
  0
VERTEX
  8
0
 10
71.996880
 20
33.774483
  0
VERTEX
  8
0
 10
72.166183
 20
34.082935
  0
VERTEX
  8
0
 10
72.369904
 20
34.450768
  0
VERTEX
  8
0
 10
72.669235
 20
34.986603
  0
VERTEX
  8
0
 10
73.017929
 20
35.602188
  0
VERTEX
  8
0
 10
73.372864
 20
36.221085
  0
VERTEX
  8
0
 10
73.731064
 20
36.838100
  0
VERTEX
  8
0
 10
74.057404
 20
37.393288
  0
VERTEX
  8
0
 10
74.427902
 20
38.014023
  0
VERTEX
  8
0
 10
74.802513
 20
38.632286
  0
SEQEND
  0
ARC
  8
0
 10
99.808472
 20
62.693024
 40
2.862135
 50
181.661621
 51
191.305038
  0
ARC
  8
0
 10
100.019127
 20
62.754803
 40
3.080867
 50
191.663681
 51
223.964401
  0
ARC
  8
0
 10
100.602127
 20
63.436199
 40
3.974455
 50
225.200302
 51
314.798431
  0
ARC
  8
0
 10
101.185112
 20
62.754791
 40
3.080874
 50
316.034302
 51
348.334961
  0
ARC
  8
0
 10
101.395767
 20
62.693008
 40
2.862134
 50
348.693573
 51
356.638641
  0
ARC
  8
0
 10
99.873123
 20
62.789581
 40
1.286935
 50
203.772552
 51
231.388519
  0
ARC
  8
0
 10
100.602119
 20
63.854649
 40
2.575845
 50
233.502274
 51
306.497742
  0
ARC
  8
0
 10
101.331116
 20
62.789581
 40
1.286933
 50
308.611481
 51
336.192169
  0
ARC
  8
0
 10
98.788101
 20
62.693024
 40
1.841755
 50
177.447571
 51
194.106247
  0
ARC
  8
0
 10
99.269592
 20
62.869534
 40
2.352369
 50
195.417664
 51
231.388245
  0
ARC
  8
0
 10
100.602127
 20
64.816360
 40
4.708364
 50
233.502045
 51
306.497498
  0
ARC
  8
0
 10
101.934654
 20
62.869522
 40
2.352363
 50
308.611145
 51
344.581787
  0
ARC
  8
0
 10
102.416138
 20
62.693008
 40
1.841758
 50
345.893250
 51
2.548266
  0
POINT
  8
0
 10
321.906281
 20
196.836792
  0
POINT
  8
0
 10
266.906281
 20
196.836792
  0
LINE
  8
0
 10
241.768646
 20
162.577469
 11
232.646973
 21
171.699158
  0
LINE
  8
0
 10
245.304184
 20
166.113022
 11
244.455658
 21
166.961548
  0
LINE
  8
0
 10
245.304184
 20
166.112991
 11
241.768646
 21
162.577454
  0
LINE
  8
0
 10
236.182510
 20
175.234665
 11
232.646973
 21
171.699127
  0
LINE
  8
0
 10
243.748550
 20
166.254425
 11
241.627228
 21
164.133102
  0
LINE
  8
0
 10
236.323929
 20
173.679031
 11
234.202606
 21
171.557709
  0
LINE
  8
0
 10
246.400192
 20
173.502258
 11
242.157562
 21
169.259613
  0
LINE
  8
0
 10
243.571762
 20
176.330688
 11
239.329132
 21
172.088043
  0
LINE
  8
0
 10
246.400192
 20
173.502274
 11
243.571762
 21
176.330704
  0
LINE
  8
0
 10
243.006073
 20
170.108154
 11
240.177643
 21
172.936584
  0
LINE
  8
0
 10
237.031036
 20
174.386169
 11
236.182510
 21
175.234680
  0
LINE
  8
0
 10
241.450455
 20
169.966751
 11
240.036240
 21
171.380951
  0
LINE
  8
0
 10
278.927094
 20
203.200760
 11
273.270233
 21
208.857605
  0
LINE
  8
0
 10
280.810913
 20
205.842438
 11
275.911926
 21
210.741409
  0
LINE
  8
0
 10
280.971069
 20
205.244720
 11
278.927094
 21
203.200760
  0
LINE
  8
0
 10
275.314209
 20
210.901566
 11
273.270233
 21
208.857605
  0
LINE
  8
0
 10
279.396698
 20
206.498764
 11
277.512878
 21
204.614960
  0
LINE
  8
0
 10
276.568268
 20
209.327194
 11
274.684448
 21
207.443390
  0
LINE
  8
0
 10
280.810913
 20
205.842422
 11
280.971069
 21
205.244720
  0
LINE
  8
0
 10
275.911896
 20
210.741379
 11
275.314178
 21
210.901535
  0
LINE
  8
0
 10
282.462616
 20
207.443390
 11
277.512878
 21
212.393127
  0
LINE
  8
0
 10
278.573517
 20
211.332504
 11
276.947174
 21
209.706146
  0
LINE
  8
0
 10
281.401978
 20
208.504074
 11
279.775635
 21
206.877716
  0
LINE
  8
0
 10
281.119110
 20
208.786911
 11
279.492767
 21
207.160553
  0
LINE
  8
0
 10
278.856384
 20
211.049652
 11
277.230042
 21
209.423309
  0
LINE
  8
0
 10
295.897675
 20
231.485031
 11
301.554535
 21
225.828171
  0
LINE
  8
0
 10
311.736847
 20
236.010498
 11
300.493835
 21
224.767502
  0
LINE
  8
0
 10
306.080017
 20
241.667358
 11
294.837006
 21
230.424362
  0
LINE
  8
0
 10
301.766663
 20
237.354034
 11
307.423523
 21
231.697159
  0
LINE
  8
0
 10
294.837006
 20
230.424362
 11
300.493866
 21
224.767502
  0
LINE
  8
0
 10
294.271332
 20
230.424362
 11
300.493866
 21
224.201813
  0
LINE
  8
0
 10
307.423523
 20
231.131454
 11
300.493866
 21
224.201813
  0
LINE
  8
0
 10
301.200958
 20
237.354004
 11
294.271301
 21
230.424362
  0
LINE
  8
0
 10
296.321960
 20
231.909302
 11
301.978790
 21
226.252441
  0
LINE
  8
0
 10
300.069611
 20
238.485382
 11
301.483826
 21
237.071167
  0
LINE
  8
0
 10
306.787140
 20
241.667374
 11
311.736877
 21
236.717621
  0
LINE
  8
0
 10
304.807220
 20
242.515869
 11
305.867889
 21
241.455215
  0
LINE
  8
0
 10
307.140686
 20
231.414307
 11
308.554901
 21
230.000092
  0
LINE
  8
0
 10
312.585388
 20
234.030594
 11
308.554871
 21
230.000092
  0
LINE
  8
0
 10
304.100098
 20
242.515869
 11
300.069611
 21
238.485367
  0
LINE
  8
0
 10
311.524750
 20
235.798355
 11
312.585388
 21
234.737701
  0
LINE
  8
0
 10
296.251160
 20
231.131454
 11
296.251160
 21
231.838562
  0
LINE
  8
0
 10
301.200958
 20
226.181702
 11
301.908081
 21
226.181702
  0
LINE
  8
0
 10
295.190582
 20
232.192139
 11
295.614838
 21
231.767868
  0
LINE
  8
0
 10
222.075699
 20
157.663101
 11
233.318695
 21
168.906082
  0
LINE
  8
0
 10
227.732544
 20
152.006241
 11
238.975540
 21
163.249237
  0
LINE
  8
0
 10
232.045898
 20
156.319580
 11
226.389053
 21
161.976440
  0
LINE
  8
0
 10
294.129913
 20
231.131470
 11
294.554169
 21
230.707214
  0
LINE
  8
0
 10
239.541229
 20
163.249237
 11
233.318695
 21
169.471771
  0
LINE
  8
0
 10
226.389053
 20
162.542130
 11
233.318695
 21
169.471771
  0
LINE
  8
0
 10
232.611588
 20
156.319580
 11
239.541229
 21
163.249222
  0
LINE
  8
0
 10
237.490631
 20
161.764297
 11
231.833786
 21
167.421158
  0
LINE
  8
0
 10
233.742950
 20
155.188187
 11
232.328735
 21
156.602402
  0
LINE
  8
0
 10
229.005325
 20
151.157715
 11
227.944656
 21
152.218369
  0
LINE
  8
0
 10
226.671906
 20
162.259247
 11
225.257675
 21
163.673477
  0
LINE
  8
0
 10
221.227173
 20
159.642990
 11
225.257675
 21
163.673492
  0
LINE
  8
0
 10
229.712448
 20
151.157715
 11
233.742950
 21
155.188217
  0
LINE
  8
0
 10
222.287811
 20
157.875229
 11
221.227142
 21
158.935883
  0
LINE
  8
0
 10
237.561401
 20
162.542114
 11
237.561401
 21
161.835007
  0
LINE
  8
0
 10
232.611588
 20
167.491867
 11
231.904495
 21
167.491867
  0
LINE
  8
0
 10
298.479370
 20
235.480942
 11
294.129883
 21
231.131470
  0
LINE
  8
0
 10
305.550446
 20
228.409866
 11
301.200958
 21
224.060394
  0
LINE
  8
0
 10
238.975555
 20
163.249222
 11
233.318695
 21
168.906082
  0
LINE
  8
0
 10
237.914886
 20
162.188568
 11
232.258026
 21
167.845428
  0
LINE
  8
0
 10
301.837372
 20
225.545319
 11
302.261627
 21
225.121063
  0
LINE
  8
0
 10
300.776703
 20
224.484665
 11
301.200989
 21
224.060394
  0
LINE
  8
0
 10
297.247070
 20
236.369949
 11
296.167908
 21
235.290771
  0
LINE
  8
0
 10
306.439453
 20
227.177551
 11
305.360291
 21
226.098373
  0
LINE
  8
0
 10
303.322266
 20
227.595901
 11
297.665405
 21
233.252747
  0
LINE
  8
0
 10
227.373108
 20
166.496033
 11
228.452286
 21
167.575211
  0
LINE
  8
0
 10
228.262100
 20
165.263718
 11
232.611588
 21
169.613190
  0
LINE
  8
0
 10
231.975189
 20
168.128265
 11
231.550934
 21
168.552536
  0
LINE
  8
0
 10
233.035858
 20
169.188919
 11
232.611588
 21
169.613190
  0
LINE
  8
0
 10
239.682648
 20
162.542114
 11
239.258392
 21
162.966370
  0
LINE
  8
0
 10
235.333176
 20
158.192642
 11
239.682663
 21
162.542114
  0
LINE
  8
0
 10
238.621994
 20
161.481461
 11
238.197723
 21
161.905731
  0
LINE
  8
0
 10
236.565506
 20
157.303635
 11
237.644684
 21
158.382812
  0
LINE
  8
0
 10
222.075684
 20
156.955963
 11
227.025436
 21
152.006210
  0
LINE
  8
0
 10
244.455643
 20
166.961533
 11
273.933044
 21
185.899475
  0
LINE
  8
0
 10
237.031036
 20
174.386154
 11
255.968979
 21
203.863541
  0
LINE
  8
0
 10
230.490311
 20
166.077682
 11
236.147156
 21
160.420837
  0
LINE
  8
0
 10
229.148560
 20
194.079071
 11
234.664001
 21
199.594513
  0
LINE
  8
0
 10
299.148560
 20
194.079071
 11
304.664001
 21
199.594513
  0
LINE
  8
0
 10
229.148560
 20
199.594513
 11
234.664001
 21
194.079071
  0
LINE
  8
0
 10
299.148560
 20
199.594513
 11
304.664001
 21
194.079071
  0
LINE
  8
0
 10
261.110718
 20
246.889709
 11
260.583740
 21
244.922913
  0
LINE
  8
0
 10
272.701843
 20
246.889709
 11
273.228851
 21
244.922913
  0
LINE
  8
0
 10
261.110718
 20
146.783875
 11
260.583740
 21
148.750671
  0
LINE
  8
0
 10
272.701813
 20
146.783875
 11
273.228821
 21
148.750671
  0
LINE
  8
0
 10
305.388794
 20
167.318207
 11
307.355591
 21
166.791214
  0
LINE
  8
0
 10
311.711365
 20
178.269196
 11
313.151154
 21
176.829407
  0
LINE
  8
0
 10
311.711365
 20
215.404327
 11
313.151184
 21
216.844116
  0
LINE
  8
0
 10
305.388824
 20
226.355316
 11
307.355621
 21
226.882324
  0
LINE
  8
0
 10
237.539169
 20
202.795868
 11
233.361664
 21
203.683823
  0
LINE
  8
0
 10
300.450897
 20
189.989716
 11
296.273437
 21
190.877670
  0
LINE
  8
0
 10
300.450897
 20
203.683792
 11
296.273346
 21
202.795822
  0
LINE
  8
0
 10
215.906281
 20
222.336792
 11
216.406281
 21
222.336792
  0
LINE
  8
0
 10
215.906281
 20
171.336792
 11
216.406281
 21
171.336792
  0
LINE
  8
0
 10
221.406281
 20
227.336792
 11
229.196869
 21
227.336792
  0
LINE
  8
0
 10
221.406281
 20
166.336792
 11
227.483582
 21
166.336792
  0
LINE
  8
0
 10
215.906281
 20
171.336792
 11
215.906281
 21
222.336792
  0
LINE
  8
0
 10
216.406281
 20
171.336792
 11
216.406281
 21
222.336792
  0
LINE
  8
0
 10
258.547760
 20
197.670670
 11
266.072388
 21
205.195297
  0
LINE
  8
0
 10
267.740173
 20
188.478287
 11
275.264801
 21
196.002914
  0
LINE
  8
0
 10
275.264771
 20
197.670670
 11
267.740173
 21
205.195297
  0
LINE
  8
0
 10
266.072388
 20
188.478287
 11
258.547791
 21
196.002914
  0
LINE
  8
0
 10
266.517914
 20
189.446991
 11
259.516479
 21
196.448425
  0
LINE
  8
0
 10
267.294647
 20
189.446991
 11
274.296082
 21
196.448410
  0
LINE
  8
0
 10
259.516479
 20
197.225174
 11
266.517914
 21
204.226593
  0
LINE
  8
0
 10
274.296082
 20
197.225159
 11
267.294647
 21
204.226593
  0
LINE
  8
0
 10
267.294647
 20
204.226593
 11
267.740143
 21
205.195312
  0
LINE
  8
0
 10
266.517914
 20
204.226593
 11
266.072388
 21
205.195297
  0
LINE
  8
0
 10
259.516479
 20
197.225174
 11
258.547791
 21
197.670685
  0
LINE
  8
0
 10
258.547760
 20
196.002930
 11
259.516479
 21
196.448441
  0
LINE
  8
0
 10
266.072388
 20
188.478287
 11
266.517914
 21
189.446991
  0
LINE
  8
0
 10
267.740143
 20
188.478302
 11
267.294647
 21
189.447006
  0
LINE
  8
0
 10
274.296082
 20
196.448425
 11
275.264771
 21
196.002914
  0
LINE
  8
0
 10
275.264801
 20
197.670670
 11
274.296082
 21
197.225159
  0
LINE
  8
0
 10
237.539154
 20
190.877716
 11
233.361664
 21
189.989761
  0
CIRCLE
  8
0
 10
301.906281
 20
196.836792
 40
8.200000
  0
ARC
  8
0
 10
275.532990
 20
205.463501
 40
4.000001
 50
14.999799
 51
74.999931
  0
ARC
  8
0
 10
279.633514
 20
205.321381
 40
1.200982
 50
348.626831
 51
101.372604
  0
ARC
  8
0
 10
275.390869
 20
209.564026
 40
1.200982
 50
348.626831
 51
101.372604
  0
ARC
  8
0
 10
279.241211
 20
209.171722
 40
3.655760
 50
331.785767
 51
118.214119
  0
ARC
  8
0
 10
306.433563
 20
241.313782
 40
0.500001
 50
45.001236
 51
134.998764
  0
ARC
  8
0
 10
311.383301
 20
236.364044
 40
0.500011
 50
315.002472
 51
44.997528
  0
ARC
  8
0
 10
312.231842
 20
234.384140
 40
0.500001
 50
314.998749
 51
45.001236
  0
ARC
  8
0
 10
304.453674
 20
242.162323
 40
0.499990
 50
45.000000
 51
135.002472
  0
ARC
  8
0
 10
307.904663
 20
237.835159
 40
3.519551
 50
348.051636
 51
101.948174
  0
CIRCLE
  8
0
 10
302.473755
 20
232.404251
 40
2.500000
  0
CIRCLE
  8
0
 10
302.473755
 20
232.404251
 40
2.000000
  0
CIRCLE
  8
0
 10
231.338791
 20
161.269333
 40
2.500000
  0
CIRCLE
  8
0
 10
231.338791
 20
161.269333
 40
2.000000
  0
ARC
  8
0
 10
227.378998
 20
152.359787
 40
0.500001
 50
225.001236
 51
314.998749
  0
ARC
  8
0
 10
222.429260
 20
157.309540
 40
0.499990
 50
135.000000
 51
225.001236
  0
ARC
  8
0
 10
221.580734
 20
159.289429
 40
0.500001
 50
135.001236
 51
224.998764
  0
ARC
  8
0
 10
229.358902
 20
151.511261
 40
0.500011
 50
225.000000
 51
315.000000
  0
ARC
  8
0
 10
225.907883
 20
155.838409
 40
3.519539
 50
168.051346
 51
281.948456
  0
ARC
  8
0
 10
276.805786
 20
206.736282
 40
35.999989
 50
34.597847
 51
37.979584
  0
ARC
  8
0
 10
276.805786
 20
206.736282
 40
36.000004
 50
52.020329
 51
55.402100
  0
ARC
  8
0
 10
257.006775
 20
186.937302
 40
35.999996
 50
214.597870
 51
217.979614
  0
ARC
  8
0
 10
257.006775
 20
186.937302
 40
36.000004
 50
232.020370
 51
235.402100
  0
ARC
  8
0
 10
266.906281
 20
196.836792
 40
48.499985
 50
50.917278
 51
219.082657
  0
CIRCLE
  8
0
 10
231.906281
 20
196.836792
 40
8.200000
  0
CIRCLE
  8
0
 10
284.406250
 20
227.147690
 40
4.500000
  0
CIRCLE
  8
0
 10
266.906281
 20
196.836792
 40
10.000000
  0
ARC
  8
0
 10
266.906281
 20
196.836792
 40
13.000012
 50
302.719025
 51
147.280991
  0
CIRCLE
  8
0
 10
266.906281
 20
196.836792
 40
8.650000
  0
ARC
  8
0
 10
266.906281
 20
196.836792
 40
48.499996
 50
230.917267
 51
39.082687
  0
CIRCLE
  8
0
 10
231.906281
 20
196.836792
 40
4.000000
  0
CIRCLE
  8
0
 10
301.906281
 20
196.836761
 40
4.000000
  0
CIRCLE
  8
0
 10
284.406311
 20
227.147659
 40
4.000000
  0
CIRCLE
  8
0
 10
231.906281
 20
196.836792
 40
3.375000
  0
CIRCLE
  8
0
 10
301.906281
 20
196.836761
 40
3.375000
  0
CIRCLE
  8
0
 10
284.406311
 20
227.147659
 40
3.375000
  0
ARC
  8
0
 10
231.906281
 20
196.836792
 40
6.999998
 50
77.999985
 51
282.000031
  0
ARC
  8
0
 10
301.906281
 20
196.836761
 40
7.000013
 50
258.000000
 51
102.000015
  0
ARC
  8
0
 10
266.906281
 20
245.336792
 40
6.000009
 50
15.000010
 51
164.999985
  0
ARC
  8
0
 10
266.906281
 20
148.336792
 40
6.000009
 50
195.000015
 51
344.999908
  0
ARC
  8
0
 10
308.908508
 20
172.586777
 40
6.000009
 50
254.999985
 51
44.999897
  0
ARC
  8
0
 10
308.908539
 20
221.086761
 40
6.000007
 50
315.000000
 51
105.000008
  0
ARC
  8
0
 10
315.406281
 20
181.645355
 40
5.000007
 50
222.391541
 51
225.000122
  0
ARC
  8
0
 10
266.906281
 20
196.836792
 40
54.999996
 50
217.119308
 51
218.737061
  0
ARC
  8
0
 10
213.481750
 20
156.403885
 40
12.000001
 50
37.119267
 51
58.149681
  0
ARC
  8
0
 10
213.481766
 20
237.269714
 40
12.000010
 50
301.850067
 51
322.880615
  0
ARC
  8
0
 10
266.906281
 20
196.836792
 40
35.000004
 50
346.545502
 51
348.453217
  0
ARC
  8
0
 10
266.906281
 20
196.836792
 40
35.000000
 50
166.545532
 51
168.521667
  0
CIRCLE
  8
0
 10
266.906281
 20
196.836792
 40
8.400000
  0
CIRCLE
  8
0
 10
266.906281
 20
196.836792
 40
8.400000
  0
ARC
  8
0
 10
266.906281
 20
196.836792
 40
7.399999
 50
176.991623
 51
183.008377
  0
ARC
  8
0
 10
266.906281
 20
196.836792
 40
7.399999
 50
266.991608
 51
273.008392
  0
ARC
  8
0
 10
266.906281
 20
196.836792
 40
7.400000
 50
356.991516
 51
3.008379
  0
ARC
  8
0
 10
266.906281
 20
196.836792
 40
7.399999
 50
86.991623
 51
93.008377
  0
ARC
  8
0
 10
266.906281
 20
245.336792
 40
2.599994
 50
358.464142
 51
181.535873
  0
ARC
  8
0
 10
224.904053
 20
221.086792
 40
2.600010
 50
58.464005
 51
241.535767
  0
ARC
  8
0
 10
224.904068
 20
172.586761
 40
2.600004
 50
118.464066
 51
301.535889
  0
ARC
  8
0
 10
266.906281
 20
148.336792
 40
2.599994
 50
178.464127
 51
1.535866
  0
ARC
  8
0
 10
308.908508
 20
172.586792
 40
2.600010
 50
238.464005
 51
61.536228
  0
ARC
  8
0
 10
308.908539
 20
221.086761
 40
2.599997
 50
298.463776
 51
121.535995
  0
ARC
  8
0
 10
221.406281
 20
222.336792
 40
5.000000
 50
90.000000
 51
180.000000
  0
ARC
  8
0
 10
221.406281
 20
171.336792
 40
5.000000
 50
180.000000
 51
270.000000
  0
ARC
  8
0
 10
266.906281
 20
196.836792
 40
55.000004
 50
51.262897
 51
142.880722
  0
ARC
  8
0
 10
266.906281
 20
196.836792
 40
55.000000
 50
231.262878
 51
38.737080
  0
POINT
  8
0
 10
-312.422852
 20
-79.663208
  0
POINT
  8
0
 10
-288.922852
 20
-79.663208
  0
LINE
  8
0
 10
-311.222839
 20
-118.307350
 11
-311.222839
 21
-128.163208
  0
LINE
  8
0
 10
-317.422852
 20
-118.307350
 11
-317.422852
 21
-128.163208
  0
LINE
  8
0
 10
-317.422852
 20
-128.163208
 11
-311.222839
 21
-128.163208
  0
LINE
  8
0
 10
-317.422852
 20
-31.163208
 11
-311.222839
 21
-31.163208
  0
LINE
  8
0
 10
-311.222839
 20
-31.163208
 11
-311.222839
 21
-41.019066
  0
LINE
  8
0
 10
-317.422852
 20
-31.163208
 11
-317.422852
 21
-41.019066
  0
LINE
  8
0
 10
-301.922852
 20
-117.210556
 11
-294.522888
 21
-117.210556
  0
LINE
  8
0
 10
-302.722839
 20
-119.190460
 11
-293.722870
 21
-119.190460
  0
LINE
  8
0
 10
-302.722839
 20
-124.640205
 11
-293.722870
 21
-124.640205
  0
LINE
  8
0
 10
-301.922852
 20
-125.488739
 11
-294.522888
 21
-125.488739
  0
LINE
  8
0
 10
-301.922852
 20
-112.826500
 11
-294.522888
 21
-112.826500
  0
LINE
  8
0
 10
-294.022888
 20
-113.326500
 11
-294.022888
 21
-118.124763
  0
LINE
  8
0
 10
-293.222870
 20
-114.740707
 11
-293.222870
 21
-124.140205
  0
LINE
  8
0
 10
-302.422852
 20
-113.326500
 11
-302.422852
 21
-118.124763
  0
LINE
  8
0
 10
-303.222839
 20
-114.740707
 11
-303.222839
 21
-124.140205
  0
LINE
  8
0
 10
-301.922852
 20
-118.624763
 11
-294.522888
 21
-118.624763
  0
LINE
  8
0
 10
-303.722870
 20
-114.240707
 11
-302.422852
 21
-114.240707
  0
LINE
  8
0
 10
-302.422852
 20
-124.640205
 11
-302.422852
 21
-124.988739
  0
LINE
  8
0
 10
-294.022888
 20
-124.640205
 11
-294.022888
 21
-124.988739
  0
LINE
  8
0
 10
-294.022888
 20
-114.240707
 11
-292.722839
 21
-114.240707
  0
LINE
  8
0
 10
-309.722870
 20
-114.523560
 11
-303.722870
 21
-114.523560
  0
LINE
  8
0
 10
-292.722839
 20
-114.240707
 11
-292.722839
 21
-120.180405
  0
LINE
  8
0
 10
-303.722870
 20
-114.240707
 11
-303.722870
 21
-120.180412
  0
LINE
  8
0
 10
-294.722839
 20
-107.028221
 11
-294.722839
 21
-112.826500
  0
LINE
  8
0
 10
-301.722839
 20
-107.028221
 11
-301.722839
 21
-112.826500
  0
LINE
  8
0
 10
-292.722839
 20
-114.523560
 11
-287.722870
 21
-114.523560
  0
LINE
  8
0
 10
-296.722839
 20
-109.856644
 11
-296.722839
 21
-107.028221
  0
LINE
  8
0
 10
-299.722870
 20
-109.856659
 11
-299.722870
 21
-107.028229
  0
LINE
  8
0
 10
-301.722839
 20
-107.028221
 11
-299.722870
 21
-107.028221
  0
LINE
  8
0
 10
-296.722839
 20
-107.028221
 11
-294.722839
 21
-107.028221
  0
LINE
  8
0
 10
-287.722870
 20
-109.078827
 11
-287.722870
 21
-120.180405
  0
LINE
  8
0
 10
-309.722870
 20
-107.947441
 11
-309.722870
 21
-111.236275
  0
LINE
  8
0
 10
-309.722870
 20
-120.180412
 11
-303.722870
 21
-120.180412
  0
LINE
  8
0
 10
-303.722870
 20
-119.897568
 11
-303.222839
 21
-119.897568
  0
LINE
  8
0
 10
-293.222870
 20
-119.897568
 11
-292.722839
 21
-119.897568
  0
LINE
  8
0
 10
-292.722839
 20
-120.180412
 11
-287.722870
 21
-120.180412
  0
LINE
  8
0
 10
-309.722870
 20
-109.078827
 11
-301.722839
 21
-109.078827
  0
LINE
  8
0
 10
-299.722870
 20
-108.654572
 11
-296.722870
 21
-108.654572
  0
LINE
  8
0
 10
-299.722870
 20
-107.593918
 11
-296.722839
 21
-107.593918
  0
LINE
  8
0
 10
-299.722870
 20
-109.078827
 11
-296.722870
 21
-109.078827
  0
LINE
  8
0
 10
-294.722839
 20
-109.078827
 11
-287.722870
 21
-109.078827
  0
LINE
  8
0
 10
-294.722839
 20
-108.654572
 11
-289.722839
 21
-108.654572
  0
LINE
  8
0
 10
-294.722839
 20
-107.593918
 11
-289.722839
 21
-107.593918
  0
LINE
  8
0
 10
-289.722839
 20
-107.593910
 11
-289.722839
 21
-109.078827
  0
LINE
  8
0
 10
-302.722839
 20
-107.947426
 11
-301.722839
 21
-108.654526
  0
LINE
  8
0
 10
-302.722839
 20
-106.886772
 11
-301.722870
 21
-107.593872
  0
LINE
  8
0
 10
-311.222870
 20
-106.886787
 11
-302.722839
 21
-106.886787
  0
LINE
  8
0
 10
-309.722870
 20
-107.947441
 11
-302.722839
 21
-107.947441
  0
LINE
  8
0
 10
-302.722839
 20
-106.886787
 11
-302.722839
 21
-107.947441
  0
LINE
  8
0
 10
-285.722870
 20
-112.730659
 11
-285.722870
 21
-117.730659
  0
LINE
  8
0
 10
-287.722870
 20
-112.730667
 11
-285.722870
 21
-112.730667
  0
LINE
  8
0
 10
-285.722870
 20
-113.230667
 11
-270.644958
 21
-113.230667
  0
LINE
  8
0
 10
-285.722870
 20
-117.230667
 11
-270.644958
 21
-117.230667
  0
LINE
  8
0
 10
-287.722870
 20
-117.730667
 11
-285.722870
 21
-117.730667
  0
LINE
  8
0
 10
-323.222870
 20
-110.164780
 11
-321.722870
 21
-110.164780
  0
LINE
  8
0
 10
-324.722870
 20
-111.236275
 11
-321.722870
 21
-111.236275
  0
LINE
  8
0
 10
-324.722870
 20
-118.307350
 11
-321.722870
 21
-118.307350
  0
LINE
  8
0
 10
-324.722870
 20
-108.159576
 11
-324.722870
 21
-118.307350
  0
LINE
  8
0
 10
-323.222870
 20
-109.306862
 11
-323.222870
 21
-110.164780
  0
LINE
  8
0
 10
-321.722870
 20
-107.098923
 11
-321.722870
 21
-111.236275
  0
LINE
  8
0
 10
-317.722870
 20
-107.098923
 11
-317.722870
 21
-111.236275
  0
LINE
  8
0
 10
-317.722870
 20
-110.164780
 11
-311.222870
 21
-110.164780
  0
LINE
  8
0
 10
-321.722870
 20
-110.003967
 11
-317.722870
 21
-110.003967
  0
LINE
  8
0
 10
-321.722870
 20
-119.196350
 11
-317.722870
 21
-119.196350
  0
LINE
  8
0
 10
-317.722870
 20
-118.307350
 11
-309.722870
 21
-118.307350
  0
LINE
  8
0
 10
-317.722870
 20
-111.236275
 11
-309.722870
 21
-111.236275
  0
LINE
  8
0
 10
-321.722870
 20
-118.307350
 11
-321.722870
 21
-119.196350
  0
LINE
  8
0
 10
-317.722870
 20
-118.307350
 11
-317.722870
 21
-119.196350
  0
LINE
  8
0
 10
-321.722870
 20
-107.098923
 11
-317.722870
 21
-107.098923
  0
LINE
  8
0
 10
-324.722870
 20
-108.159576
 11
-321.722870
 21
-108.159576
  0
LINE
  8
0
 10
-324.722870
 20
-109.306862
 11
-321.722870
 21
-109.306862
  0
LINE
  8
0
 10
-317.722870
 20
-108.159576
 11
-317.422882
 21
-108.159576
  0
LINE
  8
0
 10
-317.722870
 20
-109.306862
 11
-317.422882
 21
-109.306862
  0
LINE
  8
0
 10
-301.922852
 20
-42.115860
 11
-294.522888
 21
-42.115860
  0
LINE
  8
0
 10
-302.722839
 20
-40.135956
 11
-293.722870
 21
-40.135956
  0
LINE
  8
0
 10
-302.722839
 20
-34.686211
 11
-293.722870
 21
-34.686211
  0
LINE
  8
0
 10
-301.922852
 20
-33.837677
 11
-294.522888
 21
-33.837677
  0
LINE
  8
0
 10
-301.922852
 20
-46.499916
 11
-294.522888
 21
-46.499916
  0
LINE
  8
0
 10
-294.022888
 20
-45.999916
 11
-294.022888
 21
-41.201653
  0
LINE
  8
0
 10
-293.222870
 20
-44.585709
 11
-293.222870
 21
-35.186211
  0
LINE
  8
0
 10
-302.422852
 20
-45.999916
 11
-302.422852
 21
-41.201653
  0
LINE
  8
0
 10
-303.222839
 20
-44.585705
 11
-303.222839
 21
-35.186211
  0
LINE
  8
0
 10
-301.922852
 20
-40.701653
 11
-294.522888
 21
-40.701653
  0
LINE
  8
0
 10
-303.722870
 20
-45.085705
 11
-302.422852
 21
-45.085705
  0
LINE
  8
0
 10
-302.422852
 20
-34.686211
 11
-302.422852
 21
-34.337677
  0
LINE
  8
0
 10
-294.022888
 20
-34.686211
 11
-294.022888
 21
-34.337677
  0
LINE
  8
0
 10
-294.022888
 20
-45.085705
 11
-292.722839
 21
-45.085705
  0
LINE
  8
0
 10
-309.722870
 20
-44.802860
 11
-303.722870
 21
-44.802860
  0
LINE
  8
0
 10
-292.722839
 20
-45.085705
 11
-292.722839
 21
-39.146008
  0
LINE
  8
0
 10
-303.722870
 20
-45.085705
 11
-303.722870
 21
-39.146004
  0
LINE
  8
0
 10
-294.722839
 20
-52.298195
 11
-294.722839
 21
-46.499916
  0
LINE
  8
0
 10
-301.722839
 20
-52.298195
 11
-301.722839
 21
-46.499916
  0
LINE
  8
0
 10
-292.722839
 20
-44.802860
 11
-287.722870
 21
-44.802860
  0
LINE
  8
0
 10
-296.722839
 20
-49.469769
 11
-296.722839
 21
-52.298195
  0
LINE
  8
0
 10
-299.722870
 20
-49.469757
 11
-299.722870
 21
-52.298187
  0
LINE
  8
0
 10
-301.722839
 20
-52.298195
 11
-299.722870
 21
-52.298195
  0
LINE
  8
0
 10
-296.722839
 20
-52.298195
 11
-294.722839
 21
-52.298195
  0
LINE
  8
0
 10
-287.722870
 20
-50.247589
 11
-287.722870
 21
-39.146008
  0
LINE
  8
0
 10
-309.722870
 20
-51.378975
 11
-309.722870
 21
-48.090141
  0
LINE
  8
0
 10
-309.722870
 20
-39.146004
 11
-303.722870
 21
-39.146004
  0
LINE
  8
0
 10
-303.722870
 20
-39.428848
 11
-303.222839
 21
-39.428848
  0
LINE
  8
0
 10
-293.222870
 20
-39.428848
 11
-292.722839
 21
-39.428848
  0
LINE
  8
0
 10
-292.722839
 20
-39.146004
 11
-287.722870
 21
-39.146004
  0
LINE
  8
0
 10
-299.722870
 20
-50.671848
 11
-296.722870
 21
-50.671848
  0
LINE
  8
0
 10
-299.722870
 20
-51.732502
 11
-296.722839
 21
-51.732502
  0
LINE
  8
0
 10
-309.722870
 20
-50.247585
 11
-301.722839
 21
-50.247585
  0
LINE
  8
0
 10
-294.722839
 20
-50.247585
 11
-287.722870
 21
-50.247585
  0
LINE
  8
0
 10
-294.722839
 20
-50.671848
 11
-289.722839
 21
-50.671848
  0
LINE
  8
0
 10
-294.722839
 20
-51.732502
 11
-289.722839
 21
-51.732502
  0
LINE
  8
0
 10
-289.722839
 20
-51.732506
 11
-289.722839
 21
-50.247589
  0
LINE
  8
0
 10
-302.722809
 20
-51.378975
 11
-301.722839
 21
-50.671875
  0
LINE
  8
0
 10
-302.722839
 20
-52.439621
 11
-301.722870
 21
-51.732521
  0
LINE
  8
0
 10
-311.222870
 20
-52.439629
 11
-302.722839
 21
-52.439629
  0
LINE
  8
0
 10
-309.722870
 20
-51.378975
 11
-302.722839
 21
-51.378975
  0
LINE
  8
0
 10
-302.722839
 20
-52.439629
 11
-302.722839
 21
-51.378975
  0
LINE
  8
0
 10
-285.722870
 20
-46.595757
 11
-285.722870
 21
-41.595757
  0
LINE
  8
0
 10
-287.722870
 20
-46.595753
 11
-285.722870
 21
-46.595753
  0
LINE
  8
0
 10
-285.722870
 20
-46.095753
 11
-270.644958
 21
-46.095753
  0
LINE
  8
0
 10
-285.722870
 20
-42.095753
 11
-270.644958
 21
-42.095753
  0
LINE
  8
0
 10
-287.722870
 20
-41.595753
 11
-285.722870
 21
-41.595753
  0
LINE
  8
0
 10
-323.222870
 20
-49.161636
 11
-321.722870
 21
-49.161636
  0
LINE
  8
0
 10
-324.722870
 20
-48.090141
 11
-321.722870
 21
-48.090141
  0
LINE
  8
0
 10
-324.722870
 20
-41.019066
 11
-321.722870
 21
-41.019066
  0
LINE
  8
0
 10
-324.722870
 20
-51.166840
 11
-324.722870
 21
-41.019066
  0
LINE
  8
0
 10
-323.222870
 20
-50.019554
 11
-323.222870
 21
-49.161636
  0
LINE
  8
0
 10
-321.722870
 20
-52.227497
 11
-321.722870
 21
-48.090141
  0
LINE
  8
0
 10
-317.722870
 20
-52.227497
 11
-317.722870
 21
-48.090141
  0
LINE
  8
0
 10
-317.722870
 20
-49.161636
 11
-311.222870
 21
-49.161636
  0
LINE
  8
0
 10
-321.722870
 20
-49.322453
 11
-317.722870
 21
-49.322453
  0
LINE
  8
0
 10
-321.722870
 20
-40.130062
 11
-317.722870
 21
-40.130062
  0
LINE
  8
0
 10
-317.722870
 20
-41.019066
 11
-309.722870
 21
-41.019066
  0
LINE
  8
0
 10
-317.722870
 20
-48.090141
 11
-309.722870
 21
-48.090141
  0
LINE
  8
0
 10
-321.722870
 20
-41.019066
 11
-321.722870
 21
-40.130062
  0
LINE
  8
0
 10
-317.722870
 20
-41.019066
 11
-317.722870
 21
-40.130062
  0
LINE
  8
0
 10
-321.722870
 20
-52.227497
 11
-317.722870
 21
-52.227497
  0
LINE
  8
0
 10
-324.722870
 20
-51.166840
 11
-321.722870
 21
-51.166840
  0
LINE
  8
0
 10
-324.722870
 20
-50.019554
 11
-321.722870
 21
-50.019554
  0
LINE
  8
0
 10
-317.722870
 20
-51.166840
 11
-317.422882
 21
-51.166840
  0
LINE
  8
0
 10
-317.722870
 20
-50.019554
 11
-317.422882
 21
-50.019554
  0
LINE
  8
0
 10
-317.422852
 20
-49.161636
 11
-317.422852
 21
-110.164780
  0
LINE
  8
0
 10
-311.222839
 20
-49.161636
 11
-311.222839
 21
-110.164780
  0
LINE
  8
0
 10
-270.644958
 20
-42.095753
 11
-270.644958
 21
-46.095753
  0
LINE
  8
0
 10
-270.644958
 20
-44.395752
 11
-267.644958
 21
-44.395752
  0
LINE
  8
0
 10
-270.644958
 20
-43.795753
 11
-267.644958
 21
-43.795753
  0
LINE
  8
0
 10
-270.644958
 20
-45.395752
 11
-267.644958
 21
-45.395752
  0
LINE
  8
0
 10
-270.644958
 20
-42.795753
 11
-267.644958
 21
-42.795753
  0
LINE
  8
0
 10
-267.644958
 20
-42.795753
 11
-267.644958
 21
-43.795753
  0
LINE
  8
0
 10
-267.644958
 20
-44.395752
 11
-267.644958
 21
-45.395752
  0
LINE
  8
0
 10
-267.644958
 20
-42.920753
 11
-266.144958
 21
-42.920753
  0
LINE
  8
0
 10
-267.644958
 20
-43.045753
 11
-266.144958
 21
-43.045753
  0
LINE
  8
0
 10
-267.644958
 20
-43.170753
 11
-266.144958
 21
-43.170753
  0
LINE
  8
0
 10
-267.644958
 20
-43.295753
 11
-266.144958
 21
-43.295753
  0
LINE
  8
0
 10
-267.644958
 20
-43.420753
 11
-266.144958
 21
-43.420753
  0
LINE
  8
0
 10
-267.644958
 20
-43.545753
 11
-266.144958
 21
-43.545753
  0
LINE
  8
0
 10
-267.644958
 20
-43.670753
 11
-266.144958
 21
-43.670753
  0
LINE
  8
0
 10
-267.644958
 20
-44.520752
 11
-266.144958
 21
-44.520752
  0
LINE
  8
0
 10
-267.644958
 20
-44.645752
 11
-266.144958
 21
-44.645752
  0
LINE
  8
0
 10
-267.644958
 20
-44.770752
 11
-266.144958
 21
-44.770752
  0
LINE
  8
0
 10
-267.644958
 20
-44.895752
 11
-266.144958
 21
-44.895752
  0
LINE
  8
0
 10
-267.644958
 20
-45.020752
 11
-266.144958
 21
-45.020752
  0
LINE
  8
0
 10
-267.644958
 20
-45.145752
 11
-266.144958
 21
-45.145752
  0
LINE
  8
0
 10
-267.644958
 20
-45.270752
 11
-266.144958
 21
-45.270752
  0
LINE
  8
0
 10
-270.644958
 20
-113.230667
 11
-270.644958
 21
-117.230667
  0
LINE
  8
0
 10
-270.644958
 20
-115.530663
 11
-267.644958
 21
-115.530663
  0
LINE
  8
0
 10
-270.644958
 20
-114.930664
 11
-267.644958
 21
-114.930664
  0
LINE
  8
0
 10
-270.644958
 20
-116.530663
 11
-267.644958
 21
-116.530663
  0
LINE
  8
0
 10
-270.644958
 20
-113.930664
 11
-267.644958
 21
-113.930664
  0
LINE
  8
0
 10
-267.644958
 20
-113.930664
 11
-267.644958
 21
-114.930664
  0
LINE
  8
0
 10
-267.644958
 20
-115.530663
 11
-267.644958
 21
-116.530663
  0
LINE
  8
0
 10
-267.644958
 20
-114.055664
 11
-266.144958
 21
-114.055664
  0
LINE
  8
0
 10
-267.644958
 20
-114.180664
 11
-266.144958
 21
-114.180664
  0
LINE
  8
0
 10
-267.644958
 20
-114.305664
 11
-266.144958
 21
-114.305664
  0
LINE
  8
0
 10
-267.644958
 20
-114.430664
 11
-266.144958
 21
-114.430664
  0
LINE
  8
0
 10
-267.644958
 20
-114.555664
 11
-266.144958
 21
-114.555664
  0
LINE
  8
0
 10
-267.644958
 20
-114.680664
 11
-266.144958
 21
-114.680664
  0
LINE
  8
0
 10
-267.644958
 20
-114.805664
 11
-266.144958
 21
-114.805664
  0
LINE
  8
0
 10
-267.644958
 20
-115.655663
 11
-266.144958
 21
-115.655663
  0
LINE
  8
0
 10
-267.644958
 20
-115.780663
 11
-266.144958
 21
-115.780663
  0
LINE
  8
0
 10
-267.644958
 20
-115.905663
 11
-266.144958
 21
-115.905663
  0
LINE
  8
0
 10
-267.644958
 20
-116.030663
 11
-266.144958
 21
-116.030663
  0
LINE
  8
0
 10
-267.644958
 20
-116.155663
 11
-266.144958
 21
-116.155663
  0
LINE
  8
0
 10
-267.644958
 20
-116.280663
 11
-266.144958
 21
-116.280663
  0
LINE
  8
0
 10
-267.644958
 20
-116.405663
 11
-266.144958
 21
-116.405663
  0
LINE
  8
0
 10
-309.722870
 20
-111.236275
 11
-309.722870
 21
-120.180412
  0
LINE
  8
0
 10
-309.722870
 20
-48.090141
 11
-309.722870
 21
-39.146004
  0
LINE
  8
0
 10
-309.422852
 20
-64.963211
 11
-309.422852
 21
-72.776642
  0
LINE
  8
0
 10
-327.922852
 20
-37.063210
 11
-327.922852
 21
-122.263206
  0
LINE
  8
0
 10
-311.222839
 20
-94.663208
 11
-309.722839
 21
-94.663208
  0
LINE
  8
0
 10
-322.922852
 20
-86.663208
 11
-317.422852
 21
-86.663208
  0
LINE
  8
0
 10
-322.922852
 20
-72.663208
 11
-317.422852
 21
-72.663208
  0
LINE
  8
0
 10
-311.222839
 20
-64.663208
 11
-309.722839
 21
-64.663208
  0
LINE
  8
0
 10
-309.722839
 20
-94.663231
 11
-309.422821
 21
-94.363235
  0
LINE
  8
0
 10
-309.422821
 20
-64.963181
 11
-309.722839
 21
-64.663177
  0
LINE
  8
0
 10
-327.922852
 20
-122.263206
 11
-324.722870
 21
-117.399223
  0
LINE
  8
0
 10
-327.922852
 20
-37.063210
 11
-324.722870
 21
-41.927193
  0
LINE
  8
0
 10
-322.922852
 20
-53.468674
 11
-322.922852
 21
-72.562866
  0
LINE
  8
0
 10
-322.922852
 20
-86.763535
 11
-322.922852
 21
-105.857742
  0
LINE
  8
0
 10
-309.422852
 20
-86.549774
 11
-309.422852
 21
-94.363213
  0
LINE
  8
0
 10
-299.722870
 20
-50.247585
 11
-296.722839
 21
-50.247585
  0
LINE
  8
0
 10
-295.722870
 20
-66.663208
 11
-295.722870
 21
-101.265335
  0
LINE
  8
0
 10
-294.522858
 20
-66.663208
 11
-294.522858
 21
-107.593918
  0
LINE
  8
0
 10
-293.722839
 20
-69.663208
 11
-293.722839
 21
-89.663208
  0
LINE
  8
0
 10
-301.722870
 20
-101.265335
 11
-301.722870
 21
-107.028221
  0
LINE
  8
0
 10
-295.722870
 20
-105.649391
 11
-295.722870
 21
-107.028221
  0
LINE
  8
0
 10
-302.922852
 20
-66.663208
 11
-294.522858
 21
-66.663208
  0
LINE
  8
0
 10
-302.922852
 20
-66.663208
 11
-302.922852
 21
-92.663208
  0
LINE
  8
0
 10
-302.922852
 20
-92.663208
 11
-295.722870
 21
-92.663208
  0
LINE
  8
0
 10
-294.522858
 20
-69.663208
 11
-293.722839
 21
-69.663208
  0
LINE
  8
0
 10
-294.522858
 20
-89.663208
 11
-293.722839
 21
-89.663208
  0
LINE
  8
0
 10
-298.922882
 20
-65.379639
 11
-302.066956
 21
-66.663200
  0
LINE
  8
0
 10
-295.778748
 20
-66.663193
 11
-298.922852
 21
-65.379631
  0
LINE
  8
0
 10
-298.922852
 20
-65.379646
 11
-298.922852
 21
-66.663208
  0
LINE
  8
0
 10
-301.722870
 20
-101.265335
 11
-294.522858
 21
-101.265335
  0
LINE
  8
0
 10
-301.722870
 20
-104.800865
 11
-294.522858
 21
-104.800865
  0
LINE
  8
0
 10
-301.722870
 20
-105.649391
 11
-295.722870
 21
-105.649391
  0
LINE
  8
0
 10
-288.922852
 20
-72.263206
 11
-288.922852
 21
-87.063210
  0
LINE
  8
0
 10
-309.422852
 20
-88.163208
 11
-305.472839
 21
-88.163208
  0
LINE
  8
0
 10
-309.422852
 20
-71.163208
 11
-305.472839
 21
-71.163208
  0
LINE
  8
0
 10
-305.422852
 20
-71.213203
 11
-305.422852
 21
-88.113205
  0
LINE
  8
0
 10
-305.422852
 20
-88.063210
 11
-304.922852
 21
-88.063210
  0
LINE
  8
0
 10
-305.422852
 20
-71.263206
 11
-304.922852
 21
-71.263206
  0
LINE
  8
0
 10
-289.922852
 20
-88.063187
 11
-288.922852
 21
-87.063194
  0
LINE
  8
0
 10
-289.922913
 20
-71.263268
 11
-288.922913
 21
-72.263268
  0
LINE
  8
0
 10
-289.922852
 20
-71.263206
 11
-289.922852
 21
-88.063210
  0
LINE
  8
0
 10
-305.472839
 20
-71.163216
 11
-305.422852
 21
-71.213219
  0
LINE
  8
0
 10
-305.472839
 20
-88.163223
 11
-305.422852
 21
-88.113228
  0
LINE
  8
0
 10
-304.922852
 20
-71.304703
 11
-304.922852
 21
-78.829315
  0
LINE
  8
0
 10
-304.922852
 20
-78.829315
 11
-302.922852
 21
-78.829315
  0
LINE
  8
0
 10
-304.922852
 20
-80.497070
 11
-302.922852
 21
-80.497070
  0
LINE
  8
0
 10
-304.922852
 20
-71.304703
 11
-302.922852
 21
-71.304703
  0
LINE
  8
0
 10
-304.922852
 20
-88.021713
 11
-302.922852
 21
-88.021713
  0
LINE
  8
0
 10
-304.922852
 20
-71.304428
 11
-302.922852
 21
-72.307709
  0
LINE
  8
0
 10
-289.922882
 20
-78.829369
 11
-288.922882
 21
-79.274879
  0
LINE
  8
0
 10
-289.922852
 20
-80.497078
 11
-293.722839
 21
-82.403313
  0
LINE
  8
0
 10
-289.922852
 20
-80.497063
 11
-288.922852
 21
-80.051559
  0
LINE
  8
0
 10
-289.922852
 20
-71.304703
 11
-288.922852
 21
-72.273407
  0
LINE
  8
0
 10
-289.922821
 20
-71.304710
 11
-293.722839
 21
-73.210960
  0
LINE
  8
0
 10
-289.922791
 20
-88.021759
 11
-288.922821
 21
-87.053070
  0
LINE
  8
0
 10
-304.922852
 20
-80.497208
 11
-302.922852
 21
-81.500488
  0
LINE
  8
0
 10
-304.922852
 20
-80.497070
 11
-304.922852
 21
-88.021713
  0
LINE
  8
0
 10
-293.722839
 20
-88.063210
 11
-289.922852
 21
-88.063210
  0
LINE
  8
0
 10
-293.722839
 20
-71.263206
 11
-289.922852
 21
-71.263206
  0
LINE
  8
0
 10
-293.722839
 20
-71.304703
 11
-289.922852
 21
-71.304703
  0
LINE
  8
0
 10
-302.922852
 20
-77.826065
 11
-304.922852
 21
-78.829338
  0
LINE
  8
0
 10
-293.722839
 20
-76.922813
 11
-289.922729
 21
-78.829102
  0
LINE
  8
0
 10
-293.722839
 20
-78.829315
 11
-289.922852
 21
-78.829315
  0
LINE
  8
0
 10
-293.722839
 20
-80.497070
 11
-289.922852
 21
-80.497070
  0
LINE
  8
0
 10
-302.922852
 20
-87.018433
 11
-304.922852
 21
-88.021713
  0
LINE
  8
0
 10
-293.722839
 20
-86.115608
 11
-289.922913
 21
-88.021820
  0
LINE
  8
0
 10
-293.722839
 20
-88.021713
 11
-289.922852
 21
-88.021713
  0
ARC
  8
0
 10
-315.827026
 20
-79.663208
 40
9.404159
 50
299.313446
 51
60.686543
  0
ARC
  8
0
 10
-301.922852
 20
-113.326500
 40
0.500000
 50
90.000000
 51
180.000000
  0
ARC
  8
0
 10
-294.522858
 20
-113.326500
 40
0.500000
 50
0.000000
 51
90.000000
  0
ARC
  8
0
 10
-293.722870
 20
-114.740707
 40
0.500000
 50
0.000000
 51
90.000000
  0
ARC
  8
0
 10
-302.722839
 20
-114.740707
 40
0.500000
 50
90.000000
 51
180.000000
  0
ARC
  8
0
 10
-302.722839
 20
-124.140205
 40
0.500000
 50
180.000000
 51
270.000000
  0
ARC
  8
0
 10
-293.722870
 20
-124.140205
 40
0.500000
 50
270.000000
 51
0.000000
  0
ARC
  8
0
 10
-294.522858
 20
-124.988739
 40
0.500000
 50
270.000000
 51
0.000000
  0
ARC
  8
0
 10
-301.922852
 20
-124.988739
 40
0.500000
 50
180.000000
 51
270.000000
  0
ARC
  8
0
 10
-294.522858
 20
-118.124763
 40
0.500000
 50
270.000000
 51
0.000000
  0
ARC
  8
0
 10
-301.922852
 20
-118.124763
 40
0.500000
 50
180.000000
 51
270.000000
  0
ARC
  8
0
 10
-301.922852
 20
-45.999916
 40
0.500000
 50
180.000000
 51
270.000000
  0
ARC
  8
0
 10
-294.522858
 20
-45.999916
 40
0.500000
 50
270.000000
 51
0.000000
  0
ARC
  8
0
 10
-293.722870
 20
-44.585709
 40
0.500000
 50
270.000000
 51
0.000000
  0
ARC
  8
0
 10
-302.722839
 20
-44.585705
 40
0.500000
 50
180.000000
 51
270.000000
  0
ARC
  8
0
 10
-302.722839
 20
-35.186211
 40
0.500000
 50
90.000000
 51
180.000000
  0
ARC
  8
0
 10
-293.722870
 20
-35.186211
 40
0.500000
 50
0.000000
 51
90.000000
  0
ARC
  8
0
 10
-294.522858
 20
-34.337677
 40
0.500000
 50
0.000000
 51
90.000000
  0
ARC
  8
0
 10
-301.922852
 20
-34.337677
 40
0.500000
 50
90.000000
 51
180.000000
  0
ARC
  8
0
 10
-294.522858
 20
-41.201653
 40
0.500000
 50
0.000000
 51
90.000000
  0
ARC
  8
0
 10
-301.922852
 20
-41.201653
 40
0.500000
 50
90.000000
 51
180.000000
  0
ARC
  8
0
 10
-298.967163
 20
-109.856651
 40
0.755707
 50
180.000000
 51
194.106384
  0
ARC
  8
0
 10
-298.769623
 20
-109.784225
 40
0.965187
 50
195.418213
 51
231.388290
  0
ARC
  8
0
 10
-298.222870
 20
-108.985420
 40
1.931895
 50
233.502090
 51
306.497894
  0
ARC
  8
0
 10
-297.676117
 20
-109.784225
 40
0.965204
 50
308.611725
 51
344.581787
  0
ARC
  8
0
 10
-297.478577
 20
-109.856651
 40
0.755698
 50
345.893616
 51
359.999420
  0
ARC
  8
0
 10
-320.542572
 20
-114.771805
 40
2.130294
 50
176.237244
 51
191.772614
  0
ARC
  8
0
 10
-320.325012
 20
-114.705338
 40
2.356926
 50
192.275360
 51
225.304779
  0
ARC
  8
0
 10
-319.722870
 20
-113.972244
 40
3.302728
 50
226.824173
 51
313.174347
  0
ARC
  8
0
 10
-319.120728
 20
-114.705353
 40
2.356923
 50
314.693390
 51
347.723206
  0
ARC
  8
0
 10
-318.903168
 20
-114.771820
 40
2.130303
 50
348.225800
 51
356.237244
  0
ARC
  8
0
 10
-306.004181
 20
-117.351982
 40
0.425080
 50
345.893921
 51
14.107077
  0
ARC
  8
0
 10
-306.115295
 20
-117.392715
 40
0.542915
 50
15.418174
 51
51.388477
  0
ARC
  8
0
 10
-306.422852
 20
-117.842049
 40
1.086699
 50
53.502033
 51
126.498207
  0
ARC
  8
0
 10
-306.730408
 20
-117.392723
 40
0.542927
 50
128.611526
 51
164.581833
  0
ARC
  8
0
 10
-306.841522
 20
-117.351982
 40
0.425080
 50
165.893921
 51
194.107071
  0
ARC
  8
0
 10
-306.730408
 20
-117.311249
 40
0.542915
 50
195.418167
 51
231.388474
  0
ARC
  8
0
 10
-306.422852
 20
-116.861916
 40
1.086699
 50
233.502029
 51
306.498199
  0
ARC
  8
0
 10
-306.115295
 20
-117.311241
 40
0.542927
 50
308.611511
 51
344.581818
  0
ARC
  8
0
 10
-318.259094
 20
-114.771812
 40
1.486226
 50
354.669006
 51
14.106153
  0
ARC
  8
0
 10
-318.647614
 20
-114.914246
 40
1.898237
 50
15.417706
 51
51.388241
  0
ARC
  8
0
 10
-319.722870
 20
-116.485184
 40
3.799335
 50
53.501961
 51
126.497833
  0
ARC
  8
0
 10
-320.798126
 20
-114.914230
 40
1.898234
 50
128.611618
 51
164.582077
  0
ARC
  8
0
 10
-321.186646
 20
-114.771797
 40
1.486224
 50
165.893570
 51
185.354355
  0
ARC
  8
0
 10
-319.722900
 20
-111.370300
 40
4.532881
 50
245.097824
 51
294.888153
  0
ARC
  8
0
 10
-305.678558
 20
-117.351982
 40
0.755698
 50
345.893616
 51
14.106391
  0
ARC
  8
0
 10
-305.876099
 20
-117.424408
 40
0.965187
 50
15.418217
 51
51.388287
  0
ARC
  8
0
 10
-306.422852
 20
-118.223206
 40
1.931889
 50
53.501961
 51
126.498039
  0
ARC
  8
0
 10
-306.969604
 20
-117.424408
 40
0.965204
 50
128.611710
 51
164.581787
  0
ARC
  8
0
 10
-307.167145
 20
-117.351982
 40
0.755698
 50
165.893616
 51
194.106384
  0
ARC
  8
0
 10
-306.969604
 20
-117.279556
 40
0.965187
 50
195.418213
 51
231.388290
  0
ARC
  8
0
 10
-306.422852
 20
-116.480759
 40
1.931889
 50
233.501953
 51
306.498047
  0
ARC
  8
0
 10
-305.876099
 20
-117.279556
 40
0.965204
 50
308.611725
 51
344.581787
  0
ARC
  8
0
 10
-299.042542
 20
-122.018890
 40
2.130294
 50
176.237244
 51
191.773209
  0
ARC
  8
0
 10
-298.824982
 20
-121.952423
 40
2.356930
 50
192.275894
 51
225.305573
  0
ARC
  8
0
 10
-298.222839
 20
-121.219322
 40
3.302724
 50
226.824829
 51
313.174988
  0
ARC
  8
0
 10
-297.620697
 20
-121.952423
 40
2.356934
 50
314.694183
 51
347.723724
  0
ARC
  8
0
 10
-297.403137
 20
-122.018890
 40
2.130298
 50
348.226379
 51
356.237244
  0
ARC
  8
0
 10
-296.759064
 20
-122.018890
 40
1.486226
 50
354.669006
 51
14.106438
  0
ARC
  8
0
 10
-297.147583
 20
-122.161324
 40
1.898239
 50
15.417928
 51
51.388382
  0
ARC
  8
0
 10
-298.222839
 20
-123.732269
 40
3.799348
 50
53.502098
 51
126.497902
  0
ARC
  8
0
 10
-299.298096
 20
-122.161324
 40
1.898234
 50
128.611618
 51
164.582291
  0
ARC
  8
0
 10
-299.686615
 20
-122.018890
 40
1.486222
 50
165.893845
 51
185.353775
  0
ARC
  8
0
 10
-298.222870
 20
-118.617378
 40
4.532874
 50
245.097794
 51
294.888214
  0
ARC
  8
0
 10
-299.686615
 20
-37.307529
 40
1.486221
 50
174.645935
 51
194.106293
  0
ARC
  8
0
 10
-299.298096
 20
-37.165096
 40
1.898238
 50
195.417816
 51
231.388306
  0
ARC
  8
0
 10
-298.222839
 20
-35.594151
 40
3.799345
 50
233.502060
 51
306.497894
  0
ARC
  8
0
 10
-297.147583
 20
-37.165096
 40
1.898234
 50
308.611603
 51
344.582184
  0
ARC
  8
0
 10
-296.759064
 20
-37.307529
 40
1.486223
 50
345.893707
 51
5.331153
  0
ARC
  8
0
 10
-297.403137
 20
-37.307526
 40
2.130295
 50
3.762957
 51
11.773512
  0
ARC
  8
0
 10
-297.620697
 20
-37.373993
 40
2.356933
 50
12.276172
 51
45.305767
  0
ARC
  8
0
 10
-298.222839
 20
-38.107094
 40
3.302732
 50
46.824963
 51
133.175125
  0
ARC
  8
0
 10
-298.824982
 20
-37.373993
 40
2.356926
 50
134.694366
 51
167.724014
  0
ARC
  8
0
 10
-299.042542
 20
-37.307526
 40
2.130296
 50
168.226685
 51
183.762848
  0
ARC
  8
0
 10
-305.678558
 20
-41.974434
 40
0.755698
 50
345.893616
 51
14.106391
  0
ARC
  8
0
 10
-305.876099
 20
-42.046860
 40
0.965187
 50
15.418217
 51
51.388287
  0
ARC
  8
0
 10
-306.422852
 20
-42.845657
 40
1.931889
 50
53.501961
 51
126.498039
  0
ARC
  8
0
 10
-306.969604
 20
-42.046856
 40
0.965201
 50
128.611847
 51
164.582001
  0
ARC
  8
0
 10
-307.167145
 20
-41.974434
 40
0.755698
 50
165.893616
 51
194.106384
  0
ARC
  8
0
 10
-306.969604
 20
-41.902008
 40
0.965187
 50
195.418213
 51
231.388290
  0
ARC
  8
0
 10
-306.422852
 20
-41.103210
 40
1.931889
 50
233.501953
 51
306.498047
  0
ARC
  8
0
 10
-305.876099
 20
-41.902012
 40
0.965201
 50
308.611847
 51
344.582001
  0
ARC
  8
0
 10
-319.722900
 20
-47.956112
 40
4.532872
 50
65.111816
 51
114.902191
  0
ARC
  8
0
 10
-321.186646
 20
-44.554615
 40
1.486221
 50
174.645645
 51
194.106583
  0
ARC
  8
0
 10
-320.798126
 20
-44.412182
 40
1.898240
 50
195.418045
 51
231.388458
  0
ARC
  8
0
 10
-319.722870
 20
-42.841228
 40
3.799357
 50
233.502197
 51
306.498016
  0
ARC
  8
0
 10
-318.647614
 20
-44.412170
 40
1.898228
 50
308.611755
 51
344.582520
  0
ARC
  8
0
 10
-318.259094
 20
-44.554600
 40
1.486221
 50
345.893982
 51
5.330861
  0
ARC
  8
0
 10
-298.222870
 20
-40.709034
 40
4.532865
 50
65.111771
 51
114.902229
  0
ARC
  8
0
 10
-297.478577
 20
-49.469765
 40
0.755707
 50
0.000578
 51
14.106671
  0
ARC
  8
0
 10
-297.676117
 20
-49.542187
 40
0.965187
 50
15.418217
 51
51.388145
  0
ARC
  8
0
 10
-298.222870
 20
-50.340992
 40
1.931892
 50
53.502026
 51
126.497971
  0
ARC
  8
0
 10
-298.769623
 20
-49.542191
 40
0.965204
 50
128.611710
 51
164.581787
  0
ARC
  8
0
 10
-298.967163
 20
-49.469765
 40
0.755698
 50
165.893616
 51
180.000000
  0
ARC
  8
0
 10
-318.903168
 20
-44.554592
 40
2.130294
 50
3.762548
 51
11.774115
  0
ARC
  8
0
 10
-319.120728
 20
-44.621063
 40
2.356939
 50
12.276806
 51
45.306618
  0
ARC
  8
0
 10
-319.722870
 20
-45.354172
 40
3.302731
 50
46.825668
 51
133.175827
  0
ARC
  8
0
 10
-320.325012
 20
-44.621078
 40
2.356934
 50
134.695221
 51
167.724640
  0
ARC
  8
0
 10
-320.542572
 20
-44.554615
 40
2.130291
 50
168.227295
 51
183.762543
  0
ARC
  8
0
 10
-306.004181
 20
-41.974438
 40
0.425081
 50
345.893433
 51
14.106079
  0
ARC
  8
0
 10
-306.115295
 20
-42.015175
 40
0.542914
 50
15.417786
 51
51.388226
  0
ARC
  8
0
 10
-306.422852
 20
-42.464497
 40
1.086687
 50
53.501553
 51
126.498085
  0
ARC
  8
0
 10
-306.730408
 20
-42.015171
 40
0.542930
 50
128.611267
 51
164.581436
  0
ARC
  8
0
 10
-306.841522
 20
-41.974430
 40
0.425081
 50
165.893417
 51
194.106079
  0
ARC
  8
0
 10
-306.730408
 20
-41.933693
 40
0.542914
 50
195.417786
 51
231.388229
  0
ARC
  8
0
 10
-306.422852
 20
-41.484371
 40
1.086687
 50
233.501556
 51
306.498077
  0
ARC
  8
0
 10
-306.115295
 20
-41.933697
 40
0.542930
 50
308.611267
 51
344.581451
  0
POLYLINE
  8
0
 66
     1
  0
VERTEX
  8
0
 10
-324.722198
 20
-42.340942
  0
VERTEX
  8
0
 10
-325.556000
 20
-42.414711
  0
VERTEX
  8
0
 10
-326.428162
 20
-42.639118
  0
VERTEX
  8
0
 10
-327.148193
 20
-42.984798
  0
VERTEX
  8
0
 10
-327.525482
 20
-43.422379
  0
VERTEX
  8
0
 10
-327.513123
 20
-44.159348
  0
VERTEX
  8
0
 10
-327.258362
 20
-45.001022
  0
VERTEX
  8
0
 10
-326.986328
 20
-45.864685
  0
VERTEX
  8
0
 10
-326.707062
 20
-46.716949
  0
VERTEX
  8
0
 10
-326.463867
 20
-47.354557
  0
VERTEX
  8
0
 10
-326.190704
 20
-47.991390
  0
VERTEX
  8
0
 10
-325.889282
 20
-48.638779
  0
VERTEX
  8
0
 10
-325.544037
 20
-49.333755
  0
VERTEX
  8
0
 10
-325.183411
 20
-50.017132
  0
VERTEX
  8
0
 10
-324.839966
 20
-50.629257
  0
VERTEX
  8
0
 10
-324.428040
 20
-51.312267
  0
VERTEX
  8
0
 10
-323.980743
 20
-52.001999
  0
VERTEX
  8
0
 10
-323.464325
 20
-52.744564
  0
VERTEX
  8
0
 10
-322.922852
 20
-53.468674
  0
SEQEND
  0
POLYLINE
  8
0
 66
     1
  0
VERTEX
  8
0
 10
-324.722198
 20
-116.985474
  0
VERTEX
  8
0
 10
-325.556000
 20
-116.911705
  0
VERTEX
  8
0
 10
-326.428162
 20
-116.687302
  0
VERTEX
  8
0
 10
-327.148193
 20
-116.341621
  0
VERTEX
  8
0
 10
-327.525482
 20
-115.904037
  0
VERTEX
  8
0
 10
-327.513123
 20
-115.167068
  0
VERTEX
  8
0
 10
-327.258362
 20
-114.325394
  0
VERTEX
  8
0
 10
-326.986328
 20
-113.461731
  0
VERTEX
  8
0
 10
-326.707062
 20
-112.609467
  0
VERTEX
  8
0
 10
-326.463867
 20
-111.971855
  0
VERTEX
  8
0
 10
-326.190704
 20
-111.335030
  0
VERTEX
  8
0
 10
-325.889282
 20
-110.687637
  0
VERTEX
  8
0
 10
-325.518219
 20
-109.948318
  0
VERTEX
  8
0
 10
-325.131775
 20
-109.220596
  0
VERTEX
  8
0
 10
-324.839966
 20
-108.697159
  0
VERTEX
  8
0
 10
-324.781342
 20
-108.596962
  0
VERTEX
  8
0
 10
-324.722229
 20
-108.497047
  0
SEQEND
  0
POLYLINE
  8
0
 66
     1
  0
VERTEX
  8
0
 10
-322.922638
 20
-86.763565
  0
VERTEX
  8
0
 10
-323.671051
 20
-86.608002
  0
VERTEX
  8
0
 10
-324.394562
 20
-86.296249
  0
VERTEX
  8
0
 10
-325.145599
 20
-85.739639
  0
VERTEX
  8
0
 10
-325.776123
 20
-85.157913
  0
VERTEX
  8
0
 10
-326.153259
 20
-84.805763
  0
VERTEX
  8
0
 10
-326.497192
 20
-84.399628
  0
VERTEX
  8
0
 10
-326.782928
 20
-83.846222
  0
VERTEX
  8
0
 10
-326.986023
 20
-83.232803
  0
VERTEX
  8
0
 10
-327.166443
 20
-82.596718
  0
VERTEX
  8
0
 10
-327.320862
 20
-81.928696
  0
VERTEX
  8
0
 10
-327.444275
 20
-81.130394
  0
VERTEX
  8
0
 10
-327.509705
 20
-80.350052
  0
VERTEX
  8
0
 10
-327.528076
 20
-79.676727
  0
VERTEX
  8
0
 10
-327.509705
 20
-78.976364
  0
VERTEX
  8
0
 10
-327.440613
 20
-78.167633
  0
VERTEX
  8
0
 10
-327.320862
 20
-77.397720
  0
VERTEX
  8
0
 10
-327.167908
 20
-76.739639
  0
VERTEX
  8
0
 10
-326.986023
 20
-76.093613
  0
VERTEX
  8
0
 10
-326.776764
 20
-75.474022
  0
VERTEX
  8
0
 10
-326.497192
 20
-74.926788
  0
VERTEX
  8
0
 10
-326.195526
 20
-74.563873
  0
VERTEX
  8
0
 10
-325.776123
 20
-74.168503
  0
VERTEX
  8
0
 10
-325.097778
 20
-73.547112
  0
VERTEX
  8
0
 10
-324.394562
 20
-73.030167
  0
VERTEX
  8
0
 10
-323.682312
 20
-72.725647
  0
VERTEX
  8
0
 10
-322.922668
 20
-72.562851
  0
SEQEND
  0
POLYLINE
  8
0
 66
     1
  0
VERTEX
  8
0
 10
-324.518005
 20
-108.159782
  0
VERTEX
  8
0
 10
-324.281891
 20
-107.782089
  0
VERTEX
  8
0
 10
-323.980743
 20
-107.324417
  0
VERTEX
  8
0
 10
-323.464325
 20
-106.581848
  0
VERTEX
  8
0
 10
-322.922852
 20
-105.857742
  0
SEQEND
  0
ARC
  8
0
 10
-298.129211
 20
-66.581734
 40
2.862132
 50
3.361367
 51
11.305949
  0
ARC
  8
0
 10
-298.339844
 20
-66.643517
 40
3.080870
 50
11.664690
 51
43.965553
  0
ARC
  8
0
 10
-298.922852
 20
-67.324928
 40
3.974458
 50
45.201271
 51
134.799347
  0
ARC
  8
0
 10
-299.505829
 20
-66.643524
 40
3.080884
 50
136.035538
 51
168.335983
  0
ARC
  8
0
 10
-299.716492
 20
-66.581749
 40
2.862148
 50
168.694504
 51
178.338379
  0
ARC
  8
0
 10
-298.193848
 20
-66.678307
 40
1.286911
 50
23.808083
 51
51.388359
  0
ARC
  8
0
 10
-298.922852
 20
-67.743370
 40
2.575854
 50
53.501995
 51
126.498009
  0
ARC
  8
0
 10
-299.651855
 20
-66.678307
 40
1.286941
 50
128.611649
 51
156.227478
  0
ARC
  8
0
 10
-297.108826
 20
-66.581741
 40
1.841756
 50
357.451965
 51
14.106702
  0
ARC
  8
0
 10
-297.590332
 20
-66.758255
 40
2.352389
 50
15.418016
 51
51.388714
  0
ARC
  8
0
 10
-298.922852
 20
-68.705086
 40
4.708357
 50
53.502457
 51
126.497894
  0
ARC
  8
0
 10
-300.255371
 20
-66.758255
 40
2.352381
 50
128.611984
 51
164.582336
  0
ARC
  8
0
 10
-300.736877
 20
-66.581741
 40
1.841762
 50
165.893753
 51
182.552765
  0
POINT
  8
0
 10
-312.422852
 20
-200.725525
  0
POINT
  8
0
 10
-288.922852
 20
-200.725525
  0
LINE
  8
0
 10
-311.222839
 20
-162.081390
 11
-311.222839
 21
-152.225525
  0
LINE
  8
0
 10
-317.422852
 20
-162.081390
 11
-317.422852
 21
-152.225525
  0
LINE
  8
0
 10
-317.422882
 20
-152.225525
 11
-311.222870
 21
-152.225525
  0
LINE
  8
0
 10
-317.422882
 20
-249.225525
 11
-311.222870
 21
-249.225525
  0
LINE
  8
0
 10
-301.922882
 20
-163.178177
 11
-294.522888
 21
-163.178177
  0
LINE
  8
0
 10
-302.722870
 20
-161.198273
 11
-293.722870
 21
-161.198273
  0
LINE
  8
0
 10
-302.722870
 20
-155.748535
 11
-293.722870
 21
-155.748535
  0
LINE
  8
0
 10
-301.922882
 20
-154.899994
 11
-294.522888
 21
-154.899994
  0
LINE
  8
0
 10
-301.922882
 20
-167.562225
 11
-294.522888
 21
-167.562225
  0
LINE
  8
0
 10
-294.022888
 20
-167.062225
 11
-294.022888
 21
-162.263977
  0
LINE
  8
0
 10
-293.222870
 20
-165.648026
 11
-293.222870
 21
-156.248535
  0
LINE
  8
0
 10
-302.422852
 20
-167.062225
 11
-302.422852
 21
-162.263977
  0
LINE
  8
0
 10
-303.222839
 20
-165.648026
 11
-303.222839
 21
-156.248535
  0
LINE
  8
0
 10
-301.922882
 20
-161.763977
 11
-294.522888
 21
-161.763977
  0
LINE
  8
0
 10
-303.722870
 20
-166.148026
 11
-302.422882
 21
-166.148026
  0
LINE
  8
0
 10
-302.422852
 20
-155.748535
 11
-302.422852
 21
-155.399994
  0
LINE
  8
0
 10
-294.022888
 20
-155.748535
 11
-294.022888
 21
-155.399994
  0
LINE
  8
0
 10
-294.022888
 20
-166.148026
 11
-292.722870
 21
-166.148026
  0
LINE
  8
0
 10
-309.722870
 20
-165.865173
 11
-303.722870
 21
-165.865173
  0
LINE
  8
0
 10
-292.722839
 20
-166.148026
 11
-292.722839
 21
-160.208328
  0
LINE
  8
0
 10
-303.722870
 20
-166.148026
 11
-303.722870
 21
-160.208313
  0
LINE
  8
0
 10
-294.722839
 20
-173.360504
 11
-294.722839
 21
-167.562225
  0
LINE
  8
0
 10
-301.722839
 20
-173.360504
 11
-301.722839
 21
-167.562225
  0
LINE
  8
0
 10
-292.722870
 20
-165.865173
 11
-287.722870
 21
-165.865173
  0
LINE
  8
0
 10
-296.722839
 20
-170.532089
 11
-296.722839
 21
-173.360504
  0
LINE
  8
0
 10
-299.722870
 20
-170.532074
 11
-299.722870
 21
-173.360504
  0
LINE
  8
0
 10
-301.722870
 20
-173.360504
 11
-299.722870
 21
-173.360504
  0
LINE
  8
0
 10
-296.722870
 20
-173.360504
 11
-294.722870
 21
-173.360504
  0
LINE
  8
0
 10
-287.722839
 20
-171.309906
 11
-287.722839
 21
-160.208328
  0
LINE
  8
0
 10
-309.722870
 20
-172.441299
 11
-309.722870
 21
-169.152466
  0
LINE
  8
0
 10
-309.722870
 20
-160.208313
 11
-303.722870
 21
-160.208313
  0
LINE
  8
0
 10
-303.722870
 20
-160.491165
 11
-303.222870
 21
-160.491165
  0
LINE
  8
0
 10
-293.222870
 20
-160.491165
 11
-292.722870
 21
-160.491165
  0
LINE
  8
0
 10
-292.722870
 20
-160.208313
 11
-287.722870
 21
-160.208313
  0
LINE
  8
0
 10
-309.722870
 20
-171.309906
 11
-301.722870
 21
-171.309906
  0
LINE
  8
0
 10
-299.722870
 20
-171.734161
 11
-296.722870
 21
-171.734161
  0
LINE
  8
0
 10
-299.722870
 20
-172.794815
 11
-296.722870
 21
-172.794815
  0
LINE
  8
0
 10
-299.722870
 20
-171.309906
 11
-296.722870
 21
-171.309906
  0
LINE
  8
0
 10
-294.722870
 20
-171.309906
 11
-287.722870
 21
-171.309906
  0
LINE
  8
0
 10
-294.722870
 20
-171.734161
 11
-289.722870
 21
-171.734161
  0
LINE
  8
0
 10
-294.722870
 20
-172.794815
 11
-289.722870
 21
-172.794815
  0
LINE
  8
0
 10
-289.722839
 20
-172.794815
 11
-289.722839
 21
-171.309906
  0
LINE
  8
0
 10
-302.722839
 20
-172.441299
 11
-301.722839
 21
-171.734192
  0
LINE
  8
0
 10
-302.722870
 20
-173.501953
 11
-301.722870
 21
-172.794846
  0
LINE
  8
0
 10
-311.222870
 20
-173.501953
 11
-302.722870
 21
-173.501953
  0
LINE
  8
0
 10
-309.722870
 20
-172.441299
 11
-302.722870
 21
-172.441299
  0
LINE
  8
0
 10
-302.722839
 20
-173.501953
 11
-302.722839
 21
-172.441299
  0
LINE
  8
0
 10
-285.722870
 20
-167.658081
 11
-285.722870
 21
-162.658081
  0
LINE
  8
0
 10
-287.722870
 20
-167.658066
 11
-285.722870
 21
-167.658066
  0
LINE
  8
0
 10
-285.722870
 20
-167.158066
 11
-270.644958
 21
-167.158066
  0
LINE
  8
0
 10
-285.722870
 20
-163.158066
 11
-270.644958
 21
-163.158066
  0
LINE
  8
0
 10
-287.722870
 20
-162.658066
 11
-285.722870
 21
-162.658066
  0
LINE
  8
0
 10
-323.222870
 20
-170.223953
 11
-321.722870
 21
-170.223953
  0
LINE
  8
0
 10
-324.722870
 20
-169.152466
 11
-321.722870
 21
-169.152466
  0
LINE
  8
0
 10
-324.722870
 20
-162.081390
 11
-321.722870
 21
-162.081390
  0
LINE
  8
0
 10
-324.722870
 20
-172.229156
 11
-324.722870
 21
-162.081390
  0
LINE
  8
0
 10
-323.222870
 20
-171.081863
 11
-323.222870
 21
-170.223953
  0
LINE
  8
0
 10
-321.722870
 20
-173.289810
 11
-321.722870
 21
-169.152466
  0
LINE
  8
0
 10
-317.722870
 20
-173.289810
 11
-317.722870
 21
-169.152466
  0
LINE
  8
0
 10
-317.722870
 20
-170.223953
 11
-311.222870
 21
-170.223953
  0
LINE
  8
0
 10
-321.722870
 20
-170.384766
 11
-317.722870
 21
-170.384766
  0
LINE
  8
0
 10
-321.722870
 20
-161.192383
 11
-317.722870
 21
-161.192383
  0
LINE
  8
0
 10
-317.722870
 20
-162.081390
 11
-309.722870
 21
-162.081390
  0
LINE
  8
0
 10
-317.722870
 20
-169.152466
 11
-309.722870
 21
-169.152466
  0
LINE
  8
0
 10
-321.722870
 20
-162.081390
 11
-321.722870
 21
-161.192383
  0
LINE
  8
0
 10
-317.722870
 20
-162.081390
 11
-317.722870
 21
-161.192383
  0
LINE
  8
0
 10
-321.722870
 20
-173.289810
 11
-317.722870
 21
-173.289810
  0
LINE
  8
0
 10
-324.722870
 20
-172.229156
 11
-321.722870
 21
-172.229156
  0
LINE
  8
0
 10
-324.722870
 20
-171.081863
 11
-321.722870
 21
-171.081863
  0
LINE
  8
0
 10
-317.722870
 20
-172.229156
 11
-317.422882
 21
-172.229156
  0
LINE
  8
0
 10
-317.722870
 20
-171.081863
 11
-317.422882
 21
-171.081863
  0
LINE
  8
0
 10
-311.222839
 20
-249.225525
 11
-311.222839
 21
-170.223953
  0
LINE
  8
0
 10
-317.422852
 20
-249.225525
 11
-317.422852
 21
-170.223953
  0
LINE
  8
0
 10
-270.644958
 20
-163.158066
 11
-270.644958
 21
-167.158066
  0
LINE
  8
0
 10
-270.644958
 20
-165.458069
 11
-267.644958
 21
-165.458069
  0
LINE
  8
0
 10
-270.644958
 20
-164.858063
 11
-267.644958
 21
-164.858063
  0
LINE
  8
0
 10
-270.644958
 20
-166.458069
 11
-267.644958
 21
-166.458069
  0
LINE
  8
0
 10
-270.644958
 20
-163.858063
 11
-267.644958
 21
-163.858063
  0
LINE
  8
0
 10
-267.644958
 20
-163.858063
 11
-267.644958
 21
-164.858063
  0
LINE
  8
0
 10
-267.644958
 20
-165.458069
 11
-267.644958
 21
-166.458069
  0
LINE
  8
0
 10
-267.644958
 20
-163.983063
 11
-266.144958
 21
-163.983063
  0
LINE
  8
0
 10
-267.644958
 20
-164.108063
 11
-266.144958
 21
-164.108063
  0
LINE
  8
0
 10
-267.644958
 20
-164.233063
 11
-266.144958
 21
-164.233063
  0
LINE
  8
0
 10
-267.644958
 20
-164.358063
 11
-266.144958
 21
-164.358063
  0
LINE
  8
0
 10
-267.644958
 20
-164.483063
 11
-266.144958
 21
-164.483063
  0
LINE
  8
0
 10
-267.644958
 20
-164.608063
 11
-266.144958
 21
-164.608063
  0
LINE
  8
0
 10
-267.644958
 20
-164.733063
 11
-266.144958
 21
-164.733063
  0
LINE
  8
0
 10
-267.644958
 20
-165.583069
 11
-266.144958
 21
-165.583069
  0
LINE
  8
0
 10
-267.644958
 20
-165.708069
 11
-266.144958
 21
-165.708069
  0
LINE
  8
0
 10
-267.644958
 20
-165.833069
 11
-266.144958
 21
-165.833069
  0
LINE
  8
0
 10
-267.644958
 20
-165.958069
 11
-266.144958
 21
-165.958069
  0
LINE
  8
0
 10
-267.644958
 20
-166.083069
 11
-266.144958
 21
-166.083069
  0
LINE
  8
0
 10
-267.644958
 20
-166.208069
 11
-266.144958
 21
-166.208069
  0
LINE
  8
0
 10
-267.644958
 20
-166.333069
 11
-266.144958
 21
-166.333069
  0
LINE
  8
0
 10
-309.722870
 20
-169.152466
 11
-309.722870
 21
-160.208313
  0
LINE
  8
0
 10
-309.422852
 20
-186.025528
 11
-309.422852
 21
-215.425522
  0
LINE
  8
0
 10
-327.922852
 20
-158.125519
 11
-327.922852
 21
-243.325531
  0
LINE
  8
0
 10
-327.528107
 20
-242.725525
 11
-317.422852
 21
-242.725525
  0
LINE
  8
0
 10
-322.922852
 20
-225.225525
 11
-317.422852
 21
-225.225525
  0
LINE
  8
0
 10
-311.222839
 20
-215.725525
 11
-309.722839
 21
-215.725525
  0
LINE
  8
0
 10
-311.222839
 20
-185.725525
 11
-309.722839
 21
-185.725525
  0
LINE
  8
0
 10
-322.922852
 20
-176.225525
 11
-317.422852
 21
-176.225525
  0
LINE
  8
0
 10
-327.528107
 20
-158.725525
 11
-317.422852
 21
-158.725525
  0
LINE
  8
0
 10
-309.722839
 20
-215.725555
 11
-309.422821
 21
-215.425552
  0
LINE
  8
0
 10
-309.722870
 20
-185.725525
 11
-309.422852
 21
-186.025528
  0
LINE
  8
0
 10
-327.922852
 20
-243.325531
 11
-327.528137
 21
-242.725525
  0
LINE
  8
0
 10
-327.922852
 20
-158.125519
 11
-327.528137
 21
-158.725525
  0
LINE
  8
0
 10
-322.922852
 20
-172.229156
 11
-322.922852
 21
-176.225525
  0
LINE
  8
0
 10
-322.922852
 20
-189.607361
 11
-322.922852
 21
-211.843689
  0
LINE
  8
0
 10
-322.922852
 20
-225.225525
 11
-322.922852
 21
-235.017197
  0
LINE
  8
0
 10
-295.722870
 20
-213.725525
 11
-295.722870
 21
-179.123398
  0
LINE
  8
0
 10
-294.522858
 20
-213.725525
 11
-294.522858
 21
-172.794815
  0
LINE
  8
0
 10
-293.722839
 20
-210.725525
 11
-293.722839
 21
-190.725525
  0
LINE
  8
0
 10
-301.722870
 20
-179.123398
 11
-301.722870
 21
-173.501953
  0
LINE
  8
0
 10
-295.722870
 20
-174.739349
 11
-295.722870
 21
-173.360504
  0
LINE
  8
0
 10
-302.922882
 20
-213.725525
 11
-294.522858
 21
-213.725525
  0
LINE
  8
0
 10
-302.922852
 20
-213.725525
 11
-302.922852
 21
-187.725525
  0
LINE
  8
0
 10
-302.922882
 20
-187.725525
 11
-295.722870
 21
-187.725525
  0
LINE
  8
0
 10
-294.522858
 20
-210.725525
 11
-293.722870
 21
-210.725525
  0
LINE
  8
0
 10
-294.522858
 20
-190.725525
 11
-293.722870
 21
-190.725525
  0
LINE
  8
0
 10
-298.922882
 20
-215.009064
 11
-302.066956
 21
-213.725494
  0
LINE
  8
0
 10
-295.778748
 20
-213.725540
 11
-298.922852
 21
-215.009094
  0
LINE
  8
0
 10
-298.922852
 20
-215.009079
 11
-298.922852
 21
-213.725525
  0
LINE
  8
0
 10
-301.722870
 20
-179.123398
 11
-294.522858
 21
-179.123398
  0
LINE
  8
0
 10
-301.722870
 20
-175.587860
 11
-294.522858
 21
-175.587860
  0
LINE
  8
0
 10
-301.722870
 20
-174.739349
 11
-295.722870
 21
-174.739349
  0
LINE
  8
0
 10
-288.922852
 20
-193.325531
 11
-288.922852
 21
-208.125534
  0
LINE
  8
0
 10
-309.422852
 20
-209.225525
 11
-305.472839
 21
-209.225525
  0
LINE
  8
0
 10
-309.422852
 20
-192.225525
 11
-305.472839
 21
-192.225525
  0
LINE
  8
0
 10
-305.422852
 20
-192.275528
 11
-305.422852
 21
-209.175522
  0
LINE
  8
0
 10
-305.422852
 20
-209.125519
 11
-302.922852
 21
-209.125519
  0
LINE
  8
0
 10
-305.422852
 20
-192.325531
 11
-302.922852
 21
-192.325531
  0
LINE
  8
0
 10
-289.922852
 20
-209.125504
 11
-288.922852
 21
-208.125519
  0
LINE
  8
0
 10
-289.922943
 20
-192.325592
 11
-288.922943
 21
-193.325592
  0
LINE
  8
0
 10
-289.922852
 20
-192.325531
 11
-289.922852
 21
-209.125519
  0
LINE
  8
0
 10
-305.422852
 20
-192.275513
 11
-305.472839
 21
-192.225510
  0
LINE
  8
0
 10
-305.472839
 20
-209.225540
 11
-305.422852
 21
-209.175537
  0
LINE
  8
0
 10
-304.922729
 20
-199.891632
 11
-302.922852
 21
-199.891632
  0
LINE
  8
0
 10
-304.922943
 20
-201.559387
 11
-302.922852
 21
-201.559387
  0
LINE
  8
0
 10
-304.922607
 20
-192.367020
 11
-302.922852
 21
-192.367020
  0
LINE
  8
0
 10
-304.922913
 20
-209.084030
 11
-302.922852
 21
-209.084030
  0
LINE
  8
0
 10
-304.922607
 20
-192.367020
 11
-302.922852
 21
-193.370163
  0
LINE
  8
0
 10
-289.922852
 20
-199.891647
 11
-288.922852
 21
-200.337158
  0
LINE
  8
0
 10
-289.922882
 20
-201.559372
 11
-293.722839
 21
-203.465591
  0
LINE
  8
0
 10
-289.922852
 20
-201.559387
 11
-288.922852
 21
-201.113876
  0
LINE
  8
0
 10
-289.922852
 20
-192.367035
 11
-288.922852
 21
-193.335739
  0
LINE
  8
0
 10
-289.922821
 20
-192.367065
 11
-293.722839
 21
-194.273315
  0
LINE
  8
0
 10
-289.922791
 20
-209.084076
 11
-288.922821
 21
-208.115372
  0
LINE
  8
0
 10
-304.922943
 20
-201.559387
 11
-302.922852
 21
-202.562714
  0
LINE
  8
0
 10
-293.722839
 20
-209.125519
 11
-289.922852
 21
-209.125519
  0
LINE
  8
0
 10
-293.722839
 20
-192.325531
 11
-289.922852
 21
-192.325531
  0
LINE
  8
0
 10
-304.922913
 20
-209.084030
 11
-304.922607
 21
-192.367020
  0
LINE
  8
0
 10
-293.722839
 20
-192.367020
 11
-289.922852
 21
-192.367020
  0
LINE
  8
0
 10
-293.722839
 20
-209.084030
 11
-289.922852
 21
-209.084030
  0
LINE
  8
0
 10
-302.922852
 20
-208.080719
 11
-304.922913
 21
-209.084030
  0
LINE
  8
0
 10
-293.722839
 20
-207.177826
 11
-289.922852
 21
-209.084076
  0
LINE
  8
0
 10
-293.722839
 20
-201.559387
 11
-289.922852
 21
-201.559387
  0
LINE
  8
0
 10
-293.722839
 20
-199.891632
 11
-289.922852
 21
-199.891632
  0
LINE
  8
0
 10
-302.922852
 20
-198.888412
 11
-304.922729
 21
-199.891632
  0
LINE
  8
0
 10
-293.722839
 20
-197.985275
 11
-289.922791
 21
-199.891541
  0
ARC
  8
0
 10
-315.827026
 20
-235.725525
 40
9.404174
 50
299.313629
 51
60.686382
  0
ARC
  8
0
 10
-301.922882
 20
-167.062225
 40
0.500000
 50
180.000000
 51
270.000000
  0
ARC
  8
0
 10
-294.522858
 20
-167.062225
 40
0.500000
 50
270.000000
 51
0.000000
  0
ARC
  8
0
 10
-293.722870
 20
-165.648026
 40
0.500000
 50
270.000000
 51
0.000000
  0
ARC
  8
0
 10
-302.722870
 20
-165.648026
 40
0.500000
 50
180.000000
 51
270.000000
  0
ARC
  8
0
 10
-302.722870
 20
-156.248535
 40
0.500000
 50
90.000000
 51
180.000000
  0
ARC
  8
0
 10
-293.722870
 20
-156.248535
 40
0.500000
 50
0.000000
 51
90.000000
  0
ARC
  8
0
 10
-294.522858
 20
-155.399994
 40
0.500000
 50
0.000000
 51
90.000000
  0
ARC
  8
0
 10
-301.922882
 20
-155.399994
 40
0.500000
 50
90.000000
 51
180.000000
  0
ARC
  8
0
 10
-294.522858
 20
-162.263977
 40
0.500000
 50
0.000000
 51
90.000000
  0
ARC
  8
0
 10
-301.922882
 20
-162.263977
 40
0.500000
 50
90.000000
 51
180.000000
  0
ARC
  8
0
 10
-315.827026
 20
-165.725525
 40
9.404169
 50
35.921570
 51
60.686543
  0
ARC
  8
0
 10
-297.478577
 20
-170.532074
 40
0.755707
 50
0.000000
 51
14.106952
  0
ARC
  8
0
 10
-297.676117
 20
-170.604492
 40
0.965187
 50
15.418217
 51
51.388004
  0
ARC
  8
0
 10
-298.222870
 20
-171.403305
 40
1.931895
 50
53.502094
 51
126.497902
  0
ARC
  8
0
 10
-298.769623
 20
-170.604492
 40
0.965198
 50
128.612000
 51
164.582657
  0
ARC
  8
0
 10
-298.967163
 20
-170.532074
 40
0.755696
 50
165.894165
 51
180.000000
  0
ARC
  8
0
 10
-318.903168
 20
-165.616913
 40
2.130293
 50
3.762343
 51
11.774014
  0
ARC
  8
0
 10
-319.120728
 20
-165.683395
 40
2.356940
 50
12.276987
 51
45.306618
  0
ARC
  8
0
 10
-319.722870
 20
-166.416489
 40
3.302720
 50
46.825485
 51
133.175827
  0
ARC
  8
0
 10
-320.325012
 20
-165.683411
 40
2.356945
 50
134.694962
 51
167.724457
  0
ARC
  8
0
 10
-320.542572
 20
-165.616943
 40
2.130292
 50
168.227188
 51
183.762756
  0
ARC
  8
0
 10
-306.004181
 20
-163.036743
 40
0.425082
 50
345.892914
 51
14.105082
  0
ARC
  8
0
 10
-306.115295
 20
-163.077484
 40
0.542913
 50
15.417397
 51
51.388477
  0
ARC
  8
0
 10
-306.422852
 20
-163.526810
 40
1.086693
 50
53.501793
 51
126.498207
  0
ARC
  8
0
 10
-306.730408
 20
-163.077484
 40
0.542927
 50
128.611526
 51
164.581055
  0
ARC
  8
0
 10
-306.841522
 20
-163.036743
 40
0.425082
 50
165.892929
 51
194.105087
  0
ARC
  8
0
 10
-306.730408
 20
-162.996002
 40
0.542913
 50
195.417404
 51
231.388474
  0
ARC
  8
0
 10
-306.422852
 20
-162.546677
 40
1.086693
 50
233.501785
 51
306.498199
  0
ARC
  8
0
 10
-306.115295
 20
-162.996002
 40
0.542927
 50
308.611511
 51
344.581055
  0
ARC
  8
0
 10
-321.186646
 20
-165.616913
 40
1.486220
 50
174.646225
 51
194.106430
  0
ARC
  8
0
 10
-320.798126
 20
-165.474487
 40
1.898237
 50
195.417709
 51
231.388245
  0
ARC
  8
0
 10
-319.722870
 20
-163.903534
 40
3.799348
 50
233.502106
 51
306.497894
  0
ARC
  8
0
 10
-318.647614
 20
-165.474472
 40
1.898240
 50
308.611481
 51
344.582306
  0
ARC
  8
0
 10
-318.259094
 20
-165.616913
 40
1.486220
 50
345.894135
 51
5.330714
  0
ARC
  8
0
 10
-319.722900
 20
-169.018433
 40
4.532872
 50
65.111816
 51
114.902168
  0
ARC
  8
0
 10
-305.678589
 20
-163.036743
 40
0.755700
 50
345.893036
 51
14.105829
  0
ARC
  8
0
 10
-305.876129
 20
-163.109161
 40
0.965183
 50
15.417344
 51
51.388004
  0
ARC
  8
0
 10
-306.422882
 20
-163.907974
 40
1.931895
 50
53.502094
 51
126.497902
  0
ARC
  8
0
 10
-306.969635
 20
-163.109161
 40
0.965198
 50
128.612000
 51
164.581787
  0
ARC
  8
0
 10
-307.167175
 20
-163.036743
 40
0.755700
 50
165.893051
 51
194.105835
  0
ARC
  8
0
 10
-306.969635
 20
-162.964325
 40
0.965183
 50
195.417343
 51
231.388000
  0
ARC
  8
0
 10
-306.422882
 20
-162.165512
 40
1.931895
 50
233.502090
 51
306.497894
  0
ARC
  8
0
 10
-305.876129
 20
-162.964325
 40
0.965198
 50
308.612000
 51
344.581787
  0
ARC
  8
0
 10
-297.403168
 20
-158.369843
 40
2.130294
 50
3.762753
 51
11.773612
  0
ARC
  8
0
 10
-297.620728
 20
-158.436310
 40
2.356934
 50
12.276262
 51
45.305832
  0
ARC
  8
0
 10
-298.222870
 20
-159.169403
 40
3.302730
 50
46.824921
 51
133.175262
  0
ARC
  8
0
 10
-298.825012
 20
-158.436310
 40
2.356923
 50
134.694427
 51
167.724106
  0
ARC
  8
0
 10
-299.042572
 20
-158.369843
 40
2.130295
 50
168.226791
 51
183.762756
  0
ARC
  8
0
 10
-299.686646
 20
-158.369843
 40
1.486220
 50
174.646225
 51
194.106430
  0
ARC
  8
0
 10
-299.298126
 20
-158.227417
 40
1.898237
 50
195.417709
 51
231.388245
  0
ARC
  8
0
 10
-298.222870
 20
-156.656464
 40
3.799348
 50
233.502106
 51
306.498047
  0
ARC
  8
0
 10
-297.147614
 20
-158.227402
 40
1.898228
 50
308.611755
 51
344.582306
  0
ARC
  8
0
 10
-296.759094
 20
-158.369843
 40
1.486220
 50
345.894135
 51
5.331300
  0
ARC
  8
0
 10
-298.222900
 20
-161.771362
 40
4.532871
 50
65.111382
 51
114.901741
  0
POLYLINE
  8
0
 66
     1
  0
VERTEX
  8
0
 10
-322.922852
 20
-176.225525
  0
VERTEX
  8
0
 10
-323.943451
 20
-176.279572
  0
VERTEX
  8
0
 10
-325.028534
 20
-176.522919
  0
VERTEX
  8
0
 10
-326.043091
 20
-176.911942
  0
VERTEX
  8
0
 10
-326.852203
 20
-177.403015
  0
VERTEX
  8
0
 10
-327.320862
 20
-177.952499
  0
VERTEX
  8
0
 10
-327.522461
 20
-178.793594
  0
VERTEX
  8
0
 10
-327.528107
 20
-179.743591
  0
VERTEX
  8
0
 10
-327.489685
 20
-180.421524
  0
VERTEX
  8
0
 10
-327.425018
 20
-181.082108
  0
VERTEX
  8
0
 10
-327.320862
 20
-181.790558
  0
VERTEX
  8
0
 10
-327.159149
 20
-182.609283
  0
VERTEX
  8
0
 10
-326.948425
 20
-183.423218
  0
VERTEX
  8
0
 10
-326.672180
 20
-184.285309
  0
VERTEX
  8
0
 10
-326.399811
 20
-185.014923
  0
VERTEX
  8
0
 10
-326.090729
 20
-185.722244
  0
VERTEX
  8
0
 10
-325.731110
 20
-186.414749
  0
VERTEX
  8
0
 10
-325.307068
 20
-187.099899
  0
VERTEX
  8
0
 10
-324.790771
 20
-187.796860
  0
VERTEX
  8
0
 10
-324.215607
 20
-188.448975
  0
VERTEX
  8
0
 10
-323.590149
 20
-189.053421
  0
VERTEX
  8
0
 10
-322.922852
 20
-189.607361
  0
SEQEND
  0
POLYLINE
  8
0
 66
     1
  0
VERTEX
  8
0
 10
-322.922852
 20
-225.225525
  0
VERTEX
  8
0
 10
-323.943451
 20
-225.171478
  0
VERTEX
  8
0
 10
-325.028534
 20
-224.928131
  0
VERTEX
  8
0
 10
-326.043091
 20
-224.539108
  0
VERTEX
  8
0
 10
-326.852203
 20
-224.048035
  0
VERTEX
  8
0
 10
-327.320862
 20
-223.498550
  0
VERTEX
  8
0
 10
-327.522461
 20
-222.657455
  0
VERTEX
  8
0
 10
-327.528107
 20
-221.707458
  0
VERTEX
  8
0
 10
-327.489685
 20
-221.029526
  0
VERTEX
  8
0
 10
-327.425018
 20
-220.368942
  0
VERTEX
  8
0
 10
-327.320862
 20
-219.660492
  0
VERTEX
  8
0
 10
-327.159149
 20
-218.841766
  0
VERTEX
  8
0
 10
-326.948425
 20
-218.027832
  0
VERTEX
  8
0
 10
-326.672180
 20
-217.165741
  0
VERTEX
  8
0
 10
-326.399811
 20
-216.436127
  0
VERTEX
  8
0
 10
-326.090729
 20
-215.728806
  0
VERTEX
  8
0
 10
-325.731110
 20
-215.036301
  0
VERTEX
  8
0
 10
-325.307068
 20
-214.351151
  0
VERTEX
  8
0
 10
-324.790771
 20
-213.654190
  0
VERTEX
  8
0
 10
-324.215607
 20
-213.002075
  0
VERTEX
  8
0
 10
-323.590149
 20
-212.397629
  0
VERTEX
  8
0
 10
-322.922852
 20
-211.843689
  0
SEQEND
  0
POLYLINE
  8
0
 66
     1
  0
VERTEX
  8
0
 10
-327.528107
 20
-158.725525
  0
VERTEX
  8
0
 10
-327.358795
 20
-159.033981
  0
VERTEX
  8
0
 10
-327.155090
 20
-159.401810
  0
VERTEX
  8
0
 10
-326.855774
 20
-159.937637
  0
VERTEX
  8
0
 10
-326.507080
 20
-160.553223
  0
VERTEX
  8
0
 10
-326.152130
 20
-161.172119
  0
VERTEX
  8
0
 10
-325.793945
 20
-161.789139
  0
VERTEX
  8
0
 10
-325.467590
 20
-162.344330
  0
VERTEX
  8
0
 10
-325.097076
 20
-162.965073
  0
VERTEX
  8
0
 10
-324.722473
 20
-163.583328
  0
SEQEND
  0
POLYLINE
  8
0
 66
     1
  0
VERTEX
  8
0
 10
-327.528107
 20
-242.725525
  0
VERTEX
  8
0
 10
-327.358795
 20
-242.417068
  0
VERTEX
  8
0
 10
-327.155090
 20
-242.049240
  0
VERTEX
  8
0
 10
-326.855774
 20
-241.513412
  0
VERTEX
  8
0
 10
-326.507080
 20
-240.897827
  0
VERTEX
  8
0
 10
-326.171478
 20
-240.311569
  0
VERTEX
  8
0
 10
-325.832611
 20
-239.727203
  0
VERTEX
  8
0
 10
-325.467590
 20
-239.106720
  0
VERTEX
  8
0
 10
-325.042816
 20
-238.395981
  0
VERTEX
  8
0
 10
-324.612732
 20
-237.688461
  0
VERTEX
  8
0
 10
-324.184692
 20
-236.995773
  0
VERTEX
  8
0
 10
-323.768707
 20
-236.333298
  0
VERTEX
  8
0
 10
-323.348083
 20
-235.673767
  0
VERTEX
  8
0
 10
-322.922852
 20
-235.017197
  0
SEQEND
  0
ARC
  8
0
 10
-299.716522
 20
-213.806976
 40
2.862135
 50
181.661926
 51
191.305206
  0
ARC
  8
0
 10
-299.505859
 20
-213.745209
 40
3.080889
 50
191.663605
 51
223.964355
  0
ARC
  8
0
 10
-298.922882
 20
-213.063812
 40
3.974447
 50
225.200500
 51
314.798584
  0
ARC
  8
0
 10
-298.339874
 20
-213.745224
 40
3.080866
 50
316.034241
 51
348.335052
  0
ARC
  8
0
 10
-298.129242
 20
-213.807007
 40
2.862124
 50
348.693787
 51
356.638641
  0
ARC
  8
0
 10
-299.651886
 20
-213.710419
 40
1.286926
 50
203.772522
 51
231.388565
  0
ARC
  8
0
 10
-298.922882
 20
-212.645355
 40
2.575860
 50
233.502090
 51
306.497894
  0
ARC
  8
0
 10
-298.193878
 20
-213.710434
 40
1.286935
 50
308.611847
 51
336.192780
  0
ARC
  8
0
 10
-300.736908
 20
-213.806992
 40
1.841763
 50
177.447235
 51
194.106018
  0
ARC
  8
0
 10
-300.255402
 20
-213.630478
 40
2.352383
 50
195.417480
 51
231.387909
  0
ARC
  8
0
 10
-298.922882
 20
-211.683640
 40
4.708370
 50
233.502106
 51
306.497498
  0
ARC
  8
0
 10
-297.590363
 20
-213.630478
 40
2.352368
 50
308.611298
 51
344.581818
  0
ARC
  8
0
 10
-297.108856
 20
-213.806992
 40
1.841767
 50
345.893066
 51
2.548029
  0
POINT
  8
0
 10
-77.618713
 20
-79.663208
  0
POINT
  8
0
 10
-132.618713
 20
-79.663208
  0
LINE
  8
0
 10
-157.756363
 20
-113.922516
 11
-166.878036
 21
-104.800842
  0
LINE
  8
0
 10
-154.220810
 20
-110.386986
 11
-155.069336
 21
-109.538460
  0
LINE
  8
0
 10
-154.220825
 20
-110.387001
 11
-157.756348
 21
-113.922539
  0
LINE
  8
0
 10
-163.342499
 20
-101.265335
 11
-166.878021
 21
-104.800865
  0
LINE
  8
0
 10
-155.776459
 20
-110.245583
 11
-157.897766
 21
-112.366905
  0
LINE
  8
0
 10
-163.201080
 20
-102.820961
 11
-165.322388
 21
-104.942284
  0
LINE
  8
0
 10
-153.124817
 20
-102.997742
 11
-157.367447
 21
-107.240387
  0
LINE
  8
0
 10
-155.953217
 20
-100.169327
 11
-160.195862
 21
-104.411972
  0
LINE
  8
0
 10
-153.124786
 20
-102.997719
 11
-155.953217
 21
-100.169296
  0
LINE
  8
0
 10
-156.518921
 20
-106.391846
 11
-159.347351
 21
-103.563423
  0
LINE
  8
0
 10
-162.493958
 20
-102.113838
 11
-163.342484
 21
-101.265320
  0
LINE
  8
0
 10
-158.074539
 20
-106.533257
 11
-159.488754
 21
-105.119049
  0
LINE
  8
0
 10
-120.597900
 20
-73.299255
 11
-126.254761
 21
-67.642395
  0
LINE
  8
0
 10
-118.714104
 20
-70.657570
 11
-123.613083
 21
-65.758583
  0
LINE
  8
0
 10
-118.553932
 20
-71.255287
 11
-120.597893
 21
-73.299255
  0
LINE
  8
0
 10
-124.210785
 20
-65.598442
 11
-126.254753
 21
-67.642403
  0
LINE
  8
0
 10
-120.128311
 20
-70.001236
 11
-122.012115
 21
-71.885040
  0
LINE
  8
0
 10
-122.956734
 20
-67.172806
 11
-124.840538
 21
-69.056610
  0
LINE
  8
0
 10
-118.714081
 20
-70.657570
 11
-118.553925
 21
-71.255287
  0
LINE
  8
0
 10
-123.613075
 20
-65.758614
 11
-124.210793
 21
-65.598457
  0
LINE
  8
0
 10
-117.062378
 20
-69.056610
 11
-122.012123
 21
-64.106865
  0
LINE
  8
0
 10
-120.951462
 20
-65.167511
 11
-122.577805
 21
-66.793861
  0
LINE
  8
0
 10
-118.123032
 20
-67.995926
 11
-119.749374
 21
-69.622276
  0
LINE
  8
0
 10
-118.405876
 20
-67.713089
 11
-120.032219
 21
-69.339439
  0
LINE
  8
0
 10
-120.668617
 20
-65.450348
 11
-122.294960
 21
-67.076698
  0
LINE
  8
0
 10
-161.610062
 20
-45.014980
 11
-167.266922
 21
-50.671829
  0
LINE
  8
0
 10
-177.449265
 20
-40.489487
 11
-166.206284
 21
-51.732483
  0
LINE
  8
0
 10
-171.792419
 20
-34.832626
 11
-160.549423
 21
-46.075634
  0
LINE
  8
0
 10
-167.479050
 20
-39.145969
 11
-173.135910
 21
-44.802822
  0
LINE
  8
0
 10
-160.549438
 20
-46.075600
 11
-166.206314
 21
-51.732460
  0
LINE
  8
0
 10
-159.983719
 20
-46.075645
 11
-166.206268
 21
-52.298187
  0
LINE
  8
0
 10
-173.135925
 20
-45.368511
 11
-166.206268
 21
-52.298164
  0
LINE
  8
0
 10
-166.913376
 20
-39.145969
 11
-159.983734
 21
-46.075611
  0
LINE
  8
0
 10
-162.034348
 20
-44.590710
 11
-167.691208
 21
-50.247562
  0
LINE
  8
0
 10
-165.782059
 20
-38.014580
 11
-167.196274
 21
-39.428795
  0
LINE
  8
0
 10
-172.499512
 20
-34.832623
 11
-177.449265
 21
-39.782364
  0
LINE
  8
0
 10
-170.519608
 20
-33.984131
 11
-171.580261
 21
-35.044788
  0
LINE
  8
0
 10
-172.853073
 20
-45.085682
 11
-174.267273
 21
-46.499893
  0
LINE
  8
0
 10
-178.297821
 20
-42.469387
 11
-174.267303
 21
-46.499893
  0
LINE
  8
0
 10
-169.812531
 20
-33.984100
 11
-165.782028
 21
-38.014610
  0
LINE
  8
0
 10
-177.237152
 20
-40.701611
 11
-178.297821
 21
-41.762272
  0
LINE
  8
0
 10
-161.963669
 20
-45.368523
 11
-161.963669
 21
-44.661415
  0
LINE
  8
0
 10
-166.913391
 20
-50.318272
 11
-167.620483
 21
-50.318272
  0
LINE
  8
0
 10
-160.902954
 20
-44.307884
 11
-161.327209
 21
-44.732151
  0
LINE
  8
0
 10
-177.449295
 20
-118.836899
 11
-166.206299
 21
-107.593910
  0
LINE
  8
0
 10
-171.792435
 20
-124.493767
 11
-160.549438
 21
-113.250778
  0
LINE
  8
0
 10
-167.479111
 20
-120.180428
 11
-173.135956
 21
-114.523575
  0
LINE
  8
0
 10
-159.842346
 20
-45.368500
 11
-160.266602
 21
-45.792763
  0
LINE
  8
0
 10
-159.983765
 20
-113.250778
 11
-166.206299
 21
-107.028236
  0
LINE
  8
0
 10
-173.135941
 20
-113.957863
 11
-166.206299
 21
-107.028229
  0
LINE
  8
0
 10
-166.913406
 20
-120.180412
 11
-159.983765
 21
-113.250778
  0
LINE
  8
0
 10
-162.034378
 20
-114.735718
 11
-167.691238
 21
-109.078857
  0
LINE
  8
0
 10
-165.782043
 20
-121.311813
 11
-167.196259
 21
-119.897598
  0
LINE
  8
0
 10
-170.519669
 20
-125.342293
 11
-171.580322
 21
-124.281631
  0
LINE
  8
0
 10
-172.853088
 20
-114.240746
 11
-174.267319
 21
-112.826523
  0
LINE
  8
0
 10
-178.297821
 20
-116.857018
 11
-174.267319
 21
-112.826508
  0
LINE
  8
0
 10
-169.812546
 20
-125.342300
 11
-165.782043
 21
-121.311790
  0
LINE
  8
0
 10
-177.237183
 20
-118.624779
 11
-178.297836
 21
-117.564117
  0
LINE
  8
0
 10
-161.963593
 20
-113.957886
 11
-161.963593
 21
-114.664993
  0
LINE
  8
0
 10
-166.913391
 20
-109.008133
 11
-167.620514
 21
-109.008133
  0
LINE
  8
0
 10
-164.191818
 20
-41.019039
 11
-159.842331
 21
-45.368519
  0
LINE
  8
0
 10
-171.262878
 20
-48.090111
 11
-166.913406
 21
-52.439583
  0
LINE
  8
0
 10
-160.549454
 20
-113.250786
 11
-166.206299
 21
-107.593933
  0
LINE
  8
0
 10
-161.610107
 20
-114.311432
 11
-167.266968
 21
-108.654579
  0
LINE
  8
0
 10
-167.549805
 20
-50.954651
 11
-167.974060
 21
-51.378918
  0
LINE
  8
0
 10
-166.489166
 20
-52.015282
 11
-166.913422
 21
-52.439545
  0
LINE
  8
0
 10
-162.959473
 20
-40.130035
 11
-161.880310
 21
-41.209213
  0
LINE
  8
0
 10
-172.151871
 20
-49.322418
 11
-171.072693
 21
-50.401592
  0
LINE
  8
0
 10
-169.034698
 20
-48.904068
 11
-163.377838
 21
-43.247219
  0
LINE
  8
0
 10
-172.151886
 20
-110.003967
 11
-171.072708
 21
-108.924789
  0
LINE
  8
0
 10
-171.262878
 20
-111.236282
 11
-166.913391
 21
-106.886803
  0
LINE
  8
0
 10
-167.549805
 20
-108.371735
 11
-167.974060
 21
-107.947472
  0
LINE
  8
0
 10
-166.489151
 20
-107.311081
 11
-166.913406
 21
-106.886826
  0
LINE
  8
0
 10
-159.842346
 20
-113.957886
 11
-160.266602
 21
-113.533630
  0
LINE
  8
0
 10
-164.191818
 20
-118.307358
 11
-159.842331
 21
-113.957886
  0
LINE
  8
0
 10
-160.903000
 20
-115.018539
 11
-161.327271
 21
-114.594276
  0
LINE
  8
0
 10
-162.959488
 20
-119.196350
 11
-161.880310
 21
-118.117180
  0
LINE
  8
0
 10
-177.449310
 20
-119.544037
 11
-172.499557
 21
-124.493790
  0
LINE
  8
0
 10
-155.069351
 20
-109.538467
 11
-125.591957
 21
-90.600517
  0
LINE
  8
0
 10
-162.493958
 20
-102.113853
 11
-143.556015
 21
-72.636459
  0
LINE
  8
0
 10
-169.034698
 20
-110.422325
 11
-163.377853
 21
-116.079178
  0
LINE
  8
0
 10
-170.376434
 20
-76.905487
 11
-164.860992
 21
-82.420929
  0
LINE
  8
0
 10
-100.376434
 20
-76.905495
 11
-94.861000
 21
-82.420929
  0
LINE
  8
0
 10
-170.376434
 20
-82.420929
 11
-164.860992
 21
-76.905487
  0
LINE
  8
0
 10
-100.376434
 20
-82.420921
 11
-94.861008
 21
-76.905487
  0
LINE
  8
0
 10
-138.414261
 20
-29.610291
 11
-138.941269
 21
-31.577084
  0
LINE
  8
0
 10
-126.823158
 20
-29.610294
 11
-126.296158
 21
-31.577084
  0
LINE
  8
0
 10
-138.414261
 20
-129.716125
 11
-138.941269
 21
-127.749329
  0
LINE
  8
0
 10
-126.823166
 20
-129.716125
 11
-126.296165
 21
-127.749329
  0
LINE
  8
0
 10
-94.136200
 20
-109.181786
 11
-92.169403
 21
-109.708786
  0
LINE
  8
0
 10
-87.813644
 20
-98.230797
 11
-86.373856
 21
-99.670586
  0
LINE
  8
0
 10
-87.813614
 20
-61.095669
 11
-86.373825
 21
-59.655876
  0
LINE
  8
0
 10
-94.136169
 20
-50.144680
 11
-92.169380
 21
-49.617683
  0
LINE
  8
0
 10
-161.985825
 20
-73.704124
 11
-166.163330
 21
-72.816170
  0
LINE
  8
0
 10
-99.074097
 20
-86.510277
 11
-103.251556
 21
-85.622330
  0
LINE
  8
0
 10
-99.074097
 20
-72.816208
 11
-103.251640
 21
-73.704178
  0
LINE
  8
0
 10
-183.618713
 20
-54.163208
 11
-183.118713
 21
-54.163208
  0
LINE
  8
0
 10
-183.618713
 20
-105.163208
 11
-183.118713
 21
-105.163208
  0
LINE
  8
0
 10
-178.118713
 20
-49.163208
 11
-170.328125
 21
-49.163208
  0
LINE
  8
0
 10
-178.118713
 20
-110.163208
 11
-172.041412
 21
-110.163208
  0
LINE
  8
0
 10
-183.618713
 20
-105.163208
 11
-183.618713
 21
-54.163204
  0
LINE
  8
0
 10
-183.118713
 20
-105.163208
 11
-183.118713
 21
-54.163208
  0
LINE
  8
0
 10
-140.977219
 20
-78.829323
 11
-133.452591
 21
-71.304703
  0
LINE
  8
0
 10
-131.784836
 20
-88.021713
 11
-124.260208
 21
-80.497093
  0
LINE
  8
0
 10
-124.260208
 20
-78.829323
 11
-131.784821
 21
-71.304703
  0
LINE
  8
0
 10
-133.452606
 20
-88.021713
 11
-140.977219
 21
-80.497093
  0
LINE
  8
0
 10
-133.007095
 20
-87.053017
 11
-140.008514
 21
-80.051582
  0
LINE
  8
0
 10
-132.230331
 20
-87.053009
 11
-125.228912
 21
-80.051582
  0
LINE
  8
0
 10
-140.008514
 20
-79.274834
 11
-133.007095
 21
-72.273407
  0
LINE
  8
0
 10
-125.228905
 20
-79.274834
 11
-132.230331
 21
-72.273399
  0
LINE
  8
0
 10
-132.230362
 20
-72.273399
 11
-131.784851
 21
-71.304695
  0
LINE
  8
0
 10
-133.007095
 20
-72.273415
 11
-133.452606
 21
-71.304710
  0
LINE
  8
0
 10
-140.008514
 20
-79.274826
 11
-140.977219
 21
-78.829315
  0
LINE
  8
0
 10
-140.977234
 20
-80.497070
 11
-140.008514
 21
-80.051567
  0
LINE
  8
0
 10
-133.452606
 20
-88.021713
 11
-133.007080
 21
-87.053009
  0
LINE
  8
0
 10
-131.784851
 20
-88.021698
 11
-132.230347
 21
-87.052994
  0
LINE
  8
0
 10
-125.228928
 20
-80.051575
 11
-124.260223
 21
-80.497078
  0
LINE
  8
0
 10
-124.260208
 20
-78.829323
 11
-125.228912
 21
-79.274834
  0
LINE
  8
0
 10
-161.985840
 20
-85.622292
 11
-166.163330
 21
-86.510246
  0
CIRCLE
  8
0
 10
-97.618713
 20
-79.663216
 40
8.200000
  0
ARC
  8
0
 10
-123.992004
 20
-71.036507
 40
3.999998
 50
15.000039
 51
74.999962
  0
ARC
  8
0
 10
-119.891464
 20
-71.178612
 40
1.200959
 50
348.626617
 51
101.373390
  0
ARC
  8
0
 10
-124.134109
 20
-66.935966
 40
1.200961
 50
348.626251
 51
101.373390
  0
ARC
  8
0
 10
-120.283783
 20
-67.328270
 40
3.655767
 50
331.785828
 51
118.214172
  0
ARC
  8
0
 10
-172.145981
 20
-35.186180
 40
0.500006
 50
44.999382
 51
135.000626
  0
ARC
  8
0
 10
-177.095734
 20
-40.135925
 40
0.499995
 50
134.999374
 51
225.000626
  0
ARC
  8
0
 10
-177.944260
 20
-42.115826
 40
0.500006
 50
135.000626
 51
224.999374
  0
ARC
  8
0
 10
-170.166077
 20
-34.337650
 40
0.499995
 50
45.000618
 51
134.999374
  0
ARC
  8
0
 10
-173.617096
 20
-38.664814
 40
3.519529
 50
78.051559
 51
191.948349
  0
CIRCLE
  8
0
 10
-168.186188
 20
-44.095722
 40
2.500000
  0
CIRCLE
  8
0
 10
-168.186188
 20
-44.095722
 40
2.000000
  0
CIRCLE
  8
0
 10
-168.186188
 20
-115.230667
 40
2.500000
  0
CIRCLE
  8
0
 10
-168.186188
 20
-115.230667
 40
2.000000
  0
ARC
  8
0
 10
-172.145996
 20
-124.140213
 40
0.500001
 50
225.001236
 51
314.998749
  0
ARC
  8
0
 10
-177.095734
 20
-119.190468
 40
0.499995
 50
134.999374
 51
225.000626
  0
ARC
  8
0
 10
-177.944275
 20
-117.210571
 40
0.499995
 50
134.999374
 51
225.000626
  0
ARC
  8
0
 10
-170.166092
 20
-124.988747
 40
0.500006
 50
224.999374
 51
315.000610
  0
ARC
  8
0
 10
-173.617111
 20
-120.661583
 40
3.519536
 50
168.051590
 51
281.948456
  0
ARC
  8
0
 10
-142.518204
 20
-69.763710
 40
36.000004
 50
142.020325
 51
145.402084
  0
ARC
  8
0
 10
-142.518204
 20
-69.763710
 40
36.000000
 50
124.597832
 51
127.979584
  0
ARC
  8
0
 10
-142.518219
 20
-89.562698
 40
36.000004
 50
214.597839
 51
217.979599
  0
ARC
  8
0
 10
-142.518219
 20
-89.562698
 40
36.000008
 50
232.020340
 51
235.402084
  0
ARC
  8
0
 10
-132.618713
 20
-79.663208
 40
48.499996
 50
230.917267
 51
129.082657
  0
CIRCLE
  8
0
 10
-167.618713
 20
-79.663208
 40
8.200000
  0
CIRCLE
  8
0
 10
-115.118729
 20
-49.352310
 40
4.500000
  0
CIRCLE
  8
0
 10
-132.618713
 20
-79.663208
 40
10.000000
  0
ARC
  8
0
 10
-132.618713
 20
-79.663208
 40
12.999997
 50
302.718994
 51
147.280960
  0
CIRCLE
  8
0
 10
-132.618713
 20
-79.663208
 40
8.650000
  0
ARC
  8
0
 10
-132.618713
 20
-79.663208
 40
48.500008
 50
140.917252
 51
219.082657
  0
CIRCLE
  8
0
 10
-167.618713
 20
-79.663208
 40
4.000000
  0
CIRCLE
  8
0
 10
-97.618713
 20
-79.663246
 40
4.000000
  0
CIRCLE
  8
0
 10
-115.118675
 20
-49.352341
 40
4.000000
  0
CIRCLE
  8
0
 10
-167.618713
 20
-79.663208
 40
3.375000
  0
CIRCLE
  8
0
 10
-97.618713
 20
-79.663246
 40
3.375000
  0
CIRCLE
  8
0
 10
-115.118675
 20
-49.352341
 40
3.375000
  0
ARC
  8
0
 10
-167.618713
 20
-79.663208
 40
7.000005
 50
78.000000
 51
282.000031
  0
ARC
  8
0
 10
-97.618713
 20
-79.663246
 40
6.999998
 50
257.999969
 51
102.000000
  0
ARC
  8
0
 10
-132.618713
 20
-31.163208
 40
6.000007
 50
14.999975
 51
164.999985
  0
ARC
  8
0
 10
-132.618729
 20
-128.163208
 40
5.999994
 50
195.000046
 51
344.999969
  0
ARC
  8
0
 10
-90.616486
 20
-103.913223
 40
6.000009
 50
254.999985
 51
45.000053
  0
ARC
  8
0
 10
-90.616470
 20
-55.413239
 40
6.000001
 50
315.000061
 51
104.999962
  0
ARC
  8
0
 10
-84.118713
 20
-94.854652
 40
5.000002
 50
222.391479
 51
225.000000
  0
ARC
  8
0
 10
-132.618713
 20
-79.663208
 40
54.999996
 50
217.119308
 51
218.737045
  0
ARC
  8
0
 10
-186.043243
 20
-120.096115
 40
12.000001
 50
37.119267
 51
58.149681
  0
ARC
  8
0
 10
-186.043228
 20
-39.230293
 40
11.999996
 50
301.850098
 51
322.880676
  0
ARC
  8
0
 10
-132.618713
 20
-79.663208
 40
35.000000
 50
346.545532
 51
348.453247
  0
ARC
  8
0
 10
-132.618713
 20
-79.663208
 40
34.999996
 50
166.545547
 51
168.521667
  0
CIRCLE
  8
0
 10
-132.618713
 20
-79.663208
 40
8.400000
  0
CIRCLE
  8
0
 10
-132.618713
 20
-79.663208
 40
8.400000
  0
ARC
  8
0
 10
-132.618713
 20
-79.663208
 40
7.400000
 50
176.991562
 51
183.008438
  0
ARC
  8
0
 10
-132.618713
 20
-79.663208
 40
7.399999
 50
266.991608
 51
273.008484
  0
ARC
  8
0
 10
-132.618713
 20
-79.663208
 40
7.400000
 50
356.991577
 51
3.008379
  0
ARC
  8
0
 10
-132.618713
 20
-79.663208
 40
7.399999
 50
86.991623
 51
93.008377
  0
ARC
  8
0
 10
-132.618713
 20
-31.163208
 40
2.600009
 50
358.464050
 51
181.535950
  0
ARC
  8
0
 10
-174.620941
 20
-55.413200
 40
2.600003
 50
58.463917
 51
241.535889
  0
ARC
  8
0
 10
-174.620926
 20
-103.913239
 40
2.600004
 50
118.464066
 51
301.535889
  0
ARC
  8
0
 10
-132.618713
 20
-128.163208
 40
2.600009
 50
178.464142
 51
1.535866
  0
ARC
  8
0
 10
-90.616486
 20
-103.913216
 40
2.599999
 50
238.464066
 51
61.535931
  0
ARC
  8
0
 10
-90.616470
 20
-55.413239
 40
2.600001
 50
298.464111
 51
121.535797
  0
ARC
  8
0
 10
-178.118713
 20
-54.163208
 40
5.000000
 50
90.000000
 51
179.999954
  0
ARC
  8
0
 10
-178.118713
 20
-105.163208
 40
5.000000
 50
180.000000
 51
270.000000
  0
ARC
  8
0
 10
-132.618713
 20
-79.663208
 40
55.000000
 50
141.262924
 51
142.880737
  0
ARC
  8
0
 10
-132.618713
 20
-79.663208
 40
55.000000
 50
231.262878
 51
128.737106
  0
ENDSEC
  0
EOF
