  0
SECTION
  2
HEADER
  0
ENDSEC
  0
SECTION
  2
TABLES
  0
TABLE
  2
LTYPE
 70
     4
  0
LTYPE
  2
CONTINUOUS
 70
    64
  3
Solid line
 72
    65
 73
     0
 40
0.000000
  0
LTYPE
  2
DASHED
 70
    64
  3
__ __ __ __ __ __ __ __ __ __ __ __ __ __ __
 72
    65
 73
     2
 40
3.500000
 49
2.000000
 49
-1.500000
  0
LTYPE
  2
CENTER
 70
    64
  3
____ _ ____ _ ____ _ ____ _ ____ _ ____ _ ____
 72
    65
 73
     4
 40
17.500000
 49
13.000000
 49
-1.500000
 49
1.500000
 49
-1.500000
  0
LTYPE
  2
PHANTOM
 70
    64
  3
_____ _ _ _____ _ _ _____ _ _ _____ _ _ ____  
 72
    65
 73
     6
 40
15.500000
 49
8.000000
 49
-1.500000
 49
1.500000
 49
-1.500000
 49
1.500000
 49
-1.500000
  0
LTYPE
  2
DASHED1
 70
    64
  3
__ __ __ __ __ __ __ __ __ __ __ __ __ __ __
 72
    65
 73
     2
 40
1.500000
 49
1.000000
 49
-0.500000
  0
LTYPE
  2
DASHED2
 70
    64
  3
__ __ __ __ __ __ __ __ __ __ __ __ __ __ __
 72
    65
 73
     2
 40
3.500000
 49
2.500000
 49
-1.000000
  0
LTYPE
  2
DASHED3
 70
    64
  3
__ __ __ __ __ __ __ __ __ __ __ __ __ __ __
 72
    65
 73
     2
 40
6.000000
 49
4.000000
 49
-2.000000
  0
LTYPE
  2
DASHED4
 70
    64
  3
__ __ __ __ __ __ __ __ __ __ __ __ __ __ __
 72
    65
 73
     2
 40
12.000000
 49
10.000000
 49
-2.000000
  0
LTYPE
  2
DASHED5
 70
    64
  3
__ __ __ __ __ __ __ __ __ __ __ __ __ __ __
 72
    65
 73
     2
 40
17.000000
 49
15.000000
 49
-2.000000
  0
LTYPE
  2
DASHED6
 70
    64
  3
__ __ __ __ __ __ __ __ __ __ __ __ __ __ __
 72
    65
 73
     2
 40
29.000000
 49
27.000000
 49
-2.000000
  0
LTYPE
  2
PHANTOM1
 70
    64
  3
_____ _ _ _____ _ _ _____ _ _ _____ _ _ ____  
 72
    65
 73
     6
 40
31.000000
 49
25.000000
 49
-1.500000
 49
1.000000
 49
-1.000000
 49
1.000000
 49
-1.500000
  0
LTYPE
  2
PHANTOM2
 70
    64
  3
_____ _ _ _____ _ _ _____ _ _ _____ _ _ ____  
 72
    65
 73
     6
 40
36.000000
 49
27.000000
 49
-1.500000
 49
2.500000
 49
-1.000000
 49
2.500000
 49
-1.500000
  0
LTYPE
  2
PHANTOM3
 70
    64
  3
_____ _ _ _____ _ _ _____ _ _ _____ _ _ ____  
 72
    65
 73
     6
 40
78.000000
 49
64.000000
 49
-2.000000
 49
4.000000
 49
-2.000000
 49
4.000000
 49
-2.000000
  0
LTYPE
  2
CENTER1
 70
    64
  3
____ _ ____ _ ____ _ ____ _ ____ _ ____ _ ____
 72
    65
 73
     4
 40
19.000000
 49
14.000000
 49
-1.000000
 49
3.000000
 49
-1.000000
  0
LTYPE
  2
CENTER2
 70
    64
  3
____ _ ____ _ ____ _ ____ _ ____ _ ____ _ ____
 72
    65
 73
     4
 40
28.500000
 49
25.000000
 49
-1.000000
 49
1.500000
 49
-1.000000
  0
LTYPE
  2
CENTER3
 70
    64
  3
____ _ ____ _ ____ _ ____ _ ____ _ ____ _ ____
 72
    65
 73
     4
 40
31.500000
 49
27.000000
 49
-1.000000
 49
2.500000
 49
-1.000000
  0
LTYPE
  2
CENTER4
 70
    64
  3
____ _ ____ _ ____ _ ____ _ ____ _ ____ _ ____
 72
    65
 73
     4
 40
50.000000
 49
45.000000
 49
-1.000000
 49
3.000000
 49
-1.000000
  0
LTYPE
  2
CENTER5
 70
    64
  3
____ _ ____ _ ____ _ ____ _ ____ _ ____ _ ____
 72
    65
 73
     4
 40
100.000000
 49
92.000000
 49
-2.000000
 49
4.000000
 49
-2.000000
  0
LTYPE
  2
SBK1
 70
    64
  3
______ _ _ _ ______ _ _ _ ______ _ _ _ _____  
 72
    65
 73
     8
 40
60.500000
 49
45.000000
 49
-2.000000
 49
2.500000
 49
-2.000000
 49
2.500000
 49
-2.000000
 49
2.500000
 49
-2.000000
  0
LTYPE
  2
SBK2
 70
    64
  3
______ _ _ _ ______ _ _ _ ______ _ _ _ _____  
 72
    65
 73
     8
 40
84.000000
 49
64.000000
 49
-2.000000
 49
4.000000
 49
-2.000000
 49
4.000000
 49
-2.000000
 49
4.000000
 49
-2.000000
  0
LTYPE
  2
STCH
 70
    64
  3
__ __ __ __ __ __ __ __ __ __ __ __ __ __ __
 72
    65
 73
     2
 40
3.000000
 49
1.000000
 49
-2.000000
  0
LTYPE
  2
MTCH
 70
    64
  3
_____ _ _ _____ _ _ _____ _ _ _____ _ _ ____  
 72
    65
 73
     6
 40
80.000000
 49
66.000000
 49
-2.000000
 49
4.000000
 49
-2.000000
 49
4.000000
 49
-2.000000
  0
ENDTAB
  0
TABLE
  2
LAYER
 70
     1
  0
LAYER
  2
0
 70
     0
 62
     7
  6
CONTINUOUS
  0
ENDTAB
  0
TABLE
  2
STYLE
 70
     1
  0
STYLE
  2
STANDARD
 70
     0
 40
0.000000
 41
1.000000
 50
0.000000
 71
     0
 42
0.200000
  3
txt
  4
BIGFONT
  0
ENDTAB
  0
TABLE
  2
VIEW
 70
     0
  0
ENDTAB
  0
ENDSEC
  0
SECTION
  2
BLOCKS
  0
ENDSEC
  0
SECTION
  2
ENTITIES
  0
LINE
  8
0
 10
-420.500000
 20
297.000000
 11
420.500000
 21
297.000000
  0
LINE
  8
0
 10
-420.500000
 20
-297.000000
 11
420.500000
 21
-297.000000
  0
LINE
  8
0
 10
420.500000
 20
297.000000
 11
420.500000
 21
-297.000000
  0
LINE
  8
0
 10
-420.500000
 20
297.000000
 11
-420.500000
 21
-297.000000
  0
LINE
  8
0
 10
399.799988
 20
276.250000
 11
399.799988
 21
-276.750000
  0
LINE
  8
0
 10
-399.250000
 20
276.250000
 11
-399.250000
 21
-276.750000
  0
LINE
  8
0
 10
-399.250000
 20
276.250000
 11
399.799988
 21
276.250000
  0
LINE
  8
0
 10
-399.250000
 20
-276.750000
 11
399.799988
 21
-276.750000
  0
LINE
  8
0
 10
-399.250000
 20
-0.250000
 11
399.799988
 21
-0.250000
  0
LINE
  8
0
 10
0.274994
 20
-276.750000
 11
0.274994
 21
276.250000
  0
LINE
  8
0
 10
-399.250000
 20
14.750000
 11
399.799988
 21
14.750000
  0
LINE
  8
0
 10
299.799988
 20
-256.750000
 11
399.799988
 21
-256.750000
  0
LINE
  8
0
 10
299.799988
 20
276.250000
 11
299.799988
 21
261.250000
  0
LINE
  8
0
 10
299.799988
 20
261.250000
 11
399.799988
 21
261.250000
  0
LINE
  8
0
 10
-399.250000
 20
261.250000
 11
-299.250000
 21
261.250000
  0
LINE
  8
0
 10
-299.250000
 20
276.250000
 11
-299.250000
 21
261.250000
  0
LINE
  8
0
 10
-399.250000
 20
-261.750000
 11
0.274994
 21
-261.750000
  0
LINE
  8
0
 10
299.799988
 20
-256.750000
 11
299.799988
 21
-276.750000
  0
TEXT
  8
0
 10
-269.231873
 20
2.975000
 40
6.000000
  1
SWING ANGLE : 90 DEGREE
 50
0.000000
 41
1.052632
 51
0.000000
  7
STANDARD
  0
TEXT
  8
0
 10
127.293121
 20
2.975000
 40
6.000000
  1
SWING ANGLE : 180 DEGREE
 50
0.000000
 41
1.052631
 51
0.000000
  7
STANDARD
  0
TEXT
  8
0
 10
145.430618
 20
-142.899994
 40
6.000000
  1
MODEL : RAK150-USK
 50
0.000000
 41
1.052632
 51
0.000000
  7
STANDARD
  0
TEXT
  8
0
 10
303.465027
 20
-271.149994
 40
6.000000
  1
ＫＯＧＡＮＥＩ，ＣＯＲＰ．
 50
0.000000
 41
0.902367
 51
15.000000
  7
STANDARD
  0
TEXT
  8
0
 10
304.193115
 20
264.350006
 40
6.000000
  1
DATE: MAY ,1992
 50
0.000000
 41
1.052632
 51
0.000000
  7
STANDARD
  0
TEXT
  8
0
 10
-394.856873
 20
264.350006
 40
6.000000
  1
ROTARY ACTUATER
 50
0.000000
 41
1.052631
 51
0.000000
  7
STANDARD
  0
TEXT
  8
0
 10
-272.094391
 20
-273.649994
 40
6.000000
  1
SWING ANGLE : 270 DEGREE
 50
0.000000
 41
1.052631
 51
0.000000
  7
STANDARD
  0
POINT
  8
0
 10
-240.621964
 20
204.480713
  0
POINT
  8
0
 10
-298.321960
 20
204.480713
  0
LINE
  8
0
 10
-303.321991
 20
252.980713
 11
-297.121979
 21
252.980713
  0
LINE
  8
0
 10
-303.321991
 20
155.980713
 11
-297.121979
 21
155.980713
  0
LINE
  8
0
 10
-297.121948
 20
155.980713
 11
-297.121948
 21
165.836578
  0
LINE
  8
0
 10
-303.321960
 20
155.980713
 11
-303.321960
 21
165.836578
  0
LINE
  8
0
 10
-288.871979
 20
159.155182
 11
-281.471985
 21
159.155182
  0
LINE
  8
0
 10
-289.671967
 20
157.175278
 11
-280.671997
 21
157.175278
  0
LINE
  8
0
 10
-289.671967
 20
151.725540
 11
-280.671997
 21
151.725540
  0
LINE
  8
0
 10
-288.871979
 20
150.876999
 11
-281.471985
 21
150.876999
  0
LINE
  8
0
 10
-288.871979
 20
163.539230
 11
-281.471985
 21
163.539230
  0
LINE
  8
0
 10
-280.971985
 20
163.039230
 11
-280.971985
 21
158.240982
  0
LINE
  8
0
 10
-280.171967
 20
161.625031
 11
-280.171967
 21
152.225540
  0
LINE
  8
0
 10
-289.371979
 20
163.039230
 11
-289.371979
 21
158.240982
  0
LINE
  8
0
 10
-290.171967
 20
161.625031
 11
-290.171967
 21
152.225540
  0
LINE
  8
0
 10
-288.871979
 20
157.740982
 11
-281.471985
 21
157.740982
  0
LINE
  8
0
 10
-290.671997
 20
162.125031
 11
-289.371979
 21
162.125031
  0
LINE
  8
0
 10
-289.371979
 20
151.725540
 11
-289.371979
 21
151.376999
  0
LINE
  8
0
 10
-280.971985
 20
151.725540
 11
-280.971985
 21
151.376999
  0
LINE
  8
0
 10
-280.971985
 20
162.125031
 11
-279.671967
 21
162.125031
  0
LINE
  8
0
 10
-296.671997
 20
161.842178
 11
-290.671997
 21
161.842178
  0
LINE
  8
0
 10
-279.671967
 20
162.125031
 11
-279.671967
 21
156.185333
  0
LINE
  8
0
 10
-290.671967
 20
162.125031
 11
-290.671967
 21
156.185318
  0
LINE
  8
0
 10
-281.671967
 20
169.125366
 11
-281.671967
 21
163.539230
  0
LINE
  8
0
 10
-288.671967
 20
169.125366
 11
-288.671967
 21
163.539230
  0
LINE
  8
0
 10
-279.671967
 20
161.842178
 11
-274.671967
 21
161.842178
  0
LINE
  8
0
 10
-283.671936
 20
166.509094
 11
-283.671936
 21
169.125366
  0
LINE
  8
0
 10
-286.671967
 20
166.509079
 11
-286.671967
 21
169.125366
  0
LINE
  8
0
 10
-274.671967
 20
167.286911
 11
-274.671967
 21
156.185333
  0
LINE
  8
0
 10
-296.671997
 20
156.185318
 11
-290.671997
 21
156.185318
  0
LINE
  8
0
 10
-290.671997
 20
156.468170
 11
-290.171967
 21
156.468170
  0
LINE
  8
0
 10
-280.171997
 20
156.468170
 11
-279.671967
 21
156.468170
  0
LINE
  8
0
 10
-279.671967
 20
156.185318
 11
-274.671967
 21
156.185318
  0
LINE
  8
0
 10
-296.671997
 20
167.286911
 11
-288.671967
 21
167.286911
  0
LINE
  8
0
 10
-286.671997
 20
167.711166
 11
-283.671997
 21
167.711166
  0
LINE
  8
0
 10
-286.671997
 20
168.771820
 11
-283.671967
 21
168.771820
  0
LINE
  8
0
 10
-286.671997
 20
167.286911
 11
-283.671997
 21
167.286911
  0
LINE
  8
0
 10
-281.671967
 20
167.286911
 11
-274.671967
 21
167.286911
  0
LINE
  8
0
 10
-281.671967
 20
167.711166
 11
-275.821960
 21
167.711166
  0
LINE
  8
0
 10
-281.671967
 20
168.771820
 11
-275.821960
 21
168.771820
  0
LINE
  8
0
 10
-289.671936
 20
168.418304
 11
-288.671936
 21
167.711212
  0
LINE
  8
0
 10
-295.621979
 20
168.418304
 11
-289.671967
 21
168.418304
  0
LINE
  8
0
 10
-289.671967
 20
169.125366
 11
-289.671967
 21
168.418304
  0
LINE
  8
0
 10
-272.671967
 20
163.635086
 11
-272.671967
 21
158.635086
  0
LINE
  8
0
 10
-274.671967
 20
163.635071
 11
-272.671997
 21
163.635071
  0
LINE
  8
0
 10
-272.671997
 20
163.135071
 11
-242.171967
 21
163.135071
  0
LINE
  8
0
 10
-272.671997
 20
159.135071
 11
-242.171967
 21
159.135071
  0
LINE
  8
0
 10
-274.671967
 20
158.635071
 11
-272.671967
 21
158.635071
  0
LINE
  8
0
 10
-309.121979
 20
173.979141
 11
-307.621979
 21
173.979141
  0
LINE
  8
0
 10
-310.621979
 20
172.907654
 11
-307.621979
 21
172.907654
  0
LINE
  8
0
 10
-310.621979
 20
165.836578
 11
-307.621979
 21
165.836578
  0
LINE
  8
0
 10
-310.621979
 20
175.984344
 11
-310.621979
 21
165.836578
  0
LINE
  8
0
 10
-309.121979
 20
174.837051
 11
-309.121979
 21
173.979141
  0
LINE
  8
0
 10
-307.621979
 20
177.044998
 11
-307.621979
 21
172.907654
  0
LINE
  8
0
 10
-303.621979
 20
177.044998
 11
-303.621979
 21
172.907654
  0
LINE
  8
0
 10
-303.621979
 20
173.979141
 11
-297.121979
 21
173.979141
  0
LINE
  8
0
 10
-307.621979
 20
174.139954
 11
-303.621979
 21
174.139954
  0
LINE
  8
0
 10
-307.621979
 20
164.947571
 11
-303.621979
 21
164.947571
  0
LINE
  8
0
 10
-303.621979
 20
165.836578
 11
-296.671967
 21
165.836578
  0
LINE
  8
0
 10
-303.621979
 20
172.907654
 11
-297.121948
 21
172.907654
  0
LINE
  8
0
 10
-307.621979
 20
165.836578
 11
-307.621979
 21
164.947571
  0
LINE
  8
0
 10
-303.621979
 20
165.836578
 11
-303.621979
 21
164.947571
  0
LINE
  8
0
 10
-307.621979
 20
177.044998
 11
-303.621979
 21
177.044998
  0
LINE
  8
0
 10
-310.621979
 20
175.984344
 11
-307.621979
 21
175.984344
  0
LINE
  8
0
 10
-310.621979
 20
174.837051
 11
-307.621979
 21
174.837051
  0
LINE
  8
0
 10
-303.621979
 20
175.984344
 11
-303.321991
 21
175.984344
  0
LINE
  8
0
 10
-303.621979
 20
174.837051
 11
-303.321991
 21
174.837051
  0
LINE
  8
0
 10
-303.321960
 20
173.979141
 11
-303.321960
 21
178.280716
  0
LINE
  8
0
 10
-295.621979
 20
167.286911
 11
-295.621979
 21
169.113953
  0
LINE
  8
0
 10
-292.621979
 20
191.170029
 11
-256.621979
 21
191.170029
  0
LINE
  8
0
 10
-292.621948
 20
217.791382
 11
-256.621948
 21
217.791382
  0
LINE
  8
0
 10
-297.121979
 20
169.113953
 11
-292.621979
 21
169.113953
  0
LINE
  8
0
 10
-292.621979
 20
169.125366
 11
-256.621979
 21
169.125366
  0
LINE
  8
0
 10
-292.621948
 20
239.836044
 11
-256.621948
 21
239.836044
  0
LINE
  8
0
 10
-297.121948
 20
252.980713
 11
-297.121948
 21
169.113953
  0
LINE
  8
0
 10
-292.621948
 20
239.836044
 11
-292.621948
 21
169.113953
  0
LINE
  8
0
 10
-256.621948
 20
239.836029
 11
-256.621948
 21
169.125366
  0
LINE
  8
0
 10
-240.621964
 20
212.180695
 11
-240.621964
 21
196.780701
  0
LINE
  8
0
 10
-246.121964
 20
211.837555
 11
-246.121964
 21
208.437561
  0
LINE
  8
0
 10
-253.121964
 20
213.941788
 11
-253.121964
 21
207.164978
  0
LINE
  8
0
 10
-256.621948
 20
203.439850
 11
-253.471954
 21
203.439850
  0
LINE
  8
0
 10
-256.621948
 20
200.992249
 11
-253.471954
 21
200.992249
  0
LINE
  8
0
 10
-256.621948
 20
196.376266
 11
-253.471954
 21
196.376266
  0
LINE
  8
0
 10
-256.621948
 20
194.207870
 11
-253.471954
 21
194.207870
  0
LINE
  8
0
 10
-253.121964
 20
200.823853
 11
-246.421967
 21
200.823853
  0
LINE
  8
0
 10
-253.121964
 20
196.823853
 11
-246.421967
 21
196.823853
  0
LINE
  8
0
 10
-256.621948
 20
205.619690
 11
-253.471954
 21
205.619690
  0
LINE
  8
0
 10
-256.621948
 20
208.710281
 11
-253.471954
 21
208.710281
  0
LINE
  8
0
 10
-256.621948
 20
213.228149
 11
-253.471954
 21
213.228149
  0
LINE
  8
0
 10
-256.621948
 20
214.655441
 11
-253.471954
 21
214.655441
  0
LINE
  8
0
 10
-253.121964
 20
212.137573
 11
-246.421967
 21
212.137573
  0
LINE
  8
0
 10
-253.121964
 20
208.137573
 11
-246.421967
 21
208.137573
  0
LINE
  8
0
 10
-253.121964
 20
202.216034
 11
-253.121964
 21
195.292053
  0
LINE
  8
0
 10
-246.421967
 20
196.823853
 11
-246.121979
 21
197.123856
  0
LINE
  8
0
 10
-246.121948
 20
211.837570
 11
-246.421951
 21
212.137573
  0
LINE
  8
0
 10
-246.121964
 20
200.523849
 11
-246.121964
 21
197.123840
  0
LINE
  8
0
 10
-246.121964
 20
200.523849
 11
-246.421967
 21
200.823853
  0
LINE
  8
0
 10
-246.421967
 20
208.137558
 11
-246.121964
 21
208.437561
  0
LINE
  8
0
 10
-246.421906
 20
196.823837
 11
-246.421906
 21
200.823853
  0
LINE
  8
0
 10
-246.421783
 20
208.137558
 11
-246.421783
 21
212.137558
  0
LINE
  8
0
 10
-253.121964
 20
197.073853
 11
-246.171967
 21
197.073853
  0
LINE
  8
0
 10
-253.121964
 20
200.573853
 11
-246.171967
 21
200.573853
  0
LINE
  8
0
 10
-253.121964
 20
211.887573
 11
-246.171967
 21
211.887573
  0
LINE
  8
0
 10
-253.121964
 20
208.387573
 11
-246.121964
 21
208.387573
  0
LINE
  8
0
 10
-253.121964
 20
213.680710
 11
-242.121964
 21
213.680710
  0
LINE
  8
0
 10
-253.121964
 20
195.280701
 11
-242.121964
 21
195.280701
  0
LINE
  8
0
 10
-297.121948
 20
239.847473
 11
-292.621948
 21
239.847473
  0
LINE
  8
0
 10
-292.621948
 20
217.880707
 11
-297.121948
 21
217.880707
  0
LINE
  8
0
 10
-292.621979
 20
191.080719
 11
-297.121979
 21
191.080719
  0
LINE
  8
0
 10
-255.921967
 20
190.477570
 11
-255.921967
 21
194.207870
  0
LINE
  8
0
 10
-255.521973
 20
190.442581
 11
-255.521973
 21
194.207870
  0
LINE
  8
0
 10
-254.071960
 20
191.949265
 11
-254.071960
 21
192.012146
  0
LINE
  8
0
 10
-255.921967
 20
214.655441
 11
-255.921967
 21
218.483826
  0
LINE
  8
0
 10
-255.521973
 20
214.655441
 11
-255.521973
 21
218.518814
  0
LINE
  8
0
 10
-254.071960
 20
216.949265
 11
-254.071960
 21
217.012146
  0
LINE
  8
0
 10
-254.521973
 20
180.422546
 11
-254.521973
 21
190.355087
  0
LINE
  8
0
 10
-254.521973
 20
180.422516
 11
-256.621979
 21
180.238800
  0
LINE
  8
0
 10
-254.521973
 20
190.355087
 11
-256.621979
 21
190.538803
  0
LINE
  8
0
 10
-254.521957
 20
218.606308
 11
-254.521957
 21
228.538864
  0
LINE
  8
0
 10
-254.521973
 20
218.606308
 11
-256.621948
 21
218.422577
  0
LINE
  8
0
 10
-254.521957
 20
228.538895
 11
-256.621948
 21
228.722610
  0
LINE
  8
0
 10
-303.721954
 20
230.494186
 11
-303.721954
 21
220.867233
  0
LINE
  8
0
 10
-303.321960
 20
230.680710
 11
-303.321960
 21
220.680710
  0
LINE
  8
0
 10
-303.321960
 20
230.680710
 11
-297.721954
 21
230.680710
  0
LINE
  8
0
 10
-303.321960
 20
220.680710
 11
-297.721954
 21
220.680710
  0
LINE
  8
0
 10
-303.721954
 20
230.494202
 11
-303.321960
 21
230.680725
  0
LINE
  8
0
 10
-303.721954
 20
220.867233
 11
-303.321960
 21
220.680725
  0
LINE
  8
0
 10
-303.321960
 20
228.680710
 11
-300.276672
 21
228.680710
  0
LINE
  8
0
 10
-303.321960
 20
226.680710
 11
-301.431366
 21
226.680710
  0
LINE
  8
0
 10
-303.321960
 20
224.680710
 11
-302.586060
 21
224.680710
  0
LINE
  8
0
 10
-303.721954
 20
188.094193
 11
-303.721954
 21
178.467239
  0
LINE
  8
0
 10
-303.321960
 20
188.280716
 11
-303.321960
 21
178.280716
  0
LINE
  8
0
 10
-303.321960
 20
188.280716
 11
-297.721954
 21
188.280716
  0
LINE
  8
0
 10
-303.321960
 20
178.280716
 11
-297.721954
 21
178.280716
  0
LINE
  8
0
 10
-303.721985
 20
188.094177
 11
-303.321960
 21
188.280701
  0
LINE
  8
0
 10
-303.721985
 20
178.467224
 11
-303.321991
 21
178.280701
  0
LINE
  8
0
 10
-303.321960
 20
186.280716
 11
-300.276672
 21
186.280716
  0
LINE
  8
0
 10
-303.321960
 20
184.280716
 11
-301.431366
 21
184.280716
  0
LINE
  8
0
 10
-303.321960
 20
182.280716
 11
-302.586060
 21
182.280716
  0
LINE
  8
0
 10
-289.171936
 20
169.125366
 11
-288.671967
 21
168.771851
  0
LINE
  8
0
 10
-242.171967
 20
163.135071
 11
-242.171967
 21
159.135071
  0
LINE
  8
0
 10
-242.171967
 20
160.835068
 11
-239.171967
 21
160.835068
  0
LINE
  8
0
 10
-242.171967
 20
161.435059
 11
-239.171967
 21
161.435059
  0
LINE
  8
0
 10
-242.171967
 20
159.835068
 11
-239.171967
 21
159.835068
  0
LINE
  8
0
 10
-242.171967
 20
162.435059
 11
-239.171967
 21
162.435059
  0
LINE
  8
0
 10
-239.171967
 20
162.435059
 11
-239.171967
 21
161.435059
  0
LINE
  8
0
 10
-239.171967
 20
160.835068
 11
-239.171967
 21
159.835068
  0
LINE
  8
0
 10
-239.171967
 20
162.310059
 11
-237.671967
 21
162.310059
  0
LINE
  8
0
 10
-239.171967
 20
162.185059
 11
-237.671967
 21
162.185059
  0
LINE
  8
0
 10
-239.171967
 20
162.060059
 11
-237.671967
 21
162.060059
  0
LINE
  8
0
 10
-239.171967
 20
161.935059
 11
-237.671967
 21
161.935059
  0
LINE
  8
0
 10
-239.171967
 20
161.810059
 11
-237.671967
 21
161.810059
  0
LINE
  8
0
 10
-239.171967
 20
161.685059
 11
-237.671967
 21
161.685059
  0
LINE
  8
0
 10
-239.171967
 20
161.560059
 11
-237.671967
 21
161.560059
  0
LINE
  8
0
 10
-239.171967
 20
160.710068
 11
-237.671967
 21
160.710068
  0
LINE
  8
0
 10
-239.171967
 20
160.585068
 11
-237.671967
 21
160.585068
  0
LINE
  8
0
 10
-239.171967
 20
160.460068
 11
-237.671967
 21
160.460068
  0
LINE
  8
0
 10
-239.171967
 20
160.335068
 11
-237.671967
 21
160.335068
  0
LINE
  8
0
 10
-239.171967
 20
160.210068
 11
-237.671967
 21
160.210068
  0
LINE
  8
0
 10
-239.171967
 20
160.085068
 11
-237.671967
 21
160.085068
  0
LINE
  8
0
 10
-239.171967
 20
159.960068
 11
-237.671967
 21
159.960068
  0
LINE
  8
0
 10
-296.671967
 20
167.286911
 11
-296.671967
 21
156.185318
  0
LINE
  8
0
 10
-303.321960
 20
188.280716
 11
-303.321960
 21
220.680710
  0
LINE
  8
0
 10
-303.321960
 20
230.680710
 11
-303.321960
 21
252.980713
  0
LINE
  8
0
 10
-297.721954
 20
230.930710
 11
-297.721954
 21
220.430710
  0
LINE
  8
0
 10
-297.721954
 20
178.030716
 11
-297.121948
 21
178.030716
  0
LINE
  8
0
 10
-297.721954
 20
188.530716
 11
-297.121948
 21
188.530716
  0
LINE
  8
0
 10
-297.721954
 20
220.430710
 11
-297.121948
 21
220.430710
  0
LINE
  8
0
 10
-297.721954
 20
230.930710
 11
-297.121948
 21
230.930710
  0
LINE
  8
0
 10
-297.721954
 20
188.530716
 11
-297.721954
 21
178.030716
  0
LINE
  8
0
 10
-279.821960
 20
245.941437
 11
-271.821960
 21
245.941437
  0
LINE
  8
0
 10
-270.821960
 20
244.941437
 11
-270.821960
 21
239.836044
  0
LINE
  8
0
 10
-280.821960
 20
244.941437
 11
-280.821960
 21
239.836044
  0
LINE
  8
0
 10
-312.621948
 20
247.080719
 11
-312.621948
 21
161.880707
  0
LINE
  8
0
 10
-307.621948
 20
197.480713
 11
-303.321960
 21
197.480713
  0
LINE
  8
0
 10
-307.621948
 20
211.480713
 11
-303.321960
 21
211.480713
  0
LINE
  8
0
 10
-309.142365
 20
241.791718
 11
-303.321960
 21
241.791718
  0
LINE
  8
0
 10
-312.621979
 20
161.880707
 11
-310.019440
 21
165.836578
  0
LINE
  8
0
 10
-312.621979
 20
247.080719
 11
-309.142365
 21
241.791718
  0
LINE
  8
0
 10
-307.621948
 20
230.675247
 11
-307.621948
 21
211.581055
  0
LINE
  8
0
 10
-307.621948
 20
197.380386
 11
-307.621948
 21
178.286179
  0
LINE
  8
0
 10
-275.821960
 20
168.771820
 11
-275.821960
 21
167.286911
  0
ARC
  8
0
 10
-288.871979
 20
163.039230
 40
0.500000
 50
90.000000
 51
180.000000
  0
ARC
  8
0
 10
-281.471985
 20
163.039230
 40
0.500000
 50
0.000000
 51
90.000000
  0
ARC
  8
0
 10
-280.671997
 20
161.625031
 40
0.500000
 50
0.000000
 51
90.000000
  0
ARC
  8
0
 10
-289.671967
 20
161.625031
 40
0.500000
 50
90.000000
 51
180.000000
  0
ARC
  8
0
 10
-289.671967
 20
152.225540
 40
0.500000
 50
180.000000
 51
270.000000
  0
ARC
  8
0
 10
-280.671997
 20
152.225540
 40
0.500000
 50
270.000000
 51
0.000000
  0
ARC
  8
0
 10
-281.471985
 20
151.376999
 40
0.500000
 50
270.000000
 51
0.000000
  0
ARC
  8
0
 10
-288.871979
 20
151.376999
 40
0.500000
 50
180.000000
 51
270.000000
  0
ARC
  8
0
 10
-281.471985
 20
158.240982
 40
0.500000
 50
270.000000
 51
0.000000
  0
ARC
  8
0
 10
-288.871979
 20
158.240982
 40
0.500000
 50
180.000000
 51
270.000000
  0
ARC
  8
0
 10
-254.976227
 20
195.292053
 40
1.854271
 50
324.217987
 51
35.782017
  0
ARC
  8
0
 10
-260.906769
 20
198.684250
 40
7.784809
 50
342.754120
 51
17.245975
  0
ARC
  8
0
 10
-255.436523
 20
202.216034
 40
2.314559
 50
328.080048
 51
31.920261
  0
ARC
  8
0
 10
-256.708313
 20
207.164978
 40
3.586354
 50
334.476593
 51
25.523420
  0
ARC
  8
0
 10
-260.586670
 20
210.969208
 40
7.464712
 50
342.385315
 51
17.614710
  0
ARC
  8
0
 10
-254.024521
 20
213.941788
 40
0.902569
 50
307.749847
 51
52.249561
  0
ARC
  8
0
 10
-242.121964
 20
196.780701
 40
1.500000
 50
270.000000
 51
0.000000
  0
ARC
  8
0
 10
-242.121964
 20
212.180695
 40
1.500000
 50
0.000000
 51
90.000000
  0
ARC
  8
0
 10
-257.071960
 20
191.949265
 40
3.000010
 50
327.916718
 51
0.000000
  0
ARC
  8
0
 10
-257.071960
 20
192.012146
 40
3.000000
 50
0.000000
 51
47.046673
  0
ARC
  8
0
 10
-257.071960
 20
216.949265
 40
3.000001
 50
310.127472
 51
0.000000
  0
ARC
  8
0
 10
-257.071960
 20
217.012146
 40
3.000000
 50
0.000000
 51
32.083042
  0
ARC
  8
0
 10
-266.353912
 20
185.388824
 40
12.831942
 50
337.230499
 51
22.769430
  0
ARC
  8
0
 10
-266.353882
 20
223.572586
 40
12.831922
 50
337.230530
 51
22.769457
  0
CIRCLE
  8
0
 10
-286.621948
 20
204.480713
 40
1.900000
  0
ARC
  8
0
 10
-279.821960
 20
244.941437
 40
1.000000
 50
90.000000
 51
180.000000
  0
ARC
  8
0
 10
-271.821960
 20
244.941437
 40
1.000000
 50
0.000000
 51
90.000000
  0
ARC
  8
0
 10
-292.953308
 20
159.013748
 40
0.425078
 50
345.894928
 51
14.107077
  0
ARC
  8
0
 10
-293.064423
 20
158.973007
 40
0.542917
 50
15.418950
 51
51.388477
  0
ARC
  8
0
 10
-293.371979
 20
158.523682
 40
1.086693
 50
53.501793
 51
126.498207
  0
ARC
  8
0
 10
-293.679535
 20
158.973007
 40
0.542927
 50
128.611526
 51
164.582596
  0
ARC
  8
0
 10
-293.790649
 20
159.013748
 40
0.425078
 50
165.894913
 51
194.107071
  0
ARC
  8
0
 10
-293.679535
 20
159.054489
 40
0.542917
 50
195.418945
 51
231.388474
  0
ARC
  8
0
 10
-293.371979
 20
159.503815
 40
1.086693
 50
233.501785
 51
306.498199
  0
ARC
  8
0
 10
-293.064423
 20
159.054489
 40
0.542927
 50
308.611511
 51
344.582611
  0
ARC
  8
0
 10
-306.441681
 20
169.372131
 40
2.130293
 50
176.237656
 51
191.772812
  0
ARC
  8
0
 10
-306.224121
 20
169.438599
 40
2.356927
 50
192.275543
 51
225.305038
  0
ARC
  8
0
 10
-305.621979
 20
170.171677
 40
3.302728
 50
226.824173
 51
313.174500
  0
ARC
  8
0
 10
-305.019836
 20
169.438583
 40
2.356923
 50
314.693390
 51
347.723022
  0
ARC
  8
0
 10
-304.802277
 20
169.372101
 40
2.130301
 50
348.225983
 51
356.237671
  0
ARC
  8
0
 10
-304.158203
 20
169.372101
 40
1.486225
 50
354.669281
 51
14.105866
  0
ARC
  8
0
 10
-304.546722
 20
169.229660
 40
1.898237
 50
15.417706
 51
51.388527
  0
ARC
  8
0
 10
-305.621979
 20
167.658722
 40
3.799348
 50
53.502098
 51
126.497902
  0
ARC
  8
0
 10
-306.697235
 20
169.229675
 40
1.898228
 50
128.611755
 51
164.582291
  0
ARC
  8
0
 10
-307.085754
 20
169.372101
 40
1.486224
 50
165.893570
 51
185.353775
  0
ARC
  8
0
 10
-292.627686
 20
159.013748
 40
0.755696
 50
345.894165
 51
14.106952
  0
ARC
  8
0
 10
-292.825226
 20
158.941330
 40
0.965187
 50
15.418217
 51
51.388004
  0
ARC
  8
0
 10
-293.371979
 20
158.142517
 40
1.931895
 50
53.502094
 51
126.497902
  0
ARC
  8
0
 10
-293.918732
 20
158.941330
 40
0.965198
 50
128.612000
 51
164.582657
  0
ARC
  8
0
 10
-294.116272
 20
159.013748
 40
0.755696
 50
165.894165
 51
194.106949
  0
ARC
  8
0
 10
-293.918732
 20
159.086166
 40
0.965187
 50
195.418213
 51
231.388000
  0
ARC
  8
0
 10
-293.371979
 20
159.884979
 40
1.931895
 50
233.502090
 51
306.497894
  0
ARC
  8
0
 10
-292.825226
 20
159.086166
 40
0.965198
 50
308.612000
 51
344.582642
  0
ARC
  8
0
 10
-285.991669
 20
154.346848
 40
2.130294
 50
176.237244
 51
191.773209
  0
ARC
  8
0
 10
-285.774109
 20
154.413315
 40
2.356930
 50
192.275894
 51
225.305573
  0
ARC
  8
0
 10
-285.171967
 20
155.146408
 40
3.302718
 50
226.824738
 51
313.175079
  0
ARC
  8
0
 10
-284.569824
 20
154.413315
 40
2.356934
 50
314.694183
 51
347.723724
  0
ARC
  8
0
 10
-284.352264
 20
154.346848
 40
2.130298
 50
348.226379
 51
356.237244
  0
ARC
  8
0
 10
-305.622009
 20
172.773621
 40
4.532881
 50
245.097824
 51
294.888092
  0
ARC
  8
0
 10
-285.171997
 20
157.748367
 40
4.532881
 50
245.097824
 51
294.888611
  0
ARC
  8
0
 10
-283.708191
 20
154.346848
 40
1.486227
 50
354.668701
 51
14.105866
  0
ARC
  8
0
 10
-284.096710
 20
154.204407
 40
1.898237
 50
15.417706
 51
51.388241
  0
ARC
  8
0
 10
-285.171967
 20
152.633469
 40
3.799335
 50
53.501961
 51
126.497902
  0
ARC
  8
0
 10
-286.247223
 20
154.204422
 40
1.898228
 50
128.611755
 51
164.582291
  0
ARC
  8
0
 10
-286.635742
 20
154.346848
 40
1.486224
 50
165.893570
 51
185.353775
  0
ARC
  8
0
 10
-285.916260
 20
166.509079
 40
0.755707
 50
180.000000
 51
194.105835
  0
ARC
  8
0
 10
-285.718719
 20
166.581497
 40
0.965183
 50
195.417343
 51
231.388000
  0
ARC
  8
0
 10
-285.171967
 20
167.380310
 40
1.931895
 50
233.502090
 51
306.497894
  0
ARC
  8
0
 10
-284.625214
 20
166.581497
 40
0.965198
 50
308.612000
 51
344.581787
  0
ARC
  8
0
 10
-284.427673
 20
166.509079
 40
0.755700
 50
345.893036
 51
0.000000
  0
ARC
  8
0
 10
-287.330139
 20
175.489319
 40
1.108161
 50
345.892181
 51
14.107806
  0
ARC
  8
0
 10
-287.619934
 20
175.383072
 40
1.415484
 50
15.419636
 51
51.390930
  0
ARC
  8
0
 10
-288.421967
 20
174.211182
 40
2.833630
 50
53.505157
 51
126.494843
  0
ARC
  8
0
 10
-289.223999
 20
175.383072
 40
1.415490
 50
128.609070
 51
164.580368
  0
ARC
  8
0
 10
-289.513794
 20
175.489319
 40
1.108161
 50
165.892197
 51
194.107803
  0
ARC
  8
0
 10
-289.223999
 20
175.595566
 40
1.415484
 50
195.419632
 51
231.390930
  0
ARC
  8
0
 10
-288.421967
 20
176.767456
 40
2.833630
 50
233.505157
 51
306.494843
  0
ARC
  8
0
 10
-287.619934
 20
175.595566
 40
1.415490
 50
308.609070
 51
344.580353
  0
ARC
  8
0
 10
-287.330139
 20
233.472107
 40
1.108161
 50
345.892181
 51
14.107806
  0
ARC
  8
0
 10
-287.619934
 20
233.365860
 40
1.415484
 50
15.419636
 51
51.390930
  0
ARC
  8
0
 10
-288.421967
 20
232.193985
 40
2.833618
 50
53.504974
 51
126.494843
  0
ARC
  8
0
 10
-289.223999
 20
233.365860
 40
1.415502
 50
128.608688
 51
164.580368
  0
ARC
  8
0
 10
-289.513794
 20
233.472107
 40
1.108161
 50
165.892197
 51
194.107803
  0
ARC
  8
0
 10
-289.223999
 20
233.578354
 40
1.415484
 50
195.419632
 51
231.390930
  0
ARC
  8
0
 10
-288.421967
 20
234.750229
 40
2.833618
 50
233.504974
 51
306.494843
  0
ARC
  8
0
 10
-287.619934
 20
233.578354
 40
1.415502
 50
308.608673
 51
344.580353
  0
POLYLINE
  8
0
 66
     1
  0
VERTEX
  8
0
 10
-309.142365
 20
241.791718
  0
VERTEX
  8
0
 10
-310.053558
 20
241.749023
  0
VERTEX
  8
0
 10
-311.015198
 20
241.534073
  0
VERTEX
  8
0
 10
-311.810974
 20
241.180405
  0
VERTEX
  8
0
 10
-312.224579
 20
240.721542
  0
VERTEX
  8
0
 10
-312.212219
 20
239.984573
  0
VERTEX
  8
0
 10
-311.957489
 20
239.142899
  0
VERTEX
  8
0
 10
-311.685425
 20
238.279236
  0
VERTEX
  8
0
 10
-311.406158
 20
237.426971
  0
VERTEX
  8
0
 10
-311.162964
 20
236.789368
  0
VERTEX
  8
0
 10
-310.889832
 20
236.152527
  0
VERTEX
  8
0
 10
-310.588409
 20
235.505142
  0
VERTEX
  8
0
 10
-310.243134
 20
234.810165
  0
VERTEX
  8
0
 10
-309.882507
 20
234.126785
  0
VERTEX
  8
0
 10
-309.539062
 20
233.514664
  0
VERTEX
  8
0
 10
-309.127136
 20
232.831650
  0
VERTEX
  8
0
 10
-308.679840
 20
232.141922
  0
VERTEX
  8
0
 10
-308.163422
 20
231.399353
  0
VERTEX
  8
0
 10
-307.621948
 20
230.675247
  0
SEQEND
  0
POLYLINE
  8
0
 66
     1
  0
VERTEX
  8
0
 10
-310.622528
 20
167.257950
  0
VERTEX
  8
0
 10
-311.600586
 20
167.613297
  0
VERTEX
  8
0
 10
-312.224579
 20
168.239883
  0
VERTEX
  8
0
 10
-312.212219
 20
168.976852
  0
VERTEX
  8
0
 10
-311.957489
 20
169.818527
  0
VERTEX
  8
0
 10
-311.683899
 20
170.686569
  0
VERTEX
  8
0
 10
-311.406158
 20
171.534454
  0
VERTEX
  8
0
 10
-311.167938
 20
172.158188
  0
VERTEX
  8
0
 10
-310.901520
 20
172.781479
  0
VERTEX
  8
0
 10
-310.621185
 20
173.387756
  0
SEQEND
  0
POLYLINE
  8
0
 66
     1
  0
VERTEX
  8
0
 10
-307.621735
 20
197.380356
  0
VERTEX
  8
0
 10
-308.370148
 20
197.535919
  0
VERTEX
  8
0
 10
-309.093658
 20
197.847672
  0
VERTEX
  8
0
 10
-309.844696
 20
198.404282
  0
VERTEX
  8
0
 10
-310.475250
 20
198.986008
  0
VERTEX
  8
0
 10
-310.852386
 20
199.338150
  0
VERTEX
  8
0
 10
-311.196289
 20
199.744293
  0
VERTEX
  8
0
 10
-311.482025
 20
200.297699
  0
VERTEX
  8
0
 10
-311.685120
 20
200.911118
  0
VERTEX
  8
0
 10
-311.865540
 20
201.547211
  0
VERTEX
  8
0
 10
-312.019989
 20
202.215225
  0
VERTEX
  8
0
 10
-312.143372
 20
203.013535
  0
VERTEX
  8
0
 10
-312.208801
 20
203.793869
  0
VERTEX
  8
0
 10
-312.227173
 20
204.467194
  0
VERTEX
  8
0
 10
-312.208801
 20
205.167557
  0
VERTEX
  8
0
 10
-312.139740
 20
205.976288
  0
VERTEX
  8
0
 10
-312.019989
 20
206.746201
  0
VERTEX
  8
0
 10
-311.867035
 20
207.404282
  0
VERTEX
  8
0
 10
-311.685120
 20
208.050308
  0
VERTEX
  8
0
 10
-311.475861
 20
208.669907
  0
VERTEX
  8
0
 10
-311.196289
 20
209.217133
  0
VERTEX
  8
0
 10
-310.894623
 20
209.580048
  0
VERTEX
  8
0
 10
-310.475250
 20
209.975418
  0
VERTEX
  8
0
 10
-309.796906
 20
210.596817
  0
VERTEX
  8
0
 10
-309.093658
 20
211.113754
  0
VERTEX
  8
0
 10
-308.381409
 20
211.418274
  0
VERTEX
  8
0
 10
-307.621765
 20
211.581070
  0
SEQEND
  0
POLYLINE
  8
0
 66
     1
  0
VERTEX
  8
0
 10
-309.217102
 20
175.984146
  0
VERTEX
  8
0
 10
-308.980988
 20
176.361832
  0
VERTEX
  8
0
 10
-308.679840
 20
176.819504
  0
VERTEX
  8
0
 10
-308.163422
 20
177.562073
  0
VERTEX
  8
0
 10
-307.621948
 20
178.286179
  0
SEQEND
  0
POINT
  8
0
 10
-298.321960
 20
73.860535
  0
POINT
  8
0
 10
-270.821960
 20
73.860535
  0
LINE
  8
0
 10
-303.321960
 20
112.504677
 11
-303.321960
 21
122.360535
  0
LINE
  8
0
 10
-303.321960
 20
122.360535
 11
-297.121948
 21
122.360535
  0
LINE
  8
0
 10
-303.321960
 20
25.360535
 11
-297.121948
 21
25.360535
  0
LINE
  8
0
 10
-297.121948
 20
25.360535
 11
-297.121948
 21
35.216393
  0
LINE
  8
0
 10
-303.321960
 20
25.360535
 11
-303.321960
 21
35.216393
  0
LINE
  8
0
 10
-288.871979
 20
119.186081
 11
-281.471985
 21
119.186081
  0
LINE
  8
0
 10
-289.671967
 20
121.165985
 11
-280.671967
 21
121.165985
  0
LINE
  8
0
 10
-289.671967
 20
126.615730
 11
-280.671967
 21
126.615730
  0
LINE
  8
0
 10
-288.871979
 20
127.464264
 11
-281.471985
 21
127.464264
  0
LINE
  8
0
 10
-288.871979
 20
114.802025
 11
-281.471985
 21
114.802025
  0
LINE
  8
0
 10
-280.971985
 20
115.302025
 11
-280.971985
 21
120.100288
  0
LINE
  8
0
 10
-280.171967
 20
116.716232
 11
-280.171967
 21
126.115730
  0
LINE
  8
0
 10
-289.371979
 20
115.302025
 11
-289.371979
 21
120.100288
  0
LINE
  8
0
 10
-290.171967
 20
116.716232
 11
-290.171967
 21
126.115730
  0
LINE
  8
0
 10
-288.871979
 20
120.600288
 11
-281.471985
 21
120.600288
  0
LINE
  8
0
 10
-290.671967
 20
116.216232
 11
-289.371979
 21
116.216232
  0
LINE
  8
0
 10
-289.371979
 20
126.615730
 11
-289.371979
 21
126.964264
  0
LINE
  8
0
 10
-280.971985
 20
126.615730
 11
-280.971985
 21
126.964264
  0
LINE
  8
0
 10
-280.971985
 20
116.216232
 11
-279.671967
 21
116.216232
  0
LINE
  8
0
 10
-296.671967
 20
116.499084
 11
-290.671967
 21
116.499084
  0
LINE
  8
0
 10
-279.671967
 20
116.216232
 11
-279.671967
 21
122.155930
  0
LINE
  8
0
 10
-290.671967
 20
116.216232
 11
-290.671967
 21
122.155937
  0
LINE
  8
0
 10
-281.671967
 20
109.003746
 11
-281.671967
 21
114.802025
  0
LINE
  8
0
 10
-288.671967
 20
109.003746
 11
-288.671967
 21
114.802025
  0
LINE
  8
0
 10
-279.671967
 20
116.499084
 11
-274.671967
 21
116.499084
  0
LINE
  8
0
 10
-283.671936
 20
111.832169
 11
-283.671936
 21
109.003746
  0
LINE
  8
0
 10
-286.671967
 20
111.832184
 11
-286.671967
 21
109.003754
  0
LINE
  8
0
 10
-288.671967
 20
109.003746
 11
-286.671967
 21
109.003746
  0
LINE
  8
0
 10
-283.671967
 20
109.003746
 11
-281.671967
 21
109.003746
  0
LINE
  8
0
 10
-274.671967
 20
111.054352
 11
-274.671967
 21
122.155930
  0
LINE
  8
0
 10
-294.121979
 20
103.291252
 11
-294.121979
 21
108.862312
  0
LINE
  8
0
 10
-296.671967
 20
122.155937
 11
-290.671967
 21
122.155937
  0
LINE
  8
0
 10
-290.671967
 20
121.873093
 11
-290.171967
 21
121.873093
  0
LINE
  8
0
 10
-280.171967
 20
121.873093
 11
-279.671967
 21
121.873093
  0
LINE
  8
0
 10
-279.671967
 20
122.155937
 11
-274.671967
 21
122.155937
  0
LINE
  8
0
 10
-296.671967
 20
111.054352
 11
-288.671967
 21
111.054352
  0
LINE
  8
0
 10
-286.671967
 20
110.630096
 11
-283.671967
 21
110.630096
  0
LINE
  8
0
 10
-286.671967
 20
109.569443
 11
-283.671967
 21
109.569443
  0
LINE
  8
0
 10
-286.671967
 20
111.054352
 11
-283.671967
 21
111.054352
  0
LINE
  8
0
 10
-281.671967
 20
111.054352
 11
-274.671967
 21
111.054352
  0
LINE
  8
0
 10
-281.671967
 20
110.630096
 11
-275.821960
 21
110.630096
  0
LINE
  8
0
 10
-281.671967
 20
109.569443
 11
-275.821960
 21
109.569443
  0
LINE
  8
0
 10
-289.671936
 20
109.922951
 11
-288.671936
 21
110.630051
  0
LINE
  8
0
 10
-289.671936
 20
108.862305
 11
-288.671967
 21
109.569412
  0
LINE
  8
0
 10
-294.121979
 20
108.862312
 11
-289.671967
 21
108.862312
  0
LINE
  8
0
 10
-295.621979
 20
109.922966
 11
-289.671967
 21
109.922966
  0
LINE
  8
0
 10
-289.671967
 20
108.862312
 11
-289.671967
 21
109.922966
  0
LINE
  8
0
 10
-272.671967
 20
114.706184
 11
-272.671967
 21
119.706184
  0
LINE
  8
0
 10
-274.671967
 20
114.706192
 11
-272.671967
 21
114.706192
  0
LINE
  8
0
 10
-272.671967
 20
115.206192
 11
-242.171951
 21
115.206192
  0
LINE
  8
0
 10
-272.671967
 20
119.206192
 11
-242.171951
 21
119.206192
  0
LINE
  8
0
 10
-274.671967
 20
119.706192
 11
-272.671967
 21
119.706192
  0
LINE
  8
0
 10
-309.121979
 20
104.362106
 11
-307.621979
 21
104.362106
  0
LINE
  8
0
 10
-310.621979
 20
105.433601
 11
-307.621979
 21
105.433601
  0
LINE
  8
0
 10
-310.621979
 20
112.504677
 11
-307.621979
 21
112.504677
  0
LINE
  8
0
 10
-310.621979
 20
102.356903
 11
-310.621979
 21
112.504677
  0
LINE
  8
0
 10
-309.121979
 20
103.504189
 11
-309.121979
 21
104.362106
  0
LINE
  8
0
 10
-308.321960
 20
98.360535
 11
-308.321960
 21
102.356903
  0
LINE
  8
0
 10
-303.621979
 20
101.296249
 11
-303.621979
 21
105.433601
  0
LINE
  8
0
 10
-303.621979
 20
104.362106
 11
-297.121979
 21
104.362106
  0
LINE
  8
0
 10
-307.621979
 20
104.201294
 11
-303.621979
 21
104.201294
  0
LINE
  8
0
 10
-307.621979
 20
113.393677
 11
-303.621979
 21
113.393677
  0
LINE
  8
0
 10
-303.621979
 20
112.504677
 11
-296.671967
 21
112.504677
  0
LINE
  8
0
 10
-303.621979
 20
105.433601
 11
-295.621979
 21
105.433601
  0
LINE
  8
0
 10
-307.621979
 20
112.504677
 11
-307.621979
 21
113.393677
  0
LINE
  8
0
 10
-303.621979
 20
112.504677
 11
-303.621979
 21
113.393677
  0
LINE
  8
0
 10
-307.621979
 20
101.296249
 11
-303.621979
 21
101.296249
  0
LINE
  8
0
 10
-310.621979
 20
102.356903
 11
-307.621979
 21
102.356903
  0
LINE
  8
0
 10
-310.621979
 20
103.504189
 11
-307.621979
 21
103.504189
  0
LINE
  8
0
 10
-303.621979
 20
102.356903
 11
-303.321991
 21
102.356903
  0
LINE
  8
0
 10
-303.621979
 20
103.504189
 11
-303.321991
 21
103.504189
  0
LINE
  8
0
 10
-292.621948
 20
145.361023
 11
-256.621948
 21
145.361023
  0
LINE
  8
0
 10
-282.621948
 20
96.361023
 11
-280.821960
 21
96.361023
  0
LINE
  8
0
 10
-292.621948
 20
123.316360
 11
-290.171967
 21
123.316360
  0
LINE
  8
0
 10
-292.621948
 20
145.361023
 11
-292.621948
 21
122.155937
  0
LINE
  8
0
 10
-256.621948
 20
145.361023
 11
-256.621948
 21
119.206192
  0
LINE
  8
0
 10
-240.621964
 20
115.460007
 11
-240.621964
 21
100.060013
  0
LINE
  8
0
 10
-253.121964
 20
137.213409
 11
-253.121964
 21
131.096176
  0
LINE
  8
0
 10
-246.121964
 20
134.915848
 11
-246.121964
 21
131.515854
  0
LINE
  8
0
 10
-256.621948
 20
129.137695
 11
-253.471954
 21
129.137695
  0
LINE
  8
0
 10
-256.621948
 20
133.054657
 11
-253.471954
 21
133.054657
  0
LINE
  8
0
 10
-256.621948
 20
137.132812
 11
-253.471954
 21
137.132812
  0
LINE
  8
0
 10
-256.621948
 20
137.294006
 11
-253.471954
 21
137.294006
  0
LINE
  8
0
 10
-253.121964
 20
135.215851
 11
-246.421967
 21
135.215851
  0
LINE
  8
0
 10
-253.121964
 20
131.215851
 11
-246.421967
 21
131.215851
  0
LINE
  8
0
 10
-246.421982
 20
135.215881
 11
-246.121979
 21
134.915863
  0
LINE
  8
0
 10
-246.121979
 20
131.515869
 11
-246.421982
 21
131.215866
  0
LINE
  8
0
 10
-253.121964
 20
134.965851
 11
-246.171982
 21
134.965851
  0
LINE
  8
0
 10
-253.121964
 20
131.465851
 11
-246.171982
 21
131.465851
  0
LINE
  8
0
 10
-246.421936
 20
135.215851
 11
-246.421936
 21
131.215851
  0
LINE
  8
0
 10
-256.621948
 20
98.560013
 11
-242.121964
 21
98.560013
  0
LINE
  8
0
 10
-254.521973
 20
114.814560
 11
-254.521973
 21
115.206192
  0
LINE
  8
0
 10
-254.521973
 20
114.814560
 11
-256.621948
 21
114.630836
  0
LINE
  8
0
 10
-254.521973
 20
124.747131
 11
-256.621979
 21
124.930862
  0
LINE
  8
0
 10
-255.921967
 20
104.260010
 11
-255.921967
 21
111.260010
  0
LINE
  8
0
 10
-255.521973
 20
105.160011
 11
-255.521973
 21
110.360008
  0
LINE
  8
0
 10
-254.071960
 20
107.728569
 11
-254.071960
 21
107.791451
  0
LINE
  8
0
 10
-255.521973
 20
110.360008
 11
-255.921967
 21
110.360008
  0
LINE
  8
0
 10
-255.521973
 20
105.160011
 11
-255.921967
 21
105.160011
  0
LINE
  8
0
 10
-255.921967
 20
111.260010
 11
-256.621948
 21
111.260010
  0
LINE
  8
0
 10
-255.921967
 20
104.260010
 11
-256.621948
 21
104.260010
  0
LINE
  8
0
 10
-297.121948
 20
145.361023
 11
-292.621948
 21
145.361023
  0
LINE
  8
0
 10
-297.121948
 20
83.360535
 11
-292.621948
 21
83.360535
  0
LINE
  8
0
 10
-297.121948
 20
123.393784
 11
-292.621948
 21
123.393784
  0
LINE
  8
0
 10
-303.721954
 20
135.908493
 11
-303.721954
 21
126.281540
  0
LINE
  8
0
 10
-303.321960
 20
136.095016
 11
-303.321960
 21
126.095016
  0
LINE
  8
0
 10
-303.321960
 20
136.095016
 11
-297.721954
 21
136.095016
  0
LINE
  8
0
 10
-303.321960
 20
126.095016
 11
-297.721954
 21
126.095016
  0
LINE
  8
0
 10
-303.721985
 20
135.908508
 11
-303.321991
 21
136.095032
  0
LINE
  8
0
 10
-303.721954
 20
126.281548
 11
-303.321960
 21
126.095024
  0
LINE
  8
0
 10
-303.321960
 20
134.095016
 11
-300.276672
 21
134.095016
  0
LINE
  8
0
 10
-303.321960
 20
132.095016
 11
-301.431366
 21
132.095016
  0
LINE
  8
0
 10
-303.321960
 20
130.095016
 11
-302.586060
 21
130.095016
  0
LINE
  8
0
 10
-290.821960
 20
83.660538
 11
-290.821960
 21
59.158836
  0
LINE
  8
0
 10
-281.336212
 20
57.185059
 11
-270.821960
 21
57.185059
  0
LINE
  8
0
 10
-290.821960
 20
76.129395
 11
-283.821960
 21
76.129395
  0
LINE
  8
0
 10
-290.821960
 20
71.886757
 11
-285.821960
 21
71.886757
  0
LINE
  8
0
 10
-290.821960
 20
59.158836
 11
-285.821930
 21
59.158836
  0
LINE
  8
0
 10
-282.621948
 20
93.099960
 11
-281.878571
 21
93.099960
  0
LINE
  8
0
 10
-282.621948
 20
89.564468
 11
-281.878601
 21
89.564468
  0
LINE
  8
0
 10
-281.878571
 20
89.564423
 11
-280.821960
 21
90.858498
  0
LINE
  8
0
 10
-280.821960
 20
91.805923
 11
-281.878510
 21
93.099960
  0
LINE
  8
0
 10
-282.621948
 20
90.978638
 11
-281.878571
 21
90.978638
  0
LINE
  8
0
 10
-281.301208
 20
90.271545
 11
-281.878540
 21
90.978630
  0
LINE
  8
0
 10
-281.878571
 20
93.099960
 11
-281.878571
 21
90.978638
  0
LINE
  8
0
 10
-280.821960
 20
55.634010
 11
-280.821960
 21
38.717323
  0
LINE
  8
0
 10
-270.821960
 20
100.144806
 11
-269.621948
 21
100.144806
  0
LINE
  8
0
 10
-269.621948
 20
100.144798
 11
-269.621948
 21
114.307068
  0
LINE
  8
0
 10
-288.821960
 20
104.407555
 11
-288.821960
 21
109.463341
  0
LINE
  8
0
 10
-290.021973
 20
103.559029
 11
-290.021973
 21
108.862312
  0
LINE
  8
0
 10
-268.642914
 20
103.240997
 11
-269.621948
 21
103.240997
  0
LINE
  8
0
 10
-268.642914
 20
110.240997
 11
-269.621948
 21
110.240997
  0
LINE
  8
0
 10
-270.821960
 20
106.387451
 11
-270.821960
 21
33.014881
  0
LINE
  8
0
 10
-280.821960
 20
106.387451
 11
-280.821960
 21
75.419304
  0
LINE
  8
0
 10
-270.821960
 20
106.387451
 11
-281.321960
 21
106.387451
  0
LINE
  8
0
 10
-281.321960
 20
103.559029
 11
-290.021942
 21
103.559029
  0
LINE
  8
0
 10
-282.521942
 20
104.407555
 11
-288.821960
 21
104.407555
  0
LINE
  8
0
 10
-269.621948
 20
107.943092
 11
-290.021942
 21
107.943092
  0
LINE
  8
0
 10
-295.621979
 20
111.054352
 11
-295.621979
 21
103.291252
  0
LINE
  8
0
 10
-296.671967
 20
111.054352
 11
-296.671967
 21
122.155937
  0
LINE
  8
0
 10
-280.171967
 20
123.316360
 11
-256.621948
 21
123.316360
  0
LINE
  8
0
 10
-292.621948
 20
108.862312
 11
-292.621948
 21
83.360535
  0
LINE
  8
0
 10
-254.521973
 20
119.206192
 11
-254.521973
 21
124.747101
  0
LINE
  8
0
 10
-256.621948
 20
115.206192
 11
-256.621948
 21
96.361023
  0
LINE
  8
0
 10
-282.521973
 20
109.003746
 11
-282.521973
 21
104.407555
  0
LINE
  8
0
 10
-270.821960
 20
96.361023
 11
-256.621948
 21
96.361023
  0
LINE
  8
0
 10
-242.171951
 20
119.206192
 11
-242.171951
 21
115.206192
  0
LINE
  8
0
 10
-242.171951
 20
116.906189
 11
-239.171951
 21
116.906189
  0
LINE
  8
0
 10
-242.171951
 20
117.506187
 11
-239.171951
 21
117.506187
  0
LINE
  8
0
 10
-242.171951
 20
115.906189
 11
-239.171951
 21
115.906189
  0
LINE
  8
0
 10
-242.171951
 20
118.506187
 11
-239.171951
 21
118.506187
  0
LINE
  8
0
 10
-239.171951
 20
118.506187
 11
-239.171951
 21
117.506187
  0
LINE
  8
0
 10
-239.171951
 20
116.906189
 11
-239.171951
 21
115.906189
  0
LINE
  8
0
 10
-239.171951
 20
118.381187
 11
-237.671951
 21
118.381187
  0
LINE
  8
0
 10
-239.171951
 20
118.256187
 11
-237.671951
 21
118.256187
  0
LINE
  8
0
 10
-239.171951
 20
118.131187
 11
-237.671951
 21
118.131187
  0
LINE
  8
0
 10
-239.171951
 20
118.006187
 11
-237.671951
 21
118.006187
  0
LINE
  8
0
 10
-239.171951
 20
117.881187
 11
-237.671951
 21
117.881187
  0
LINE
  8
0
 10
-239.171951
 20
117.756187
 11
-237.671951
 21
117.756187
  0
LINE
  8
0
 10
-239.171951
 20
117.631187
 11
-237.671951
 21
117.631187
  0
LINE
  8
0
 10
-239.171951
 20
116.781189
 11
-237.671951
 21
116.781189
  0
LINE
  8
0
 10
-239.171951
 20
116.656189
 11
-237.671951
 21
116.656189
  0
LINE
  8
0
 10
-239.171951
 20
116.531189
 11
-237.671951
 21
116.531189
  0
LINE
  8
0
 10
-239.171951
 20
116.406189
 11
-237.671951
 21
116.406189
  0
LINE
  8
0
 10
-239.171951
 20
116.281189
 11
-237.671951
 21
116.281189
  0
LINE
  8
0
 10
-239.171951
 20
116.156189
 11
-237.671951
 21
116.156189
  0
LINE
  8
0
 10
-239.171951
 20
116.031189
 11
-237.671951
 21
116.031189
  0
LINE
  8
0
 10
-239.171951
 20
29.964882
 11
-237.671951
 21
29.964882
  0
LINE
  8
0
 10
-239.171951
 20
30.089882
 11
-237.671951
 21
30.089882
  0
LINE
  8
0
 10
-239.171951
 20
29.839882
 11
-237.671951
 21
29.839882
  0
LINE
  8
0
 10
-288.871979
 20
28.534988
 11
-281.471985
 21
28.534988
  0
LINE
  8
0
 10
-289.671967
 20
26.555084
 11
-280.671967
 21
26.555084
  0
LINE
  8
0
 10
-289.671967
 20
21.105339
 11
-280.671967
 21
21.105339
  0
LINE
  8
0
 10
-288.871979
 20
20.256805
 11
-281.471985
 21
20.256805
  0
LINE
  8
0
 10
-288.871979
 20
32.919044
 11
-281.471985
 21
32.919044
  0
LINE
  8
0
 10
-280.971985
 20
32.419044
 11
-280.971985
 21
27.620781
  0
LINE
  8
0
 10
-280.171967
 20
31.004837
 11
-280.171967
 21
21.605339
  0
LINE
  8
0
 10
-289.371979
 20
32.419044
 11
-289.371979
 21
27.620781
  0
LINE
  8
0
 10
-290.171967
 20
31.004833
 11
-290.171967
 21
21.605339
  0
LINE
  8
0
 10
-288.871979
 20
27.120781
 11
-281.471985
 21
27.120781
  0
LINE
  8
0
 10
-290.671967
 20
31.504833
 11
-289.371979
 21
31.504833
  0
LINE
  8
0
 10
-289.371979
 20
21.105339
 11
-289.371979
 21
20.756805
  0
LINE
  8
0
 10
-280.971985
 20
21.105339
 11
-280.971985
 21
20.756805
  0
LINE
  8
0
 10
-280.971985
 20
31.504833
 11
-279.671967
 21
31.504833
  0
LINE
  8
0
 10
-296.671967
 20
31.221989
 11
-290.671967
 21
31.221989
  0
LINE
  8
0
 10
-279.671967
 20
31.504833
 11
-279.671967
 21
25.565136
  0
LINE
  8
0
 10
-290.671967
 20
31.504833
 11
-290.671967
 21
25.565132
  0
LINE
  8
0
 10
-281.671967
 20
38.717323
 11
-281.671967
 21
32.919044
  0
LINE
  8
0
 10
-288.671967
 20
38.717323
 11
-288.671967
 21
32.919044
  0
LINE
  8
0
 10
-279.671967
 20
31.221989
 11
-274.671967
 21
31.221989
  0
LINE
  8
0
 10
-283.671936
 20
35.888897
 11
-283.671936
 21
38.717323
  0
LINE
  8
0
 10
-286.671967
 20
35.888885
 11
-286.671967
 21
38.717316
  0
LINE
  8
0
 10
-288.671967
 20
38.717323
 11
-286.671967
 21
38.717323
  0
LINE
  8
0
 10
-283.671967
 20
38.717323
 11
-281.671967
 21
38.717323
  0
LINE
  8
0
 10
-274.671967
 20
36.666718
 11
-274.671967
 21
25.565136
  0
LINE
  8
0
 10
-294.121979
 20
44.429817
 11
-294.121979
 21
38.858757
  0
LINE
  8
0
 10
-296.671967
 20
25.565132
 11
-290.671967
 21
25.565132
  0
LINE
  8
0
 10
-290.671967
 20
25.847977
 11
-290.171967
 21
25.847977
  0
LINE
  8
0
 10
-280.171967
 20
25.847977
 11
-279.671967
 21
25.847977
  0
LINE
  8
0
 10
-279.671967
 20
25.565132
 11
-274.671967
 21
25.565132
  0
LINE
  8
0
 10
-296.671967
 20
36.666714
 11
-288.671967
 21
36.666714
  0
LINE
  8
0
 10
-286.671967
 20
37.090977
 11
-283.671967
 21
37.090977
  0
LINE
  8
0
 10
-286.671967
 20
38.151630
 11
-283.671967
 21
38.151630
  0
LINE
  8
0
 10
-286.671967
 20
36.666714
 11
-283.671967
 21
36.666714
  0
LINE
  8
0
 10
-281.671967
 20
36.666714
 11
-274.671967
 21
36.666714
  0
LINE
  8
0
 10
-281.671967
 20
37.090977
 11
-275.821960
 21
37.090977
  0
LINE
  8
0
 10
-281.671967
 20
38.151630
 11
-275.821960
 21
38.151630
  0
LINE
  8
0
 10
-289.671936
 20
37.798122
 11
-288.671936
 21
37.091019
  0
LINE
  8
0
 10
-289.671936
 20
38.858761
 11
-288.671967
 21
38.151657
  0
LINE
  8
0
 10
-294.121979
 20
38.858757
 11
-289.671967
 21
38.858757
  0
LINE
  8
0
 10
-295.621979
 20
37.798103
 11
-289.671967
 21
37.798103
  0
LINE
  8
0
 10
-289.671967
 20
38.858757
 11
-289.671967
 21
37.798103
  0
LINE
  8
0
 10
-272.671967
 20
33.014885
 11
-272.671967
 21
28.014885
  0
LINE
  8
0
 10
-274.671967
 20
33.014881
 11
-272.671967
 21
33.014881
  0
LINE
  8
0
 10
-272.671967
 20
28.514881
 11
-242.171951
 21
28.514881
  0
LINE
  8
0
 10
-274.671967
 20
28.014881
 11
-272.671967
 21
28.014881
  0
LINE
  8
0
 10
-309.121979
 20
43.358963
 11
-307.621979
 21
43.358963
  0
LINE
  8
0
 10
-310.621979
 20
42.287468
 11
-307.621979
 21
42.287468
  0
LINE
  8
0
 10
-310.621979
 20
35.216393
 11
-307.621979
 21
35.216393
  0
LINE
  8
0
 10
-310.621979
 20
45.364166
 11
-310.621979
 21
35.216393
  0
LINE
  8
0
 10
-309.121979
 20
44.216881
 11
-309.121979
 21
43.358963
  0
LINE
  8
0
 10
-307.621979
 20
46.424824
 11
-307.621979
 21
42.287468
  0
LINE
  8
0
 10
-303.621979
 20
46.424824
 11
-303.621979
 21
42.287468
  0
LINE
  8
0
 10
-303.621979
 20
43.358963
 11
-297.121979
 21
43.358963
  0
LINE
  8
0
 10
-307.621979
 20
43.519779
 11
-303.621979
 21
43.519779
  0
LINE
  8
0
 10
-307.621979
 20
34.327389
 11
-303.621979
 21
34.327389
  0
LINE
  8
0
 10
-303.621979
 20
35.216393
 11
-296.671967
 21
35.216393
  0
LINE
  8
0
 10
-303.621979
 20
42.287468
 11
-295.621979
 21
42.287468
  0
LINE
  8
0
 10
-307.621979
 20
35.216393
 11
-307.621979
 21
34.327389
  0
LINE
  8
0
 10
-303.621979
 20
35.216393
 11
-303.621979
 21
34.327389
  0
LINE
  8
0
 10
-307.621979
 20
46.424824
 11
-303.621979
 21
46.424824
  0
LINE
  8
0
 10
-310.621979
 20
45.364166
 11
-307.621979
 21
45.364166
  0
LINE
  8
0
 10
-310.621979
 20
44.216881
 11
-307.621979
 21
44.216881
  0
LINE
  8
0
 10
-303.621979
 20
45.364166
 11
-303.321991
 21
45.364166
  0
LINE
  8
0
 10
-303.621979
 20
44.216881
 11
-303.321991
 21
44.216881
  0
LINE
  8
0
 10
-239.171951
 20
29.214882
 11
-239.171951
 21
30.214882
  0
LINE
  8
0
 10
-239.171951
 20
30.814880
 11
-239.171951
 21
31.814880
  0
LINE
  8
0
 10
-272.671967
 20
32.514881
 11
-242.171951
 21
32.514881
  0
LINE
  8
0
 10
-242.171951
 20
29.214882
 11
-239.171951
 21
29.214882
  0
LINE
  8
0
 10
-239.171951
 20
29.464882
 11
-237.671951
 21
29.464882
  0
LINE
  8
0
 10
-239.171951
 20
29.589882
 11
-237.671951
 21
29.589882
  0
LINE
  8
0
 10
-239.171951
 20
29.714882
 11
-237.671951
 21
29.714882
  0
LINE
  8
0
 10
-239.171951
 20
29.339882
 11
-237.671951
 21
29.339882
  0
LINE
  8
0
 10
-239.171951
 20
31.064880
 11
-237.671951
 21
31.064880
  0
LINE
  8
0
 10
-239.171951
 20
30.939880
 11
-237.671951
 21
30.939880
  0
LINE
  8
0
 10
-239.171951
 20
31.689880
 11
-237.671951
 21
31.689880
  0
LINE
  8
0
 10
-239.171951
 20
31.439880
 11
-237.671951
 21
31.439880
  0
LINE
  8
0
 10
-239.171951
 20
31.314880
 11
-237.671951
 21
31.314880
  0
LINE
  8
0
 10
-239.171951
 20
31.189880
 11
-237.671951
 21
31.189880
  0
LINE
  8
0
 10
-295.621979
 20
36.666714
 11
-295.621979
 21
44.429817
  0
LINE
  8
0
 10
-296.671967
 20
36.666714
 11
-296.671967
 21
25.565132
  0
LINE
  8
0
 10
-242.171951
 20
31.814880
 11
-239.171951
 21
31.814880
  0
LINE
  8
0
 10
-239.171951
 20
31.564880
 11
-237.671951
 21
31.564880
  0
LINE
  8
0
 10
-242.171951
 20
28.514881
 11
-242.171951
 21
32.514881
  0
LINE
  8
0
 10
-242.171951
 20
30.814880
 11
-239.171951
 21
30.814880
  0
LINE
  8
0
 10
-242.171951
 20
30.214882
 11
-239.171951
 21
30.214882
  0
LINE
  8
0
 10
-297.121948
 20
43.358963
 11
-297.121948
 21
104.362106
  0
LINE
  8
0
 10
-297.121948
 20
112.504677
 11
-297.121948
 21
145.360535
  0
LINE
  8
0
 10
-303.321960
 20
43.358963
 11
-303.321960
 21
104.362106
  0
LINE
  8
0
 10
-297.721954
 20
125.845016
 11
-297.721954
 21
136.345016
  0
LINE
  8
0
 10
-297.721954
 20
136.345016
 11
-297.121948
 21
136.345016
  0
LINE
  8
0
 10
-297.721954
 20
125.845016
 11
-297.121948
 21
125.845016
  0
LINE
  8
0
 10
-290.621948
 20
99.060532
 11
-290.621948
 21
83.660538
  0
LINE
  8
0
 10
-282.621948
 20
97.060532
 11
-282.621948
 21
85.660538
  0
LINE
  8
0
 10
-283.421967
 20
97.860535
 11
-283.421967
 21
84.860535
  0
LINE
  8
0
 10
-290.621948
 20
97.860535
 11
-283.421967
 21
97.860535
  0
LINE
  8
0
 10
-290.621948
 20
84.860535
 11
-283.421967
 21
84.860535
  0
LINE
  8
0
 10
-292.621948
 20
99.060532
 11
-290.621948
 21
99.060532
  0
LINE
  8
0
 10
-292.621948
 20
83.660538
 11
-290.621948
 21
83.660538
  0
LINE
  8
0
 10
-283.421967
 20
84.860535
 11
-282.621948
 21
85.660538
  0
LINE
  8
0
 10
-282.621948
 20
97.060539
 11
-283.421967
 21
97.860535
  0
LINE
  8
0
 10
-292.621948
 20
90.205833
 11
-290.621948
 21
91.360535
  0
LINE
  8
0
 10
-292.621979
 20
91.014122
 11
-290.621948
 21
92.168823
  0
LINE
  8
0
 10
-271.821960
 20
105.887451
 11
-279.821960
 21
105.887451
  0
LINE
  8
0
 10
-281.336212
 20
73.860062
 11
-270.821960
 21
73.860062
  0
LINE
  8
0
 10
-279.821960
 20
43.662056
 11
-271.821960
 21
43.662056
  0
LINE
  8
0
 10
-271.821960
 20
97.163452
 11
-279.821960
 21
97.163452
  0
LINE
  8
0
 10
-313.821960
 20
116.460533
 11
-313.821960
 21
31.260536
  0
LINE
  8
0
 10
-313.427216
 20
31.860535
 11
-303.321960
 21
31.860535
  0
LINE
  8
0
 10
-308.821960
 20
49.360535
 11
-303.321960
 21
49.360535
  0
LINE
  8
0
 10
-308.821960
 20
98.360535
 11
-303.321960
 21
98.360535
  0
LINE
  8
0
 10
-313.427216
 20
115.860535
 11
-303.321960
 21
115.860535
  0
LINE
  8
0
 10
-313.821960
 20
31.260536
 11
-313.427246
 21
31.860535
  0
LINE
  8
0
 10
-313.821960
 20
116.460533
 11
-313.427246
 21
115.860535
  0
LINE
  8
0
 10
-308.821960
 20
84.978699
 11
-308.821960
 21
62.742371
  0
LINE
  8
0
 10
-308.321960
 20
49.360535
 11
-308.321960
 21
45.364166
  0
LINE
  8
0
 10
-274.671967
 20
114.307068
 11
-269.621948
 21
114.307068
  0
LINE
  8
0
 10
-295.321960
 20
83.360535
 11
-295.321960
 21
59.160530
  0
LINE
  8
0
 10
-297.121948
 20
58.860535
 11
-295.621979
 21
58.860535
  0
LINE
  8
0
 10
-295.621948
 20
58.860508
 11
-295.321930
 21
59.160507
  0
LINE
  8
0
 10
-295.321960
 20
65.360535
 11
-291.371948
 21
65.360535
  0
LINE
  8
0
 10
-295.321960
 20
82.360535
 11
-291.371948
 21
82.360535
  0
LINE
  8
0
 10
-291.321960
 20
82.310532
 11
-291.321960
 21
65.410538
  0
LINE
  8
0
 10
-291.321960
 20
65.460533
 11
-290.821960
 21
65.460533
  0
LINE
  8
0
 10
-291.321960
 20
82.260536
 11
-290.821960
 21
82.260536
  0
LINE
  8
0
 10
-291.321960
 20
82.310555
 11
-291.371948
 21
82.360550
  0
LINE
  8
0
 10
-291.371948
 20
65.360519
 11
-291.321960
 21
65.410515
  0
LINE
  8
0
 10
-307.621979
 20
101.296249
 11
-307.621979
 21
105.433601
  0
LINE
  8
0
 10
-275.821960
 20
109.569443
 11
-275.821960
 21
111.054352
  0
LINE
  8
0
 10
-281.321960
 20
106.387451
 11
-281.321960
 21
103.559029
  0
LINE
  8
0
 10
-275.821960
 20
38.151634
 11
-275.821960
 21
36.666714
  0
LINE
  8
0
 10
-242.171951
 20
116.960007
 11
-242.121964
 21
116.960007
  0
ARC
  8
0
 10
-288.871979
 20
115.302025
 40
0.500000
 50
180.000000
 51
270.000000
  0
ARC
  8
0
 10
-281.471954
 20
115.302025
 40
0.500000
 50
270.000000
 51
0.000000
  0
ARC
  8
0
 10
-280.671967
 20
116.716232
 40
0.500000
 50
270.000000
 51
0.000000
  0
ARC
  8
0
 10
-289.671967
 20
116.716232
 40
0.500000
 50
180.000000
 51
270.000000
  0
ARC
  8
0
 10
-289.671967
 20
126.115730
 40
0.500000
 50
90.000000
 51
180.000000
  0
ARC
  8
0
 10
-280.671967
 20
126.115730
 40
0.500000
 50
0.000000
 51
90.000000
  0
ARC
  8
0
 10
-281.471954
 20
126.964264
 40
0.500000
 50
0.000000
 51
90.000000
  0
ARC
  8
0
 10
-288.871979
 20
126.964264
 40
0.500000
 50
90.000000
 51
180.000000
  0
ARC
  8
0
 10
-281.471954
 20
120.100288
 40
0.500000
 50
0.000000
 51
90.000000
  0
ARC
  8
0
 10
-288.871979
 20
120.100288
 40
0.500000
 50
90.000000
 51
180.000000
  0
ARC
  8
0
 10
-258.776489
 20
131.096176
 40
5.654532
 50
339.735413
 51
20.264589
  0
ARC
  8
0
 10
-259.236755
 20
135.093750
 40
6.114790
 50
340.520538
 51
19.479149
  0
ARC
  8
0
 10
-242.121964
 20
100.060013
 40
1.500000
 50
270.000000
 51
0.000000
  0
CIRCLE
  8
0
 10
-277.171967
 20
112.071381
 40
0.010000
  0
CIRCLE
  8
0
 10
-268.121002
 20
118.296577
 40
0.010000
  0
CIRCLE
  8
0
 10
-283.672913
 20
105.496574
 40
0.010000
  0
ARC
  8
0
 10
-257.071960
 20
107.728569
 40
3.000000
 50
301.109009
 51
0.000000
  0
ARC
  8
0
 10
-257.071960
 20
107.791451
 40
3.000000
 50
0.000000
 51
58.891083
  0
ARC
  8
0
 10
-276.021942
 20
106.741005
 40
9.000017
 50
343.398407
 51
16.601465
  0
ARC
  8
0
 10
-268.642914
 20
108.940994
 40
1.300010
 50
16.601463
 51
90.000000
  0
ARC
  8
0
 10
-268.642914
 20
104.541000
 40
1.299995
 50
270.000000
 51
343.398529
  0
ARC
  8
0
 10
-295.621979
 20
103.291252
 40
1.499969
 50
180.000000
 51
0.000000
  0
ARC
  8
0
 10
-266.353912
 20
119.780823
 40
12.831949
 50
357.433380
 51
22.769403
  0
ARC
  8
0
 10
-281.471954
 20
32.419044
 40
0.500000
 50
0.000000
 51
90.000000
  0
CIRCLE
  8
0
 10
-277.171967
 20
35.649693
 40
0.010000
  0
ARC
  8
0
 10
-289.671967
 20
31.004833
 40
0.500000
 50
90.000000
 51
180.000000
  0
CIRCLE
  8
0
 10
-283.672913
 20
42.224495
 40
0.010000
  0
ARC
  8
0
 10
-288.871979
 20
20.756805
 40
0.500000
 50
180.000000
 51
270.000000
  0
ARC
  8
0
 10
-295.621979
 20
44.429817
 40
1.500000
 50
0.000000
 51
180.000000
  0
ARC
  8
0
 10
-289.671967
 20
21.605339
 40
0.500000
 50
180.000000
 51
270.000000
  0
ARC
  8
0
 10
-280.671967
 20
21.605339
 40
0.500000
 50
270.000000
 51
0.000000
  0
ARC
  8
0
 10
-288.871979
 20
27.620781
 40
0.500000
 50
180.000000
 51
270.000000
  0
ARC
  8
0
 10
-281.471954
 20
20.756805
 40
0.500000
 50
270.000000
 51
0.000000
  0
ARC
  8
0
 10
-280.671967
 20
31.004837
 40
0.500000
 50
0.000000
 51
90.000000
  0
ARC
  8
0
 10
-288.871979
 20
32.419044
 40
0.500000
 50
90.000000
 51
180.000000
  0
CIRCLE
  8
0
 10
-270.121002
 20
29.424492
 40
0.010000
  0
ARC
  8
0
 10
-281.471954
 20
27.620781
 40
0.500000
 50
270.000000
 51
0.000000
  0
ARC
  8
0
 10
-271.821960
 20
104.887451
 40
1.000000
 50
0.000000
 51
90.000000
  0
ARC
  8
0
 10
-279.821960
 20
104.887451
 40
1.000000
 50
90.000000
 51
180.000000
  0
ARC
  8
0
 10
-242.121964
 20
115.460007
 40
1.500000
 50
0.000000
 51
17.304687
  0
ARC
  8
0
 10
-242.121964
 20
115.460007
 40
1.500004
 50
74.605019
 51
90.000000
  0
ARC
  8
0
 10
-284.427673
 20
111.832176
 40
0.755707
 50
0.000578
 51
14.106391
  0
ARC
  8
0
 10
-284.625214
 20
111.759750
 40
0.965187
 50
15.418217
 51
51.388287
  0
ARC
  8
0
 10
-285.171967
 20
110.960945
 40
1.931895
 50
53.502094
 51
126.497902
  0
ARC
  8
0
 10
-285.718719
 20
111.759750
 40
0.965204
 50
128.611710
 51
164.581787
  0
ARC
  8
0
 10
-285.916260
 20
111.832176
 40
0.755698
 50
165.893616
 51
180.000000
  0
ARC
  8
0
 10
-304.802277
 20
108.969147
 40
2.130294
 50
3.762753
 51
11.774215
  0
ARC
  8
0
 10
-305.019836
 20
108.902679
 40
2.356939
 50
12.276806
 51
45.306618
  0
ARC
  8
0
 10
-305.621979
 20
108.169571
 40
3.302731
 50
46.825668
 51
133.175827
  0
ARC
  8
0
 10
-306.224121
 20
108.902664
 40
2.356934
 50
134.695221
 51
167.724640
  0
ARC
  8
0
 10
-306.441681
 20
108.969131
 40
2.130290
 50
168.227386
 51
183.762756
  0
ARC
  8
0
 10
-292.953278
 20
119.327507
 40
0.425082
 50
345.892914
 51
14.106079
  0
ARC
  8
0
 10
-293.064392
 20
119.286766
 40
0.542915
 50
15.418174
 51
51.388477
  0
ARC
  8
0
 10
-293.371948
 20
118.837440
 40
1.086693
 50
53.501793
 51
126.497971
  0
ARC
  8
0
 10
-293.679504
 20
119.286774
 40
0.542927
 50
128.611526
 51
164.581833
  0
ARC
  8
0
 10
-293.790619
 20
119.327507
 40
0.425082
 50
165.892929
 51
194.106079
  0
ARC
  8
0
 10
-293.679504
 20
119.368248
 40
0.542915
 50
195.418167
 51
231.388474
  0
ARC
  8
0
 10
-293.371948
 20
119.817574
 40
1.086693
 50
233.501785
 51
306.497955
  0
ARC
  8
0
 10
-293.064392
 20
119.368240
 40
0.542927
 50
308.611511
 51
344.581818
  0
ARC
  8
0
 10
-307.085754
 20
108.969124
 40
1.486221
 50
174.645645
 51
194.106430
  0
ARC
  8
0
 10
-306.697235
 20
109.111557
 40
1.898239
 50
195.417923
 51
231.388382
  0
ARC
  8
0
 10
-305.621979
 20
110.682510
 40
3.799354
 50
233.502167
 51
306.498047
  0
ARC
  8
0
 10
-304.546722
 20
109.111572
 40
1.898228
 50
308.611755
 51
344.582306
  0
ARC
  8
0
 10
-304.158203
 20
108.969139
 40
1.486222
 50
345.893860
 51
5.331007
  0
ARC
  8
0
 10
-305.622009
 20
105.567627
 40
4.532878
 50
65.111420
 51
114.901779
  0
ARC
  8
0
 10
-292.627655
 20
119.327507
 40
0.755698
 50
345.893616
 51
14.106391
  0
ARC
  8
0
 10
-292.825195
 20
119.255081
 40
0.965187
 50
15.418217
 51
51.388287
  0
ARC
  8
0
 10
-293.371948
 20
118.456284
 40
1.931889
 50
53.501961
 51
126.498039
  0
ARC
  8
0
 10
-293.918701
 20
119.255081
 40
0.965204
 50
128.611710
 51
164.581787
  0
ARC
  8
0
 10
-294.116241
 20
119.327507
 40
0.755698
 50
165.893616
 51
194.106384
  0
ARC
  8
0
 10
-293.918701
 20
119.399933
 40
0.965187
 50
195.418213
 51
231.388290
  0
ARC
  8
0
 10
-293.371948
 20
120.198730
 40
1.931889
 50
233.501953
 51
306.498047
  0
ARC
  8
0
 10
-292.825195
 20
119.399933
 40
0.965204
 50
308.611725
 51
344.581787
  0
ARC
  8
0
 10
-284.352234
 20
123.994415
 40
2.130295
 50
3.762957
 51
11.773612
  0
ARC
  8
0
 10
-284.569794
 20
123.927948
 40
2.356934
 50
12.276262
 51
45.305832
  0
ARC
  8
0
 10
-285.171936
 20
123.194847
 40
3.302735
 50
46.825008
 51
133.175171
  0
ARC
  8
0
 10
-285.774078
 20
123.927948
 40
2.356923
 50
134.694427
 51
167.724106
  0
ARC
  8
0
 10
-285.991638
 20
123.994415
 40
2.130295
 50
168.226791
 51
183.762955
  0
ARC
  8
0
 10
-286.635712
 20
123.994415
 40
1.486220
 50
174.646225
 51
194.106155
  0
ARC
  8
0
 10
-286.247192
 20
124.136848
 40
1.898237
 50
195.417709
 51
231.388382
  0
ARC
  8
0
 10
-285.171936
 20
125.707794
 40
3.799348
 50
233.502106
 51
306.497894
  0
ARC
  8
0
 10
-284.096680
 20
124.136848
 40
1.898234
 50
308.611603
 51
344.582062
  0
ARC
  8
0
 10
-283.708160
 20
123.994415
 40
1.486224
 50
345.893555
 51
5.331300
  0
ARC
  8
0
 10
-285.171967
 20
120.592903
 40
4.532872
 50
65.111816
 51
114.902214
  0
ARC
  8
0
 10
-253.471954
 20
138.397171
 40
1.264267
 50
270.000000
 51
282.243713
  0
ARC
  8
0
 10
-253.230316
 20
137.311813
 40
0.152463
 50
279.999664
 51
312.517853
  0
ARC
  8
0
 10
-253.142990
 20
137.213409
 40
0.021033
 50
318.352661
 51
41.647346
  0
ARC
  8
0
 10
-253.230316
 20
137.115005
 40
0.152471
 50
47.482155
 51
80.000328
  0
ARC
  8
0
 10
-253.471954
 20
136.029648
 40
1.264261
 50
77.756294
 51
90.000000
  0
ARC
  8
0
 10
-287.330139
 20
129.680328
 40
1.108161
 50
345.892181
 51
14.107806
  0
ARC
  8
0
 10
-287.619934
 20
129.574081
 40
1.415484
 50
15.419636
 51
51.391315
  0
ARC
  8
0
 10
-288.421967
 20
128.402222
 40
2.833618
 50
53.504974
 51
126.495026
  0
ARC
  8
0
 10
-289.223999
 20
129.574081
 40
1.415502
 50
128.608688
 51
164.580368
  0
ARC
  8
0
 10
-289.513794
 20
129.680328
 40
1.108161
 50
165.892197
 51
194.107803
  0
ARC
  8
0
 10
-289.223999
 20
129.786575
 40
1.415484
 50
195.419632
 51
231.391312
  0
ARC
  8
0
 10
-288.421967
 20
130.958435
 40
2.833618
 50
233.504974
 51
306.495026
  0
ARC
  8
0
 10
-287.619934
 20
129.786575
 40
1.415502
 50
308.608673
 51
344.580353
  0
ARC
  8
0
 10
-274.621948
 20
107.057419
 40
14.102458
 50
66.292526
 51
90.205444
  0
ARC
  8
0
 10
-283.321960
 20
88.074577
 40
6.439587
 50
67.269081
 51
83.765915
  0
ARC
  8
0
 10
-283.321960
 20
88.931129
 40
5.324231
 50
62.145733
 51
82.453003
  0
ARC
  8
0
 10
-285.821960
 20
78.326347
 40
6.439598
 50
270.000000
 51
306.497925
  0
ARC
  8
0
 10
-283.999481
 20
75.663704
 40
3.217344
 50
308.611755
 51
344.582123
  0
ARC
  8
0
 10
-283.340973
 20
75.422295
 40
2.519016
 50
345.893555
 51
0.000000
  0
ARC
  8
0
 10
-283.340912
 20
55.623295
 40
2.518982
 50
0.000000
 51
14.106531
  0
ARC
  8
0
 10
-283.999451
 20
55.381882
 40
3.217347
 50
15.417884
 51
51.388275
  0
ARC
  8
0
 10
-285.821930
 20
52.719231
 40
6.439604
 50
53.502132
 51
90.000000
  0
ARC
  8
0
 10
-283.821960
 20
90.262306
 40
3.863751
 50
288.025299
 51
306.497803
  0
ARC
  8
0
 10
-282.728455
 20
88.664726
 40
1.930390
 50
308.610992
 51
344.582245
  0
ARC
  8
0
 10
-282.333344
 20
88.519875
 40
1.511395
 50
345.893890
 51
0.000000
  0
ARC
  8
0
 10
-283.821960
 20
79.993156
 40
3.863754
 50
270.000000
 51
306.497803
  0
ARC
  8
0
 10
-282.728455
 20
78.395576
 40
1.930390
 50
308.610992
 51
344.581787
  0
ARC
  8
0
 10
-282.333344
 20
78.250725
 40
1.511367
 50
345.893341
 51
0.000000
  0
ARC
  8
0
 10
-272.799438
 20
113.175476
 40
3.217310
 50
20.561197
 51
39.201389
  0
ARC
  8
0
 10
-274.621948
 20
119.776306
 40
14.102451
 50
302.181702
 51
306.498657
  0
ARC
  8
0
 10
-270.630890
 20
113.945518
 40
7.046135
 50
308.612335
 51
344.582581
  0
ARC
  8
0
 10
-269.188812
 20
113.416862
 40
5.516848
 50
345.893951
 51
14.106195
  0
ARC
  8
0
 10
-270.630890
 20
112.888206
 40
7.046134
 50
15.417532
 51
19.190924
  0
ARC
  8
0
 10
-263.834442
 20
119.321884
 40
1.763471
 50
356.239410
 51
14.105742
  0
ARC
  8
0
 10
-264.295380
 20
119.152924
 40
2.252276
 50
15.416729
 51
51.386749
  0
ARC
  8
0
 10
-265.570984
 20
117.289352
 40
4.507535
 50
53.500504
 51
126.499496
  0
ARC
  8
0
 10
-266.846588
 20
119.152924
 40
2.252263
 50
128.613251
 51
164.583267
  0
ARC
  8
0
 10
-267.307526
 20
119.321884
 40
1.763469
 50
165.894257
 51
183.738266
  0
ARC
  8
0
 10
-283.321960
 20
93.882698
 40
6.439595
 50
276.239258
 51
292.737946
  0
ARC
  8
0
 10
-283.321960
 20
93.733253
 40
5.324223
 50
277.560913
 51
297.858093
  0
ARC
  8
0
 10
-292.627655
 20
28.393562
 40
0.755698
 50
345.893616
 51
14.106531
  0
ARC
  8
0
 10
-292.825195
 20
28.321138
 40
0.965187
 50
15.418217
 51
51.388287
  0
ARC
  8
0
 10
-293.371948
 20
27.522339
 40
1.931890
 50
53.501995
 51
126.498039
  0
ARC
  8
0
 10
-293.918701
 20
28.321138
 40
0.965203
 50
128.611786
 51
164.581894
  0
ARC
  8
0
 10
-294.116241
 20
28.393562
 40
0.755698
 50
165.893616
 51
194.106537
  0
ARC
  8
0
 10
-293.918701
 20
28.465986
 40
0.965187
 50
195.418213
 51
231.388290
  0
ARC
  8
0
 10
-293.371948
 20
29.264786
 40
1.931890
 50
233.501999
 51
306.498047
  0
ARC
  8
0
 10
-292.825195
 20
28.465986
 40
0.965203
 50
308.611786
 51
344.581879
  0
ARC
  8
0
 10
-285.991638
 20
23.726656
 40
2.130295
 50
176.237091
 51
191.773315
  0
ARC
  8
0
 10
-285.774078
 20
23.793123
 40
2.356931
 50
192.275986
 51
225.305664
  0
ARC
  8
0
 10
-285.171936
 20
24.526222
 40
3.302727
 50
226.824875
 51
313.175049
  0
ARC
  8
0
 10
-284.569794
 20
23.793121
 40
2.356931
 50
314.694244
 51
347.723785
  0
ARC
  8
0
 10
-284.352234
 20
23.726652
 40
2.130297
 50
348.226501
 51
356.237030
  0
ARC
  8
0
 10
-306.441681
 20
38.751942
 40
2.130294
 50
176.237457
 51
191.772705
  0
ARC
  8
0
 10
-306.224121
 20
38.818405
 40
2.356926
 50
192.275360
 51
225.304779
  0
ARC
  8
0
 10
-305.621979
 20
39.551498
 40
3.302728
 50
226.824173
 51
313.174347
  0
ARC
  8
0
 10
-305.019836
 20
38.818390
 40
2.356923
 50
314.693390
 51
347.723206
  0
ARC
  8
0
 10
-304.802277
 20
38.751919
 40
2.130302
 50
348.225891
 51
356.237457
  0
ARC
  8
0
 10
-305.622009
 20
42.153439
 40
4.532875
 50
245.098221
 51
294.888611
  0
ARC
  8
0
 10
-292.953278
 20
28.393566
 40
0.425080
 50
345.893921
 51
14.106827
  0
ARC
  8
0
 10
-293.064392
 20
28.352825
 40
0.542917
 50
15.418756
 51
51.388603
  0
ARC
  8
0
 10
-293.371948
 20
27.903498
 40
1.086696
 50
53.501911
 51
126.498390
  0
ARC
  8
0
 10
-293.679504
 20
28.352821
 40
0.542924
 50
128.611771
 51
164.582214
  0
ARC
  8
0
 10
-293.790619
 20
28.393559
 40
0.425080
 50
165.893921
 51
194.106827
  0
ARC
  8
0
 10
-293.679504
 20
28.434299
 40
0.542917
 50
195.418762
 51
231.388596
  0
ARC
  8
0
 10
-293.371948
 20
28.883627
 40
1.086696
 50
233.501907
 51
306.498383
  0
ARC
  8
0
 10
-293.064392
 20
28.434303
 40
0.542924
 50
308.611786
 51
344.582214
  0
ARC
  8
0
 10
-285.916260
 20
35.888893
 40
0.755707
 50
180.000000
 51
194.106384
  0
ARC
  8
0
 10
-285.718719
 20
35.961319
 40
0.965187
 50
195.418213
 51
231.388290
  0
ARC
  8
0
 10
-285.171967
 20
36.760120
 40
1.931892
 50
233.502029
 51
306.497986
  0
ARC
  8
0
 10
-284.625214
 20
35.961315
 40
0.965201
 50
308.611847
 51
344.581787
  0
ARC
  8
0
 10
-284.427673
 20
35.888893
 40
0.755699
 50
345.893341
 51
359.999725
  0
ARC
  8
0
 10
-304.158203
 20
38.751926
 40
1.486226
 50
354.669128
 51
14.106009
  0
ARC
  8
0
 10
-304.546722
 20
38.609497
 40
1.898235
 50
15.417484
 51
51.388241
  0
ARC
  8
0
 10
-305.621979
 20
37.038555
 40
3.799338
 50
53.501995
 51
126.497795
  0
ARC
  8
0
 10
-306.697235
 20
38.609509
 40
1.898237
 50
128.611542
 51
164.581955
  0
ARC
  8
0
 10
-307.085754
 20
38.751942
 40
1.486225
 50
165.893417
 51
185.354355
  0
ARC
  8
0
 10
-285.171967
 20
27.128162
 40
4.532870
 50
245.097763
 51
294.888214
  0
ARC
  8
0
 10
-283.708160
 20
23.726658
 40
1.486227
 50
354.668640
 51
14.106295
  0
ARC
  8
0
 10
-284.096680
 20
23.584225
 40
1.898238
 50
15.417817
 51
51.388382
  0
ARC
  8
0
 10
-285.171936
 20
22.013279
 40
3.799348
 50
53.502098
 51
126.497917
  0
ARC
  8
0
 10
-286.247192
 20
23.584225
 40
1.898233
 50
128.611649
 51
164.582184
  0
ARC
  8
0
 10
-286.635712
 20
23.726658
 40
1.486223
 50
165.893707
 51
185.354065
  0
POLYLINE
  8
0
 66
     1
  0
VERTEX
  8
0
 10
-308.821960
 20
98.360535
  0
VERTEX
  8
0
 10
-309.842560
 20
98.306496
  0
VERTEX
  8
0
 10
-310.927643
 20
98.063141
  0
VERTEX
  8
0
 10
-311.942200
 20
97.674118
  0
VERTEX
  8
0
 10
-312.751312
 20
97.183044
  0
VERTEX
  8
0
 10
-313.219971
 20
96.633568
  0
VERTEX
  8
0
 10
-313.421570
 20
95.792465
  0
VERTEX
  8
0
 10
-313.427216
 20
94.842468
  0
VERTEX
  8
0
 10
-313.388794
 20
94.164528
  0
VERTEX
  8
0
 10
-313.324127
 20
93.503944
  0
VERTEX
  8
0
 10
-313.219971
 20
92.795494
  0
VERTEX
  8
0
 10
-313.058258
 20
91.976768
  0
VERTEX
  8
0
 10
-312.847534
 20
91.162834
  0
VERTEX
  8
0
 10
-312.571289
 20
90.300751
  0
VERTEX
  8
0
 10
-312.298920
 20
89.571129
  0
VERTEX
  8
0
 10
-311.989838
 20
88.863808
  0
VERTEX
  8
0
 10
-311.630219
 20
88.171310
  0
VERTEX
  8
0
 10
-311.206177
 20
87.486160
  0
VERTEX
  8
0
 10
-310.689880
 20
86.789207
  0
VERTEX
  8
0
 10
-310.114716
 20
86.137085
  0
VERTEX
  8
0
 10
-309.489258
 20
85.532631
  0
VERTEX
  8
0
 10
-308.821960
 20
84.978699
  0
SEQEND
  0
POLYLINE
  8
0
 66
     1
  0
VERTEX
  8
0
 10
-308.821960
 20
49.360535
  0
VERTEX
  8
0
 10
-309.842560
 20
49.414574
  0
VERTEX
  8
0
 10
-310.927643
 20
49.657925
  0
VERTEX
  8
0
 10
-311.942200
 20
50.046951
  0
VERTEX
  8
0
 10
-312.751312
 20
50.538021
  0
VERTEX
  8
0
 10
-313.219971
 20
51.087502
  0
VERTEX
  8
0
 10
-313.421570
 20
51.928608
  0
VERTEX
  8
0
 10
-313.427216
 20
52.878605
  0
VERTEX
  8
0
 10
-313.388794
 20
53.556545
  0
VERTEX
  8
0
 10
-313.324127
 20
54.217125
  0
VERTEX
  8
0
 10
-313.219971
 20
54.925575
  0
VERTEX
  8
0
 10
-313.058258
 20
55.744305
  0
VERTEX
  8
0
 10
-312.847534
 20
56.558235
  0
VERTEX
  8
0
 10
-312.571289
 20
57.420322
  0
VERTEX
  8
0
 10
-312.298920
 20
58.149940
  0
VERTEX
  8
0
 10
-311.989838
 20
58.857258
  0
VERTEX
  8
0
 10
-311.630219
 20
59.549759
  0
VERTEX
  8
0
 10
-311.206177
 20
60.234909
  0
VERTEX
  8
0
 10
-310.689880
 20
60.931862
  0
VERTEX
  8
0
 10
-310.114716
 20
61.583984
  0
VERTEX
  8
0
 10
-309.489258
 20
62.188435
  0
VERTEX
  8
0
 10
-308.821960
 20
62.742371
  0
SEQEND
  0
POLYLINE
  8
0
 66
     1
  0
VERTEX
  8
0
 10
-313.427216
 20
115.860535
  0
VERTEX
  8
0
 10
-313.257904
 20
115.552078
  0
VERTEX
  8
0
 10
-313.054199
 20
115.184250
  0
VERTEX
  8
0
 10
-312.754883
 20
114.648415
  0
VERTEX
  8
0
 10
-312.406189
 20
114.032829
  0
VERTEX
  8
0
 10
-312.051239
 20
113.413933
  0
VERTEX
  8
0
 10
-311.693054
 20
112.796913
  0
VERTEX
  8
0
 10
-311.366699
 20
112.241730
  0
VERTEX
  8
0
 10
-310.996185
 20
111.620995
  0
VERTEX
  8
0
 10
-310.621582
 20
111.002731
  0
SEQEND
  0
POLYLINE
  8
0
 66
     1
  0
VERTEX
  8
0
 10
-313.427216
 20
31.860535
  0
VERTEX
  8
0
 10
-313.257904
 20
32.168987
  0
VERTEX
  8
0
 10
-313.054199
 20
32.536819
  0
VERTEX
  8
0
 10
-312.754883
 20
33.072655
  0
VERTEX
  8
0
 10
-312.406189
 20
33.688240
  0
VERTEX
  8
0
 10
-312.051239
 20
34.307137
  0
VERTEX
  8
0
 10
-311.693054
 20
34.924152
  0
VERTEX
  8
0
 10
-311.366699
 20
35.479340
  0
VERTEX
  8
0
 10
-310.996185
 20
36.100075
  0
VERTEX
  8
0
 10
-310.621582
 20
36.718338
  0
SEQEND
  0
POINT
  8
0
 10
-111.755188
 20
204.480713
  0
POINT
  8
0
 10
-63.255188
 20
204.480713
  0
LINE
  8
0
 10
-64.803329
 20
151.871964
 11
-76.046326
 21
163.114960
  0
LINE
  8
0
 10
-59.146458
 20
157.528809
 11
-70.389458
 21
168.771820
  0
LINE
  8
0
 10
-63.459782
 20
161.842163
 11
-69.116638
 21
156.185318
  0
LINE
  8
0
 10
-69.682343
 20
169.478912
 11
-70.106598
 21
169.054657
  0
LINE
  8
0
 10
-70.389450
 20
169.337479
 11
-76.611984
 21
163.114944
  0
LINE
  8
0
 10
-69.682358
 20
156.185318
 11
-76.612000
 21
163.114960
  0
LINE
  8
0
 10
-63.459808
 20
162.407867
 11
-70.389450
 21
169.337509
  0
LINE
  8
0
 10
-68.904495
 20
167.286865
 11
-74.561356
 21
161.630020
  0
LINE
  8
0
 10
-62.328445
 20
163.539215
 11
-63.742661
 21
162.125000
  0
LINE
  8
0
 10
-59.146435
 20
156.821671
 11
-64.096184
 21
151.871933
  0
LINE
  8
0
 10
-58.297932
 20
158.801590
 11
-59.358593
 21
157.740921
  0
LINE
  8
0
 10
-69.399513
 20
156.468140
 11
-70.813728
 21
155.053925
  0
LINE
  8
0
 10
-66.783234
 20
151.023437
 11
-70.813736
 21
155.053940
  0
LINE
  8
0
 10
-58.297935
 20
159.508713
 11
-62.328442
 21
163.539215
  0
LINE
  8
0
 10
-65.015450
 20
152.084076
 11
-66.076111
 21
151.023407
  0
LINE
  8
0
 10
-69.682358
 20
167.357666
 11
-68.975250
 21
167.357666
  0
LINE
  8
0
 10
-74.632126
 20
162.407867
 11
-74.632126
 21
161.700760
  0
LINE
  8
0
 10
-73.217926
 20
160.286545
 11
-67.561081
 21
165.943390
  0
LINE
  8
0
 10
-81.414413
 20
164.947540
 11
-82.366089
 21
165.899231
  0
LINE
  8
0
 10
-72.222031
 20
174.139938
 11
-73.173706
 21
175.091614
  0
LINE
  8
0
 10
-75.692734
 20
161.347198
 11
-75.268478
 21
161.771454
  0
LINE
  8
0
 10
-75.692749
 20
161.347183
 11
-83.824478
 21
169.478912
  0
LINE
  8
0
 10
-68.621674
 20
168.418259
 11
-76.753395
 21
176.549988
  0
LINE
  8
0
 10
-76.753395
 20
162.407852
 11
-76.329140
 21
162.832108
  0
LINE
  8
0
 10
-83.824463
 20
169.478912
 11
-76.753395
 21
176.549988
  0
LINE
  8
0
 10
-70.389450
 20
168.771805
 11
-76.046310
 21
163.114944
  0
LINE
  8
0
 10
-69.045929
 20
167.994003
 11
-68.621674
 21
168.418259
  0
LINE
  8
0
 10
-74.985641
 20
162.054291
 11
-69.328781
 21
167.711151
  0
LINE
  8
0
 10
-164.363937
 20
157.528854
 11
-153.120941
 21
168.771851
  0
LINE
  8
0
 10
-158.707092
 20
151.871979
 11
-147.464096
 21
163.114990
  0
LINE
  8
0
 10
-154.393738
 20
156.185303
 11
-160.050598
 21
161.842163
  0
LINE
  8
0
 10
-146.756989
 20
162.407867
 11
-147.181244
 21
162.832123
  0
LINE
  8
0
 10
-146.898407
 20
163.114975
 11
-153.120956
 21
169.337524
  0
LINE
  8
0
 10
-160.050598
 20
162.407883
 11
-153.120941
 21
169.337524
  0
LINE
  8
0
 10
-153.828033
 20
156.185333
 11
-146.898392
 21
163.114975
  0
LINE
  8
0
 10
-148.949020
 20
161.630035
 11
-154.605865
 21
167.286896
  0
LINE
  8
0
 10
-152.696686
 20
155.053970
 11
-154.110901
 21
156.468185
  0
LINE
  8
0
 10
-159.414230
 20
151.871964
 11
-164.363983
 21
156.821716
  0
LINE
  8
0
 10
-157.434326
 20
151.023453
 11
-158.494995
 21
152.084106
  0
LINE
  8
0
 10
-159.767761
 20
162.125046
 11
-161.181976
 21
163.539261
  0
LINE
  8
0
 10
-165.212463
 20
159.508759
 11
-161.181961
 21
163.539261
  0
LINE
  8
0
 10
-156.727188
 20
151.023468
 11
-152.696686
 21
155.053970
  0
LINE
  8
0
 10
-164.151840
 20
157.740967
 11
-165.212509
 21
158.801636
  0
LINE
  8
0
 10
-148.878235
 20
162.407898
 11
-148.878235
 21
161.700775
  0
LINE
  8
0
 10
-153.828033
 20
167.357651
 11
-154.535156
 21
167.357651
  0
LINE
  8
0
 10
-155.949371
 20
165.943451
 11
-150.292511
 21
160.286606
  0
LINE
  8
0
 10
-142.095963
 20
164.947556
 11
-141.144287
 21
165.899231
  0
LINE
  8
0
 10
-154.888702
 20
168.418274
 11
-154.464447
 21
167.994019
  0
LINE
  8
0
 10
-154.888718
 20
168.418274
 11
-145.696320
 21
177.610657
  0
LINE
  8
0
 10
-147.817642
 20
161.347198
 11
-135.961060
 21
173.203781
  0
LINE
  8
0
 10
-153.828064
 20
169.478928
 11
-153.403809
 21
169.054672
  0
LINE
  8
0
 10
-147.464096
 20
163.114975
 11
-153.120941
 21
168.771835
  0
LINE
  8
0
 10
-148.241913
 20
161.771454
 11
-147.817642
 21
161.347198
  0
LINE
  8
0
 10
-154.181610
 20
167.711166
 11
-148.524750
 21
162.054321
  0
LINE
  8
0
 10
-134.255676
 20
212.880722
 11
-161.211029
 21
239.836075
  0
LINE
  8
0
 10
-161.211029
 20
169.125366
 11
-134.255676
 21
196.080719
  0
LINE
  8
0
 10
-161.211060
 20
169.125366
 11
-183.255676
 21
191.169998
  0
LINE
  8
0
 10
-183.255692
 20
217.791443
 11
-161.211029
 21
239.836090
  0
LINE
  8
0
 10
-134.255676
 20
196.080719
 11
-134.255676
 21
212.880722
  0
LINE
  8
0
 10
-183.255676
 20
191.081177
 11
-183.255676
 21
217.880249
  0
LINE
  8
0
 10
-154.847076
 20
233.472122
 11
-148.129562
 21
240.189636
  0
LINE
  8
0
 10
-147.775986
 20
226.401031
 11
-141.058472
 21
233.118546
  0
LINE
  8
0
 10
-153.608292
 20
175.594040
 11
-154.175339
 21
176.161087
  0
LINE
  8
0
 10
-147.880707
 20
181.321579
 11
-148.447769
 21
181.888641
  0
LINE
  8
0
 10
-147.104233
 20
239.871445
 11
-146.468475
 21
240.507202
  0
LINE
  8
0
 10
-141.376678
 20
234.143860
 11
-140.740921
 21
234.779617
  0
LINE
  8
0
 10
-140.909027
 20
233.676224
 11
-147.571854
 21
240.339050
  0
LINE
  8
0
 10
-153.608246
 20
175.594040
 11
-147.880692
 21
181.321594
  0
LINE
  8
0
 10
-146.468475
 20
240.507172
 11
-140.740906
 21
234.779602
  0
LINE
  8
0
 10
-141.058472
 20
233.118546
 11
-140.909042
 21
233.676224
  0
LINE
  8
0
 10
-148.129532
 20
240.189621
 11
-147.571854
 21
240.339050
  0
LINE
  8
0
 10
-141.058472
 20
233.118546
 11
-148.129532
 21
240.189606
  0
LINE
  8
0
 10
-170.949310
 20
194.207886
 11
-167.032349
 21
196.655472
  0
LINE
  8
0
 10
-175.188675
 20
200.992264
 11
-171.271713
 21
203.439850
  0
LINE
  8
0
 10
-170.949295
 20
194.207901
 11
-175.027466
 21
196.376297
  0
LINE
  8
0
 10
-167.193527
 20
201.271484
 11
-171.271683
 21
203.439880
  0
LINE
  8
0
 10
-175.027481
 20
196.376266
 11
-175.188675
 21
200.992264
  0
LINE
  8
0
 10
-167.032425
 20
196.655457
 11
-167.193619
 21
201.271454
  0
LINE
  8
0
 10
-170.411316
 20
196.950073
 11
-172.488159
 21
200.273727
  0
LINE
  8
0
 10
-169.732864
 20
197.373993
 11
-171.809708
 21
200.697647
  0
LINE
  8
0
 10
-167.678070
 20
207.046982
 11
-166.717758
 21
211.564850
  0
LINE
  8
0
 10
-175.503220
 20
208.710281
 11
-174.542923
 21
213.228165
  0
LINE
  8
0
 10
-167.678070
 20
207.046967
 11
-172.070801
 21
205.619675
  0
LINE
  8
0
 10
-170.150192
 20
214.655411
 11
-174.542938
 21
213.228119
  0
LINE
  8
0
 10
-172.070816
 20
205.619705
 11
-175.503250
 21
208.710281
  0
LINE
  8
0
 10
-166.717773
 20
211.564850
 11
-170.150208
 21
214.655441
  0
LINE
  8
0
 10
-169.276901
 20
209.338898
 11
-173.110443
 21
210.153732
  0
LINE
  8
0
 10
-169.110565
 20
210.121414
 11
-172.944107
 21
210.936264
  0
LINE
  8
0
 10
-121.255188
 20
169.355927
 11
-121.255188
 21
182.087677
  0
LINE
  8
0
 10
-121.255188
 20
217.608124
 11
-121.255188
 21
239.605499
  0
LINE
  8
0
 10
-161.288452
 20
169.113953
 11
-183.255203
 21
191.080704
  0
LINE
  8
0
 10
-183.255203
 20
217.880737
 11
-161.288452
 21
239.847488
  0
LINE
  8
0
 10
-161.288437
 20
169.113953
 11
-161.244034
 21
169.158356
  0
LINE
  8
0
 10
-159.691437
 20
169.655029
 11
-154.741684
 21
174.604767
  0
LINE
  8
0
 10
-158.772186
 20
170.008575
 11
-155.095230
 21
173.685532
  0
LINE
  8
0
 10
-155.930634
 20
170.799515
 11
-155.886169
 21
170.843979
  0
LINE
  8
0
 10
-155.095261
 20
173.685532
 11
-155.378113
 21
173.968369
  0
LINE
  8
0
 10
-158.772202
 20
170.008575
 11
-159.055054
 21
170.291428
  0
LINE
  8
0
 10
-154.741714
 20
174.604767
 11
-155.236694
 21
175.099747
  0
LINE
  8
0
 10
-159.691437
 20
169.655029
 11
-160.186417
 21
170.149994
  0
LINE
  8
0
 10
-146.891418
 20
182.455032
 11
-141.941681
 21
187.404770
  0
LINE
  8
0
 10
-145.972183
 20
182.808578
 11
-142.295227
 21
186.485535
  0
LINE
  8
0
 10
-143.130630
 20
183.599518
 11
-143.086166
 21
183.643982
  0
LINE
  8
0
 10
-142.295227
 20
186.485535
 11
-142.578079
 21
186.768372
  0
LINE
  8
0
 10
-145.972183
 20
182.808563
 11
-146.255020
 21
183.091415
  0
LINE
  8
0
 10
-141.941681
 20
187.404770
 11
-142.436646
 21
187.899734
  0
LINE
  8
0
 10
-146.891418
 20
182.455017
 11
-147.386383
 21
182.949982
  0
LINE
  8
0
 10
-141.941666
 20
221.556656
 11
-146.891418
 21
226.506409
  0
LINE
  8
0
 10
-142.295227
 20
222.475906
 11
-145.972168
 21
226.152863
  0
LINE
  8
0
 10
-143.086151
 20
225.317459
 11
-143.130615
 21
225.361923
  0
LINE
  8
0
 10
-145.972183
 20
226.152847
 11
-146.255035
 21
225.869995
  0
LINE
  8
0
 10
-142.295227
 20
222.475906
 11
-142.578064
 21
222.193054
  0
LINE
  8
0
 10
-146.891403
 20
226.506409
 11
-147.386383
 21
226.011444
  0
LINE
  8
0
 10
-141.941650
 20
221.556656
 11
-142.436630
 21
221.061691
  0
LINE
  8
0
 10
-154.741669
 20
234.356659
 11
-159.691422
 21
239.306412
  0
LINE
  8
0
 10
-155.095215
 20
235.275909
 11
-158.772171
 21
238.952850
  0
LINE
  8
0
 10
-155.886154
 20
238.117462
 11
-155.930618
 21
238.161926
  0
LINE
  8
0
 10
-158.772156
 20
238.952850
 11
-159.055008
 21
238.670013
  0
LINE
  8
0
 10
-155.095200
 20
235.275909
 11
-155.378052
 21
234.993057
  0
LINE
  8
0
 10
-159.691406
 20
239.306396
 11
-160.186386
 21
238.811432
  0
LINE
  8
0
 10
-154.741653
 20
234.356659
 11
-155.236633
 21
233.861694
  0
LINE
  8
0
 10
-161.288437
 20
239.847473
 11
-161.244019
 21
239.803070
  0
LINE
  8
0
 10
-111.607643
 20
187.657700
 11
-94.932167
 21
204.333176
  0
LINE
  8
0
 10
-132.261292
 20
206.602036
 11
-123.493156
 21
215.370148
  0
LINE
  8
0
 10
-133.889984
 20
174.792969
 11
-111.607643
 21
187.657700
  0
LINE
  8
0
 10
-138.392822
 20
183.499939
 11
-132.790009
 21
189.102753
  0
LINE
  8
0
 10
-153.215912
 20
174.782104
 11
-144.023376
 21
182.495544
  0
LINE
  8
0
 10
-129.432861
 20
205.187820
 11
-129.432861
 21
209.430466
  0
LINE
  8
0
 10
-120.594025
 20
204.834259
 11
-116.775642
 21
208.652649
  0
LINE
  8
0
 10
-102.916351
 20
204.834259
 11
-111.401634
 21
213.319550
  0
LINE
  8
0
 10
-111.401634
 20
195.641876
 11
-102.916351
 21
204.127167
  0
LINE
  8
0
 10
-112.108742
 20
195.641876
 11
-120.594025
 21
204.127167
  0
LINE
  8
0
 10
-112.108742
 20
194.934769
 11
-121.301132
 21
204.127167
  0
LINE
  8
0
 10
-111.401634
 20
194.934769
 11
-102.209244
 21
204.127167
  0
LINE
  8
0
 10
-102.209244
 20
204.834259
 11
-111.401634
 21
214.026657
  0
LINE
  8
0
 10
-121.301132
 20
204.834259
 11
-117.129196
 21
209.006195
  0
LINE
  8
0
 10
-115.927116
 20
209.501175
 11
-122.644630
 21
216.218689
  0
LINE
  8
0
 10
-116.775650
 20
208.652649
 11
-123.493164
 21
215.370163
  0
LINE
  8
0
 10
-115.927116
 20
209.501175
 11
-112.108742
 21
213.319550
  0
LINE
  8
0
 10
-116.280670
 20
209.854721
 11
-112.108742
 21
214.026657
  0
LINE
  8
0
 10
-112.462296
 20
222.158386
 11
-116.704933
 21
222.158386
  0
LINE
  8
0
 10
-116.704933
 20
222.158386
 11
-122.644630
 21
216.218689
  0
LINE
  8
0
 10
-90.774406
 20
231.118347
 11
-96.377220
 21
225.515533
  0
LINE
  8
0
 10
-82.056572
 20
245.941452
 11
-89.770020
 21
236.748917
  0
LINE
  8
0
 10
-72.977631
 20
236.187195
 11
-80.478256
 21
228.686569
  0
LINE
  8
0
 10
-82.067444
 20
226.615509
 11
-94.932167
 21
204.333176
  0
LINE
  8
0
 10
-117.836304
 20
209.713303
 11
-116.987778
 21
210.561829
  0
LINE
  8
0
 10
-122.078949
 20
213.955948
 11
-121.230415
 21
214.804474
  0
LINE
  8
0
 10
-132.261261
 20
206.602036
 11
-132.002441
 21
205.636108
  0
LINE
  8
0
 10
-128.612701
 20
202.246353
 11
-132.002457
 21
205.636108
  0
LINE
  8
0
 10
-128.792633
 20
203.133392
 11
-132.261292
 21
206.602036
  0
LINE
  8
0
 10
-142.867889
 20
177.610657
 11
-138.625259
 21
173.368011
  0
LINE
  8
0
 10
-152.201706
 20
171.105255
 11
-145.130630
 21
164.034195
  0
LINE
  8
0
 10
-144.635651
 20
173.700241
 11
-144.635651
 21
169.500244
  0
LINE
  8
0
 10
-146.735641
 20
171.600250
 11
-142.535645
 21
171.600250
  0
LINE
  8
0
 10
-125.791084
 20
174.180710
 11
-127.523140
 21
177.180710
  0
LINE
  8
0
 10
-127.523140
 20
177.180710
 11
-129.754288
 21
177.180710
  0
LINE
  8
0
 10
-132.719299
 20
174.180725
 11
-131.603714
 21
176.112946
  0
LINE
  8
0
 10
-130.987244
 20
171.180710
 11
-132.719299
 21
174.180710
  0
LINE
  8
0
 10
-127.523140
 20
171.180725
 11
-130.987244
 21
171.180725
  0
LINE
  8
0
 10
-125.791092
 20
174.180710
 11
-127.523140
 21
171.180725
  0
LINE
  8
0
 10
-125.791084
 20
234.780716
 11
-127.523132
 21
237.780716
  0
LINE
  8
0
 10
-127.523132
 20
237.780716
 11
-130.987244
 21
237.780716
  0
LINE
  8
0
 10
-132.719284
 20
234.780716
 11
-130.987244
 21
237.780716
  0
LINE
  8
0
 10
-130.987244
 20
231.780716
 11
-132.719284
 21
234.780716
  0
LINE
  8
0
 10
-127.523132
 20
231.780716
 11
-130.987244
 21
231.780716
  0
LINE
  8
0
 10
-125.791084
 20
234.780716
 11
-127.523132
 21
231.780716
  0
LINE
  8
0
 10
-145.654663
 20
218.135422
 11
-146.654663
 21
217.558075
  0
LINE
  8
0
 10
-146.654663
 20
217.558075
 11
-146.654663
 21
216.403366
  0
LINE
  8
0
 10
-145.654663
 20
215.826019
 11
-146.654663
 21
216.403366
  0
LINE
  8
0
 10
-144.654663
 20
216.403366
 11
-145.654663
 21
215.826019
  0
LINE
  8
0
 10
-144.654663
 20
217.558075
 11
-144.654663
 21
216.403366
  0
LINE
  8
0
 10
-145.654663
 20
218.135422
 11
-144.654663
 21
217.558075
  0
LINE
  8
0
 10
-145.654663
 20
193.135422
 11
-146.654663
 21
192.558075
  0
LINE
  8
0
 10
-146.654663
 20
192.558075
 11
-146.654663
 21
191.403366
  0
LINE
  8
0
 10
-145.654663
 20
190.826019
 11
-146.654663
 21
191.403366
  0
LINE
  8
0
 10
-144.654663
 20
191.403366
 11
-145.654663
 21
190.826019
  0
LINE
  8
0
 10
-144.654663
 20
192.558075
 11
-144.654663
 21
191.403366
  0
LINE
  8
0
 10
-145.654663
 20
193.135422
 11
-144.654663
 21
192.558075
  0
LINE
  8
0
 10
-157.675476
 20
187.888840
 11
-157.675476
 21
182.888840
  0
LINE
  8
0
 10
-160.175476
 20
185.388840
 11
-155.175476
 21
185.388840
  0
LINE
  8
0
 10
-157.675476
 20
226.072601
 11
-157.675476
 21
221.072601
  0
LINE
  8
0
 10
-160.175476
 20
223.572601
 11
-155.175476
 21
223.572601
  0
LINE
  8
0
 10
-132.798096
 20
167.344208
 11
-132.197372
 21
168.384720
  0
LINE
  8
0
 10
-133.404327
 20
167.694214
 11
-132.803589
 21
168.734711
  0
LINE
  8
0
 10
-132.798096
 20
241.617218
 11
-132.197357
 21
240.576721
  0
LINE
  8
0
 10
-133.404312
 20
241.267212
 11
-132.803574
 21
240.226715
  0
LINE
  8
0
 10
-117.550743
 20
254.533630
 11
-118.019402
 21
252.784561
  0
LINE
  8
0
 10
-105.959633
 20
254.533630
 11
-105.490967
 21
252.784561
  0
LINE
  8
0
 10
-117.550743
 20
154.427795
 11
-118.019409
 21
156.176880
  0
LINE
  8
0
 10
-105.959641
 20
154.427795
 11
-105.490982
 21
156.176865
  0
LINE
  8
0
 10
-73.054962
 20
174.903793
 11
-71.305878
 21
174.435135
  0
LINE
  8
0
 10
-66.790726
 20
185.753738
 11
-65.510330
 21
184.473328
  0
LINE
  8
0
 10
-66.790718
 20
223.207626
 11
-65.510300
 21
224.488037
  0
LINE
  8
0
 10
-73.054901
 20
234.057587
 11
-71.305855
 21
234.526245
  0
LINE
  8
0
 10
-155.365738
 20
173.980713
 11
-152.630005
 21
173.980713
  0
ARC
  8
0
 10
-59.500019
 20
157.175262
 40
0.499995
 50
315.000610
 51
44.999382
  0
ARC
  8
0
 10
-64.449768
 20
152.225510
 40
0.500001
 50
224.998764
 51
315.000000
  0
ARC
  8
0
 10
-66.429657
 20
151.376984
 40
0.500001
 50
224.998764
 51
315.000000
  0
ARC
  8
0
 10
-58.651493
 20
159.155167
 40
0.500006
 50
314.999390
 51
44.999382
  0
ARC
  8
0
 10
-63.180492
 20
155.905991
 40
3.504968
 50
258.051605
 51
11.948331
  0
CIRCLE
  8
0
 10
-68.409561
 20
161.135071
 40
2.500000
  0
CIRCLE
  8
0
 10
-68.409561
 20
161.135071
 40
2.000000
  0
ARC
  8
0
 10
-101.855690
 20
194.581223
 40
36.000000
 50
304.597839
 51
307.016388
  0
ARC
  8
0
 10
-101.855690
 20
194.581223
 40
36.000004
 50
322.983490
 51
325.402039
  0
ARC
  8
0
 10
-111.755188
 20
204.480713
 40
48.499996
 50
230.917267
 51
309.082703
  0
CIRCLE
  8
0
 10
-94.255203
 20
234.791611
 40
4.500000
  0
ARC
  8
0
 10
-159.060638
 20
152.225555
 40
0.500011
 50
225.000000
 51
314.998749
  0
ARC
  8
0
 10
-164.010391
 20
157.175293
 40
0.500011
 50
135.000000
 51
224.998764
  0
ARC
  8
0
 10
-164.858917
 20
159.155182
 40
0.500001
 50
134.998764
 51
225.000000
  0
ARC
  8
0
 10
-157.080750
 20
151.377014
 40
0.499990
 50
225.000000
 51
315.001251
  0
ARC
  8
0
 10
-160.329926
 20
155.906021
 40
3.504953
 50
168.051620
 51
281.948578
  0
CIRCLE
  8
0
 10
-155.100845
 20
161.135101
 40
2.500000
  0
CIRCLE
  8
0
 10
-155.100845
 20
161.135101
 40
2.000000
  0
ARC
  8
0
 10
-121.654686
 20
194.581223
 40
35.999996
 50
232.983521
 51
235.402084
  0
CIRCLE
  8
0
 10
-145.654663
 20
204.480713
 40
0.750000
  0
CIRCLE
  8
0
 10
-145.654663
 20
204.480713
 40
9.200000
  0
ARC
  8
0
 10
-145.654663
 20
204.480713
 40
9.999999
 50
103.304726
 51
256.695282
  0
ARC
  8
0
 10
-155.622864
 20
183.336227
 40
7.999995
 50
284.585663
 51
345.414337
  0
ARC
  8
0
 10
-148.483078
 20
232.764984
 40
7.999995
 50
14.585675
 51
75.414459
  0
CIRCLE
  8
0
 10
-171.110504
 20
198.823868
 40
2.000000
  0
CIRCLE
  8
0
 10
-171.110504
 20
198.823868
 40
1.750000
  0
CIRCLE
  8
0
 10
-171.110504
 20
198.823868
 40
4.000000
  0
CIRCLE
  8
0
 10
-171.110504
 20
210.137573
 40
2.000000
  0
CIRCLE
  8
0
 10
-171.110504
 20
210.137573
 40
1.750000
  0
CIRCLE
  8
0
 10
-171.110504
 20
210.137573
 40
4.000000
  0
ARC
  8
0
 10
-145.654663
 20
204.480713
 40
9.999995
 50
283.304657
 51
76.695274
  0
ARC
  8
0
 10
-111.755188
 20
204.480713
 40
42.999996
 50
112.431503
 51
133.157013
  0
ARC
  8
0
 10
-111.755188
 20
204.480713
 40
43.000004
 50
231.677383
 51
247.568527
  0
ARC
  8
0
 10
-126.255188
 20
169.355927
 40
4.999994
 50
247.568405
 51
0.000000
  0
ARC
  8
0
 10
-126.255188
 20
239.605499
 40
5.000000
 50
0.000000
 51
112.431587
  0
ARC
  8
0
 10
-148.970535
 20
175.774994
 40
4.000007
 50
69.476646
 51
82.878723
  0
CIRCLE
  8
0
 10
-157.675476
 20
185.388840
 40
5.150000
  0
CIRCLE
  8
0
 10
-157.675476
 20
185.388840
 40
4.966500
  0
CIRCLE
  8
0
 10
-157.675476
 20
223.572601
 40
5.150000
  0
CIRCLE
  8
0
 10
-157.675476
 20
223.572601
 40
4.966500
  0
CIRCLE
  8
0
 10
-145.654663
 20
191.980713
 40
2.600000
  0
CIRCLE
  8
0
 10
-145.654663
 20
191.980713
 40
3.500000
  0
CIRCLE
  8
0
 10
-145.654663
 20
216.980713
 40
2.600000
  0
CIRCLE
  8
0
 10
-145.654663
 20
216.980713
 40
3.500000
  0
ARC
  8
0
 10
-158.051941
 20
172.920837
 40
3.000004
 50
256.108643
 51
314.999786
  0
ARC
  8
0
 10
-158.007477
 20
172.965302
 40
2.999992
 50
314.999786
 51
13.891067
  0
ARC
  8
0
 10
-145.251938
 20
185.720840
 40
3.000000
 50
256.108948
 51
315.000000
  0
ARC
  8
0
 10
-145.207474
 20
185.765305
 40
3.000003
 50
315.000000
 51
13.891067
  0
ARC
  8
0
 10
-145.207474
 20
223.196136
 40
3.000000
 50
346.108948
 51
44.999794
  0
ARC
  8
0
 10
-145.251938
 20
223.240601
 40
3.000003
 50
45.000000
 51
103.891068
  0
ARC
  8
0
 10
-158.007477
 20
235.996140
 40
3.000000
 50
346.108948
 51
45.000000
  0
ARC
  8
0
 10
-158.051941
 20
236.040604
 40
3.000003
 50
45.000000
 51
103.891068
  0
ARC
  8
0
 10
-111.755188
 20
204.480713
 40
50.999996
 50
215.614334
 51
219.376373
  0
ARC
  8
0
 10
-141.928360
 20
187.035461
 40
4.999994
 50
245.228287
 51
315.000122
  0
ARC
  8
0
 10
-143.396606
 20
199.709351
 40
14.999994
 50
315.000000
 51
21.421829
  0
ARC
  8
0
 10
-111.755188
 20
195.995438
 40
0.500006
 50
225.000626
 51
314.999390
  0
ARC
  8
0
 10
-103.269905
 20
204.480713
 40
0.499995
 50
315.000610
 51
44.999382
  0
ARC
  8
0
 10
-111.755188
 20
212.965988
 40
0.500006
 50
45.000618
 51
134.999374
  0
ARC
  8
0
 10
-120.240471
 20
204.480713
 40
0.499995
 50
135.000626
 51
224.999374
  0
ARC
  8
0
 10
-111.755188
 20
195.288330
 40
0.500006
 50
225.000626
 51
314.999390
  0
ARC
  8
0
 10
-102.562798
 20
204.480713
 40
0.499995
 50
315.000610
 51
44.999382
  0
ARC
  8
0
 10
-111.755188
 20
213.673096
 40
0.500006
 50
45.000618
 51
134.999374
  0
ARC
  8
0
 10
-120.947578
 20
204.480713
 40
0.499995
 50
135.000626
 51
224.999374
  0
ARC
  8
0
 10
-106.983826
 20
236.122131
 40
14.999990
 50
248.578201
 51
315.000000
  0
ARC
  8
0
 10
-94.309944
 20
234.653885
 40
5.000005
 50
315.000000
 51
24.771673
  0
ARC
  8
0
 10
-73.684738
 20
236.894302
 40
1.000001
 50
315.000000
 51
40.411449
  0
ARC
  8
0
 10
-128.889984
 20
166.132721
 40
9.999994
 50
120.000015
 51
135.000061
  0
ARC
  8
0
 10
-73.407188
 20
221.615509
 40
9.999994
 50
135.000031
 51
150.000000
  0
ARC
  8
0
 10
-144.282104
 20
176.196442
 40
2.000002
 50
45.000000
 51
135.000000
  0
ARC
  8
0
 10
-140.039459
 20
171.953796
 40
2.000002
 50
315.000000
 51
45.000000
  0
CIRCLE
  8
0
 10
-144.635651
 20
171.600250
 40
3.500000
  0
ARC
  8
0
 10
-111.755188
 20
204.480713
 40
48.500000
 50
54.718941
 51
133.076279
  0
ARC
  8
0
 10
-111.755188
 20
204.480713
 40
50.999996
 50
40.411430
 51
54.385662
  0
ARC
  8
0
 10
-111.755188
 20
204.480713
 40
48.499996
 50
320.917297
 51
38.748402
  0
ARC
  8
0
 10
-129.255188
 20
174.180710
 40
6.499996
 50
186.514786
 51
55.982513
  0
CIRCLE
  8
0
 10
-129.255188
 20
234.780716
 40
6.500000
  0
ARC
  8
0
 10
-129.255188
 20
234.780716
 40
7.699991
 50
122.605247
 51
117.394722
  0
ARC
  8
0
 10
-129.255188
 20
174.180710
 40
7.699997
 50
242.605270
 51
51.704678
  0
ARC
  8
0
 10
-129.255188
 20
174.180710
 40
5.700008
 50
180.972015
 51
59.972511
  0
CIRCLE
  8
0
 10
-129.255188
 20
234.780716
 40
5.700000
  0
ARC
  8
0
 10
-129.255188
 20
174.180710
 40
7.699996
 50
193.257614
 51
237.394760
  0
CIRCLE
  8
0
 10
-94.255150
 20
234.791580
 40
4.000000
  0
CIRCLE
  8
0
 10
-94.255150
 20
234.791580
 40
3.375000
  0
ARC
  8
0
 10
-111.755188
 20
252.980713
 40
6.000009
 50
15.000010
 51
164.999954
  0
ARC
  8
0
 10
-111.755196
 20
155.980713
 40
6.000001
 50
195.000031
 51
344.999939
  0
ARC
  8
0
 10
-69.752960
 20
180.230698
 40
6.000009
 50
254.999985
 51
45.000000
  0
ARC
  8
0
 10
-69.752945
 20
228.730682
 40
6.000007
 50
315.000000
 51
104.999939
  0
ARC
  8
0
 10
-122.849030
 20
254.078644
 40
4.999999
 50
342.391663
 51
345.000122
  0
ARC
  8
0
 10
-122.849045
 20
154.882782
 40
5.000000
 50
15.000033
 51
17.608339
  0
ARC
  8
0
 10
-100.661354
 20
154.882767
 40
5.000003
 50
162.391495
 51
164.999969
  0
ARC
  8
0
 10
-74.349060
 20
170.074173
 40
5.000007
 50
74.999992
 51
77.608315
  0
ARC
  8
0
 10
-63.255188
 20
189.289276
 40
5.000007
 50
222.391541
 51
225.000000
  0
ARC
  8
0
 10
-63.255188
 20
219.672089
 40
5.000005
 50
135.000000
 51
137.608215
  0
ARC
  8
0
 10
-74.348999
 20
238.887207
 40
4.999994
 50
282.391510
 51
285.000061
  0
ARC
  8
0
 10
-100.661339
 20
254.078644
 40
5.000000
 50
195.000031
 51
197.608337
  0
ARC
  8
0
 10
-111.755188
 20
252.980713
 40
2.600002
 50
358.464142
 51
181.535873
  0
ARC
  8
0
 10
-111.755188
 20
155.980713
 40
2.600002
 50
178.464142
 51
1.535866
  0
ARC
  8
0
 10
-69.752960
 20
180.230713
 40
2.600006
 50
238.464142
 51
61.535931
  0
ARC
  8
0
 10
-69.752945
 20
228.730682
 40
2.600004
 50
298.464081
 51
121.535713
  0
ARC
  8
0
 10
-111.755188
 20
204.480713
 40
48.499996
 50
230.917267
 51
309.082703
  0
ARC
  8
0
 10
-111.755188
 20
204.480713
 40
48.500000
 50
54.718941
 51
133.076279
  0
POINT
  8
0
 10
158.903030
 20
204.480713
  0
POINT
  8
0
 10
101.203033
 20
204.480713
  0
LINE
  8
0
 10
96.203003
 20
252.980713
 11
102.403015
 21
252.980713
  0
LINE
  8
0
 10
96.203003
 20
155.980713
 11
102.403015
 21
155.980713
  0
LINE
  8
0
 10
102.403030
 20
155.980713
 11
102.403030
 21
165.836578
  0
LINE
  8
0
 10
96.203018
 20
155.980713
 11
96.203018
 21
165.836578
  0
LINE
  8
0
 10
110.653008
 20
159.155182
 11
118.053001
 21
159.155182
  0
LINE
  8
0
 10
109.853020
 20
157.175278
 11
118.853004
 21
157.175278
  0
LINE
  8
0
 10
109.853020
 20
151.725540
 11
118.853004
 21
151.725540
  0
LINE
  8
0
 10
110.653008
 20
150.876999
 11
118.053001
 21
150.876999
  0
LINE
  8
0
 10
110.653008
 20
163.539230
 11
118.053001
 21
163.539230
  0
LINE
  8
0
 10
118.553017
 20
163.039230
 11
118.553017
 21
158.240982
  0
LINE
  8
0
 10
119.353020
 20
161.625031
 11
119.353020
 21
152.225540
  0
LINE
  8
0
 10
110.153023
 20
163.039230
 11
110.153023
 21
158.240982
  0
LINE
  8
0
 10
109.353035
 20
161.625031
 11
109.353035
 21
152.225540
  0
LINE
  8
0
 10
110.653008
 20
157.740982
 11
118.053001
 21
157.740982
  0
LINE
  8
0
 10
108.853004
 20
162.125031
 11
110.153008
 21
162.125031
  0
LINE
  8
0
 10
110.153023
 20
151.725540
 11
110.153023
 21
151.376999
  0
LINE
  8
0
 10
118.553017
 20
151.725540
 11
118.553017
 21
151.376999
  0
LINE
  8
0
 10
118.553001
 20
162.125031
 11
119.853020
 21
162.125031
  0
LINE
  8
0
 10
102.853004
 20
161.842178
 11
108.853004
 21
161.842178
  0
LINE
  8
0
 10
119.853035
 20
162.125031
 11
119.853035
 21
156.185333
  0
LINE
  8
0
 10
108.853020
 20
162.125031
 11
108.853020
 21
156.185318
  0
LINE
  8
0
 10
117.853035
 20
169.125366
 11
117.853035
 21
163.539230
  0
LINE
  8
0
 10
110.853035
 20
169.125366
 11
110.853035
 21
163.539230
  0
LINE
  8
0
 10
119.853020
 20
161.842178
 11
124.853027
 21
161.842178
  0
LINE
  8
0
 10
115.853065
 20
166.509094
 11
115.853065
 21
169.125366
  0
LINE
  8
0
 10
112.853020
 20
166.509079
 11
112.853020
 21
169.125366
  0
LINE
  8
0
 10
124.853027
 20
167.286911
 11
124.853027
 21
156.185333
  0
LINE
  8
0
 10
102.853004
 20
156.185318
 11
108.853004
 21
156.185318
  0
LINE
  8
0
 10
108.853004
 20
156.468170
 11
109.353020
 21
156.468170
  0
LINE
  8
0
 10
119.353004
 20
156.468170
 11
119.853020
 21
156.468170
  0
LINE
  8
0
 10
119.853020
 20
156.185318
 11
124.853027
 21
156.185318
  0
LINE
  8
0
 10
102.853004
 20
167.286911
 11
110.853020
 21
167.286911
  0
LINE
  8
0
 10
112.853004
 20
167.711166
 11
115.853004
 21
167.711166
  0
LINE
  8
0
 10
112.853004
 20
168.771820
 11
115.853020
 21
168.771820
  0
LINE
  8
0
 10
112.853004
 20
167.286911
 11
115.853004
 21
167.286911
  0
LINE
  8
0
 10
117.853020
 20
167.286911
 11
124.853027
 21
167.286911
  0
LINE
  8
0
 10
117.853020
 20
167.711166
 11
123.703033
 21
167.711166
  0
LINE
  8
0
 10
117.853020
 20
168.771820
 11
123.703033
 21
168.771820
  0
LINE
  8
0
 10
109.853065
 20
168.418304
 11
110.853050
 21
167.711212
  0
LINE
  8
0
 10
103.903000
 20
168.418304
 11
109.853020
 21
168.418304
  0
LINE
  8
0
 10
109.853035
 20
169.125366
 11
109.853035
 21
168.418304
  0
LINE
  8
0
 10
126.853012
 20
250.326385
 11
126.853012
 21
245.326385
  0
LINE
  8
0
 10
124.853027
 20
250.326370
 11
126.853012
 21
250.326370
  0
LINE
  8
0
 10
126.853012
 20
249.826370
 11
157.353027
 21
249.826370
  0
LINE
  8
0
 10
126.853012
 20
245.826370
 11
157.353027
 21
245.826370
  0
LINE
  8
0
 10
124.853027
 20
245.326370
 11
126.853012
 21
245.326370
  0
LINE
  8
0
 10
90.403015
 20
173.979141
 11
91.903015
 21
173.979141
  0
LINE
  8
0
 10
88.903015
 20
172.907654
 11
91.903015
 21
172.907654
  0
LINE
  8
0
 10
88.903015
 20
165.836578
 11
91.903015
 21
165.836578
  0
LINE
  8
0
 10
88.903015
 20
175.984344
 11
88.903015
 21
165.836578
  0
LINE
  8
0
 10
90.403015
 20
174.837051
 11
90.403015
 21
173.979141
  0
LINE
  8
0
 10
91.903015
 20
177.044998
 11
91.903015
 21
172.907654
  0
LINE
  8
0
 10
95.903015
 20
177.044998
 11
95.903015
 21
172.907654
  0
LINE
  8
0
 10
95.903015
 20
173.979141
 11
102.403000
 21
173.979141
  0
LINE
  8
0
 10
91.903015
 20
174.139954
 11
95.903015
 21
174.139954
  0
LINE
  8
0
 10
91.903015
 20
164.947571
 11
95.903015
 21
164.947571
  0
LINE
  8
0
 10
95.903015
 20
165.836578
 11
102.853020
 21
165.836578
  0
LINE
  8
0
 10
95.903015
 20
172.907654
 11
102.403030
 21
172.907654
  0
LINE
  8
0
 10
91.903015
 20
165.836578
 11
91.903015
 21
164.947571
  0
LINE
  8
0
 10
95.903015
 20
165.836578
 11
95.903015
 21
164.947571
  0
LINE
  8
0
 10
91.903015
 20
177.044998
 11
95.903015
 21
177.044998
  0
LINE
  8
0
 10
88.903015
 20
175.984344
 11
91.903015
 21
175.984344
  0
LINE
  8
0
 10
88.903015
 20
174.837051
 11
91.903015
 21
174.837051
  0
LINE
  8
0
 10
95.903015
 20
175.984344
 11
96.203003
 21
175.984344
  0
LINE
  8
0
 10
95.903015
 20
174.837051
 11
96.203003
 21
174.837051
  0
LINE
  8
0
 10
96.203018
 20
173.979141
 11
96.203018
 21
178.280716
  0
LINE
  8
0
 10
103.903000
 20
167.286911
 11
103.903000
 21
169.113953
  0
LINE
  8
0
 10
106.903030
 20
191.170029
 11
142.903030
 21
191.170029
  0
LINE
  8
0
 10
106.903030
 20
217.791382
 11
142.903030
 21
217.791382
  0
LINE
  8
0
 10
102.403023
 20
169.113953
 11
106.903023
 21
169.113953
  0
LINE
  8
0
 10
106.903023
 20
169.125366
 11
142.903015
 21
169.125366
  0
LINE
  8
0
 10
106.903038
 20
239.836044
 11
142.903046
 21
239.836044
  0
LINE
  8
0
 10
102.403030
 20
252.980713
 11
102.403030
 21
169.113953
  0
LINE
  8
0
 10
106.903030
 20
239.836044
 11
106.903030
 21
169.113953
  0
LINE
  8
0
 10
142.903030
 20
239.836029
 11
142.903030
 21
169.125366
  0
LINE
  8
0
 10
158.903030
 20
212.180695
 11
158.903030
 21
196.780701
  0
LINE
  8
0
 10
153.403030
 20
211.837555
 11
153.403030
 21
208.437561
  0
LINE
  8
0
 10
146.403030
 20
213.941788
 11
146.403030
 21
207.164978
  0
LINE
  8
0
 10
142.903030
 20
203.439850
 11
146.053040
 21
203.439850
  0
LINE
  8
0
 10
142.903030
 20
200.992249
 11
146.053040
 21
200.992249
  0
LINE
  8
0
 10
142.903030
 20
196.376266
 11
146.053040
 21
196.376266
  0
LINE
  8
0
 10
142.903030
 20
194.207870
 11
146.053040
 21
194.207870
  0
LINE
  8
0
 10
146.403030
 20
200.823853
 11
153.103027
 21
200.823853
  0
LINE
  8
0
 10
146.403030
 20
196.823853
 11
153.103027
 21
196.823853
  0
LINE
  8
0
 10
142.903030
 20
205.619690
 11
146.053040
 21
205.619690
  0
LINE
  8
0
 10
142.903030
 20
208.710281
 11
146.053040
 21
208.710281
  0
LINE
  8
0
 10
142.903030
 20
213.228149
 11
146.053040
 21
213.228149
  0
LINE
  8
0
 10
142.903030
 20
214.655441
 11
146.053040
 21
214.655441
  0
LINE
  8
0
 10
146.403030
 20
212.137573
 11
153.103027
 21
212.137573
  0
LINE
  8
0
 10
146.403030
 20
208.137573
 11
153.103027
 21
208.137573
  0
LINE
  8
0
 10
146.403030
 20
202.216034
 11
146.403030
 21
195.292053
  0
LINE
  8
0
 10
153.103027
 20
196.823853
 11
153.403015
 21
197.123856
  0
LINE
  8
0
 10
153.403046
 20
211.837570
 11
153.103043
 21
212.137573
  0
LINE
  8
0
 10
153.403030
 20
200.523849
 11
153.403030
 21
197.123840
  0
LINE
  8
0
 10
153.403030
 20
200.523849
 11
153.103027
 21
200.823853
  0
LINE
  8
0
 10
153.103027
 20
208.137558
 11
153.403030
 21
208.437561
  0
LINE
  8
0
 10
153.103088
 20
196.823837
 11
153.103088
 21
200.823853
  0
LINE
  8
0
 10
153.103210
 20
208.137558
 11
153.103210
 21
212.137558
  0
LINE
  8
0
 10
146.403030
 20
197.073853
 11
153.353027
 21
197.073853
  0
LINE
  8
0
 10
146.403030
 20
200.573853
 11
153.353027
 21
200.573853
  0
LINE
  8
0
 10
146.403030
 20
211.887573
 11
153.353027
 21
211.887573
  0
LINE
  8
0
 10
146.403030
 20
208.387573
 11
153.403030
 21
208.387573
  0
LINE
  8
0
 10
146.403030
 20
213.680710
 11
157.403030
 21
213.680710
  0
LINE
  8
0
 10
146.403030
 20
195.280701
 11
157.403030
 21
195.280701
  0
LINE
  8
0
 10
102.403030
 20
239.847473
 11
106.903038
 21
239.847473
  0
LINE
  8
0
 10
106.903030
 20
217.880707
 11
102.403030
 21
217.880707
  0
LINE
  8
0
 10
106.903030
 20
191.080719
 11
102.403030
 21
191.080719
  0
LINE
  8
0
 10
143.603027
 20
190.477570
 11
143.603027
 21
194.207870
  0
LINE
  8
0
 10
144.003021
 20
190.442581
 11
144.003021
 21
194.207870
  0
LINE
  8
0
 10
145.453033
 20
191.949265
 11
145.453033
 21
192.012146
  0
LINE
  8
0
 10
143.603027
 20
214.655441
 11
143.603027
 21
218.483826
  0
LINE
  8
0
 10
144.003021
 20
214.655441
 11
144.003021
 21
218.518814
  0
LINE
  8
0
 10
145.453033
 20
216.949265
 11
145.453033
 21
217.012146
  0
LINE
  8
0
 10
145.003021
 20
180.422546
 11
145.003021
 21
190.355087
  0
LINE
  8
0
 10
145.003021
 20
180.422516
 11
142.903030
 21
180.238800
  0
LINE
  8
0
 10
145.003021
 20
190.355087
 11
142.903015
 21
190.538803
  0
LINE
  8
0
 10
145.003036
 20
218.606308
 11
145.003036
 21
228.538864
  0
LINE
  8
0
 10
145.003021
 20
218.606308
 11
142.903030
 21
218.422577
  0
LINE
  8
0
 10
145.003036
 20
228.538895
 11
142.903030
 21
228.722626
  0
LINE
  8
0
 10
95.803032
 20
230.494186
 11
95.803032
 21
220.867233
  0
LINE
  8
0
 10
96.203033
 20
230.680710
 11
96.203033
 21
220.680710
  0
LINE
  8
0
 10
96.203033
 20
230.680710
 11
101.803032
 21
230.680710
  0
LINE
  8
0
 10
96.203033
 20
220.680710
 11
101.803032
 21
220.680710
  0
LINE
  8
0
 10
95.803024
 20
230.494202
 11
96.203026
 21
230.680725
  0
LINE
  8
0
 10
95.803040
 20
220.867249
 11
96.203033
 21
220.680725
  0
LINE
  8
0
 10
96.203033
 20
228.680710
 11
99.248329
 21
228.680710
  0
LINE
  8
0
 10
96.203033
 20
226.680710
 11
98.093628
 21
226.680710
  0
LINE
  8
0
 10
96.203033
 20
224.680710
 11
96.938927
 21
224.680710
  0
LINE
  8
0
 10
95.803024
 20
188.094193
 11
95.803024
 21
178.467239
  0
LINE
  8
0
 10
96.203026
 20
188.280716
 11
96.203026
 21
178.280716
  0
LINE
  8
0
 10
96.203026
 20
188.280716
 11
101.803024
 21
188.280716
  0
LINE
  8
0
 10
96.203026
 20
178.280716
 11
101.803024
 21
178.280716
  0
LINE
  8
0
 10
95.803024
 20
188.094177
 11
96.203026
 21
188.280701
  0
LINE
  8
0
 10
95.803017
 20
178.467209
 11
96.203018
 21
178.280685
  0
LINE
  8
0
 10
96.203026
 20
186.280716
 11
99.248322
 21
186.280716
  0
LINE
  8
0
 10
96.203026
 20
184.280716
 11
98.093620
 21
184.280716
  0
LINE
  8
0
 10
96.203026
 20
182.280716
 11
96.938919
 21
182.280716
  0
LINE
  8
0
 10
102.853020
 20
167.286911
 11
102.853020
 21
156.185318
  0
LINE
  8
0
 10
110.353058
 20
169.125366
 11
110.853012
 21
168.771851
  0
LINE
  8
0
 10
157.353027
 20
249.826370
 11
157.353027
 21
245.826370
  0
LINE
  8
0
 10
157.353027
 20
247.526367
 11
160.353027
 21
247.526367
  0
LINE
  8
0
 10
157.353027
 20
248.126373
 11
160.353027
 21
248.126373
  0
LINE
  8
0
 10
157.353027
 20
246.526367
 11
160.353027
 21
246.526367
  0
LINE
  8
0
 10
157.353027
 20
249.126373
 11
160.353027
 21
249.126373
  0
LINE
  8
0
 10
160.353027
 20
249.126373
 11
160.353027
 21
248.126373
  0
LINE
  8
0
 10
160.353027
 20
247.526367
 11
160.353027
 21
246.526367
  0
LINE
  8
0
 10
160.353027
 20
249.001373
 11
161.853027
 21
249.001373
  0
LINE
  8
0
 10
160.353027
 20
248.876373
 11
161.853027
 21
248.876373
  0
LINE
  8
0
 10
160.353027
 20
248.751373
 11
161.853027
 21
248.751373
  0
LINE
  8
0
 10
160.353027
 20
248.626373
 11
161.853027
 21
248.626373
  0
LINE
  8
0
 10
160.353027
 20
248.501373
 11
161.853027
 21
248.501373
  0
LINE
  8
0
 10
160.353027
 20
248.376373
 11
161.853027
 21
248.376373
  0
LINE
  8
0
 10
160.353027
 20
248.251373
 11
161.853027
 21
248.251373
  0
LINE
  8
0
 10
160.353027
 20
247.401367
 11
161.853027
 21
247.401367
  0
LINE
  8
0
 10
160.353027
 20
247.276367
 11
161.853027
 21
247.276367
  0
LINE
  8
0
 10
160.353027
 20
247.151367
 11
161.853027
 21
247.151367
  0
LINE
  8
0
 10
160.353027
 20
247.026367
 11
161.853027
 21
247.026367
  0
LINE
  8
0
 10
160.353027
 20
246.901367
 11
161.853027
 21
246.901367
  0
LINE
  8
0
 10
160.353027
 20
246.776367
 11
161.853027
 21
246.776367
  0
LINE
  8
0
 10
160.353027
 20
246.651367
 11
161.853027
 21
246.651367
  0
LINE
  8
0
 10
101.803032
 20
230.930710
 11
101.803032
 21
220.430710
  0
LINE
  8
0
 10
101.803024
 20
188.530716
 11
102.403030
 21
188.530716
  0
LINE
  8
0
 10
101.803024
 20
178.030716
 11
102.403030
 21
178.030716
  0
LINE
  8
0
 10
101.803032
 20
220.430710
 11
102.403030
 21
220.430710
  0
LINE
  8
0
 10
101.803032
 20
230.930710
 11
102.403030
 21
230.930710
  0
LINE
  8
0
 10
101.803032
 20
188.530716
 11
101.803032
 21
178.030716
  0
LINE
  8
0
 10
96.203018
 20
188.280716
 11
96.203018
 21
220.680710
  0
LINE
  8
0
 10
96.203018
 20
230.680710
 11
96.203018
 21
252.980713
  0
LINE
  8
0
 10
115.853065
 20
248.674881
 11
115.853065
 21
239.836044
  0
LINE
  8
0
 10
112.853020
 20
248.674896
 11
112.853020
 21
239.836044
  0
LINE
  8
0
 10
110.653023
 20
258.084442
 11
118.053017
 21
258.084442
  0
LINE
  8
0
 10
109.853020
 20
257.235901
 11
110.153023
 21
257.235901
  0
LINE
  8
0
 10
110.653023
 20
253.907486
 11
118.053017
 21
253.907486
  0
LINE
  8
0
 10
108.853020
 20
252.493256
 11
110.853020
 21
252.493256
  0
LINE
  8
0
 10
110.153023
 20
257.584442
 11
110.153023
 21
252.493256
  0
LINE
  8
0
 10
118.553017
 20
257.584442
 11
118.553017
 21
252.493256
  0
LINE
  8
0
 10
119.353020
 20
256.735901
 11
119.353020
 21
252.493256
  0
LINE
  8
0
 10
109.353035
 20
256.735901
 11
109.353035
 21
252.493256
  0
LINE
  8
0
 10
108.853020
 20
252.776108
 11
108.853020
 21
252.493256
  0
LINE
  8
0
 10
119.853035
 20
252.776108
 11
119.853035
 21
252.493256
  0
LINE
  8
0
 10
102.853020
 20
252.776108
 11
108.853020
 21
252.776108
  0
LINE
  8
0
 10
119.853020
 20
252.776108
 11
124.853020
 21
252.776108
  0
LINE
  8
0
 10
118.553017
 20
257.235901
 11
118.853020
 21
257.235901
  0
LINE
  8
0
 10
118.053017
 20
253.483215
 11
118.053017
 21
252.493256
  0
LINE
  8
0
 10
110.653023
 20
253.483215
 11
110.653023
 21
252.493256
  0
LINE
  8
0
 10
110.653023
 20
253.483215
 11
118.053017
 21
253.483215
  0
LINE
  8
0
 10
112.853020
 20
245.846466
 11
115.853065
 21
245.846466
  0
LINE
  8
0
 10
110.853035
 20
253.483215
 11
110.853035
 21
239.836044
  0
LINE
  8
0
 10
117.853035
 20
253.483215
 11
117.853035
 21
239.836044
  0
LINE
  8
0
 10
117.853035
 20
252.493256
 11
119.853020
 21
252.493256
  0
LINE
  8
0
 10
102.853020
 20
252.776108
 11
102.853020
 21
243.124695
  0
LINE
  8
0
 10
124.853035
 20
252.776108
 11
124.853035
 21
241.674530
  0
LINE
  8
0
 10
112.853020
 20
247.331390
 11
115.853065
 21
247.331390
  0
LINE
  8
0
 10
112.853020
 20
246.907120
 11
115.853065
 21
246.907120
  0
LINE
  8
0
 10
112.853020
 20
240.189606
 11
115.853065
 21
240.189606
  0
LINE
  8
0
 10
117.853035
 20
246.907120
 11
123.703033
 21
246.907120
  0
LINE
  8
0
 10
117.853035
 20
240.189606
 11
123.703033
 21
240.189606
  0
LINE
  8
0
 10
123.703033
 20
241.674530
 11
124.853020
 21
241.674530
  0
LINE
  8
0
 10
117.853035
 20
247.331390
 11
124.853020
 21
247.331390
  0
LINE
  8
0
 10
109.853035
 20
246.553589
 11
110.853027
 21
245.846497
  0
LINE
  8
0
 10
109.853035
 20
247.614227
 11
110.853020
 21
246.907135
  0
LINE
  8
0
 10
104.903030
 20
247.614258
 11
109.853035
 21
247.614258
  0
LINE
  8
0
 10
105.903030
 20
246.553589
 11
109.853035
 21
246.553589
  0
LINE
  8
0
 10
109.853020
 20
246.553589
 11
109.853035
 21
247.614258
  0
LINE
  8
0
 10
110.352898
 20
239.836044
 11
110.852989
 21
240.189651
  0
LINE
  8
0
 10
88.903015
 20
243.124695
 11
91.903015
 21
243.124695
  0
LINE
  8
0
 10
90.403030
 20
242.053207
 11
91.903015
 21
242.053207
  0
LINE
  8
0
 10
88.903015
 20
241.195297
 11
91.903015
 21
241.195297
  0
LINE
  8
0
 10
88.903015
 20
240.048004
 11
96.203003
 21
240.048004
  0
LINE
  8
0
 10
88.903030
 20
243.124695
 11
88.903030
 21
232.976929
  0
LINE
  8
0
 10
90.403030
 20
242.053207
 11
90.403030
 21
241.195297
  0
LINE
  8
0
 10
91.903015
 20
244.013702
 11
91.903015
 21
240.048004
  0
LINE
  8
0
 10
95.903030
 20
244.013702
 11
95.903030
 21
240.048004
  0
LINE
  8
0
 10
95.903015
 20
242.053207
 11
96.203003
 21
242.053207
  0
LINE
  8
0
 10
95.903015
 20
243.124695
 11
96.203003
 21
243.124695
  0
LINE
  8
0
 10
95.903015
 20
241.195297
 11
96.203003
 21
241.195297
  0
LINE
  8
0
 10
91.903015
 20
241.108658
 11
95.903015
 21
241.108658
  0
LINE
  8
0
 10
91.903015
 20
244.013702
 11
95.903015
 21
244.013702
  0
LINE
  8
0
 10
91.903015
 20
232.976929
 11
91.903015
 21
231.916275
  0
LINE
  8
0
 10
95.903030
 20
232.976929
 11
95.903030
 21
231.916275
  0
LINE
  8
0
 10
91.903015
 20
231.916275
 11
95.903015
 21
231.916275
  0
LINE
  8
0
 10
88.903015
 20
232.976929
 11
92.850525
 21
232.976929
  0
LINE
  8
0
 10
91.903030
 20
236.512466
 11
91.903030
 21
234.179001
  0
LINE
  8
0
 10
95.903030
 20
236.512466
 11
95.903030
 21
234.179001
  0
LINE
  8
0
 10
94.956772
 20
232.976929
 11
96.203003
 21
232.976929
  0
LINE
  8
0
 10
105.403030
 20
246.053589
 11
105.403030
 21
239.847473
  0
LINE
  8
0
 10
103.903030
 20
246.614258
 11
103.903030
 21
239.847473
  0
LINE
  8
0
 10
102.403030
 20
243.124695
 11
103.403030
 21
243.124695
  0
LINE
  8
0
 10
126.853012
 20
163.635086
 11
126.853012
 21
158.635086
  0
LINE
  8
0
 10
124.853027
 20
163.635071
 11
126.853012
 21
163.635071
  0
LINE
  8
0
 10
126.853012
 20
163.135071
 11
157.353027
 21
163.135071
  0
LINE
  8
0
 10
126.853012
 20
159.135071
 11
157.353027
 21
159.135071
  0
LINE
  8
0
 10
124.853027
 20
158.635071
 11
126.853012
 21
158.635071
  0
LINE
  8
0
 10
157.353027
 20
163.135071
 11
157.353027
 21
159.135071
  0
LINE
  8
0
 10
157.353027
 20
160.835068
 11
160.353027
 21
160.835068
  0
LINE
  8
0
 10
157.353027
 20
161.435059
 11
160.353027
 21
161.435059
  0
LINE
  8
0
 10
157.353027
 20
159.835068
 11
160.353027
 21
159.835068
  0
LINE
  8
0
 10
157.353027
 20
162.435059
 11
160.353027
 21
162.435059
  0
LINE
  8
0
 10
160.353027
 20
162.435059
 11
160.353027
 21
161.435059
  0
LINE
  8
0
 10
160.353027
 20
160.835068
 11
160.353027
 21
159.835068
  0
LINE
  8
0
 10
160.353027
 20
162.310059
 11
161.853027
 21
162.310059
  0
LINE
  8
0
 10
160.353027
 20
162.185059
 11
161.853027
 21
162.185059
  0
LINE
  8
0
 10
160.353027
 20
162.060059
 11
161.853027
 21
162.060059
  0
LINE
  8
0
 10
160.353027
 20
161.935059
 11
161.853027
 21
161.935059
  0
LINE
  8
0
 10
160.353027
 20
161.810059
 11
161.853027
 21
161.810059
  0
LINE
  8
0
 10
160.353027
 20
161.685059
 11
161.853027
 21
161.685059
  0
LINE
  8
0
 10
160.353027
 20
161.560059
 11
161.853027
 21
161.560059
  0
LINE
  8
0
 10
160.353027
 20
160.710068
 11
161.853027
 21
160.710068
  0
LINE
  8
0
 10
160.353027
 20
160.585068
 11
161.853027
 21
160.585068
  0
LINE
  8
0
 10
160.353027
 20
160.460068
 11
161.853027
 21
160.460068
  0
LINE
  8
0
 10
160.353027
 20
160.335068
 11
161.853027
 21
160.335068
  0
LINE
  8
0
 10
160.353027
 20
160.210068
 11
161.853027
 21
160.210068
  0
LINE
  8
0
 10
160.353027
 20
160.085068
 11
161.853027
 21
160.085068
  0
LINE
  8
0
 10
160.353027
 20
159.960068
 11
161.853027
 21
159.960068
  0
LINE
  8
0
 10
85.703033
 20
247.080719
 11
85.703033
 21
161.880707
  0
LINE
  8
0
 10
90.703033
 20
197.480713
 11
96.203018
 21
197.480713
  0
LINE
  8
0
 10
90.703033
 20
211.480713
 11
96.203018
 21
211.480713
  0
LINE
  8
0
 10
85.703026
 20
161.880707
 11
88.903015
 21
166.744690
  0
LINE
  8
0
 10
85.703026
 20
247.080719
 11
88.903030
 21
242.216705
  0
LINE
  8
0
 10
90.703033
 20
230.675247
 11
90.703033
 21
211.581055
  0
LINE
  8
0
 10
90.703033
 20
197.380386
 11
90.703033
 21
178.286179
  0
LINE
  8
0
 10
117.853035
 20
245.846466
 11
123.703033
 21
245.846466
  0
LINE
  8
0
 10
123.703033
 20
168.771820
 11
123.703033
 21
167.286911
  0
LINE
  8
0
 10
123.703033
 20
246.907120
 11
123.703033
 21
240.189606
  0
ARC
  8
0
 10
110.653008
 20
163.039230
 40
0.500000
 50
90.000000
 51
180.000000
  0
ARC
  8
0
 10
118.053017
 20
163.039230
 40
0.500000
 50
0.000000
 51
90.000000
  0
ARC
  8
0
 10
118.853004
 20
161.625031
 40
0.500000
 50
0.000000
 51
90.000000
  0
ARC
  8
0
 10
109.853020
 20
161.625031
 40
0.500000
 50
90.000000
 51
180.000000
  0
ARC
  8
0
 10
109.853020
 20
152.225540
 40
0.500000
 50
180.000000
 51
270.000000
  0
ARC
  8
0
 10
118.853004
 20
152.225540
 40
0.500000
 50
270.000000
 51
0.000000
  0
ARC
  8
0
 10
118.053017
 20
151.376999
 40
0.500000
 50
270.000000
 51
0.000000
  0
ARC
  8
0
 10
110.653008
 20
151.376999
 40
0.500000
 50
180.000000
 51
270.000000
  0
ARC
  8
0
 10
118.053017
 20
158.240982
 40
0.500000
 50
270.000000
 51
0.000000
  0
ARC
  8
0
 10
110.653008
 20
158.240982
 40
0.500000
 50
180.000000
 51
270.000000
  0
ARC
  8
0
 10
144.548767
 20
195.292053
 40
1.854271
 50
324.217987
 51
35.782017
  0
ARC
  8
0
 10
138.618225
 20
198.684250
 40
7.784809
 50
342.754120
 51
17.245975
  0
ARC
  8
0
 10
144.088470
 20
202.216034
 40
2.314559
 50
328.080048
 51
31.920261
  0
ARC
  8
0
 10
142.816681
 20
207.164978
 40
3.586354
 50
334.476593
 51
25.523420
  0
ARC
  8
0
 10
138.938309
 20
210.969208
 40
7.464726
 50
342.385376
 51
17.614674
  0
ARC
  8
0
 10
145.500473
 20
213.941788
 40
0.902569
 50
307.749847
 51
52.249561
  0
ARC
  8
0
 10
157.403030
 20
196.780701
 40
1.500000
 50
270.000000
 51
0.000000
  0
ARC
  8
0
 10
157.403030
 20
212.180695
 40
1.500000
 50
0.000000
 51
90.000000
  0
ARC
  8
0
 10
142.453033
 20
191.949265
 40
3.000010
 50
327.916718
 51
0.000000
  0
ARC
  8
0
 10
142.453033
 20
192.012146
 40
3.000000
 50
0.000000
 51
47.046673
  0
ARC
  8
0
 10
142.453033
 20
216.949265
 40
3.000001
 50
310.127472
 51
0.000000
  0
ARC
  8
0
 10
142.453033
 20
217.012146
 40
3.000000
 50
0.000000
 51
32.083042
  0
ARC
  8
0
 10
133.171082
 20
185.388824
 40
12.831942
 50
337.230499
 51
22.769430
  0
ARC
  8
0
 10
133.171097
 20
223.572586
 40
12.831935
 50
337.230560
 51
22.769430
  0
CIRCLE
  8
0
 10
112.903030
 20
204.480713
 40
1.900000
  0
ARC
  8
0
 10
110.653023
 20
257.584442
 40
0.500000
 50
90.000000
 51
180.000000
  0
ARC
  8
0
 10
118.053017
 20
257.584442
 40
0.500000
 50
0.000000
 51
90.000000
  0
ARC
  8
0
 10
118.053017
 20
253.407486
 40
0.500000
 50
0.000000
 51
90.000000
  0
ARC
  8
0
 10
110.653023
 20
253.407486
 40
0.500000
 50
90.000000
 51
180.000000
  0
ARC
  8
0
 10
118.853020
 20
256.735901
 40
0.500000
 50
0.000000
 51
90.000000
  0
ARC
  8
0
 10
109.853020
 20
256.735901
 40
0.500000
 50
90.000000
 51
180.000000
  0
ARC
  8
0
 10
103.403030
 20
242.624695
 40
0.500000
 50
0.000000
 51
90.000000
  0
ARC
  8
0
 10
104.903030
 20
246.614258
 40
1.000000
 50
90.000000
 51
180.000000
  0
ARC
  8
0
 10
105.903030
 20
246.053589
 40
0.500000
 50
90.000000
 51
180.000000
  0
ARC
  8
0
 10
106.571693
 20
159.013748
 40
0.425078
 50
345.894928
 51
14.107077
  0
ARC
  8
0
 10
106.460571
 20
158.973007
 40
0.542925
 50
15.418736
 51
51.389107
  0
ARC
  8
0
 10
106.153023
 20
158.523682
 40
1.086684
 50
53.502438
 51
126.497887
  0
ARC
  8
0
 10
105.845474
 20
158.973007
 40
0.542927
 50
128.611526
 51
164.582809
  0
ARC
  8
0
 10
105.734352
 20
159.013748
 40
0.425078
 50
165.894913
 51
194.107071
  0
ARC
  8
0
 10
105.845474
 20
159.054489
 40
0.542925
 50
195.418732
 51
231.389099
  0
ARC
  8
0
 10
106.153023
 20
159.503815
 40
1.086684
 50
233.502441
 51
306.497894
  0
ARC
  8
0
 10
106.460571
 20
159.054489
 40
0.542927
 50
308.611511
 51
344.582825
  0
ARC
  8
0
 10
93.083290
 20
169.372131
 40
2.130286
 50
176.237640
 51
191.772858
  0
ARC
  8
0
 10
93.300865
 20
169.438599
 40
2.356935
 50
192.275497
 51
225.305038
  0
ARC
  8
0
 10
93.903008
 20
170.171677
 40
3.302728
 50
226.824173
 51
313.174500
  0
ARC
  8
0
 10
94.505142
 20
169.438583
 40
2.356929
 50
314.693512
 51
347.722961
  0
ARC
  8
0
 10
94.722710
 20
169.372101
 40
2.130286
 50
348.225891
 51
356.237640
  0
ARC
  8
0
 10
95.366783
 20
169.372101
 40
1.486210
 50
354.669220
 51
14.106010
  0
ARC
  8
0
 10
94.978256
 20
169.229660
 40
1.898229
 50
15.417768
 51
51.388527
  0
ARC
  8
0
 10
93.903000
 20
167.658722
 40
3.799348
 50
53.502098
 51
126.497902
  0
ARC
  8
0
 10
92.827744
 20
169.229675
 40
1.898228
 50
128.611755
 51
164.582230
  0
ARC
  8
0
 10
92.439217
 20
169.372101
 40
1.486209
 50
165.893417
 51
185.353806
  0
ARC
  8
0
 10
106.897324
 20
159.013748
 40
0.755689
 50
345.894043
 51
14.107093
  0
ARC
  8
0
 10
106.699760
 20
158.941330
 40
0.965201
 50
15.417976
 51
51.388004
  0
ARC
  8
0
 10
106.153015
 20
158.142517
 40
1.931890
 50
53.502277
 51
126.497726
  0
ARC
  8
0
 10
105.606270
 20
158.941330
 40
0.965198
 50
128.612000
 51
164.582901
  0
ARC
  8
0
 10
105.408707
 20
159.013748
 40
0.755689
 50
165.894028
 51
194.107086
  0
ARC
  8
0
 10
105.606270
 20
159.086166
 40
0.965201
 50
195.417969
 51
231.388000
  0
ARC
  8
0
 10
106.153015
 20
159.884979
 40
1.931890
 50
233.502274
 51
306.497711
  0
ARC
  8
0
 10
106.699760
 20
159.086166
 40
0.965198
 50
308.612000
 51
344.582886
  0
ARC
  8
0
 10
113.533318
 20
154.346848
 40
2.130280
 50
176.236816
 51
191.773254
  0
ARC
  8
0
 10
113.750893
 20
154.413315
 40
2.356938
 50
192.275864
 51
225.305435
  0
ARC
  8
0
 10
114.353027
 20
155.146408
 40
3.302718
 50
226.824738
 51
313.175079
  0
ARC
  8
0
 10
114.955162
 20
154.413315
 40
2.356939
 50
314.694305
 51
347.723724
  0
ARC
  8
0
 10
115.172737
 20
154.346848
 40
2.130283
 50
348.226318
 51
356.237244
  0
ARC
  8
0
 10
93.902954
 20
172.773621
 40
4.532868
 50
245.098175
 51
294.888611
  0
ARC
  8
0
 10
114.352989
 20
157.748367
 40
4.532875
 50
245.098007
 51
294.888519
  0
ARC
  8
0
 10
115.816811
 20
154.346848
 40
1.486210
 50
354.669220
 51
14.105939
  0
ARC
  8
0
 10
115.428284
 20
154.204407
 40
1.898237
 50
15.417706
 51
51.388062
  0
ARC
  8
0
 10
114.353020
 20
152.633469
 40
3.799345
 50
53.501778
 51
126.497719
  0
ARC
  8
0
 10
113.277771
 20
154.204422
 40
1.898223
 50
128.611588
 51
164.582230
  0
ARC
  8
0
 10
112.889244
 20
154.346848
 40
1.486209
 50
165.893417
 51
185.353806
  0
ARC
  8
0
 10
113.608704
 20
166.509079
 40
0.755692
 50
180.000000
 51
194.105972
  0
ARC
  8
0
 10
113.806259
 20
166.581497
 40
0.965190
 50
195.417221
 51
231.388367
  0
ARC
  8
0
 10
114.353012
 20
167.380310
 40
1.931890
 50
233.502274
 51
306.497711
  0
ARC
  8
0
 10
114.899765
 20
166.581497
 40
0.965194
 50
308.611633
 51
344.581909
  0
ARC
  8
0
 10
115.097321
 20
166.509079
 40
0.755693
 50
345.892914
 51
0.000000
  0
ARC
  8
0
 10
112.194862
 20
175.489319
 40
1.108161
 50
345.892181
 51
14.107806
  0
ARC
  8
0
 10
111.905060
 20
175.383072
 40
1.415491
 50
15.419554
 51
51.391411
  0
ARC
  8
0
 10
111.103020
 20
174.211182
 40
2.833626
 50
53.505280
 51
126.494720
  0
ARC
  8
0
 10
110.300980
 20
175.383072
 40
1.415480
 50
128.608582
 51
164.580444
  0
ARC
  8
0
 10
110.011177
 20
175.489319
 40
1.108161
 50
165.892197
 51
194.107803
  0
ARC
  8
0
 10
110.300980
 20
175.595566
 40
1.415491
 50
195.419556
 51
231.391418
  0
ARC
  8
0
 10
111.103020
 20
176.767456
 40
2.833626
 50
233.505280
 51
306.494720
  0
ARC
  8
0
 10
111.905060
 20
175.595566
 40
1.415480
 50
308.608582
 51
344.580444
  0
ARC
  8
0
 10
112.194870
 20
233.472107
 40
1.108161
 50
345.892181
 51
14.107806
  0
ARC
  8
0
 10
111.905067
 20
233.365860
 40
1.415491
 50
15.419554
 51
51.391171
  0
ARC
  8
0
 10
111.103035
 20
232.193985
 40
2.833613
 50
53.505096
 51
126.494720
  0
ARC
  8
0
 10
110.301003
 20
233.365860
 40
1.415497
 50
128.608444
 51
164.580444
  0
ARC
  8
0
 10
110.011200
 20
233.472107
 40
1.108161
 50
165.892197
 51
194.107803
  0
ARC
  8
0
 10
110.301003
 20
233.578354
 40
1.415491
 50
195.419556
 51
231.391174
  0
ARC
  8
0
 10
111.103035
 20
234.750229
 40
2.833613
 50
233.505096
 51
306.494720
  0
ARC
  8
0
 10
111.905067
 20
233.578354
 40
1.415497
 50
308.608429
 51
344.580444
  0
ARC
  8
0
 10
115.097336
 20
248.674896
 40
0.755692
 50
0.000000
 51
14.107093
  0
ARC
  8
0
 10
114.899780
 20
248.602478
 40
0.965194
 50
15.418097
 51
51.388359
  0
ARC
  8
0
 10
114.353027
 20
247.803665
 40
1.931890
 50
53.502277
 51
126.497726
  0
ARC
  8
0
 10
113.806274
 20
248.602478
 40
0.965194
 50
128.611633
 51
164.582779
  0
ARC
  8
0
 10
113.608719
 20
248.674896
 40
0.755689
 50
165.894028
 51
180.000000
  0
ARC
  8
0
 10
94.696945
 20
234.179001
 40
0.806076
 50
345.893799
 51
14.106215
  0
ARC
  8
0
 10
94.486221
 20
234.101746
 40
1.029544
 50
15.417927
 51
51.388863
  0
ARC
  8
0
 10
93.903023
 20
233.249695
 40
2.060677
 50
53.502350
 51
126.497650
  0
ARC
  8
0
 10
93.319824
 20
234.101746
 40
1.029549
 50
128.611130
 51
164.582077
  0
ARC
  8
0
 10
93.109100
 20
234.179001
 40
0.806076
 50
165.893784
 51
194.106216
  0
ARC
  8
0
 10
93.319824
 20
234.256256
 40
1.029544
 50
195.417923
 51
231.388870
  0
ARC
  8
0
 10
93.903023
 20
235.108307
 40
2.060677
 50
233.502350
 51
306.497650
  0
ARC
  8
0
 10
94.486221
 20
234.256256
 40
1.029549
 50
308.611145
 51
344.582062
  0
ARC
  8
0
 10
94.895424
 20
234.179001
 40
1.007595
 50
345.893585
 51
14.106426
  0
ARC
  8
0
 10
94.632011
 20
234.082443
 40
1.286935
 50
15.417509
 51
51.388412
  0
ARC
  8
0
 10
93.903015
 20
233.017365
 40
2.575851
 50
53.502369
 51
126.497635
  0
ARC
  8
0
 10
93.174019
 20
234.082428
 40
1.286942
 50
128.611160
 51
164.581833
  0
ARC
  8
0
 10
92.910606
 20
234.179001
 40
1.007595
 50
165.893570
 51
194.106430
  0
ARC
  8
0
 10
93.174019
 20
234.275558
 40
1.286935
 50
195.417511
 51
231.388412
  0
ARC
  8
0
 10
93.903015
 20
235.340637
 40
2.575851
 50
233.502365
 51
306.497620
  0
ARC
  8
0
 10
94.632011
 20
234.275574
 40
1.286942
 50
308.611176
 51
344.581848
  0
ARC
  8
0
 10
94.895424
 20
236.512466
 40
1.007594
 50
359.874176
 51
14.106426
  0
ARC
  8
0
 10
94.632011
 20
236.415909
 40
1.286935
 50
15.417509
 51
51.388412
  0
ARC
  8
0
 10
93.903015
 20
235.350830
 40
2.575851
 50
53.502369
 51
126.497635
  0
ARC
  8
0
 10
93.174019
 20
236.415894
 40
1.286942
 50
128.611160
 51
164.581833
  0
ARC
  8
0
 10
92.910606
 20
236.512466
 40
1.007595
 50
165.893570
 51
180.105850
  0
POLYLINE
  8
0
 66
     1
  0
VERTEX
  8
0
 10
88.903671
 20
241.802979
  0
VERTEX
  8
0
 10
88.069885
 20
241.729218
  0
VERTEX
  8
0
 10
87.197716
 20
241.504807
  0
VERTEX
  8
0
 10
86.477699
 20
241.159119
  0
VERTEX
  8
0
 10
86.100403
 20
240.721542
  0
VERTEX
  8
0
 10
86.112770
 20
239.984573
  0
VERTEX
  8
0
 10
86.367508
 20
239.142899
  0
VERTEX
  8
0
 10
86.639549
 20
238.279236
  0
VERTEX
  8
0
 10
86.918823
 20
237.426971
  0
VERTEX
  8
0
 10
87.162025
 20
236.789368
  0
VERTEX
  8
0
 10
87.435173
 20
236.152527
  0
VERTEX
  8
0
 10
87.736588
 20
235.505142
  0
VERTEX
  8
0
 10
88.107666
 20
234.765823
  0
VERTEX
  8
0
 10
88.494110
 20
234.038101
  0
VERTEX
  8
0
 10
88.785927
 20
233.514664
  0
VERTEX
  8
0
 10
88.844566
 20
233.414474
  0
VERTEX
  8
0
 10
88.903671
 20
233.314560
  0
SEQEND
  0
POLYLINE
  8
0
 66
     1
  0
VERTEX
  8
0
 10
88.903671
 20
167.158447
  0
VERTEX
  8
0
 10
88.069885
 20
167.232208
  0
VERTEX
  8
0
 10
87.197716
 20
167.456619
  0
VERTEX
  8
0
 10
86.477699
 20
167.802307
  0
VERTEX
  8
0
 10
86.100403
 20
168.239883
  0
VERTEX
  8
0
 10
86.112770
 20
168.976852
  0
VERTEX
  8
0
 10
86.367508
 20
169.818527
  0
VERTEX
  8
0
 10
86.639549
 20
170.682190
  0
VERTEX
  8
0
 10
86.918823
 20
171.534454
  0
VERTEX
  8
0
 10
87.162025
 20
172.172058
  0
VERTEX
  8
0
 10
87.435173
 20
172.808899
  0
VERTEX
  8
0
 10
87.736588
 20
173.456284
  0
VERTEX
  8
0
 10
88.107666
 20
174.195602
  0
VERTEX
  8
0
 10
88.494110
 20
174.923325
  0
VERTEX
  8
0
 10
88.785927
 20
175.446762
  0
VERTEX
  8
0
 10
88.844566
 20
175.546951
  0
VERTEX
  8
0
 10
88.903671
 20
175.646866
  0
SEQEND
  0
POLYLINE
  8
0
 66
     1
  0
VERTEX
  8
0
 10
90.703232
 20
197.380356
  0
VERTEX
  8
0
 10
89.954819
 20
197.535919
  0
VERTEX
  8
0
 10
89.231323
 20
197.847672
  0
VERTEX
  8
0
 10
88.480278
 20
198.404282
  0
VERTEX
  8
0
 10
87.849747
 20
198.986008
  0
VERTEX
  8
0
 10
87.472603
 20
199.338150
  0
VERTEX
  8
0
 10
87.128693
 20
199.744293
  0
VERTEX
  8
0
 10
86.842964
 20
200.297699
  0
VERTEX
  8
0
 10
86.639877
 20
200.911118
  0
VERTEX
  8
0
 10
86.459450
 20
201.547211
  0
VERTEX
  8
0
 10
86.305008
 20
202.215225
  0
VERTEX
  8
0
 10
86.181625
 20
203.013535
  0
VERTEX
  8
0
 10
86.116196
 20
203.793869
  0
VERTEX
  8
0
 10
86.097824
 20
204.467194
  0
VERTEX
  8
0
 10
86.116196
 20
205.167557
  0
VERTEX
  8
0
 10
86.185265
 20
205.976288
  0
VERTEX
  8
0
 10
86.305008
 20
206.746201
  0
VERTEX
  8
0
 10
86.457970
 20
207.404282
  0
VERTEX
  8
0
 10
86.639877
 20
208.050308
  0
VERTEX
  8
0
 10
86.849144
 20
208.669891
  0
VERTEX
  8
0
 10
87.128693
 20
209.217133
  0
VERTEX
  8
0
 10
87.430351
 20
209.580048
  0
VERTEX
  8
0
 10
87.849747
 20
209.975418
  0
VERTEX
  8
0
 10
88.528091
 20
210.596802
  0
VERTEX
  8
0
 10
89.231323
 20
211.113754
  0
VERTEX
  8
0
 10
89.943581
 20
211.418274
  0
VERTEX
  8
0
 10
90.703224
 20
211.581070
  0
SEQEND
  0
POLYLINE
  8
0
 66
     1
  0
VERTEX
  8
0
 10
89.107880
 20
232.977280
  0
VERTEX
  8
0
 10
89.343994
 20
232.599594
  0
VERTEX
  8
0
 10
89.645142
 20
232.141922
  0
VERTEX
  8
0
 10
90.161545
 20
231.399353
  0
VERTEX
  8
0
 10
90.703033
 20
230.675247
  0
SEQEND
  0
POLYLINE
  8
0
 66
     1
  0
VERTEX
  8
0
 10
89.107880
 20
175.984146
  0
VERTEX
  8
0
 10
89.343994
 20
176.361832
  0
VERTEX
  8
0
 10
89.645142
 20
176.819504
  0
VERTEX
  8
0
 10
90.161545
 20
177.562073
  0
VERTEX
  8
0
 10
90.703033
 20
178.286179
  0
SEQEND
  0
POINT
  8
0
 10
128.703033
 20
73.860535
  0
POINT
  8
0
 10
101.203033
 20
73.860535
  0
LINE
  8
0
 10
102.403030
 20
112.504677
 11
102.403030
 21
122.360535
  0
LINE
  8
0
 10
96.203026
 20
112.504677
 11
96.203026
 21
122.360535
  0
LINE
  8
0
 10
96.203026
 20
122.360535
 11
102.403030
 21
122.360535
  0
LINE
  8
0
 10
96.203026
 20
25.360535
 11
102.403030
 21
25.360535
  0
LINE
  8
0
 10
96.203026
 20
25.360535
 11
96.203026
 21
104.362106
  0
LINE
  8
0
 10
110.653030
 20
119.186081
 11
118.053024
 21
119.186081
  0
LINE
  8
0
 10
109.853043
 20
121.165985
 11
118.853027
 21
121.165985
  0
LINE
  8
0
 10
109.853043
 20
126.615730
 11
118.853027
 21
126.615730
  0
LINE
  8
0
 10
110.653030
 20
127.464264
 11
118.053024
 21
127.464264
  0
LINE
  8
0
 10
110.653030
 20
114.802025
 11
118.053024
 21
114.802025
  0
LINE
  8
0
 10
118.553024
 20
115.302025
 11
118.553024
 21
120.100288
  0
LINE
  8
0
 10
119.353027
 20
116.716232
 11
119.353027
 21
126.115730
  0
LINE
  8
0
 10
110.153030
 20
115.302025
 11
110.153030
 21
120.100288
  0
LINE
  8
0
 10
109.353043
 20
116.716232
 11
109.353043
 21
126.115730
  0
LINE
  8
0
 10
110.653030
 20
120.600288
 11
118.053024
 21
120.600288
  0
LINE
  8
0
 10
108.853027
 20
116.216232
 11
110.153030
 21
116.216232
  0
LINE
  8
0
 10
110.153030
 20
126.615730
 11
110.153030
 21
126.964264
  0
LINE
  8
0
 10
118.553024
 20
126.615730
 11
118.553024
 21
126.964264
  0
LINE
  8
0
 10
118.553024
 20
116.216232
 11
119.853043
 21
116.216232
  0
LINE
  8
0
 10
102.853027
 20
116.499084
 11
108.853027
 21
116.499084
  0
LINE
  8
0
 10
119.853043
 20
116.216232
 11
119.853043
 21
122.155930
  0
LINE
  8
0
 10
108.853027
 20
116.216232
 11
108.853027
 21
122.155937
  0
LINE
  8
0
 10
117.853043
 20
109.003746
 11
117.853043
 21
114.802025
  0
LINE
  8
0
 10
110.853043
 20
109.003746
 11
110.853043
 21
114.802025
  0
LINE
  8
0
 10
119.853043
 20
116.499084
 11
124.853043
 21
116.499084
  0
LINE
  8
0
 10
115.853073
 20
111.832169
 11
115.853073
 21
109.003746
  0
LINE
  8
0
 10
112.853027
 20
111.832184
 11
112.853027
 21
109.003754
  0
LINE
  8
0
 10
110.853043
 20
109.003746
 11
112.853027
 21
109.003746
  0
LINE
  8
0
 10
115.853043
 20
109.003746
 11
117.853043
 21
109.003746
  0
LINE
  8
0
 10
124.853043
 20
111.054352
 11
124.853043
 21
122.155930
  0
LINE
  8
0
 10
102.853027
 20
111.054352
 11
102.853027
 21
122.155937
  0
LINE
  8
0
 10
102.853027
 20
122.155937
 11
108.853027
 21
122.155937
  0
LINE
  8
0
 10
108.853027
 20
121.873093
 11
109.353043
 21
121.873093
  0
LINE
  8
0
 10
119.353027
 20
121.873093
 11
119.853043
 21
121.873093
  0
LINE
  8
0
 10
119.853043
 20
122.155937
 11
124.853043
 21
122.155937
  0
LINE
  8
0
 10
102.853027
 20
111.054352
 11
110.853043
 21
111.054352
  0
LINE
  8
0
 10
112.853027
 20
110.630096
 11
115.853027
 21
110.630096
  0
LINE
  8
0
 10
112.853027
 20
109.569443
 11
115.853043
 21
109.569443
  0
LINE
  8
0
 10
112.853027
 20
111.054352
 11
115.853027
 21
111.054352
  0
LINE
  8
0
 10
117.853043
 20
111.054352
 11
124.853043
 21
111.054352
  0
LINE
  8
0
 10
117.853043
 20
110.630096
 11
123.703018
 21
110.630096
  0
LINE
  8
0
 10
117.853043
 20
109.569443
 11
123.703018
 21
109.569443
  0
LINE
  8
0
 10
109.853058
 20
109.922958
 11
110.853043
 21
110.630058
  0
LINE
  8
0
 10
109.853050
 20
108.862305
 11
110.853043
 21
109.569412
  0
LINE
  8
0
 10
103.903015
 20
108.862312
 11
109.853043
 21
108.862312
  0
LINE
  8
0
 10
103.903015
 20
109.922966
 11
109.853043
 21
109.922966
  0
LINE
  8
0
 10
109.853043
 20
108.862312
 11
109.853043
 21
109.922966
  0
LINE
  8
0
 10
126.853027
 20
28.014877
 11
126.853027
 21
32.399826
  0
LINE
  8
0
 10
124.853043
 20
28.014889
 11
126.853027
 21
28.014889
  0
LINE
  8
0
 10
126.853027
 20
28.514889
 11
157.353043
 21
28.514889
  0
LINE
  8
0
 10
127.371620
 20
32.514889
 11
157.353043
 21
32.514889
  0
LINE
  8
0
 10
90.403023
 20
104.362106
 11
91.903023
 21
104.362106
  0
LINE
  8
0
 10
88.903023
 20
105.433601
 11
91.903023
 21
105.433601
  0
LINE
  8
0
 10
88.903023
 20
112.504677
 11
91.903023
 21
112.504677
  0
LINE
  8
0
 10
88.903023
 20
102.356903
 11
88.903023
 21
112.504677
  0
LINE
  8
0
 10
90.403023
 20
103.504189
 11
90.403023
 21
104.362106
  0
LINE
  8
0
 10
91.903023
 20
101.296249
 11
91.903023
 21
105.433601
  0
LINE
  8
0
 10
95.903023
 20
101.296249
 11
95.903023
 21
105.433601
  0
LINE
  8
0
 10
95.903023
 20
104.362106
 11
102.403015
 21
104.362106
  0
LINE
  8
0
 10
91.903023
 20
104.201294
 11
95.903023
 21
104.201294
  0
LINE
  8
0
 10
91.903023
 20
113.393677
 11
95.903023
 21
113.393677
  0
LINE
  8
0
 10
95.903023
 20
112.504677
 11
102.853027
 21
112.504677
  0
LINE
  8
0
 10
95.903023
 20
105.433601
 11
103.903015
 21
105.433601
  0
LINE
  8
0
 10
91.903023
 20
112.504677
 11
91.903023
 21
113.393677
  0
LINE
  8
0
 10
95.903023
 20
112.504677
 11
95.903023
 21
113.393677
  0
LINE
  8
0
 10
91.903023
 20
101.296249
 11
95.903023
 21
101.296249
  0
LINE
  8
0
 10
88.903023
 20
102.356903
 11
91.903023
 21
102.356903
  0
LINE
  8
0
 10
88.903023
 20
103.504189
 11
91.903023
 21
103.504189
  0
LINE
  8
0
 10
95.903023
 20
102.356903
 11
96.203011
 21
102.356903
  0
LINE
  8
0
 10
95.903023
 20
103.504189
 11
96.203011
 21
103.504189
  0
LINE
  8
0
 10
103.903015
 20
111.054352
 11
103.903015
 21
103.291252
  0
LINE
  8
0
 10
105.403015
 20
108.862312
 11
105.403015
 21
103.291252
  0
LINE
  8
0
 10
108.703033
 20
83.660538
 11
108.703033
 21
59.011292
  0
LINE
  8
0
 10
120.703041
 20
106.213715
 11
126.703033
 21
106.213715
  0
LINE
  8
0
 10
120.703026
 20
32.399826
 11
126.703018
 21
32.399826
  0
LINE
  8
0
 10
120.703026
 20
41.507378
 11
126.703018
 21
41.507378
  0
LINE
  8
0
 10
108.703033
 20
75.981857
 11
115.703064
 21
75.981857
  0
LINE
  8
0
 10
108.703033
 20
71.739212
 11
115.708893
 21
71.739212
  0
LINE
  8
0
 10
108.703033
 20
59.011292
 11
118.703033
 21
59.011292
  0
LINE
  8
0
 10
116.903030
 20
91.538208
 11
118.703033
 21
91.538208
  0
LINE
  8
0
 10
129.903046
 20
107.235985
 11
117.003036
 21
107.235985
  0
LINE
  8
0
 10
128.703033
 20
106.387451
 11
118.203041
 21
106.387451
  0
LINE
  8
0
 10
129.903030
 20
100.144806
 11
128.703033
 21
100.144806
  0
LINE
  8
0
 10
110.703041
 20
107.943092
 11
109.503044
 21
107.943092
  0
LINE
  8
0
 10
117.003036
 20
104.407555
 11
110.703041
 21
104.407555
  0
LINE
  8
0
 10
118.203041
 20
103.559029
 11
109.503036
 21
103.559029
  0
LINE
  8
0
 10
128.703033
 20
106.387451
 11
128.703033
 21
34.399822
  0
LINE
  8
0
 10
118.703033
 20
106.387451
 11
118.703033
 21
34.399826
  0
LINE
  8
0
 10
130.882080
 20
110.240997
 11
129.903046
 21
110.240997
  0
LINE
  8
0
 10
130.882065
 20
103.240997
 11
129.903030
 21
103.240997
  0
LINE
  8
0
 10
110.703041
 20
107.943092
 11
117.003044
 21
107.943092
  0
LINE
  8
0
 10
106.903030
 20
145.361023
 11
142.903030
 21
145.361023
  0
LINE
  8
0
 10
116.903030
 20
96.361023
 11
118.703033
 21
96.361023
  0
LINE
  8
0
 10
106.903030
 20
123.316360
 11
109.353043
 21
123.316360
  0
LINE
  8
0
 10
106.903030
 20
145.361023
 11
106.903030
 21
122.155937
  0
LINE
  8
0
 10
142.903030
 20
145.361023
 11
142.903030
 21
119.206192
  0
LINE
  8
0
 10
102.403030
 20
145.360535
 11
102.403030
 21
112.504677
  0
LINE
  8
0
 10
158.903030
 20
115.906189
 11
158.903030
 21
100.060013
  0
LINE
  8
0
 10
146.403030
 20
137.213409
 11
146.403030
 21
131.096176
  0
LINE
  8
0
 10
153.403030
 20
134.915848
 11
153.403030
 21
131.515854
  0
LINE
  8
0
 10
142.903030
 20
129.137695
 11
146.053040
 21
129.137695
  0
LINE
  8
0
 10
142.903030
 20
133.054657
 11
146.053040
 21
133.054657
  0
LINE
  8
0
 10
142.903030
 20
137.132812
 11
146.053040
 21
137.132812
  0
LINE
  8
0
 10
142.903030
 20
137.294006
 11
146.053040
 21
137.294006
  0
LINE
  8
0
 10
146.403030
 20
135.215851
 11
153.103027
 21
135.215851
  0
LINE
  8
0
 10
146.403030
 20
131.215851
 11
153.103027
 21
131.215851
  0
LINE
  8
0
 10
153.102997
 20
135.215881
 11
153.403015
 21
134.915863
  0
LINE
  8
0
 10
153.403015
 20
131.515869
 11
153.103012
 21
131.215866
  0
LINE
  8
0
 10
146.403030
 20
134.965851
 11
153.353012
 21
134.965851
  0
LINE
  8
0
 10
146.403030
 20
131.465851
 11
153.353012
 21
131.465851
  0
LINE
  8
0
 10
153.103058
 20
135.215851
 11
153.103058
 21
131.215851
  0
LINE
  8
0
 10
142.903030
 20
98.560013
 11
157.403030
 21
98.560013
  0
LINE
  8
0
 10
137.453995
 20
119.818344
 11
137.453995
 21
119.320404
  0
LINE
  8
0
 10
145.003021
 20
114.814545
 11
145.003021
 21
115.206192
  0
LINE
  8
0
 10
145.003021
 20
114.814568
 11
142.903030
 21
114.630844
  0
LINE
  8
0
 10
145.003036
 20
124.747147
 11
142.903030
 21
124.930878
  0
LINE
  8
0
 10
143.603027
 20
104.260010
 11
143.603027
 21
111.260010
  0
LINE
  8
0
 10
144.003021
 20
105.160011
 11
144.003021
 21
110.360008
  0
LINE
  8
0
 10
145.453033
 20
107.728569
 11
145.453033
 21
107.791451
  0
LINE
  8
0
 10
144.003021
 20
110.360008
 11
143.603027
 21
110.360008
  0
LINE
  8
0
 10
144.003021
 20
105.160011
 11
143.603027
 21
105.160011
  0
LINE
  8
0
 10
142.903030
 20
96.361023
 11
142.903030
 21
115.206192
  0
LINE
  8
0
 10
143.603027
 20
111.260010
 11
142.903030
 21
111.260010
  0
LINE
  8
0
 10
143.603027
 20
104.260010
 11
142.903030
 21
104.260010
  0
LINE
  8
0
 10
102.403030
 20
145.361023
 11
106.903030
 21
145.361023
  0
LINE
  8
0
 10
102.403030
 20
83.360535
 11
106.903030
 21
83.360535
  0
LINE
  8
0
 10
102.403030
 20
123.393784
 11
106.903030
 21
123.393784
  0
LINE
  8
0
 10
106.903030
 20
83.360535
 11
106.903030
 21
108.862312
  0
LINE
  8
0
 10
95.803032
 20
135.908493
 11
95.803032
 21
126.281540
  0
LINE
  8
0
 10
96.203033
 20
136.095016
 11
96.203033
 21
126.095016
  0
LINE
  8
0
 10
96.203033
 20
136.095016
 11
101.803032
 21
136.095016
  0
LINE
  8
0
 10
96.203033
 20
126.095016
 11
101.803032
 21
126.095016
  0
LINE
  8
0
 10
95.803001
 20
135.908508
 11
96.203003
 21
136.095032
  0
LINE
  8
0
 10
95.803032
 20
126.281548
 11
96.203026
 21
126.095024
  0
LINE
  8
0
 10
96.203033
 20
134.095016
 11
99.248329
 21
134.095016
  0
LINE
  8
0
 10
96.203033
 20
132.095016
 11
98.093628
 21
132.095016
  0
LINE
  8
0
 10
96.203033
 20
130.095016
 11
96.938927
 21
130.095016
  0
LINE
  8
0
 10
128.703033
 20
96.361023
 11
142.903030
 21
96.361023
  0
LINE
  8
0
 10
119.353027
 20
123.316360
 11
142.903030
 21
123.316360
  0
LINE
  8
0
 10
145.003021
 20
119.206192
 11
145.003021
 21
124.747101
  0
LINE
  8
0
 10
109.503036
 20
108.862312
 11
109.503036
 21
103.559029
  0
LINE
  8
0
 10
110.703033
 20
109.463341
 11
110.703033
 21
104.407555
  0
LINE
  8
0
 10
117.003036
 20
109.003746
 11
117.003036
 21
104.407555
  0
LINE
  8
0
 10
129.903030
 20
114.307068
 11
129.903030
 21
100.144806
  0
LINE
  8
0
 10
157.353043
 20
32.514889
 11
157.353043
 21
28.514889
  0
LINE
  8
0
 10
157.353043
 20
30.214893
 11
160.353043
 21
30.214893
  0
LINE
  8
0
 10
157.353043
 20
30.814884
 11
160.353043
 21
30.814884
  0
LINE
  8
0
 10
157.353043
 20
29.214893
 11
160.353043
 21
29.214893
  0
LINE
  8
0
 10
157.353043
 20
31.814884
 11
160.353043
 21
31.814884
  0
LINE
  8
0
 10
160.353043
 20
31.814888
 11
160.353043
 21
30.814888
  0
LINE
  8
0
 10
160.353043
 20
30.214890
 11
160.353043
 21
29.214890
  0
LINE
  8
0
 10
160.353043
 20
31.689884
 11
161.853043
 21
31.689884
  0
LINE
  8
0
 10
160.353043
 20
31.564884
 11
161.853043
 21
31.564884
  0
LINE
  8
0
 10
160.353043
 20
31.439884
 11
161.853043
 21
31.439884
  0
LINE
  8
0
 10
160.353043
 20
31.314884
 11
161.853043
 21
31.314884
  0
LINE
  8
0
 10
160.353043
 20
31.189884
 11
161.853043
 21
31.189884
  0
LINE
  8
0
 10
160.353043
 20
31.064884
 11
161.853043
 21
31.064884
  0
LINE
  8
0
 10
160.353043
 20
30.939884
 11
161.853043
 21
30.939884
  0
LINE
  8
0
 10
160.353043
 20
30.089893
 11
161.853043
 21
30.089893
  0
LINE
  8
0
 10
160.353043
 20
29.964893
 11
161.853043
 21
29.964893
  0
LINE
  8
0
 10
160.353043
 20
29.839893
 11
161.853043
 21
29.839893
  0
LINE
  8
0
 10
160.353043
 20
29.714893
 11
161.853043
 21
29.714893
  0
LINE
  8
0
 10
160.353043
 20
29.589893
 11
161.853043
 21
29.589893
  0
LINE
  8
0
 10
160.353043
 20
29.464893
 11
161.853043
 21
29.464893
  0
LINE
  8
0
 10
160.353043
 20
29.339893
 11
161.853043
 21
29.339893
  0
LINE
  8
0
 10
102.403030
 20
104.362106
 11
102.403030
 21
25.360535
  0
LINE
  8
0
 10
108.903030
 20
83.660538
 11
108.903030
 21
99.060532
  0
LINE
  8
0
 10
116.903030
 20
85.660538
 11
116.903030
 21
97.060532
  0
LINE
  8
0
 10
108.903030
 20
97.860535
 11
116.103035
 21
97.860535
  0
LINE
  8
0
 10
108.903030
 20
84.860535
 11
116.103027
 21
84.860535
  0
LINE
  8
0
 10
106.903030
 20
99.060532
 11
108.903030
 21
99.060532
  0
LINE
  8
0
 10
106.903030
 20
83.660538
 11
108.903030
 21
83.660538
  0
LINE
  8
0
 10
116.103027
 20
84.860535
 11
116.103027
 21
97.860535
  0
LINE
  8
0
 10
116.103027
 20
84.860535
 11
116.903030
 21
85.660538
  0
LINE
  8
0
 10
116.903030
 20
97.060532
 11
116.103035
 21
97.860535
  0
LINE
  8
0
 10
106.903030
 20
90.205833
 11
108.903030
 21
91.360535
  0
LINE
  8
0
 10
106.903030
 20
91.014130
 11
108.903030
 21
92.168823
  0
LINE
  8
0
 10
101.803032
 20
136.345016
 11
101.803032
 21
125.845016
  0
LINE
  8
0
 10
101.803032
 20
136.345016
 11
102.403030
 21
136.345016
  0
LINE
  8
0
 10
101.803032
 20
125.845016
 11
102.403030
 21
125.845016
  0
LINE
  8
0
 10
115.853073
 20
29.666374
 11
115.853073
 21
38.717350
  0
LINE
  8
0
 10
112.853027
 20
29.666367
 11
112.853027
 21
38.717339
  0
LINE
  8
0
 10
110.653030
 20
20.256824
 11
118.053024
 21
20.256824
  0
LINE
  8
0
 10
109.853027
 20
21.105350
 11
110.153030
 21
21.105350
  0
LINE
  8
0
 10
110.653030
 20
24.433781
 11
118.053024
 21
24.433781
  0
LINE
  8
0
 10
108.853027
 20
25.847996
 11
110.853027
 21
25.847996
  0
LINE
  8
0
 10
110.153030
 20
20.756821
 11
110.153030
 21
25.847992
  0
LINE
  8
0
 10
118.553024
 20
20.756813
 11
118.553024
 21
25.847992
  0
LINE
  8
0
 10
119.353027
 20
21.605339
 11
119.353027
 21
25.847984
  0
LINE
  8
0
 10
109.353043
 20
21.605347
 11
109.353043
 21
25.847992
  0
LINE
  8
0
 10
108.853027
 20
25.565147
 11
108.853027
 21
25.848000
  0
LINE
  8
0
 10
119.853043
 20
25.565147
 11
119.853043
 21
25.848000
  0
LINE
  8
0
 10
102.853027
 20
25.565159
 11
108.853027
 21
25.565159
  0
LINE
  8
0
 10
119.853027
 20
25.565159
 11
124.853043
 21
25.565159
  0
LINE
  8
0
 10
118.553024
 20
21.105350
 11
118.853027
 21
21.105350
  0
LINE
  8
0
 10
118.053024
 20
24.858040
 11
118.053024
 21
25.847992
  0
LINE
  8
0
 10
110.653030
 20
24.858040
 11
110.653030
 21
25.847992
  0
LINE
  8
0
 10
110.653030
 20
24.858051
 11
118.053024
 21
24.858051
  0
LINE
  8
0
 10
112.853027
 20
32.494801
 11
115.853073
 21
32.494801
  0
LINE
  8
0
 10
110.853043
 20
38.717350
 11
112.853027
 21
38.717350
  0
LINE
  8
0
 10
110.853043
 20
24.858040
 11
110.853043
 21
38.717339
  0
LINE
  8
0
 10
117.853043
 20
24.858032
 11
117.853043
 21
38.717342
  0
LINE
  8
0
 10
117.853043
 20
25.847996
 11
119.853027
 21
25.847996
  0
LINE
  8
0
 10
112.853027
 20
31.009876
 11
115.853073
 21
31.009876
  0
LINE
  8
0
 10
112.853027
 20
31.434147
 11
115.853073
 21
31.434147
  0
LINE
  8
0
 10
112.853027
 20
38.151661
 11
115.853073
 21
38.151661
  0
LINE
  8
0
 10
117.853043
 20
31.434147
 11
123.703041
 21
31.434147
  0
LINE
  8
0
 10
117.853043
 20
31.009876
 11
124.853027
 21
31.009876
  0
LINE
  8
0
 10
109.853050
 20
31.787666
 11
110.853043
 21
32.494762
  0
LINE
  8
0
 10
109.853035
 20
30.727024
 11
110.853035
 21
31.434132
  0
LINE
  8
0
 10
104.903030
 20
30.727001
 11
109.853043
 21
30.727001
  0
LINE
  8
0
 10
105.903030
 20
31.787670
 11
109.853043
 21
31.787670
  0
LINE
  8
0
 10
105.403030
 20
38.858761
 11
109.853027
 21
38.858761
  0
LINE
  8
0
 10
109.853012
 20
31.787674
 11
109.853027
 21
30.727013
  0
LINE
  8
0
 10
109.852966
 20
38.858665
 11
110.852966
 21
38.151573
  0
LINE
  8
0
 10
88.903030
 20
34.958717
 11
91.903015
 21
34.958717
  0
LINE
  8
0
 10
90.403061
 20
36.030220
 11
91.903030
 21
36.030220
  0
LINE
  8
0
 10
88.903030
 20
36.888130
 11
91.903030
 21
36.888130
  0
LINE
  8
0
 10
88.903030
 20
38.035423
 11
96.203018
 21
38.035423
  0
LINE
  8
0
 10
88.903046
 20
34.958710
 11
88.903046
 21
45.106483
  0
LINE
  8
0
 10
90.403046
 20
36.030212
 11
90.403046
 21
36.888123
  0
LINE
  8
0
 10
91.903015
 20
34.069702
 11
91.903015
 21
38.035416
  0
LINE
  8
0
 10
95.903046
 20
34.069702
 11
95.903046
 21
38.035416
  0
LINE
  8
0
 10
95.903030
 20
36.030220
 11
96.203018
 21
36.030220
  0
LINE
  8
0
 10
95.903030
 20
34.958717
 11
96.203018
 21
34.958717
  0
LINE
  8
0
 10
95.903030
 20
36.888130
 11
96.203018
 21
36.888130
  0
LINE
  8
0
 10
91.903030
 20
36.974762
 11
95.903030
 21
36.974762
  0
LINE
  8
0
 10
91.903030
 20
34.069717
 11
95.903030
 21
34.069717
  0
LINE
  8
0
 10
91.903015
 20
45.106483
 11
91.903015
 21
46.167137
  0
LINE
  8
0
 10
95.903046
 20
45.106483
 11
95.903046
 21
46.167137
  0
LINE
  8
0
 10
91.903030
 20
46.167145
 11
95.903030
 21
46.167145
  0
LINE
  8
0
 10
88.903030
 20
45.106491
 11
92.850540
 21
45.106491
  0
LINE
  8
0
 10
91.903046
 20
41.570953
 11
91.903046
 21
43.904404
  0
LINE
  8
0
 10
95.903046
 20
41.570946
 11
95.903046
 21
43.904404
  0
LINE
  8
0
 10
94.956802
 20
45.106491
 11
96.203018
 21
45.106491
  0
LINE
  8
0
 10
160.353043
 20
116.031189
 11
161.853043
 21
116.031189
  0
LINE
  8
0
 10
126.853027
 20
114.706184
 11
126.853027
 21
119.706184
  0
LINE
  8
0
 10
124.853043
 20
114.706192
 11
126.853027
 21
114.706192
  0
LINE
  8
0
 10
126.853027
 20
115.206192
 11
157.353043
 21
115.206192
  0
LINE
  8
0
 10
126.853027
 20
119.206192
 11
157.353043
 21
119.206192
  0
LINE
  8
0
 10
124.853043
 20
119.706192
 11
126.853027
 21
119.706192
  0
LINE
  8
0
 10
157.353043
 20
119.206192
 11
157.353043
 21
115.206192
  0
LINE
  8
0
 10
157.353043
 20
116.906189
 11
160.353043
 21
116.906189
  0
LINE
  8
0
 10
157.353043
 20
117.506187
 11
160.353043
 21
117.506187
  0
LINE
  8
0
 10
157.353043
 20
115.906189
 11
160.353043
 21
115.906189
  0
LINE
  8
0
 10
157.353043
 20
118.506187
 11
160.353043
 21
118.506187
  0
LINE
  8
0
 10
160.353043
 20
118.506187
 11
160.353043
 21
117.506187
  0
LINE
  8
0
 10
160.353043
 20
116.906189
 11
160.353043
 21
115.906189
  0
LINE
  8
0
 10
160.353043
 20
118.381187
 11
161.853043
 21
118.381187
  0
LINE
  8
0
 10
160.353043
 20
118.256187
 11
161.853043
 21
118.256187
  0
LINE
  8
0
 10
160.353043
 20
118.131187
 11
161.853043
 21
118.131187
  0
LINE
  8
0
 10
160.353043
 20
118.006187
 11
161.853043
 21
118.006187
  0
LINE
  8
0
 10
160.353043
 20
117.881187
 11
161.853043
 21
117.881187
  0
LINE
  8
0
 10
160.353043
 20
117.756187
 11
161.853043
 21
117.756187
  0
LINE
  8
0
 10
160.353043
 20
117.631187
 11
161.853043
 21
117.631187
  0
LINE
  8
0
 10
160.353043
 20
116.781189
 11
161.853043
 21
116.781189
  0
LINE
  8
0
 10
160.353043
 20
116.656189
 11
161.853043
 21
116.656189
  0
LINE
  8
0
 10
160.353043
 20
116.531189
 11
161.853043
 21
116.531189
  0
LINE
  8
0
 10
160.353043
 20
116.406189
 11
161.853043
 21
116.406189
  0
LINE
  8
0
 10
160.353043
 20
116.281189
 11
161.853043
 21
116.281189
  0
LINE
  8
0
 10
160.353043
 20
116.156189
 11
161.853043
 21
116.156189
  0
LINE
  8
0
 10
105.403030
 20
44.429810
 11
105.403030
 21
32.287674
  0
LINE
  8
0
 10
103.903030
 20
37.358734
 11
103.903030
 21
31.727005
  0
LINE
  8
0
 10
102.403030
 20
34.958717
 11
103.403030
 21
34.958717
  0
LINE
  8
0
 10
120.703026
 20
50.585377
 11
126.703018
 21
50.585377
  0
LINE
  8
0
 10
120.703041
 20
97.135719
 11
126.703033
 21
97.135719
  0
LINE
  8
0
 10
129.903030
 20
114.307068
 11
124.853043
 21
114.307068
  0
LINE
  8
0
 10
91.903030
 20
49.360535
 11
96.203026
 21
49.360535
  0
LINE
  8
0
 10
91.903030
 20
98.360535
 11
96.203026
 21
98.360535
  0
LINE
  8
0
 10
130.453995
 20
119.818344
 11
130.453995
 21
119.320404
  0
LINE
  8
0
 10
104.203033
 20
65.360535
 11
108.153030
 21
65.360535
  0
LINE
  8
0
 10
104.203033
 20
82.360535
 11
108.153030
 21
82.360535
  0
LINE
  8
0
 10
108.203033
 20
82.310532
 11
108.203033
 21
65.410538
  0
LINE
  8
0
 10
108.203033
 20
65.460533
 11
108.703033
 21
65.460533
  0
LINE
  8
0
 10
108.203033
 20
82.260536
 11
108.703033
 21
82.260536
  0
LINE
  8
0
 10
108.203033
 20
82.310555
 11
108.153038
 21
82.360550
  0
LINE
  8
0
 10
108.153038
 20
65.360519
 11
108.203033
 21
65.410515
  0
LINE
  8
0
 10
104.203033
 20
83.360535
 11
104.203033
 21
59.160530
  0
LINE
  8
0
 10
85.703033
 20
116.460533
 11
85.703033
 21
31.260536
  0
LINE
  8
0
 10
86.097771
 20
31.860535
 11
96.203026
 21
31.860535
  0
LINE
  8
0
 10
90.703033
 20
49.360535
 11
96.203026
 21
49.360535
  0
LINE
  8
0
 10
102.403030
 20
58.860535
 11
103.903030
 21
58.860535
  0
LINE
  8
0
 10
90.703033
 20
98.360535
 11
96.203026
 21
98.360535
  0
LINE
  8
0
 10
86.097771
 20
115.860535
 11
96.203026
 21
115.860535
  0
LINE
  8
0
 10
103.903061
 20
58.860512
 11
104.203056
 21
59.160507
  0
LINE
  8
0
 10
85.703026
 20
31.260536
 11
86.097763
 21
31.860535
  0
LINE
  8
0
 10
85.703026
 20
116.460533
 11
86.097763
 21
115.860535
  0
LINE
  8
0
 10
90.703033
 20
102.356903
 11
90.703033
 21
98.360535
  0
LINE
  8
0
 10
90.703033
 20
84.978699
 11
90.703033
 21
62.742371
  0
LINE
  8
0
 10
90.703033
 20
49.360535
 11
90.703033
 21
45.106491
  0
LINE
  8
0
 10
115.853073
 20
38.717350
 11
117.853043
 21
38.717350
  0
LINE
  8
0
 10
117.853043
 20
32.494801
 11
120.094025
 21
32.494801
  0
LINE
  8
0
 10
102.853027
 20
25.565166
 11
102.853027
 21
34.958717
  0
LINE
  8
0
 10
124.853043
 20
25.565151
 11
124.853043
 21
32.399818
  0
LINE
  8
0
 10
118.203041
 20
103.559029
 11
118.203041
 21
106.387451
  0
LINE
  8
0
 10
123.703018
 20
109.569443
 11
123.703018
 21
111.054352
  0
LINE
  8
0
 10
123.703041
 20
31.434147
 11
123.703041
 21
32.399818
  0
LINE
  8
0
 10
117.853043
 20
38.151661
 11
118.703033
 21
38.151661
  0
ARC
  8
0
 10
110.653030
 20
115.302025
 40
0.500000
 50
180.000000
 51
270.000000
  0
ARC
  8
0
 10
118.053040
 20
115.302025
 40
0.500000
 50
270.000000
 51
0.000000
  0
ARC
  8
0
 10
118.853027
 20
116.716232
 40
0.500000
 50
270.000000
 51
0.000000
  0
ARC
  8
0
 10
109.853043
 20
116.716232
 40
0.500000
 50
180.000000
 51
270.000000
  0
ARC
  8
0
 10
109.853043
 20
126.115730
 40
0.500000
 50
90.000000
 51
180.000000
  0
ARC
  8
0
 10
118.853027
 20
126.115730
 40
0.500000
 50
0.000000
 51
90.000000
  0
ARC
  8
0
 10
118.053040
 20
126.964264
 40
0.500000
 50
0.000000
 51
90.000000
  0
ARC
  8
0
 10
110.653030
 20
126.964264
 40
0.500000
 50
90.000000
 51
180.000000
  0
ARC
  8
0
 10
118.053040
 20
120.100288
 40
0.500000
 50
0.000000
 51
90.000000
  0
ARC
  8
0
 10
110.653030
 20
120.100288
 40
0.500000
 50
90.000000
 51
180.000000
  0
ARC
  8
0
 10
103.903023
 20
103.291252
 40
1.499992
 50
180.000000
 51
0.000000
  0
ARC
  8
0
 10
126.703033
 20
104.213715
 40
2.000000
 50
0.000000
 51
90.000000
  0
ARC
  8
0
 10
120.703041
 20
104.213715
 40
2.000000
 50
90.000000
 51
180.000000
  0
ARC
  8
0
 10
126.703026
 20
43.507374
 40
2.000000
 50
270.000000
 51
0.000000
  0
ARC
  8
0
 10
120.703026
 20
43.507378
 40
2.000000
 50
180.000107
 51
270.000000
  0
ARC
  8
0
 10
126.703018
 20
34.399822
 40
2.000000
 50
270.000000
 51
0.000000
  0
ARC
  8
0
 10
130.882080
 20
108.940987
 40
1.299995
 50
16.601656
 51
90.000000
  0
ARC
  8
0
 10
123.503052
 20
106.740990
 40
8.999998
 50
343.398468
 51
16.601585
  0
ARC
  8
0
 10
130.882065
 20
104.541000
 40
1.300003
 50
270.000000
 51
343.398529
  0
ARC
  8
0
 10
120.703026
 20
34.399826
 40
2.000000
 50
180.000000
 51
270.000000
  0
ARC
  8
0
 10
140.748505
 20
131.096176
 40
5.654532
 50
339.735413
 51
20.264589
  0
ARC
  8
0
 10
140.288223
 20
135.093750
 40
6.114804
 50
340.520569
 51
19.479101
  0
ARC
  8
0
 10
157.403030
 20
100.060013
 40
1.500000
 50
270.000000
 51
0.000000
  0
ARC
  8
0
 10
133.171097
 20
119.780823
 40
12.831935
 50
337.230560
 51
339.114380
  0
ARC
  8
0
 10
142.453033
 20
107.728569
 40
3.000000
 50
301.109009
 51
0.000000
  0
ARC
  8
0
 10
142.453033
 20
107.791451
 40
3.000000
 50
0.000000
 51
58.891083
  0
ARC
  8
0
 10
133.171097
 20
119.780823
 40
12.831934
 50
357.433350
 51
22.769430
  0
ARC
  8
0
 10
110.653030
 20
20.756824
 40
0.500000
 50
180.000000
 51
270.000000
  0
ARC
  8
0
 10
118.053024
 20
20.756809
 40
0.500000
 50
270.000000
 51
0.000000
  0
ARC
  8
0
 10
118.053040
 20
24.933781
 40
0.500000
 50
270.000000
 51
0.000000
  0
ARC
  8
0
 10
110.653030
 20
24.933781
 40
0.500000
 50
180.000000
 51
270.000000
  0
ARC
  8
0
 10
118.853027
 20
21.605335
 40
0.500000
 50
270.000000
 51
0.000000
  0
ARC
  8
0
 10
109.853043
 20
21.605350
 40
0.500000
 50
180.000000
 51
270.000000
  0
ARC
  8
0
 10
103.903030
 20
44.429810
 40
1.500000
 50
0.000000
 51
180.000000
  0
ARC
  8
0
 10
103.903030
 20
37.358734
 40
1.500000
 50
0.000000
 51
180.000000
  0
ARC
  8
0
 10
103.403030
 20
35.458717
 40
0.500000
 50
270.000000
 51
0.000000
  0
ARC
  8
0
 10
104.903030
 20
31.727005
 40
1.000000
 50
180.000000
 51
270.000000
  0
ARC
  8
0
 10
105.903030
 20
32.287674
 40
0.500000
 50
180.000000
 51
270.000000
  0
ARC
  8
0
 10
115.097343
 20
111.832176
 40
0.755692
 50
0.000578
 51
14.106531
  0
ARC
  8
0
 10
114.899788
 20
111.759750
 40
0.965194
 50
15.418097
 51
51.388641
  0
ARC
  8
0
 10
114.353035
 20
110.960945
 40
1.931890
 50
53.502277
 51
126.497726
  0
ARC
  8
0
 10
113.806282
 20
111.759750
 40
0.965200
 50
128.611359
 51
164.581909
  0
ARC
  8
0
 10
113.608727
 20
111.832176
 40
0.755691
 50
165.893463
 51
180.000000
  0
ARC
  8
0
 10
94.722733
 20
108.969147
 40
2.130286
 50
3.762766
 51
11.774299
  0
ARC
  8
0
 10
94.505165
 20
108.902679
 40
2.356931
 50
12.276846
 51
45.306488
  0
ARC
  8
0
 10
93.903030
 20
108.169571
 40
3.302731
 50
46.825668
 51
133.175827
  0
ARC
  8
0
 10
93.300888
 20
108.902664
 40
2.356934
 50
134.695221
 51
167.724686
  0
ARC
  8
0
 10
93.083313
 20
108.969131
 40
2.130283
 50
168.227356
 51
183.762772
  0
ARC
  8
0
 10
106.571716
 20
119.327507
 40
0.425082
 50
345.892914
 51
14.106079
  0
ARC
  8
0
 10
106.460594
 20
119.286766
 40
0.542923
 50
15.417959
 51
51.388477
  0
ARC
  8
0
 10
106.153046
 20
118.837440
 40
1.086688
 50
53.502117
 51
126.497322
  0
ARC
  8
0
 10
105.845497
 20
119.286774
 40
0.542922
 50
128.610901
 51
164.582047
  0
ARC
  8
0
 10
105.734375
 20
119.327507
 40
0.425082
 50
165.892929
 51
194.106079
  0
ARC
  8
0
 10
105.845497
 20
119.368248
 40
0.542923
 50
195.417953
 51
231.388474
  0
ARC
  8
0
 10
106.153046
 20
119.817574
 40
1.086688
 50
233.502121
 51
306.497314
  0
ARC
  8
0
 10
106.460594
 20
119.368240
 40
0.542922
 50
308.610901
 51
344.582031
  0
ARC
  8
0
 10
92.439240
 20
108.969124
 40
1.486214
 50
174.645615
 51
194.106583
  0
ARC
  8
0
 10
92.827766
 20
109.111557
 40
1.898232
 50
195.417984
 51
231.388565
  0
ARC
  8
0
 10
93.903015
 20
110.682510
 40
3.799345
 50
233.502350
 51
306.498230
  0
ARC
  8
0
 10
94.978279
 20
109.111572
 40
1.898233
 50
308.611938
 51
344.582306
  0
ARC
  8
0
 10
95.366806
 20
108.969139
 40
1.486215
 50
345.893768
 51
5.331355
  0
ARC
  8
0
 10
93.902985
 20
105.567627
 40
4.532878
 50
65.111641
 51
114.901863
  0
ARC
  8
0
 10
106.897346
 20
119.327507
 40
0.755691
 50
345.893463
 51
14.106531
  0
ARC
  8
0
 10
106.699783
 20
119.255081
 40
0.965201
 50
15.417976
 51
51.388287
  0
ARC
  8
0
 10
106.153038
 20
118.456284
 40
1.931884
 50
53.502144
 51
126.497856
  0
ARC
  8
0
 10
105.606293
 20
119.255081
 40
0.965204
 50
128.611710
 51
164.582031
  0
ARC
  8
0
 10
105.408730
 20
119.327507
 40
0.755691
 50
165.893463
 51
194.106537
  0
ARC
  8
0
 10
105.606293
 20
119.399933
 40
0.965201
 50
195.417969
 51
231.388290
  0
ARC
  8
0
 10
106.153038
 20
120.198730
 40
1.931884
 50
233.502136
 51
306.497864
  0
ARC
  8
0
 10
106.699783
 20
119.399933
 40
0.965204
 50
308.611725
 51
344.582031
  0
ARC
  8
0
 10
115.172760
 20
123.994415
 40
2.130279
 50
3.762984
 51
11.773696
  0
ARC
  8
0
 10
114.955185
 20
123.927948
 40
2.356934
 50
12.276262
 51
45.305698
  0
ARC
  8
0
 10
114.353050
 20
123.194847
 40
3.302735
 50
46.825008
 51
133.175171
  0
ARC
  8
0
 10
113.750916
 20
123.927948
 40
2.356928
 50
134.694565
 51
167.724106
  0
ARC
  8
0
 10
113.533340
 20
123.994415
 40
2.130280
 50
168.226700
 51
183.762985
  0
ARC
  8
0
 10
112.889267
 20
123.994415
 40
1.486213
 50
174.645905
 51
194.106293
  0
ARC
  8
0
 10
113.277794
 20
124.136848
 40
1.898229
 50
195.417770
 51
231.388382
  0
ARC
  8
0
 10
114.353050
 20
125.707794
 40
3.799348
 50
233.502106
 51
306.497894
  0
ARC
  8
0
 10
115.428307
 20
124.136848
 40
1.898234
 50
308.611603
 51
344.582001
  0
ARC
  8
0
 10
115.816833
 20
123.994415
 40
1.486209
 50
345.893433
 51
5.331355
  0
ARC
  8
0
 10
114.353020
 20
120.592903
 40
4.532878
 50
65.111641
 51
114.902084
  0
ARC
  8
0
 10
117.191643
 20
69.617897
 40
1.511398
 50
0.000000
 51
14.106391
  0
ARC
  8
0
 10
116.796532
 20
69.473045
 40
1.930403
 50
15.417976
 51
51.388466
  0
ARC
  8
0
 10
115.703033
 20
67.875450
 40
3.863769
 50
53.502144
 51
90.000000
  0
ARC
  8
0
 10
115.703064
 20
79.845627
 40
3.863762
 50
270.000000
 51
306.497711
  0
ARC
  8
0
 10
116.796562
 20
78.248024
 40
1.930399
 50
308.611359
 51
344.582245
  0
ARC
  8
0
 10
117.191673
 20
78.103180
 40
1.511397
 50
345.893616
 51
0.000000
  0
ARC
  8
0
 10
117.707619
 20
91.866447
 40
3.863776
 50
258.023407
 51
284.904510
  0
ARC
  8
0
 10
117.707611
 20
91.517952
 40
3.091012
 50
254.966064
 51
288.700195
  0
ARC
  8
0
 10
146.053040
 20
138.397171
 40
1.264267
 50
270.000000
 51
282.243713
  0
ARC
  8
0
 10
146.294678
 20
137.311813
 40
0.152463
 50
279.999664
 51
312.517853
  0
ARC
  8
0
 10
146.382004
 20
137.213409
 40
0.021033
 50
318.352661
 51
41.647346
  0
ARC
  8
0
 10
146.294678
 20
137.115005
 40
0.152471
 50
47.482155
 51
80.000328
  0
ARC
  8
0
 10
146.053040
 20
136.029648
 40
1.264261
 50
77.756294
 51
90.000000
  0
ARC
  8
0
 10
112.194855
 20
129.680328
 40
1.108168
 50
345.892303
 51
14.107710
  0
ARC
  8
0
 10
111.905060
 20
129.574081
 40
1.415491
 50
15.419554
 51
51.391556
  0
ARC
  8
0
 10
111.103027
 20
128.402222
 40
2.833613
 50
53.505096
 51
126.494904
  0
ARC
  8
0
 10
110.300995
 20
129.574081
 40
1.415497
 50
128.608444
 51
164.580444
  0
ARC
  8
0
 10
110.011200
 20
129.680328
 40
1.108168
 50
165.892288
 51
194.107712
  0
ARC
  8
0
 10
110.300995
 20
129.786575
 40
1.415491
 50
195.419556
 51
231.391556
  0
ARC
  8
0
 10
111.103027
 20
130.958435
 40
2.833613
 50
233.505096
 51
306.494904
  0
ARC
  8
0
 10
111.905060
 20
129.786575
 40
1.415497
 50
308.608429
 51
344.580444
  0
ARC
  8
0
 10
135.690521
 20
119.816864
 40
1.763474
 50
0.053790
 51
14.105742
  0
ARC
  8
0
 10
135.229599
 20
119.647896
 40
2.252263
 50
15.417020
 51
51.386749
  0
ARC
  8
0
 10
133.953995
 20
117.784325
 40
4.507535
 50
53.500504
 51
126.499496
  0
ARC
  8
0
 10
132.678391
 20
119.647896
 40
2.252263
 50
128.613251
 51
164.582977
  0
ARC
  8
0
 10
132.217468
 20
119.816864
 40
1.763469
 50
165.894257
 51
180.000000
  0
ARC
  8
0
 10
135.690521
 20
119.321884
 40
1.763471
 50
356.239410
 51
14.105742
  0
ARC
  8
0
 10
135.229599
 20
119.152924
 40
2.252261
 50
15.416832
 51
51.386749
  0
ARC
  8
0
 10
133.953995
 20
117.289352
 40
4.507535
 50
53.500504
 51
126.499496
  0
ARC
  8
0
 10
132.678391
 20
119.152924
 40
2.252263
 50
128.613251
 51
164.583160
  0
ARC
  8
0
 10
132.217468
 20
119.321884
 40
1.763469
 50
165.894257
 51
183.738220
  0
ARC
  8
0
 10
135.244095
 20
119.325066
 40
1.309900
 50
354.790222
 51
14.247491
  0
ARC
  8
0
 10
134.901978
 20
119.198692
 40
1.673032
 50
15.558825
 51
51.529285
  0
ARC
  8
0
 10
133.957718
 20
117.811806
 40
3.348578
 50
53.643192
 51
126.639336
  0
ARC
  8
0
 10
133.006622
 20
119.194016
 40
1.673032
 50
128.752930
 51
164.723495
  0
ARC
  8
0
 10
132.663895
 20
119.318703
 40
1.309895
 50
166.034988
 51
186.210953
  0
ARC
  8
0
 10
135.244095
 20
119.042221
 40
1.309893
 50
7.163842
 51
14.247491
  0
ARC
  8
0
 10
134.901978
 20
118.915848
 40
1.673032
 50
15.558825
 51
51.529285
  0
ARC
  8
0
 10
133.957718
 20
117.528961
 40
3.348578
 50
53.643192
 51
126.639336
  0
ARC
  8
0
 10
133.006622
 20
118.911171
 40
1.673032
 50
128.752930
 51
164.723495
  0
ARC
  8
0
 10
132.663895
 20
119.035858
 40
1.309895
 50
166.034988
 51
172.558243
  0
ARC
  8
0
 10
124.903038
 20
107.057419
 40
14.102443
 50
66.838005
 51
90.205353
  0
ARC
  8
0
 10
134.558853
 20
118.439705
 40
1.068358
 50
45.907928
 51
51.382622
  0
ARC
  8
0
 10
133.953995
 20
117.556152
 40
2.137660
 50
53.496387
 51
126.503609
  0
ARC
  8
0
 10
133.349136
 20
118.439705
 40
1.068356
 50
128.617386
 51
134.092072
  0
ARC
  8
0
 10
134.759171
 20
118.663139
 40
1.421422
 50
22.433027
 51
51.388893
  0
ARC
  8
0
 10
133.953995
 20
117.486786
 40
2.845009
 50
53.502304
 51
126.497696
  0
ARC
  8
0
 10
133.148819
 20
118.663139
 40
1.421417
 50
128.611115
 51
157.564804
  0
ARC
  8
0
 10
135.690521
 20
119.321884
 40
1.763471
 50
356.239410
 51
0.000000
  0
ARC
  8
0
 10
124.903023
 20
119.776306
 40
14.102448
 50
302.181732
 51
306.498657
  0
ARC
  8
0
 10
128.894089
 20
113.945518
 40
7.046135
 50
308.612335
 51
344.582611
  0
ARC
  8
0
 10
130.336182
 20
113.416862
 40
5.516848
 50
345.893951
 51
14.106195
  0
ARC
  8
0
 10
128.894089
 20
112.888206
 40
7.046148
 50
15.417499
 51
19.190882
  0
ARC
  8
0
 10
113.608742
 20
29.666372
 40
0.755692
 50
180.000137
 51
194.106537
  0
ARC
  8
0
 10
113.806297
 20
29.738796
 40
0.965193
 50
195.417984
 51
231.388565
  0
ARC
  8
0
 10
114.353050
 20
30.537598
 40
1.931886
 50
233.502182
 51
306.497772
  0
ARC
  8
0
 10
114.899803
 20
29.738794
 40
0.965200
 50
308.611359
 51
344.581909
  0
ARC
  8
0
 10
115.097359
 20
29.666368
 40
0.755691
 50
345.893463
 51
0.000145
  0
ARC
  8
0
 10
94.696968
 20
43.904400
 40
0.806078
 50
345.893005
 51
14.105952
  0
ARC
  8
0
 10
94.486244
 20
43.827148
 40
1.029542
 50
15.417518
 51
51.388134
  0
ARC
  8
0
 10
93.903038
 20
42.975101
 40
2.060674
 50
53.501759
 51
126.497185
  0
ARC
  8
0
 10
93.319847
 20
43.827160
 40
1.029545
 50
128.610809
 51
164.581451
  0
ARC
  8
0
 10
93.109123
 20
43.904415
 40
0.806078
 50
165.892990
 51
194.105957
  0
ARC
  8
0
 10
93.319847
 20
43.981667
 40
1.029542
 50
195.417511
 51
231.388138
  0
ARC
  8
0
 10
93.903053
 20
44.833714
 40
2.060674
 50
233.501755
 51
306.497192
  0
ARC
  8
0
 10
94.486244
 20
43.981655
 40
1.029545
 50
308.610809
 51
344.581451
  0
ARC
  8
0
 10
94.895439
 20
43.904404
 40
1.007595
 50
345.893585
 51
14.106426
  0
ARC
  8
0
 10
94.632027
 20
43.807838
 40
1.286937
 50
15.417837
 51
51.388519
  0
ARC
  8
0
 10
93.903030
 20
42.742771
 40
2.575845
 50
53.502266
 51
126.497734
  0
ARC
  8
0
 10
93.174034
 20
43.807838
 40
1.286933
 50
128.611481
 51
164.582169
  0
ARC
  8
0
 10
92.910622
 20
43.904404
 40
1.007595
 50
165.893570
 51
194.106430
  0
ARC
  8
0
 10
93.174034
 20
44.000969
 40
1.286937
 50
195.417831
 51
231.388519
  0
ARC
  8
0
 10
93.903030
 20
45.066036
 40
2.575845
 50
233.502274
 51
306.497742
  0
ARC
  8
0
 10
94.632027
 20
44.000969
 40
1.286933
 50
308.611481
 51
344.582153
  0
ARC
  8
0
 10
92.910622
 20
41.570946
 40
1.007593
 50
179.894150
 51
194.106430
  0
ARC
  8
0
 10
93.174034
 20
41.667511
 40
1.286937
 50
195.417831
 51
231.388519
  0
ARC
  8
0
 10
93.903030
 20
42.732574
 40
2.575842
 50
233.502213
 51
306.497742
  0
ARC
  8
0
 10
94.632027
 20
41.667511
 40
1.286936
 50
308.611389
 51
344.582001
  0
ARC
  8
0
 10
94.895439
 20
41.570946
 40
1.007596
 50
345.893372
 51
0.126247
  0
POLYLINE
  8
0
 66
     1
  0
VERTEX
  8
0
 10
90.703033
 20
98.360535
  0
VERTEX
  8
0
 10
89.682426
 20
98.306496
  0
VERTEX
  8
0
 10
88.597351
 20
98.063141
  0
VERTEX
  8
0
 10
87.582771
 20
97.674118
  0
VERTEX
  8
0
 10
86.773666
 20
97.183044
  0
VERTEX
  8
0
 10
86.305008
 20
96.633568
  0
VERTEX
  8
0
 10
86.103424
 20
95.792465
  0
VERTEX
  8
0
 10
86.097771
 20
94.842468
  0
VERTEX
  8
0
 10
86.136192
 20
94.164528
  0
VERTEX
  8
0
 10
86.200851
 20
93.503944
  0
VERTEX
  8
0
 10
86.305008
 20
92.795494
  0
VERTEX
  8
0
 10
86.466728
 20
91.976768
  0
VERTEX
  8
0
 10
86.677444
 20
91.162842
  0
VERTEX
  8
0
 10
86.953690
 20
90.300751
  0
VERTEX
  8
0
 10
87.226074
 20
89.571129
  0
VERTEX
  8
0
 10
87.535156
 20
88.863808
  0
VERTEX
  8
0
 10
87.894791
 20
88.171310
  0
VERTEX
  8
0
 10
88.318825
 20
87.486160
  0
VERTEX
  8
0
 10
88.835136
 20
86.789207
  0
VERTEX
  8
0
 10
89.410271
 20
86.137085
  0
VERTEX
  8
0
 10
90.035736
 20
85.532631
  0
VERTEX
  8
0
 10
90.703033
 20
84.978699
  0
SEQEND
  0
POLYLINE
  8
0
 66
     1
  0
VERTEX
  8
0
 10
90.703033
 20
49.360535
  0
VERTEX
  8
0
 10
89.682426
 20
49.414574
  0
VERTEX
  8
0
 10
88.597351
 20
49.657925
  0
VERTEX
  8
0
 10
87.582771
 20
50.046951
  0
VERTEX
  8
0
 10
86.773666
 20
50.538021
  0
VERTEX
  8
0
 10
86.305008
 20
51.087502
  0
VERTEX
  8
0
 10
86.103424
 20
51.928608
  0
VERTEX
  8
0
 10
86.097771
 20
52.878605
  0
VERTEX
  8
0
 10
86.136192
 20
53.556545
  0
VERTEX
  8
0
 10
86.200851
 20
54.217125
  0
VERTEX
  8
0
 10
86.305008
 20
54.925575
  0
VERTEX
  8
0
 10
86.466728
 20
55.744305
  0
VERTEX
  8
0
 10
86.677444
 20
56.558235
  0
VERTEX
  8
0
 10
86.953690
 20
57.420322
  0
VERTEX
  8
0
 10
87.226067
 20
58.149940
  0
VERTEX
  8
0
 10
87.535156
 20
58.857262
  0
VERTEX
  8
0
 10
87.894791
 20
59.549759
  0
VERTEX
  8
0
 10
88.318825
 20
60.234909
  0
VERTEX
  8
0
 10
88.835136
 20
60.931862
  0
VERTEX
  8
0
 10
89.410271
 20
61.583984
  0
VERTEX
  8
0
 10
90.035736
 20
62.188435
  0
VERTEX
  8
0
 10
90.703033
 20
62.742371
  0
SEQEND
  0
POLYLINE
  8
0
 66
     1
  0
VERTEX
  8
0
 10
86.097771
 20
115.860535
  0
VERTEX
  8
0
 10
86.267075
 20
115.552078
  0
VERTEX
  8
0
 10
86.470795
 20
115.184250
  0
VERTEX
  8
0
 10
86.770126
 20
114.648415
  0
VERTEX
  8
0
 10
87.118820
 20
114.032829
  0
VERTEX
  8
0
 10
87.473755
 20
113.413933
  0
VERTEX
  8
0
 10
87.831955
 20
112.796913
  0
VERTEX
  8
0
 10
88.158295
 20
112.241730
  0
VERTEX
  8
0
 10
88.528793
 20
111.620995
  0
VERTEX
  8
0
 10
88.903404
 20
111.002731
  0
SEQEND
  0
POLYLINE
  8
0
 66
     1
  0
VERTEX
  8
0
 10
86.097771
 20
31.860535
  0
VERTEX
  8
0
 10
86.267075
 20
32.168987
  0
VERTEX
  8
0
 10
86.470795
 20
32.536819
  0
VERTEX
  8
0
 10
86.770126
 20
33.072655
  0
VERTEX
  8
0
 10
87.118820
 20
33.688240
  0
VERTEX
  8
0
 10
87.473755
 20
34.307137
  0
VERTEX
  8
0
 10
87.831955
 20
34.924152
  0
VERTEX
  8
0
 10
88.158295
 20
35.479340
  0
VERTEX
  8
0
 10
88.528793
 20
36.100075
  0
VERTEX
  8
0
 10
88.903404
 20
36.718338
  0
SEQEND
  0
POINT
  8
0
 10
287.769806
 20
204.480713
  0
POINT
  8
0
 10
336.269806
 20
204.480713
  0
LINE
  8
0
 10
235.161057
 20
157.528854
 11
246.404053
 21
168.771851
  0
LINE
  8
0
 10
240.817902
 20
151.871994
 11
252.060898
 21
163.114990
  0
LINE
  8
0
 10
245.131256
 20
156.185318
 11
239.474396
 21
161.842163
  0
LINE
  8
0
 10
252.768005
 20
162.407867
 11
252.343750
 21
162.832123
  0
LINE
  8
0
 10
252.626572
 20
163.114990
 11
246.404037
 21
169.337524
  0
LINE
  8
0
 10
239.474396
 20
162.407898
 11
246.404053
 21
169.337524
  0
LINE
  8
0
 10
245.696960
 20
156.185333
 11
252.626602
 21
163.114990
  0
LINE
  8
0
 10
250.575974
 20
161.630035
 11
244.919128
 21
167.286896
  0
LINE
  8
0
 10
246.828308
 20
155.053986
 11
245.414093
 21
156.468201
  0
LINE
  8
0
 10
240.110764
 20
151.871964
 11
235.161011
 21
156.821716
  0
LINE
  8
0
 10
242.090668
 20
151.023453
 11
241.029999
 21
152.084106
  0
LINE
  8
0
 10
239.757233
 20
162.125046
 11
238.343018
 21
163.539261
  0
LINE
  8
0
 10
234.312531
 20
159.508759
 11
238.343033
 21
163.539276
  0
LINE
  8
0
 10
242.797791
 20
151.023468
 11
246.828308
 21
155.053970
  0
LINE
  8
0
 10
235.373154
 20
157.740967
 11
234.312485
 21
158.801636
  0
LINE
  8
0
 10
250.646759
 20
162.407898
 11
250.646759
 21
161.700790
  0
LINE
  8
0
 10
245.696945
 20
167.357651
 11
244.989838
 21
167.357651
  0
LINE
  8
0
 10
243.575623
 20
165.943466
 11
249.232483
 21
160.286621
  0
LINE
  8
0
 10
257.429016
 20
164.947556
 11
258.380707
 21
165.899231
  0
LINE
  8
0
 10
244.636276
 20
168.418274
 11
245.060532
 21
167.994019
  0
LINE
  8
0
 10
245.343384
 20
167.711166
 11
246.404037
 21
168.771835
  0
LINE
  8
0
 10
251.000244
 20
162.054321
 11
252.060898
 21
163.114975
  0
LINE
  8
0
 10
244.636276
 20
168.418274
 11
252.768005
 21
176.550003
  0
LINE
  8
0
 10
245.696930
 20
169.478928
 11
246.121185
 21
169.054672
  0
LINE
  8
0
 10
246.565247
 20
168.610626
 11
246.404037
 21
168.771835
  0
LINE
  8
0
 10
252.060898
 20
163.114975
 11
246.404037
 21
168.771835
  0
LINE
  8
0
 10
251.283081
 20
161.771469
 11
251.707352
 21
161.347198
  0
LINE
  8
0
 10
245.343384
 20
167.711182
 11
251.000229
 21
162.054321
  0
LINE
  8
0
 10
235.161057
 20
157.528854
 11
246.404053
 21
168.771851
  0
LINE
  8
0
 10
240.817902
 20
151.871994
 11
252.060898
 21
163.114990
  0
LINE
  8
0
 10
245.131256
 20
156.185318
 11
239.474396
 21
161.842163
  0
LINE
  8
0
 10
252.768005
 20
162.407867
 11
252.343750
 21
162.832123
  0
LINE
  8
0
 10
252.626572
 20
163.114990
 11
246.404037
 21
169.337524
  0
LINE
  8
0
 10
239.474396
 20
162.407898
 11
246.404053
 21
169.337524
  0
LINE
  8
0
 10
245.696960
 20
156.185333
 11
252.626602
 21
163.114990
  0
LINE
  8
0
 10
250.575974
 20
161.630035
 11
244.919128
 21
167.286896
  0
LINE
  8
0
 10
246.828308
 20
155.053986
 11
245.414093
 21
156.468201
  0
LINE
  8
0
 10
240.110764
 20
151.871964
 11
235.161011
 21
156.821716
  0
LINE
  8
0
 10
242.090668
 20
151.023453
 11
241.029999
 21
152.084106
  0
LINE
  8
0
 10
239.757233
 20
162.125046
 11
238.343018
 21
163.539261
  0
LINE
  8
0
 10
234.312531
 20
159.508759
 11
238.343033
 21
163.539276
  0
LINE
  8
0
 10
242.797791
 20
151.023468
 11
246.828308
 21
155.053970
  0
LINE
  8
0
 10
235.373154
 20
157.740967
 11
234.312485
 21
158.801636
  0
LINE
  8
0
 10
250.646759
 20
162.407898
 11
250.646759
 21
161.700790
  0
LINE
  8
0
 10
245.696945
 20
167.357651
 11
244.989838
 21
167.357651
  0
LINE
  8
0
 10
243.575623
 20
165.943466
 11
249.232483
 21
160.286621
  0
LINE
  8
0
 10
257.429016
 20
164.947556
 11
258.380707
 21
165.899231
  0
LINE
  8
0
 10
244.636276
 20
168.418274
 11
245.060532
 21
167.994019
  0
LINE
  8
0
 10
244.636276
 20
168.418274
 11
253.828674
 21
177.610672
  0
LINE
  8
0
 10
245.696930
 20
169.478928
 11
246.121185
 21
169.054672
  0
LINE
  8
0
 10
246.565247
 20
168.610626
 11
246.404037
 21
168.771835
  0
LINE
  8
0
 10
252.060898
 20
163.114975
 11
246.404037
 21
168.771835
  0
LINE
  8
0
 10
251.283081
 20
161.771469
 11
251.707352
 21
161.347198
  0
LINE
  8
0
 10
245.343384
 20
167.711182
 11
251.000229
 21
162.054321
  0
LINE
  8
0
 10
340.378540
 20
251.432571
 11
329.135559
 21
240.189575
  0
LINE
  8
0
 10
334.721710
 20
257.089447
 11
323.478699
 21
245.846436
  0
LINE
  8
0
 10
330.408356
 20
252.776123
 11
336.065216
 21
247.119263
  0
LINE
  8
0
 10
322.771606
 20
246.553558
 11
323.195862
 21
246.129303
  0
LINE
  8
0
 10
322.913025
 20
245.846451
 11
329.135559
 21
239.623917
  0
LINE
  8
0
 10
336.065216
 20
246.553543
 11
329.135559
 21
239.623901
  0
LINE
  8
0
 10
329.842651
 20
252.776093
 11
322.912994
 21
245.846451
  0
LINE
  8
0
 10
324.963654
 20
247.331406
 11
330.620483
 21
241.674545
  0
LINE
  8
0
 10
328.711304
 20
253.907455
 11
330.125519
 21
252.493240
  0
LINE
  8
0
 10
335.428833
 20
257.089478
 11
340.378601
 21
252.139709
  0
LINE
  8
0
 10
333.448944
 20
257.937988
 11
334.509613
 21
256.877319
  0
LINE
  8
0
 10
335.782379
 20
246.836395
 11
337.196594
 21
245.422180
  0
LINE
  8
0
 10
341.227081
 20
249.452667
 11
337.196564
 21
245.422165
  0
LINE
  8
0
 10
332.741821
 20
257.937958
 11
328.711304
 21
253.907471
  0
LINE
  8
0
 10
340.166443
 20
251.220459
 11
341.227112
 21
250.159805
  0
LINE
  8
0
 10
324.892853
 20
246.553543
 11
324.892853
 21
247.260651
  0
LINE
  8
0
 10
329.842651
 20
241.603775
 11
330.549774
 21
241.603775
  0
LINE
  8
0
 10
331.963989
 20
243.017975
 11
326.307129
 21
248.674820
  0
LINE
  8
0
 10
327.302979
 20
234.821487
 11
326.351288
 21
233.869812
  0
LINE
  8
0
 10
318.110596
 20
244.013885
 11
317.158905
 21
243.062195
  0
LINE
  8
0
 10
330.903320
 20
240.543167
 11
330.479065
 21
240.967422
  0
LINE
  8
0
 10
330.903320
 20
240.543152
 11
322.771606
 21
232.411423
  0
LINE
  8
0
 10
323.832245
 20
247.614227
 11
315.700531
 21
239.482513
  0
LINE
  8
0
 10
329.842682
 20
239.482513
 11
329.418427
 21
239.906769
  0
LINE
  8
0
 10
322.771606
 20
232.411438
 11
315.700531
 21
239.482513
  0
LINE
  8
0
 10
328.974365
 20
240.350800
 11
329.135559
 21
240.189606
  0
LINE
  8
0
 10
323.478729
 20
245.846451
 11
329.135559
 21
240.189606
  0
LINE
  8
0
 10
324.256531
 20
247.189972
 11
323.832275
 21
247.614227
  0
LINE
  8
0
 10
330.196228
 20
241.250275
 11
324.539368
 21
246.907120
  0
LINE
  8
0
 10
270.092133
 20
209.430466
 11
276.031830
 21
215.370163
  0
LINE
  8
0
 10
302.619049
 20
206.602036
 11
287.062714
 21
222.158386
  0
LINE
  8
0
 10
265.635010
 20
174.792969
 11
282.769806
 21
184.685745
  0
LINE
  8
0
 10
256.063324
 20
165.703156
 11
263.563934
 21
173.203781
  0
LINE
  8
0
 10
246.309082
 20
174.782104
 11
255.501617
 21
182.495544
  0
LINE
  8
0
 10
261.132172
 20
183.499939
 11
266.734985
 21
189.102753
  0
LINE
  8
0
 10
270.092133
 20
205.187820
 11
270.092133
 21
209.430466
  0
LINE
  8
0
 10
282.820068
 20
222.158386
 11
287.062714
 21
222.158386
  0
LINE
  8
0
 10
309.904602
 20
174.792969
 11
292.769806
 21
184.685760
  0
LINE
  8
0
 10
319.476257
 20
165.703140
 11
311.975647
 21
173.203766
  0
LINE
  8
0
 10
329.230530
 20
174.782074
 11
320.037994
 21
182.495529
  0
LINE
  8
0
 10
314.407410
 20
183.499924
 11
306.989197
 21
190.918152
  0
LINE
  8
0
 10
302.619049
 20
202.359390
 11
302.619049
 21
206.602036
  0
LINE
  8
0
 10
287.416260
 20
195.641876
 11
278.930969
 21
204.127167
  0
LINE
  8
0
 10
288.123352
 20
195.641876
 11
296.608643
 21
204.127167
  0
LINE
  8
0
 10
296.608643
 20
204.834259
 11
288.123352
 21
213.319550
  0
LINE
  8
0
 10
278.930969
 20
204.834259
 11
282.749359
 21
208.652649
  0
LINE
  8
0
 10
278.223877
 20
204.834274
 11
282.395782
 21
209.006195
  0
LINE
  8
0
 10
297.315735
 20
204.834259
 11
288.123352
 21
214.026657
  0
LINE
  8
0
 10
288.123352
 20
194.934769
 11
297.315735
 21
204.127151
  0
LINE
  8
0
 10
287.416260
 20
194.934769
 11
278.223877
 21
204.127167
  0
LINE
  8
0
 10
283.597870
 20
209.501175
 11
276.880371
 21
216.218689
  0
LINE
  8
0
 10
282.749359
 20
208.652649
 11
276.031830
 21
215.370163
  0
LINE
  8
0
 10
283.597870
 20
209.501175
 11
287.416260
 21
213.319550
  0
LINE
  8
0
 10
283.244324
 20
209.854721
 11
287.416260
 21
214.026657
  0
LINE
  8
0
 10
276.880371
 20
216.218689
 11
285.648499
 21
224.986816
  0
LINE
  8
0
 10
281.688690
 20
209.713303
 11
282.537231
 21
210.561829
  0
LINE
  8
0
 10
277.446045
 20
213.955948
 11
278.294586
 21
214.804474
  0
LINE
  8
0
 10
292.460724
 20
218.881668
 11
286.614410
 21
224.727997
  0
LINE
  8
0
 10
292.719543
 20
217.915741
 11
285.648499
 21
224.986816
  0
LINE
  8
0
 10
292.719543
 20
217.915741
 11
292.460724
 21
218.881668
  0
LINE
  8
0
 10
285.648468
 20
224.986771
 11
286.614410
 21
224.727951
  0
LINE
  8
0
 10
292.012451
 20
217.208633
 11
292.719543
 21
217.915741
  0
LINE
  8
0
 10
247.323288
 20
171.105255
 11
254.394363
 21
164.034195
  0
LINE
  8
0
 10
251.707352
 20
161.347198
 11
260.899750
 21
170.539581
  0
LINE
  8
0
 10
256.657104
 20
177.610657
 11
260.899750
 21
173.368011
  0
LINE
  8
0
 10
254.889343
 20
173.700256
 11
254.889343
 21
169.500244
  0
LINE
  8
0
 10
252.789352
 20
171.600250
 11
256.989349
 21
171.600250
  0
LINE
  8
0
 10
265.269318
 20
212.880722
 11
238.313965
 21
239.836075
  0
LINE
  8
0
 10
238.313950
 20
169.125366
 11
265.269318
 21
196.080719
  0
LINE
  8
0
 10
238.313934
 20
169.125366
 11
216.269318
 21
191.170013
  0
LINE
  8
0
 10
216.269302
 20
217.791443
 11
238.313965
 21
239.836090
  0
LINE
  8
0
 10
265.269318
 20
196.080719
 11
265.269318
 21
212.880722
  0
LINE
  8
0
 10
216.269318
 20
191.081192
 11
216.269318
 21
217.880264
  0
LINE
  8
0
 10
244.677917
 20
233.472122
 11
251.395432
 21
240.189636
  0
LINE
  8
0
 10
251.749008
 20
226.401031
 11
258.466522
 21
233.118546
  0
LINE
  8
0
 10
245.916702
 20
175.594040
 11
245.349655
 21
176.161087
  0
LINE
  8
0
 10
251.644287
 20
181.321594
 11
251.077225
 21
181.888641
  0
LINE
  8
0
 10
258.148315
 20
234.143860
 11
258.784058
 21
234.779617
  0
LINE
  8
0
 10
258.615967
 20
233.676239
 11
251.953125
 21
240.339066
  0
LINE
  8
0
 10
245.916748
 20
175.594040
 11
251.644302
 21
181.321594
  0
LINE
  8
0
 10
258.466522
 20
233.118546
 11
258.615967
 21
233.676224
  0
LINE
  8
0
 10
258.466522
 20
233.118561
 11
251.395447
 21
240.189636
  0
LINE
  8
0
 10
228.575684
 20
194.207886
 11
232.492645
 21
196.655472
  0
LINE
  8
0
 10
224.336319
 20
200.992264
 11
228.253281
 21
203.439850
  0
LINE
  8
0
 10
228.575699
 20
194.207901
 11
224.497528
 21
196.376297
  0
LINE
  8
0
 10
232.331467
 20
201.271484
 11
228.253311
 21
203.439880
  0
LINE
  8
0
 10
224.497513
 20
196.376282
 11
224.336319
 21
200.992264
  0
LINE
  8
0
 10
232.492569
 20
196.655472
 11
232.331375
 21
201.271454
  0
LINE
  8
0
 10
229.113678
 20
196.950073
 11
227.036835
 21
200.273727
  0
LINE
  8
0
 10
229.792130
 20
197.373993
 11
227.715286
 21
200.697662
  0
LINE
  8
0
 10
231.846924
 20
207.046982
 11
232.807236
 21
211.564865
  0
LINE
  8
0
 10
224.021774
 20
208.710281
 11
224.982071
 21
213.228165
  0
LINE
  8
0
 10
231.846924
 20
207.046967
 11
227.454193
 21
205.619675
  0
LINE
  8
0
 10
229.374802
 20
214.655411
 11
224.982056
 21
213.228134
  0
LINE
  8
0
 10
227.454178
 20
205.619705
 11
224.021744
 21
208.710297
  0
LINE
  8
0
 10
232.807220
 20
211.564865
 11
229.374786
 21
214.655441
  0
LINE
  8
0
 10
230.248093
 20
209.338898
 11
226.414551
 21
210.153748
  0
LINE
  8
0
 10
230.414429
 20
210.121414
 11
226.580887
 21
210.936264
  0
LINE
  8
0
 10
278.269806
 20
169.355927
 11
278.269806
 21
182.087677
  0
LINE
  8
0
 10
238.236526
 20
169.113953
 11
216.269791
 21
191.080719
  0
LINE
  8
0
 10
216.269791
 20
217.880737
 11
238.236557
 21
239.847488
  0
LINE
  8
0
 10
238.236557
 20
169.113953
 11
238.280960
 21
169.158356
  0
LINE
  8
0
 10
239.833557
 20
169.655029
 11
244.783310
 21
174.604782
  0
LINE
  8
0
 10
240.752808
 20
170.008575
 11
244.429764
 21
173.685532
  0
LINE
  8
0
 10
243.594360
 20
170.799515
 11
243.638824
 21
170.843979
  0
LINE
  8
0
 10
244.429733
 20
173.685532
 11
244.146881
 21
173.968384
  0
LINE
  8
0
 10
240.752792
 20
170.008575
 11
240.469940
 21
170.291428
  0
LINE
  8
0
 10
244.783279
 20
174.604767
 11
244.288300
 21
175.099747
  0
LINE
  8
0
 10
239.833557
 20
169.655029
 11
239.338577
 21
170.149994
  0
LINE
  8
0
 10
252.633575
 20
182.455032
 11
257.583313
 21
187.404770
  0
LINE
  8
0
 10
253.552811
 20
182.808578
 11
257.229767
 21
186.485535
  0
LINE
  8
0
 10
256.394348
 20
183.599518
 11
256.438843
 21
183.643982
  0
LINE
  8
0
 10
257.229767
 20
186.485535
 11
256.946930
 21
186.768372
  0
LINE
  8
0
 10
253.552811
 20
182.808563
 11
253.269974
 21
183.091415
  0
LINE
  8
0
 10
257.583313
 20
187.404770
 11
257.088348
 21
187.899750
  0
LINE
  8
0
 10
252.633575
 20
182.455017
 11
252.138611
 21
182.949982
  0
LINE
  8
0
 10
257.583313
 20
221.556656
 11
252.633575
 21
226.506409
  0
LINE
  8
0
 10
257.229767
 20
222.475906
 11
253.552826
 21
226.152863
  0
LINE
  8
0
 10
256.438843
 20
225.317459
 11
256.394379
 21
225.361923
  0
LINE
  8
0
 10
253.552811
 20
226.152847
 11
253.269958
 21
225.869995
  0
LINE
  8
0
 10
257.229767
 20
222.475906
 11
256.946930
 21
222.193054
  0
LINE
  8
0
 10
252.633591
 20
226.506409
 11
252.138611
 21
226.011444
  0
LINE
  8
0
 10
257.583344
 20
221.556671
 11
257.088379
 21
221.061691
  0
LINE
  8
0
 10
244.783325
 20
234.356659
 11
239.833588
 21
239.306412
  0
LINE
  8
0
 10
244.429779
 20
235.275909
 11
240.752823
 21
238.952866
  0
LINE
  8
0
 10
243.638840
 20
238.117462
 11
243.594376
 21
238.161926
  0
LINE
  8
0
 10
240.752838
 20
238.952866
 11
240.470001
 21
238.670013
  0
LINE
  8
0
 10
244.429794
 20
235.275909
 11
244.146942
 21
234.993057
  0
LINE
  8
0
 10
239.833588
 20
239.306396
 11
239.338623
 21
238.811432
  0
LINE
  8
0
 10
244.783340
 20
234.356659
 11
244.288361
 21
233.861694
  0
LINE
  8
0
 10
238.236572
 20
239.847488
 11
238.280975
 21
239.803070
  0
LINE
  8
0
 10
253.056534
 20
240.507172
 11
258.784088
 21
234.779602
  0
LINE
  8
0
 10
278.269806
 20
217.608124
 11
278.269806
 21
239.605499
  0
LINE
  8
0
 10
253.056534
 20
240.507172
 11
252.420776
 21
239.871414
  0
LINE
  8
0
 10
251.953110
 20
240.339066
 11
251.395447
 21
240.189636
  0
LINE
  8
0
 10
273.733917
 20
174.180710
 11
272.001862
 21
177.180710
  0
LINE
  8
0
 10
272.001862
 20
177.180710
 11
269.770691
 21
177.180725
  0
LINE
  8
0
 10
266.805695
 20
174.180710
 11
267.921265
 21
176.112946
  0
LINE
  8
0
 10
268.537750
 20
171.180725
 11
266.805695
 21
174.180725
  0
LINE
  8
0
 10
272.001862
 20
171.180695
 11
268.537750
 21
171.180695
  0
LINE
  8
0
 10
273.733917
 20
174.180710
 11
272.001862
 21
171.180710
  0
LINE
  8
0
 10
273.733917
 20
234.780716
 11
272.001862
 21
237.780701
  0
LINE
  8
0
 10
272.001862
 20
237.780701
 11
268.537750
 21
237.780701
  0
LINE
  8
0
 10
266.805725
 20
234.780716
 11
268.537781
 21
237.780716
  0
LINE
  8
0
 10
268.537750
 20
231.780716
 11
266.805695
 21
234.780716
  0
LINE
  8
0
 10
272.001862
 20
231.780716
 11
268.537750
 21
231.780716
  0
LINE
  8
0
 10
273.733917
 20
234.780716
 11
272.001862
 21
231.780716
  0
LINE
  8
0
 10
253.870331
 20
218.135422
 11
252.870331
 21
217.558075
  0
LINE
  8
0
 10
252.870331
 20
217.558075
 11
252.870331
 21
216.403366
  0
LINE
  8
0
 10
253.870331
 20
215.826019
 11
252.870331
 21
216.403366
  0
LINE
  8
0
 10
254.870331
 20
216.403366
 11
253.870331
 21
215.826019
  0
LINE
  8
0
 10
254.870331
 20
217.558075
 11
254.870331
 21
216.403366
  0
LINE
  8
0
 10
253.870331
 20
218.135422
 11
254.870331
 21
217.558075
  0
LINE
  8
0
 10
253.870331
 20
193.135422
 11
252.870331
 21
192.558075
  0
LINE
  8
0
 10
252.870331
 20
192.558075
 11
252.870331
 21
191.403366
  0
LINE
  8
0
 10
253.870331
 20
190.826019
 11
252.870331
 21
191.403381
  0
LINE
  8
0
 10
254.870331
 20
191.403366
 11
253.870331
 21
190.826019
  0
LINE
  8
0
 10
254.870331
 20
192.558075
 11
254.870331
 21
191.403366
  0
LINE
  8
0
 10
253.870331
 20
193.135422
 11
254.870331
 21
192.558075
  0
LINE
  8
0
 10
244.349518
 20
185.388840
 11
239.349518
 21
185.388840
  0
LINE
  8
0
 10
241.849518
 20
187.888840
 11
241.849518
 21
182.888840
  0
LINE
  8
0
 10
244.349518
 20
223.572601
 11
239.349518
 21
223.572601
  0
LINE
  8
0
 10
241.849518
 20
226.072601
 11
241.849518
 21
221.072601
  0
LINE
  8
0
 10
266.120667
 20
167.694214
 11
266.721405
 21
168.734711
  0
LINE
  8
0
 10
266.726898
 20
167.344208
 11
267.327637
 21
168.384720
  0
LINE
  8
0
 10
266.120667
 20
241.267212
 11
266.721405
 21
240.226715
  0
LINE
  8
0
 10
266.726898
 20
241.617218
 11
267.327637
 21
240.576721
  0
LINE
  8
0
 10
281.974243
 20
254.533630
 11
281.505585
 21
252.784561
  0
LINE
  8
0
 10
293.565369
 20
254.533630
 11
294.034027
 21
252.784561
  0
LINE
  8
0
 10
281.974243
 20
154.427795
 11
281.505585
 21
156.176880
  0
LINE
  8
0
 10
293.565338
 20
154.427795
 11
294.033997
 21
156.176865
  0
LINE
  8
0
 10
332.734253
 20
185.753738
 11
334.014679
 21
184.473328
  0
LINE
  8
0
 10
332.734283
 20
223.207626
 11
334.014709
 21
224.488037
  0
LINE
  8
0
 10
326.470093
 20
234.057587
 11
328.219147
 21
234.526245
  0
LINE
  8
0
 10
244.159256
 20
173.980713
 11
246.894989
 21
173.980713
  0
CIRCLE
  8
0
 10
305.269806
 20
234.791611
 40
4.500000
  0
ARC
  8
0
 10
277.870300
 20
194.581223
 40
36.000000
 50
232.983505
 51
235.402100
  0
ARC
  8
0
 10
240.464355
 20
152.225555
 40
0.500011
 50
225.000000
 51
314.998749
  0
ARC
  8
0
 10
235.514603
 20
157.175308
 40
0.500001
 50
135.001236
 51
225.000000
  0
ARC
  8
0
 10
234.666077
 20
159.155197
 40
0.499990
 50
135.000000
 51
225.001236
  0
ARC
  8
0
 10
242.444244
 20
151.377029
 40
0.500001
 50
225.001236
 51
315.000000
  0
CIRCLE
  8
0
 10
244.424149
 20
161.135101
 40
2.500000
  0
CIRCLE
  8
0
 10
244.424149
 20
161.135101
 40
2.000000
  0
ARC
  8
0
 10
277.870300
 20
194.581223
 40
36.000000
 50
232.983505
 51
235.402100
  0
ARC
  8
0
 10
240.464355
 20
152.225555
 40
0.500011
 50
225.000000
 51
314.998749
  0
ARC
  8
0
 10
235.514603
 20
157.175308
 40
0.500001
 50
135.001236
 51
225.000000
  0
ARC
  8
0
 10
234.666077
 20
159.155197
 40
0.499990
 50
135.000000
 51
225.001236
  0
ARC
  8
0
 10
242.444244
 20
151.377029
 40
0.500001
 50
225.001236
 51
315.000000
  0
ARC
  8
0
 10
238.993240
 20
155.704193
 40
3.519536
 50
168.051590
 51
281.948425
  0
CIRCLE
  8
0
 10
244.424149
 20
161.135101
 40
2.500000
  0
CIRCLE
  8
0
 10
244.424149
 20
161.135101
 40
2.000000
  0
ARC
  8
0
 10
297.669312
 20
214.380203
 40
35.999996
 50
52.983566
 51
55.402100
  0
ARC
  8
0
 10
335.075256
 20
256.735870
 40
0.500011
 50
45.002472
 51
134.997528
  0
ARC
  8
0
 10
340.024994
 20
251.786133
 40
0.500022
 50
315.001251
 51
44.997528
  0
ARC
  8
0
 10
340.873535
 20
249.806244
 40
0.500001
 50
314.998749
 51
45.000000
  0
ARC
  8
0
 10
333.095367
 20
257.584412
 40
0.499990
 50
45.000000
 51
135.002472
  0
ARC
  8
0
 10
336.344543
 20
253.055405
 40
3.504955
 50
353.984772
 51
96.015457
  0
CIRCLE
  8
0
 10
331.115448
 20
247.826340
 40
2.500000
  0
CIRCLE
  8
0
 10
331.115448
 20
247.826340
 40
2.000000
  0
ARC
  8
0
 10
297.669312
 20
214.380203
 40
35.999996
 50
34.597866
 51
37.016415
  0
ARC
  8
0
 10
287.769806
 20
204.480713
 40
50.999996
 50
215.614334
 51
219.373703
  0
ARC
  8
0
 10
270.635010
 20
166.132721
 40
9.999994
 50
120.000015
 51
135.000061
  0
ARC
  8
0
 10
257.596649
 20
187.035461
 40
5.000000
 50
245.228134
 51
315.000000
  0
ARC
  8
0
 10
256.128387
 20
199.709351
 40
14.999994
 50
315.000000
 51
21.421829
  0
ARC
  8
0
 10
304.904572
 20
166.132706
 40
10.000010
 50
45.000000
 51
59.999981
  0
ARC
  8
0
 10
320.183380
 20
166.410248
 40
1.000012
 50
224.999374
 51
310.410492
  0
ARC
  8
0
 10
287.769806
 20
204.480713
 40
51.000011
 50
310.411469
 51
324.385681
  0
ARC
  8
0
 10
317.942963
 20
187.035446
 40
4.999995
 50
225.000122
 51
294.771881
  0
ARC
  8
0
 10
317.595795
 20
201.524750
 40
14.999985
 50
176.810257
 51
225.000000
  0
ARC
  8
0
 10
287.769806
 20
176.025497
 40
9.999994
 50
59.999981
 51
120.000168
  0
ARC
  8
0
 10
279.284515
 20
204.480713
 40
0.500001
 50
134.998764
 51
225.000000
  0
ARC
  8
0
 10
287.769806
 20
195.995438
 40
0.500001
 50
225.001236
 51
314.998749
  0
ARC
  8
0
 10
296.255096
 20
204.480713
 40
0.500001
 50
314.998749
 51
45.000000
  0
ARC
  8
0
 10
287.769806
 20
212.965988
 40
0.500001
 50
45.001236
 51
134.998764
  0
ARC
  8
0
 10
278.577423
 20
204.480713
 40
0.500001
 50
134.998764
 51
225.000000
  0
ARC
  8
0
 10
287.769806
 20
195.288330
 40
0.500001
 50
225.001236
 51
314.998749
  0
ARC
  8
0
 10
296.962189
 20
204.480713
 40
0.500001
 50
314.998749
 51
45.000000
  0
ARC
  8
0
 10
287.769806
 20
213.673096
 40
0.500001
 50
45.001236
 51
134.998764
  0
ARC
  8
0
 10
259.485535
 20
171.953796
 40
2.000002
 50
315.000000
 51
45.000000
  0
ARC
  8
0
 10
255.242889
 20
176.196442
 40
2.000002
 50
45.000000
 51
135.000000
  0
CIRCLE
  8
0
 10
254.889343
 20
171.600250
 40
3.500000
  0
CIRCLE
  8
0
 10
241.849518
 20
185.388840
 40
5.500000
  0
CIRCLE
  8
0
 10
241.849518
 20
223.572601
 40
5.500000
  0
CIRCLE
  8
0
 10
253.870331
 20
204.480713
 40
0.750000
  0
CIRCLE
  8
0
 10
253.870331
 20
204.480713
 40
9.200000
  0
ARC
  8
0
 10
253.870331
 20
204.480713
 40
10.000014
 50
103.304710
 51
256.695282
  0
ARC
  8
0
 10
243.902130
 20
183.336227
 40
7.999995
 50
284.585663
 51
345.414337
  0
ARC
  8
0
 10
251.041916
 20
232.764984
 40
7.999995
 50
14.585675
 51
75.414352
  0
CIRCLE
  8
0
 10
228.414490
 20
198.823868
 40
2.000000
  0
CIRCLE
  8
0
 10
228.414490
 20
198.823868
 40
1.750000
  0
CIRCLE
  8
0
 10
228.414490
 20
198.823868
 40
4.000000
  0
CIRCLE
  8
0
 10
228.414490
 20
210.137573
 40
2.000000
  0
CIRCLE
  8
0
 10
228.414490
 20
210.137573
 40
1.750000
  0
CIRCLE
  8
0
 10
228.414490
 20
210.137573
 40
4.000000
  0
ARC
  8
0
 10
253.870331
 20
204.480713
 40
9.999999
 50
283.304718
 51
76.695274
  0
ARC
  8
0
 10
287.769806
 20
204.480713
 40
43.000004
 50
112.431526
 51
133.157028
  0
ARC
  8
0
 10
273.269806
 20
169.355927
 40
4.999994
 50
247.568405
 51
0.000000
  0
ARC
  8
0
 10
273.269806
 20
239.605499
 40
5.000000
 50
0.000000
 51
112.431587
  0
CIRCLE
  8
0
 10
241.849518
 20
185.388840
 40
5.150000
  0
CIRCLE
  8
0
 10
241.849518
 20
223.572601
 40
5.150000
  0
CIRCLE
  8
0
 10
253.870331
 20
191.980713
 40
2.600000
  0
CIRCLE
  8
0
 10
253.870331
 20
191.980713
 40
3.500000
  0
CIRCLE
  8
0
 10
253.870331
 20
216.980713
 40
2.600000
  0
CIRCLE
  8
0
 10
253.870331
 20
216.980713
 40
3.500000
  0
ARC
  8
0
 10
241.473053
 20
172.920837
 40
3.000004
 50
256.108643
 51
314.999786
  0
ARC
  8
0
 10
241.517517
 20
172.965302
 40
2.999992
 50
314.999786
 51
13.891067
  0
ARC
  8
0
 10
254.273056
 20
185.720840
 40
3.000000
 50
256.108948
 51
315.000000
  0
ARC
  8
0
 10
254.317520
 20
185.765305
 40
3.000003
 50
315.000000
 51
13.891136
  0
ARC
  8
0
 10
254.317520
 20
223.196136
 40
2.999985
 50
346.108856
 51
45.000000
  0
ARC
  8
0
 10
254.273056
 20
223.240601
 40
3.000003
 50
45.000000
 51
103.891068
  0
ARC
  8
0
 10
241.517517
 20
235.996140
 40
3.000000
 50
346.108948
 51
45.000000
  0
ARC
  8
0
 10
241.473053
 20
236.040604
 40
3.000003
 50
45.000000
 51
103.891068
  0
ARC
  8
0
 10
287.769806
 20
204.480713
 40
48.500004
 50
230.917252
 51
309.082672
  0
ARC
  8
0
 10
287.769806
 20
204.480713
 40
43.000004
 50
231.677383
 51
247.568527
  0
ARC
  8
0
 10
250.554459
 20
175.775009
 40
3.999993
 50
69.476570
 51
82.878700
  0
ARC
  8
0
 10
270.269806
 20
174.180725
 40
6.500013
 50
186.514908
 51
55.982548
  0
CIRCLE
  8
0
 10
270.269806
 20
234.780716
 40
6.500000
  0
ARC
  8
0
 10
270.269806
 20
234.780716
 40
7.699999
 50
122.605339
 51
117.394722
  0
ARC
  8
0
 10
270.269806
 20
174.180725
 40
7.700011
 50
242.605331
 51
51.704517
  0
ARC
  8
0
 10
270.269806
 20
174.180725
 40
5.700009
 50
180.972168
 51
59.972565
  0
CIRCLE
  8
0
 10
270.269806
 20
234.780716
 40
5.700000
  0
ARC
  8
0
 10
270.269806
 20
174.180725
 40
7.700003
 50
193.257843
 51
237.394714
  0
CIRCLE
  8
0
 10
305.269836
 20
234.791580
 40
4.000000
  0
CIRCLE
  8
0
 10
305.269836
 20
234.791580
 40
3.375000
  0
ARC
  8
0
 10
287.769806
 20
252.980713
 40
6.000009
 50
15.000010
 51
164.999985
  0
ARC
  8
0
 10
287.769806
 20
155.980713
 40
6.000009
 50
195.000015
 51
344.999908
  0
ARC
  8
0
 10
329.772034
 20
180.230698
 40
6.000000
 50
261.441223
 51
44.999897
  0
ARC
  8
0
 10
329.772064
 20
228.730682
 40
6.000007
 50
315.000000
 51
105.000008
  0
ARC
  8
0
 10
276.675964
 20
254.078644
 40
5.000013
 50
342.391724
 51
345.000122
  0
ARC
  8
0
 10
276.675934
 20
154.882782
 40
5.000022
 50
14.999965
 51
17.608288
  0
ARC
  8
0
 10
298.863647
 20
154.882767
 40
5.000018
 50
162.391541
 51
165.000031
  0
ARC
  8
0
 10
325.175934
 20
170.074173
 40
5.000007
 50
74.999992
 51
77.608315
  0
ARC
  8
0
 10
336.269806
 20
189.289261
 40
4.999997
 50
222.391418
 51
225.000122
  0
ARC
  8
0
 10
336.269806
 20
219.672089
 40
4.999995
 50
134.999878
 51
137.608093
  0
ARC
  8
0
 10
325.175995
 20
238.887207
 40
4.999990
 50
282.391357
 51
285.000061
  0
ARC
  8
0
 10
298.863647
 20
254.078644
 40
4.999992
 50
195.000061
 51
197.608398
  0
ARC
  8
0
 10
287.769806
 20
252.980713
 40
2.599994
 50
358.464142
 51
181.535873
  0
ARC
  8
0
 10
287.769806
 20
155.980713
 40
2.599994
 50
178.464127
 51
1.535866
  0
ARC
  8
0
 10
329.772034
 20
180.230713
 40
2.600010
 50
238.464005
 51
61.536068
  0
ARC
  8
0
 10
329.772064
 20
228.730682
 40
2.599997
 50
298.463776
 51
121.536171
  0
ARC
  8
0
 10
287.769806
 20
204.480713
 40
48.499996
 50
230.917282
 51
309.082672
  0
ARC
  8
0
 10
287.769806
 20
204.480713
 40
48.499992
 50
324.612213
 51
39.082687
  0
ARC
  8
0
 10
287.769806
 20
204.480713
 40
48.499996
 50
50.917290
 51
133.076279
  0
POINT
  8
0
 10
-240.621964
 20
-72.019287
  0
POINT
  8
0
 10
-298.321960
 20
-72.019287
  0
LINE
  8
0
 10
-297.121948
 20
-33.375153
 11
-297.121948
 21
-23.519287
  0
LINE
  8
0
 10
-303.321960
 20
-33.375153
 11
-303.321960
 21
-23.519287
  0
LINE
  8
0
 10
-303.321991
 20
-23.519287
 11
-297.121979
 21
-23.519287
  0
LINE
  8
0
 10
-303.321991
 20
-120.519287
 11
-297.121979
 21
-120.519287
  0
LINE
  8
0
 10
-297.121948
 20
-120.519287
 11
-297.121948
 21
-110.663422
  0
LINE
  8
0
 10
-303.321960
 20
-120.519287
 11
-303.321960
 21
-110.663422
  0
LINE
  8
0
 10
-288.871979
 20
-26.693745
 11
-281.471985
 21
-26.693745
  0
LINE
  8
0
 10
-289.671967
 20
-24.713840
 11
-280.671997
 21
-24.713840
  0
LINE
  8
0
 10
-289.671967
 20
-19.264103
 11
-280.671997
 21
-19.264103
  0
LINE
  8
0
 10
-288.871979
 20
-18.415562
 11
-281.471985
 21
-18.415562
  0
LINE
  8
0
 10
-288.871979
 20
-31.077793
 11
-281.471985
 21
-31.077793
  0
LINE
  8
0
 10
-280.971985
 20
-30.577793
 11
-280.971985
 21
-25.779545
  0
LINE
  8
0
 10
-280.171967
 20
-29.163593
 11
-280.171967
 21
-19.764103
  0
LINE
  8
0
 10
-289.371979
 20
-30.577793
 11
-289.371979
 21
-25.779545
  0
LINE
  8
0
 10
-290.171967
 20
-29.163593
 11
-290.171967
 21
-19.764103
  0
LINE
  8
0
 10
-288.871979
 20
-25.279545
 11
-281.471985
 21
-25.279545
  0
LINE
  8
0
 10
-290.671997
 20
-29.663593
 11
-289.371979
 21
-29.663593
  0
LINE
  8
0
 10
-289.371979
 20
-19.264103
 11
-289.371979
 21
-18.915562
  0
LINE
  8
0
 10
-280.971985
 20
-19.264103
 11
-280.971985
 21
-18.915562
  0
LINE
  8
0
 10
-280.971985
 20
-29.663593
 11
-279.671967
 21
-29.663593
  0
LINE
  8
0
 10
-296.671997
 20
-29.380741
 11
-290.671997
 21
-29.380741
  0
LINE
  8
0
 10
-279.671967
 20
-29.663593
 11
-279.671967
 21
-23.723896
  0
LINE
  8
0
 10
-290.671967
 20
-29.663593
 11
-290.671967
 21
-23.723881
  0
LINE
  8
0
 10
-281.671967
 20
-36.663952
 11
-281.671967
 21
-31.077793
  0
LINE
  8
0
 10
-288.671967
 20
-36.663952
 11
-288.671967
 21
-31.077793
  0
LINE
  8
0
 10
-279.671967
 20
-29.380741
 11
-274.671967
 21
-29.380741
  0
LINE
  8
0
 10
-283.671936
 20
-34.047653
 11
-283.671936
 21
-36.663952
  0
LINE
  8
0
 10
-286.671967
 20
-34.047638
 11
-286.671967
 21
-36.663952
  0
LINE
  8
0
 10
-274.671967
 20
-34.825470
 11
-274.671967
 21
-23.723892
  0
LINE
  8
0
 10
-296.671997
 20
-23.723881
 11
-290.671997
 21
-23.723881
  0
LINE
  8
0
 10
-290.671997
 20
-24.006733
 11
-290.171967
 21
-24.006733
  0
LINE
  8
0
 10
-280.171997
 20
-24.006733
 11
-279.671967
 21
-24.006733
  0
LINE
  8
0
 10
-279.671967
 20
-23.723881
 11
-274.671967
 21
-23.723881
  0
LINE
  8
0
 10
-296.671997
 20
-34.825474
 11
-288.671967
 21
-34.825474
  0
LINE
  8
0
 10
-286.671997
 20
-35.249729
 11
-283.671997
 21
-35.249729
  0
LINE
  8
0
 10
-286.671997
 20
-36.310383
 11
-283.671967
 21
-36.310383
  0
LINE
  8
0
 10
-286.671997
 20
-34.825474
 11
-283.671997
 21
-34.825474
  0
LINE
  8
0
 10
-281.671967
 20
-34.825474
 11
-274.671967
 21
-34.825474
  0
LINE
  8
0
 10
-281.671967
 20
-35.249729
 11
-275.821960
 21
-35.249729
  0
LINE
  8
0
 10
-281.671967
 20
-36.310383
 11
-275.821960
 21
-36.310383
  0
LINE
  8
0
 10
-289.671936
 20
-35.956863
 11
-288.671936
 21
-35.249763
  0
LINE
  8
0
 10
-295.622009
 20
-35.956867
 11
-289.671967
 21
-35.956867
  0
LINE
  8
0
 10
-289.671967
 20
-36.663952
 11
-289.671967
 21
-35.956867
  0
LINE
  8
0
 10
-272.671967
 20
-31.173645
 11
-272.671967
 21
-26.173645
  0
LINE
  8
0
 10
-274.671967
 20
-31.173634
 11
-272.671997
 21
-31.173634
  0
LINE
  8
0
 10
-272.671997
 20
-30.673634
 11
-242.171967
 21
-30.673634
  0
LINE
  8
0
 10
-272.671997
 20
-26.673634
 11
-242.171967
 21
-26.673634
  0
LINE
  8
0
 10
-274.671967
 20
-26.173634
 11
-272.671997
 21
-26.173634
  0
LINE
  8
0
 10
-309.121979
 20
-41.517715
 11
-307.621979
 21
-41.517715
  0
LINE
  8
0
 10
-310.621979
 20
-40.446228
 11
-307.621979
 21
-40.446228
  0
LINE
  8
0
 10
-310.621979
 20
-33.375153
 11
-307.621979
 21
-33.375153
  0
LINE
  8
0
 10
-310.621979
 20
-43.522919
 11
-310.621979
 21
-33.375153
  0
LINE
  8
0
 10
-309.121979
 20
-42.375626
 11
-309.121979
 21
-41.517715
  0
LINE
  8
0
 10
-307.621979
 20
-44.583572
 11
-307.621979
 21
-40.446228
  0
LINE
  8
0
 10
-303.621979
 20
-44.583572
 11
-303.621979
 21
-40.446228
  0
LINE
  8
0
 10
-303.621979
 20
-41.517715
 11
-297.122009
 21
-41.517715
  0
LINE
  8
0
 10
-307.621979
 20
-41.678528
 11
-303.621979
 21
-41.678528
  0
LINE
  8
0
 10
-307.621979
 20
-32.486145
 11
-303.621979
 21
-32.486145
  0
LINE
  8
0
 10
-303.621979
 20
-33.375153
 11
-296.671967
 21
-33.375153
  0
LINE
  8
0
 10
-303.621979
 20
-40.446228
 11
-297.121948
 21
-40.446228
  0
LINE
  8
0
 10
-307.621979
 20
-33.375153
 11
-307.621979
 21
-32.486145
  0
LINE
  8
0
 10
-303.621979
 20
-33.375153
 11
-303.621979
 21
-32.486145
  0
LINE
  8
0
 10
-307.621979
 20
-44.583572
 11
-303.621979
 21
-44.583572
  0
LINE
  8
0
 10
-310.621979
 20
-43.522919
 11
-307.621979
 21
-43.522919
  0
LINE
  8
0
 10
-310.621979
 20
-42.375626
 11
-307.621979
 21
-42.375626
  0
LINE
  8
0
 10
-303.621979
 20
-43.522919
 11
-303.321991
 21
-43.522919
  0
LINE
  8
0
 10
-303.621979
 20
-42.375626
 11
-303.321991
 21
-42.375626
  0
LINE
  8
0
 10
-288.871979
 20
-117.344818
 11
-281.471985
 21
-117.344818
  0
LINE
  8
0
 10
-289.671967
 20
-119.324722
 11
-280.671997
 21
-119.324722
  0
LINE
  8
0
 10
-289.671967
 20
-124.774460
 11
-280.671997
 21
-124.774460
  0
LINE
  8
0
 10
-288.871979
 20
-125.623001
 11
-281.471985
 21
-125.623001
  0
LINE
  8
0
 10
-288.871979
 20
-112.960770
 11
-281.471985
 21
-112.960770
  0
LINE
  8
0
 10
-280.971985
 20
-113.460770
 11
-280.971985
 21
-118.259018
  0
LINE
  8
0
 10
-280.171967
 20
-114.874969
 11
-280.171967
 21
-124.274460
  0
LINE
  8
0
 10
-289.371979
 20
-113.460770
 11
-289.371979
 21
-118.259018
  0
LINE
  8
0
 10
-290.171967
 20
-114.874969
 11
-290.171967
 21
-124.274460
  0
LINE
  8
0
 10
-288.871979
 20
-118.759018
 11
-281.471985
 21
-118.759018
  0
LINE
  8
0
 10
-290.671997
 20
-114.374969
 11
-289.371979
 21
-114.374969
  0
LINE
  8
0
 10
-289.371979
 20
-124.774460
 11
-289.371979
 21
-125.123001
  0
LINE
  8
0
 10
-280.971985
 20
-124.774460
 11
-280.971985
 21
-125.123001
  0
LINE
  8
0
 10
-280.971985
 20
-114.374969
 11
-279.671967
 21
-114.374969
  0
LINE
  8
0
 10
-296.671997
 20
-114.657822
 11
-290.671997
 21
-114.657822
  0
LINE
  8
0
 10
-279.671967
 20
-114.374969
 11
-279.671967
 21
-120.314667
  0
LINE
  8
0
 10
-290.671967
 20
-114.374969
 11
-290.671967
 21
-120.314682
  0
LINE
  8
0
 10
-281.671967
 20
-107.374634
 11
-281.671967
 21
-112.960770
  0
LINE
  8
0
 10
-288.671967
 20
-107.374634
 11
-288.671967
 21
-112.960770
  0
LINE
  8
0
 10
-279.671967
 20
-114.657822
 11
-274.671967
 21
-114.657822
  0
LINE
  8
0
 10
-283.671936
 20
-109.990906
 11
-283.671936
 21
-107.374634
  0
LINE
  8
0
 10
-286.671967
 20
-109.990921
 11
-286.671967
 21
-107.374634
  0
LINE
  8
0
 10
-274.671967
 20
-109.213089
 11
-274.671967
 21
-120.314667
  0
LINE
  8
0
 10
-296.671997
 20
-120.314682
 11
-290.671997
 21
-120.314682
  0
LINE
  8
0
 10
-290.671997
 20
-120.031830
 11
-290.171967
 21
-120.031830
  0
LINE
  8
0
 10
-280.171997
 20
-120.031830
 11
-279.671967
 21
-120.031830
  0
LINE
  8
0
 10
-279.671967
 20
-120.314682
 11
-274.671967
 21
-120.314682
  0
LINE
  8
0
 10
-296.671997
 20
-109.213089
 11
-288.671967
 21
-109.213089
  0
LINE
  8
0
 10
-286.671997
 20
-108.788834
 11
-283.671997
 21
-108.788834
  0
LINE
  8
0
 10
-286.671997
 20
-107.728180
 11
-283.671967
 21
-107.728180
  0
LINE
  8
0
 10
-286.671997
 20
-109.213089
 11
-283.671997
 21
-109.213089
  0
LINE
  8
0
 10
-281.671967
 20
-109.213089
 11
-274.671967
 21
-109.213089
  0
LINE
  8
0
 10
-281.671967
 20
-108.788834
 11
-275.821960
 21
-108.788834
  0
LINE
  8
0
 10
-281.671967
 20
-107.728180
 11
-275.821960
 21
-107.728180
  0
LINE
  8
0
 10
-289.671936
 20
-108.081688
 11
-288.671936
 21
-108.788788
  0
LINE
  8
0
 10
-295.621979
 20
-108.081696
 11
-289.671967
 21
-108.081696
  0
LINE
  8
0
 10
-289.671967
 20
-107.374634
 11
-289.671967
 21
-108.081696
  0
LINE
  8
0
 10
-272.671967
 20
-112.864914
 11
-272.671967
 21
-117.864914
  0
LINE
  8
0
 10
-274.671967
 20
-112.864929
 11
-272.671997
 21
-112.864929
  0
LINE
  8
0
 10
-272.671997
 20
-113.364929
 11
-242.171967
 21
-113.364929
  0
LINE
  8
0
 10
-272.671997
 20
-117.364929
 11
-242.171967
 21
-117.364929
  0
LINE
  8
0
 10
-274.671967
 20
-117.864929
 11
-272.671967
 21
-117.864929
  0
LINE
  8
0
 10
-309.121979
 20
-102.520859
 11
-307.621979
 21
-102.520859
  0
LINE
  8
0
 10
-310.621979
 20
-103.592346
 11
-307.621979
 21
-103.592346
  0
LINE
  8
0
 10
-310.621979
 20
-110.663422
 11
-307.621979
 21
-110.663422
  0
LINE
  8
0
 10
-310.621979
 20
-100.515656
 11
-310.621979
 21
-110.663422
  0
LINE
  8
0
 10
-309.121979
 20
-101.662949
 11
-309.121979
 21
-102.520859
  0
LINE
  8
0
 10
-307.621979
 20
-99.455002
 11
-307.621979
 21
-103.592346
  0
LINE
  8
0
 10
-303.621979
 20
-99.455002
 11
-303.621979
 21
-103.592346
  0
LINE
  8
0
 10
-303.621979
 20
-102.520859
 11
-297.121979
 21
-102.520859
  0
LINE
  8
0
 10
-307.621979
 20
-102.360046
 11
-303.621979
 21
-102.360046
  0
LINE
  8
0
 10
-307.621979
 20
-111.552429
 11
-303.621979
 21
-111.552429
  0
LINE
  8
0
 10
-303.621979
 20
-110.663422
 11
-296.671967
 21
-110.663422
  0
LINE
  8
0
 10
-303.621979
 20
-103.592346
 11
-297.121948
 21
-103.592346
  0
LINE
  8
0
 10
-307.621979
 20
-110.663422
 11
-307.621979
 21
-111.552429
  0
LINE
  8
0
 10
-303.621979
 20
-110.663422
 11
-303.621979
 21
-111.552429
  0
LINE
  8
0
 10
-307.621979
 20
-99.455002
 11
-303.621979
 21
-99.455002
  0
LINE
  8
0
 10
-310.621979
 20
-100.515656
 11
-307.621979
 21
-100.515656
  0
LINE
  8
0
 10
-310.621979
 20
-101.662949
 11
-307.621979
 21
-101.662949
  0
LINE
  8
0
 10
-303.621979
 20
-100.515656
 11
-303.321991
 21
-100.515656
  0
LINE
  8
0
 10
-303.621979
 20
-101.662949
 11
-303.321991
 21
-101.662949
  0
LINE
  8
0
 10
-297.121948
 20
-107.386055
 11
-297.121948
 21
-36.652523
  0
LINE
  8
0
 10
-303.321960
 20
-102.520859
 11
-303.321960
 21
-98.219284
  0
LINE
  8
0
 10
-295.621979
 20
-109.213089
 11
-295.621979
 21
-107.386055
  0
LINE
  8
0
 10
-295.622009
 20
-34.825474
 11
-295.622009
 21
-36.652523
  0
LINE
  8
0
 10
-292.621979
 20
-85.329971
 11
-256.621979
 21
-85.329971
  0
LINE
  8
0
 10
-292.621948
 20
-58.708611
 11
-256.621948
 21
-58.708611
  0
LINE
  8
0
 10
-297.121948
 20
-107.374634
 11
-292.621948
 21
-107.374634
  0
LINE
  8
0
 10
-292.621948
 20
-36.663952
 11
-256.621948
 21
-36.663952
  0
LINE
  8
0
 10
-292.621948
 20
-36.663952
 11
-292.621948
 21
-107.386055
  0
LINE
  8
0
 10
-256.621948
 20
-36.663963
 11
-256.621948
 21
-107.374641
  0
LINE
  8
0
 10
-240.621964
 20
-64.319305
 11
-240.621964
 21
-79.719307
  0
LINE
  8
0
 10
-246.121964
 20
-64.662445
 11
-246.121964
 21
-68.062439
  0
LINE
  8
0
 10
-253.121964
 20
-62.558220
 11
-253.121964
 21
-69.335022
  0
LINE
  8
0
 10
-256.621948
 20
-73.060150
 11
-253.471954
 21
-73.060150
  0
LINE
  8
0
 10
-256.621948
 20
-75.507751
 11
-253.471954
 21
-75.507751
  0
LINE
  8
0
 10
-256.621948
 20
-80.123734
 11
-253.471954
 21
-80.123734
  0
LINE
  8
0
 10
-256.621948
 20
-82.292130
 11
-253.471954
 21
-82.292130
  0
LINE
  8
0
 10
-253.121964
 20
-75.676147
 11
-246.421967
 21
-75.676147
  0
LINE
  8
0
 10
-253.121964
 20
-79.676147
 11
-246.421967
 21
-79.676147
  0
LINE
  8
0
 10
-256.621948
 20
-70.880302
 11
-253.471954
 21
-70.880302
  0
LINE
  8
0
 10
-256.621948
 20
-67.789719
 11
-253.471954
 21
-67.789719
  0
LINE
  8
0
 10
-256.621948
 20
-63.271854
 11
-253.471954
 21
-63.271854
  0
LINE
  8
0
 10
-256.621948
 20
-61.844563
 11
-253.471954
 21
-61.844563
  0
LINE
  8
0
 10
-253.121964
 20
-64.362434
 11
-246.421967
 21
-64.362434
  0
LINE
  8
0
 10
-253.121964
 20
-68.362434
 11
-246.421967
 21
-68.362434
  0
LINE
  8
0
 10
-253.121964
 20
-74.283958
 11
-253.121964
 21
-81.207947
  0
LINE
  8
0
 10
-246.421967
 20
-79.676147
 11
-246.121979
 21
-79.376144
  0
LINE
  8
0
 10
-246.121948
 20
-64.662430
 11
-246.421951
 21
-64.362427
  0
LINE
  8
0
 10
-246.121964
 20
-75.976151
 11
-246.121964
 21
-79.376152
  0
LINE
  8
0
 10
-246.121964
 20
-75.976151
 11
-246.421967
 21
-75.676147
  0
LINE
  8
0
 10
-246.421967
 20
-68.362450
 11
-246.121964
 21
-68.062447
  0
LINE
  8
0
 10
-246.421906
 20
-79.676163
 11
-246.421906
 21
-75.676147
  0
LINE
  8
0
 10
-246.421783
 20
-68.362450
 11
-246.421783
 21
-64.362442
  0
LINE
  8
0
 10
-253.121964
 20
-79.426147
 11
-246.171967
 21
-79.426147
  0
LINE
  8
0
 10
-253.121964
 20
-75.926147
 11
-246.171967
 21
-75.926147
  0
LINE
  8
0
 10
-253.121964
 20
-64.612434
 11
-246.171967
 21
-64.612434
  0
LINE
  8
0
 10
-253.121964
 20
-68.112434
 11
-246.121964
 21
-68.112434
  0
LINE
  8
0
 10
-253.121964
 20
-62.819290
 11
-242.121964
 21
-62.819290
  0
LINE
  8
0
 10
-253.121964
 20
-81.219292
 11
-242.121964
 21
-81.219292
  0
LINE
  8
0
 10
-297.121948
 20
-36.652523
 11
-292.621948
 21
-36.652523
  0
LINE
  8
0
 10
-292.621948
 20
-58.619286
 11
-297.121948
 21
-58.619286
  0
LINE
  8
0
 10
-292.621979
 20
-85.419289
 11
-297.121979
 21
-85.419289
  0
LINE
  8
0
 10
-255.921967
 20
-86.022423
 11
-255.921967
 21
-82.292137
  0
LINE
  8
0
 10
-255.521973
 20
-86.057419
 11
-255.521973
 21
-82.292137
  0
LINE
  8
0
 10
-254.071960
 20
-84.550743
 11
-254.071960
 21
-84.487862
  0
LINE
  8
0
 10
-255.921967
 20
-61.844566
 11
-255.921967
 21
-58.016178
  0
LINE
  8
0
 10
-255.521973
 20
-61.844566
 11
-255.521973
 21
-57.981182
  0
LINE
  8
0
 10
-254.071960
 20
-59.550735
 11
-254.071960
 21
-59.487854
  0
LINE
  8
0
 10
-254.521973
 20
-96.077454
 11
-254.521973
 21
-86.144905
  0
LINE
  8
0
 10
-254.521973
 20
-96.077484
 11
-256.621979
 21
-96.261208
  0
LINE
  8
0
 10
-254.521973
 20
-86.144920
 11
-256.621979
 21
-85.961189
  0
LINE
  8
0
 10
-254.521957
 20
-57.893688
 11
-254.521957
 21
-47.961143
  0
LINE
  8
0
 10
-254.521973
 20
-57.893692
 11
-256.621948
 21
-58.077415
  0
LINE
  8
0
 10
-254.521957
 20
-47.961109
 11
-256.621948
 21
-47.777382
  0
LINE
  8
0
 10
-303.721954
 20
-46.005810
 11
-303.721954
 21
-55.632763
  0
LINE
  8
0
 10
-303.321960
 20
-45.819286
 11
-303.321960
 21
-55.819286
  0
LINE
  8
0
 10
-303.321960
 20
-45.819286
 11
-297.721954
 21
-45.819286
  0
LINE
  8
0
 10
-303.321960
 20
-55.819286
 11
-297.721954
 21
-55.819286
  0
LINE
  8
0
 10
-303.721985
 20
-46.005798
 11
-303.321960
 21
-45.819275
  0
LINE
  8
0
 10
-303.721954
 20
-55.632759
 11
-303.321960
 21
-55.819283
  0
LINE
  8
0
 10
-303.321960
 20
-47.819286
 11
-300.276672
 21
-47.819286
  0
LINE
  8
0
 10
-303.321960
 20
-49.819286
 11
-301.431366
 21
-49.819286
  0
LINE
  8
0
 10
-303.321960
 20
-51.819286
 11
-302.586060
 21
-51.819286
  0
LINE
  8
0
 10
-303.721954
 20
-88.405807
 11
-303.721954
 21
-98.032761
  0
LINE
  8
0
 10
-303.321960
 20
-88.219284
 11
-303.321960
 21
-98.219284
  0
LINE
  8
0
 10
-303.321960
 20
-88.219284
 11
-297.721954
 21
-88.219284
  0
LINE
  8
0
 10
-303.321960
 20
-98.219284
 11
-297.721954
 21
-98.219284
  0
LINE
  8
0
 10
-303.721985
 20
-88.405815
 11
-303.321960
 21
-88.219292
  0
LINE
  8
0
 10
-303.721985
 20
-98.032791
 11
-303.321991
 21
-98.219315
  0
LINE
  8
0
 10
-303.321960
 20
-90.219284
 11
-300.276672
 21
-90.219284
  0
LINE
  8
0
 10
-303.321960
 20
-92.219284
 11
-301.431366
 21
-92.219284
  0
LINE
  8
0
 10
-303.321960
 20
-94.219284
 11
-302.586060
 21
-94.219284
  0
LINE
  8
0
 10
-296.671967
 20
-34.825474
 11
-296.671967
 21
-23.723881
  0
LINE
  8
0
 10
-289.171936
 20
-36.663952
 11
-288.671967
 21
-36.310417
  0
LINE
  8
0
 10
-296.671967
 20
-109.213089
 11
-296.671967
 21
-120.314682
  0
LINE
  8
0
 10
-289.171936
 20
-107.374634
 11
-288.671967
 21
-107.728149
  0
LINE
  8
0
 10
-242.171967
 20
-113.364929
 11
-242.171967
 21
-117.364929
  0
LINE
  8
0
 10
-242.171967
 20
-115.664932
 11
-239.171967
 21
-115.664932
  0
LINE
  8
0
 10
-242.171967
 20
-115.064941
 11
-239.171967
 21
-115.064941
  0
LINE
  8
0
 10
-242.171967
 20
-116.664932
 11
-239.171967
 21
-116.664932
  0
LINE
  8
0
 10
-242.171967
 20
-114.064941
 11
-239.171967
 21
-114.064941
  0
LINE
  8
0
 10
-239.171967
 20
-114.064934
 11
-239.171967
 21
-115.064934
  0
LINE
  8
0
 10
-239.171967
 20
-115.664932
 11
-239.171967
 21
-116.664932
  0
LINE
  8
0
 10
-239.171967
 20
-114.189941
 11
-237.671967
 21
-114.189941
  0
LINE
  8
0
 10
-239.171967
 20
-114.314941
 11
-237.671967
 21
-114.314941
  0
LINE
  8
0
 10
-239.171967
 20
-114.439941
 11
-237.671967
 21
-114.439941
  0
LINE
  8
0
 10
-239.171967
 20
-114.564941
 11
-237.671967
 21
-114.564941
  0
LINE
  8
0
 10
-239.171967
 20
-114.689941
 11
-237.671967
 21
-114.689941
  0
LINE
  8
0
 10
-239.171967
 20
-114.814941
 11
-237.671967
 21
-114.814941
  0
LINE
  8
0
 10
-239.171967
 20
-114.939941
 11
-237.671967
 21
-114.939941
  0
LINE
  8
0
 10
-239.171967
 20
-115.789932
 11
-237.671967
 21
-115.789932
  0
LINE
  8
0
 10
-239.171967
 20
-115.914932
 11
-237.671967
 21
-115.914932
  0
LINE
  8
0
 10
-239.171967
 20
-116.039932
 11
-237.671967
 21
-116.039932
  0
LINE
  8
0
 10
-239.171967
 20
-116.164932
 11
-237.671967
 21
-116.164932
  0
LINE
  8
0
 10
-239.171967
 20
-116.289932
 11
-237.671967
 21
-116.289932
  0
LINE
  8
0
 10
-239.171967
 20
-116.414932
 11
-237.671967
 21
-116.414932
  0
LINE
  8
0
 10
-239.171967
 20
-116.539932
 11
-237.671967
 21
-116.539932
  0
LINE
  8
0
 10
-242.171967
 20
-26.673634
 11
-242.171967
 21
-30.673634
  0
LINE
  8
0
 10
-242.171967
 20
-28.973633
 11
-239.171967
 21
-28.973633
  0
LINE
  8
0
 10
-242.171967
 20
-28.373634
 11
-239.171967
 21
-28.373634
  0
LINE
  8
0
 10
-242.171967
 20
-29.973633
 11
-239.171967
 21
-29.973633
  0
LINE
  8
0
 10
-242.171967
 20
-27.373634
 11
-239.171967
 21
-27.373634
  0
LINE
  8
0
 10
-239.171967
 20
-27.373634
 11
-239.171967
 21
-28.373634
  0
LINE
  8
0
 10
-239.171967
 20
-28.973633
 11
-239.171967
 21
-29.973633
  0
LINE
  8
0
 10
-239.171967
 20
-27.498634
 11
-237.671967
 21
-27.498634
  0
LINE
  8
0
 10
-239.171967
 20
-27.623634
 11
-237.671967
 21
-27.623634
  0
LINE
  8
0
 10
-239.171967
 20
-27.748634
 11
-237.671967
 21
-27.748634
  0
LINE
  8
0
 10
-239.171967
 20
-27.873634
 11
-237.671967
 21
-27.873634
  0
LINE
  8
0
 10
-239.171967
 20
-27.998634
 11
-237.671967
 21
-27.998634
  0
LINE
  8
0
 10
-239.171967
 20
-28.123634
 11
-237.671967
 21
-28.123634
  0
LINE
  8
0
 10
-239.171967
 20
-28.248634
 11
-237.671967
 21
-28.248634
  0
LINE
  8
0
 10
-239.171967
 20
-29.098633
 11
-237.671967
 21
-29.098633
  0
LINE
  8
0
 10
-239.171967
 20
-29.223633
 11
-237.671967
 21
-29.223633
  0
LINE
  8
0
 10
-239.171967
 20
-29.348633
 11
-237.671967
 21
-29.348633
  0
LINE
  8
0
 10
-239.171967
 20
-29.473633
 11
-237.671967
 21
-29.473633
  0
LINE
  8
0
 10
-239.171967
 20
-29.598633
 11
-237.671967
 21
-29.598633
  0
LINE
  8
0
 10
-239.171967
 20
-29.723633
 11
-237.671967
 21
-29.723633
  0
LINE
  8
0
 10
-239.171967
 20
-29.848633
 11
-237.671967
 21
-29.848633
  0
LINE
  8
0
 10
-292.621948
 20
-107.374634
 11
-256.621979
 21
-107.374634
  0
LINE
  8
0
 10
-297.721954
 20
-98.469284
 11
-297.721954
 21
-87.969284
  0
LINE
  8
0
 10
-297.721954
 20
-87.969284
 11
-297.121948
 21
-87.969284
  0
LINE
  8
0
 10
-297.721954
 20
-98.469284
 11
-297.121948
 21
-98.469284
  0
LINE
  8
0
 10
-297.721954
 20
-45.569286
 11
-297.121948
 21
-45.569286
  0
LINE
  8
0
 10
-297.721954
 20
-56.069286
 11
-297.121948
 21
-56.069286
  0
LINE
  8
0
 10
-303.321960
 20
-88.219284
 11
-303.321960
 21
-55.819286
  0
LINE
  8
0
 10
-303.321960
 20
-45.819286
 11
-303.321960
 21
-41.517715
  0
LINE
  8
0
 10
-297.721954
 20
-56.069286
 11
-297.721954
 21
-45.569286
  0
LINE
  8
0
 10
-308.821960
 20
-79.019287
 11
-303.321960
 21
-79.019287
  0
LINE
  8
0
 10
-308.821960
 20
-65.019287
 11
-303.321960
 21
-65.019287
  0
LINE
  8
0
 10
-313.821960
 20
-29.419289
 11
-313.821960
 21
-114.619286
  0
LINE
  8
0
 10
-313.821960
 20
-114.619286
 11
-310.621979
 21
-109.755302
  0
LINE
  8
0
 10
-313.821960
 20
-29.419289
 11
-310.621979
 21
-34.283272
  0
LINE
  8
0
 10
-308.821960
 20
-45.824753
 11
-308.821960
 21
-64.918945
  0
LINE
  8
0
 10
-308.821960
 20
-79.119614
 11
-308.821960
 21
-98.213821
  0
LINE
  8
0
 10
-275.821960
 20
-36.310383
 11
-275.821960
 21
-34.825474
  0
LINE
  8
0
 10
-275.821960
 20
-107.728180
 11
-275.821960
 21
-109.213089
  0
ARC
  8
0
 10
-288.871979
 20
-30.577793
 40
0.500000
 50
180.000000
 51
270.000000
  0
ARC
  8
0
 10
-281.471985
 20
-30.577793
 40
0.500000
 50
270.000000
 51
0.000000
  0
ARC
  8
0
 10
-280.671997
 20
-29.163593
 40
0.500000
 50
270.000000
 51
0.000000
  0
ARC
  8
0
 10
-289.671967
 20
-29.163593
 40
0.500000
 50
180.000000
 51
270.000000
  0
ARC
  8
0
 10
-289.671967
 20
-19.764103
 40
0.500000
 50
90.000000
 51
180.000000
  0
ARC
  8
0
 10
-280.671997
 20
-19.764103
 40
0.500000
 50
0.000000
 51
90.000000
  0
ARC
  8
0
 10
-281.471985
 20
-18.915562
 40
0.500000
 50
0.000000
 51
90.000000
  0
ARC
  8
0
 10
-288.871979
 20
-18.915562
 40
0.500000
 50
90.000000
 51
180.000000
  0
ARC
  8
0
 10
-281.471985
 20
-25.779545
 40
0.500000
 50
0.000000
 51
90.000000
  0
ARC
  8
0
 10
-288.871979
 20
-25.779545
 40
0.500000
 50
90.000000
 51
180.000000
  0
ARC
  8
0
 10
-288.871979
 20
-113.460770
 40
0.500000
 50
90.000000
 51
180.000000
  0
ARC
  8
0
 10
-281.471985
 20
-113.460770
 40
0.500000
 50
0.000000
 51
90.000000
  0
ARC
  8
0
 10
-280.671997
 20
-114.874969
 40
0.500000
 50
0.000000
 51
90.000000
  0
ARC
  8
0
 10
-289.671967
 20
-114.874969
 40
0.500000
 50
90.000000
 51
180.000000
  0
ARC
  8
0
 10
-289.671967
 20
-124.274460
 40
0.500000
 50
180.000000
 51
270.000000
  0
ARC
  8
0
 10
-280.671997
 20
-124.274460
 40
0.500000
 50
270.000000
 51
0.000000
  0
ARC
  8
0
 10
-281.471985
 20
-125.123001
 40
0.500000
 50
270.000000
 51
0.000000
  0
ARC
  8
0
 10
-288.871979
 20
-125.123001
 40
0.500000
 50
180.000000
 51
270.000000
  0
ARC
  8
0
 10
-281.471985
 20
-118.259018
 40
0.500000
 50
270.000000
 51
0.000000
  0
ARC
  8
0
 10
-288.871979
 20
-118.259018
 40
0.500000
 50
180.000000
 51
270.000000
  0
ARC
  8
0
 10
-254.976227
 20
-81.207947
 40
1.854271
 50
324.217987
 51
35.782017
  0
ARC
  8
0
 10
-260.906769
 20
-77.815750
 40
7.784811
 50
342.754089
 51
17.245922
  0
ARC
  8
0
 10
-255.436523
 20
-74.283958
 40
2.314563
 50
328.079895
 51
31.920101
  0
ARC
  8
0
 10
-256.708313
 20
-69.335022
 40
3.586350
 50
334.476685
 51
25.523420
  0
ARC
  8
0
 10
-260.586670
 20
-65.530800
 40
7.464712
 50
342.385315
 51
17.614820
  0
ARC
  8
0
 10
-254.024521
 20
-62.558220
 40
0.902563
 50
307.750153
 51
52.250008
  0
ARC
  8
0
 10
-242.121964
 20
-79.719307
 40
1.500000
 50
270.000000
 51
0.000291
  0
ARC
  8
0
 10
-242.121964
 20
-64.319305
 40
1.500000
 50
0.000291
 51
90.000000
  0
ARC
  8
0
 10
-257.071960
 20
-84.550743
 40
3.000006
 50
327.916840
 51
0.000000
  0
ARC
  8
0
 10
-257.071960
 20
-84.487862
 40
3.000000
 50
0.000000
 51
47.046772
  0
ARC
  8
0
 10
-257.071960
 20
-59.550735
 40
2.999995
 50
310.127563
 51
359.999939
  0
ARC
  8
0
 10
-257.071960
 20
-59.487854
 40
3.000000
 50
0.000000
 51
32.083042
  0
ARC
  8
0
 10
-266.353912
 20
-91.111183
 40
12.831935
 50
337.230560
 51
22.769463
  0
ARC
  8
0
 10
-266.353882
 20
-52.927414
 40
12.831923
 50
337.230530
 51
22.769472
  0
CIRCLE
  8
0
 10
-286.621948
 20
-72.019287
 40
1.900000
  0
ARC
  8
0
 10
-284.427704
 20
-34.047638
 40
0.755707
 50
0.000000
 51
14.106671
  0
ARC
  8
0
 10
-284.625244
 20
-34.120060
 40
0.965187
 50
15.418217
 51
51.388287
  0
ARC
  8
0
 10
-285.171997
 20
-34.918865
 40
1.931895
 50
53.502094
 51
126.497971
  0
ARC
  8
0
 10
-285.718750
 20
-34.120064
 40
0.965204
 50
128.611710
 51
164.581787
  0
ARC
  8
0
 10
-285.916290
 20
-34.047638
 40
0.755698
 50
165.893616
 51
180.000000
  0
ARC
  8
0
 10
-304.802307
 20
-36.910679
 40
2.130294
 50
3.762548
 51
11.774115
  0
ARC
  8
0
 10
-305.019867
 20
-36.977150
 40
2.356939
 50
12.276806
 51
45.306618
  0
ARC
  8
0
 10
-305.622009
 20
-37.710258
 40
3.302731
 50
46.825668
 51
133.175827
  0
ARC
  8
0
 10
-306.224152
 20
-36.977165
 40
2.356934
 50
134.695221
 51
167.724640
  0
ARC
  8
0
 10
-306.441711
 20
-36.910702
 40
2.130291
 50
168.227295
 51
183.762756
  0
ARC
  8
0
 10
-292.953308
 20
-26.552315
 40
0.425081
 50
345.893158
 51
14.106079
  0
ARC
  8
0
 10
-293.064423
 20
-26.593052
 40
0.542914
 50
15.417786
 51
51.388226
  0
ARC
  8
0
 10
-293.371979
 20
-27.042374
 40
1.086687
 50
53.501553
 51
126.498085
  0
ARC
  8
0
 10
-293.679535
 20
-26.593048
 40
0.542930
 50
128.611267
 51
164.581238
  0
ARC
  8
0
 10
-293.790649
 20
-26.552307
 40
0.425081
 50
165.893173
 51
194.106079
  0
ARC
  8
0
 10
-293.679535
 20
-26.511570
 40
0.542914
 50
195.417786
 51
231.388229
  0
ARC
  8
0
 10
-293.371979
 20
-26.062248
 40
1.086687
 50
233.501556
 51
306.498077
  0
ARC
  8
0
 10
-293.064423
 20
-26.511574
 40
0.542930
 50
308.611267
 51
344.581238
  0
ARC
  8
0
 10
-307.085785
 20
-36.910686
 40
1.486221
 50
174.645645
 51
194.106293
  0
ARC
  8
0
 10
-306.697266
 20
-36.768253
 40
1.898238
 50
195.417816
 51
231.388306
  0
ARC
  8
0
 10
-305.622009
 20
-35.197304
 40
3.799348
 50
233.502106
 51
306.497925
  0
ARC
  8
0
 10
-304.546753
 20
-36.768250
 40
1.898231
 50
308.611694
 51
344.582306
  0
ARC
  8
0
 10
-304.158234
 20
-36.910679
 40
1.486223
 50
345.893707
 51
5.331153
  0
ARC
  8
0
 10
-305.622040
 20
-40.312191
 40
4.532871
 50
65.111382
 51
114.901802
  0
ARC
  8
0
 10
-292.627686
 20
-26.552311
 40
0.755699
 50
345.893463
 51
14.106391
  0
ARC
  8
0
 10
-292.825226
 20
-26.624735
 40
0.965186
 50
15.418108
 51
51.388218
  0
ARC
  8
0
 10
-293.371979
 20
-27.423534
 40
1.931889
 50
53.501961
 51
126.498009
  0
ARC
  8
0
 10
-293.918732
 20
-26.624735
 40
0.965204
 50
128.611710
 51
164.581787
  0
ARC
  8
0
 10
-294.116272
 20
-26.552311
 40
0.755699
 50
165.893463
 51
194.106384
  0
ARC
  8
0
 10
-293.918732
 20
-26.479887
 40
0.965186
 50
195.418106
 51
231.388214
  0
ARC
  8
0
 10
-293.371979
 20
-25.681087
 40
1.931889
 50
233.501953
 51
306.498016
  0
ARC
  8
0
 10
-292.825226
 20
-26.479887
 40
0.965204
 50
308.611725
 51
344.581787
  0
ARC
  8
0
 10
-284.352264
 20
-21.885408
 40
2.130294
 50
3.762753
 51
11.773512
  0
ARC
  8
0
 10
-284.569824
 20
-21.951878
 40
2.356933
 50
12.276217
 51
45.305767
  0
ARC
  8
0
 10
-285.171967
 20
-22.684978
 40
3.302732
 50
46.824963
 51
133.175125
  0
ARC
  8
0
 10
-285.774109
 20
-21.951880
 40
2.356927
 50
134.694336
 51
167.724014
  0
ARC
  8
0
 10
-285.991669
 20
-21.885412
 40
2.130296
 50
168.226685
 51
183.762909
  0
ARC
  8
0
 10
-286.635742
 20
-21.885416
 40
1.486221
 50
174.645782
 51
194.106506
  0
ARC
  8
0
 10
-286.247223
 20
-21.742981
 40
1.898240
 50
195.418045
 51
231.388458
  0
ARC
  8
0
 10
-285.171967
 20
-20.172031
 40
3.799354
 50
233.502167
 51
306.497986
  0
ARC
  8
0
 10
-284.096710
 20
-21.742973
 40
1.898230
 50
308.611725
 51
344.582397
  0
ARC
  8
0
 10
-283.708191
 20
-21.885405
 40
1.486222
 50
345.893921
 51
5.331153
  0
ARC
  8
0
 10
-285.171997
 20
-25.286924
 40
4.532876
 50
65.111412
 51
114.902184
  0
ARC
  8
0
 10
-292.953308
 20
-117.486252
 40
0.425080
 50
345.893921
 51
14.107077
  0
ARC
  8
0
 10
-293.064423
 20
-117.526985
 40
0.542915
 50
15.418174
 51
51.388477
  0
ARC
  8
0
 10
-293.371979
 20
-117.976318
 40
1.086699
 50
53.502033
 51
126.498207
  0
ARC
  8
0
 10
-293.679535
 20
-117.526993
 40
0.542927
 50
128.611526
 51
164.581833
  0
ARC
  8
0
 10
-293.790649
 20
-117.486252
 40
0.425080
 50
165.893921
 51
194.107071
  0
ARC
  8
0
 10
-293.679535
 20
-117.445518
 40
0.542915
 50
195.418167
 51
231.388474
  0
ARC
  8
0
 10
-293.371979
 20
-116.996185
 40
1.086699
 50
233.502029
 51
306.498199
  0
ARC
  8
0
 10
-293.064423
 20
-117.445511
 40
0.542927
 50
308.611511
 51
344.581818
  0
ARC
  8
0
 10
-306.441681
 20
-107.127876
 40
2.130294
 50
176.237457
 51
191.772614
  0
ARC
  8
0
 10
-306.224121
 20
-107.061409
 40
2.356926
 50
192.275360
 51
225.304779
  0
ARC
  8
0
 10
-305.621979
 20
-106.328316
 40
3.302728
 50
226.824173
 51
313.174347
  0
ARC
  8
0
 10
-305.019836
 20
-107.061424
 40
2.356923
 50
314.693390
 51
347.723206
  0
ARC
  8
0
 10
-304.802277
 20
-107.127892
 40
2.130303
 50
348.225800
 51
356.237457
  0
ARC
  8
0
 10
-304.158203
 20
-107.127892
 40
1.486227
 50
354.668701
 51
14.106153
  0
ARC
  8
0
 10
-304.546722
 20
-107.270325
 40
1.898237
 50
15.417706
 51
51.388241
  0
ARC
  8
0
 10
-305.621979
 20
-108.841270
 40
3.799341
 50
53.502029
 51
126.497902
  0
ARC
  8
0
 10
-306.697235
 20
-107.270325
 40
1.898234
 50
128.611618
 51
164.582077
  0
ARC
  8
0
 10
-307.085754
 20
-107.127892
 40
1.486224
 50
165.893570
 51
185.354065
  0
ARC
  8
0
 10
-292.627686
 20
-117.486252
 40
0.755698
 50
345.893616
 51
14.106391
  0
ARC
  8
0
 10
-292.825226
 20
-117.558678
 40
0.965187
 50
15.418217
 51
51.388287
  0
ARC
  8
0
 10
-293.371979
 20
-118.357475
 40
1.931889
 50
53.501961
 51
126.498039
  0
ARC
  8
0
 10
-293.918732
 20
-117.558678
 40
0.965204
 50
128.611710
 51
164.581787
  0
ARC
  8
0
 10
-294.116272
 20
-117.486252
 40
0.755698
 50
165.893616
 51
194.106384
  0
ARC
  8
0
 10
-293.918732
 20
-117.413826
 40
0.965187
 50
195.418213
 51
231.388290
  0
ARC
  8
0
 10
-293.371979
 20
-116.615028
 40
1.931889
 50
233.501953
 51
306.498047
  0
ARC
  8
0
 10
-292.825226
 20
-117.413826
 40
0.965204
 50
308.611725
 51
344.581787
  0
ARC
  8
0
 10
-285.991669
 20
-122.153152
 40
2.130295
 50
176.236832
 51
191.773209
  0
ARC
  8
0
 10
-285.774109
 20
-122.086685
 40
2.356930
 50
192.275894
 51
225.305573
  0
ARC
  8
0
 10
-285.171967
 20
-121.353584
 40
3.302724
 50
226.824829
 51
313.174988
  0
ARC
  8
0
 10
-284.569824
 20
-122.086685
 40
2.356934
 50
314.694183
 51
347.723724
  0
ARC
  8
0
 10
-284.352264
 20
-122.153152
 40
2.130298
 50
348.226379
 51
356.237244
  0
ARC
  8
0
 10
-305.622009
 20
-103.726379
 40
4.532888
 50
245.097870
 51
294.888153
  0
ARC
  8
0
 10
-285.171997
 20
-118.751633
 40
4.532874
 50
245.097794
 51
294.888611
  0
ARC
  8
0
 10
-283.708191
 20
-122.153160
 40
1.486225
 50
354.669586
 51
14.106153
  0
ARC
  8
0
 10
-284.096710
 20
-122.295586
 40
1.898235
 50
15.417484
 51
51.388241
  0
ARC
  8
0
 10
-285.171967
 20
-123.866531
 40
3.799341
 50
53.502029
 51
126.497833
  0
ARC
  8
0
 10
-286.247223
 20
-122.295578
 40
1.898234
 50
128.611618
 51
164.582077
  0
ARC
  8
0
 10
-286.635742
 20
-122.153145
 40
1.486224
 50
165.893570
 51
185.354355
  0
ARC
  8
0
 10
-285.916260
 20
-109.990921
 40
0.755707
 50
180.000000
 51
194.106384
  0
ARC
  8
0
 10
-285.718719
 20
-109.918495
 40
0.965187
 50
195.418213
 51
231.388290
  0
ARC
  8
0
 10
-285.171967
 20
-109.119690
 40
1.931895
 50
233.502090
 51
306.497894
  0
ARC
  8
0
 10
-284.625214
 20
-109.918495
 40
0.965204
 50
308.611725
 51
344.581787
  0
ARC
  8
0
 10
-284.427673
 20
-109.990921
 40
0.755698
 50
345.893616
 51
0.000000
  0
ARC
  8
0
 10
-287.330139
 20
-101.010681
 40
1.108161
 50
345.892181
 51
14.107806
  0
ARC
  8
0
 10
-287.619934
 20
-101.116928
 40
1.415484
 50
15.419636
 51
51.391121
  0
ARC
  8
0
 10
-288.421967
 20
-102.288811
 40
2.833630
 50
53.505157
 51
126.494843
  0
ARC
  8
0
 10
-289.223999
 20
-101.116928
 40
1.415496
 50
128.608871
 51
164.580368
  0
ARC
  8
0
 10
-289.513794
 20
-101.010681
 40
1.108161
 50
165.892197
 51
194.107803
  0
ARC
  8
0
 10
-289.223999
 20
-100.904434
 40
1.415484
 50
195.419632
 51
231.391129
  0
ARC
  8
0
 10
-288.421967
 20
-99.732552
 40
2.833630
 50
233.505157
 51
306.494843
  0
ARC
  8
0
 10
-287.619934
 20
-100.904434
 40
1.415496
 50
308.608887
 51
344.580353
  0
ARC
  8
0
 10
-287.330139
 20
-43.027897
 40
1.108161
 50
345.892181
 51
14.107615
  0
ARC
  8
0
 10
-287.619934
 20
-43.134148
 40
1.415484
 50
15.419636
 51
51.391121
  0
ARC
  8
0
 10
-288.421967
 20
-44.306019
 40
2.833621
 50
53.505020
 51
126.494934
  0
ARC
  8
0
 10
-289.223999
 20
-43.134148
 40
1.415499
 50
128.608780
 51
164.580215
  0
ARC
  8
0
 10
-289.513794
 20
-43.027897
 40
1.108161
 50
165.892197
 51
194.107620
  0
ARC
  8
0
 10
-289.223999
 20
-42.921646
 40
1.415484
 50
195.419632
 51
231.391129
  0
ARC
  8
0
 10
-288.421967
 20
-41.749775
 40
2.833621
 50
233.505020
 51
306.494934
  0
ARC
  8
0
 10
-287.619934
 20
-42.921646
 40
1.415499
 50
308.608795
 51
344.580200
  0
POLYLINE
  8
0
 66
     1
  0
VERTEX
  8
0
 10
-310.621307
 20
-34.697021
  0
VERTEX
  8
0
 10
-311.455109
 20
-34.770790
  0
VERTEX
  8
0
 10
-312.327271
 20
-34.995197
  0
VERTEX
  8
0
 10
-313.047302
 20
-35.340878
  0
VERTEX
  8
0
 10
-313.424591
 20
-35.778458
  0
VERTEX
  8
0
 10
-313.412231
 20
-36.515427
  0
VERTEX
  8
0
 10
-313.157471
 20
-37.357101
  0
VERTEX
  8
0
 10
-312.885437
 20
-38.220764
  0
VERTEX
  8
0
 10
-312.606171
 20
-39.073029
  0
VERTEX
  8
0
 10
-312.362976
 20
-39.710636
  0
VERTEX
  8
0
 10
-312.089813
 20
-40.347469
  0
VERTEX
  8
0
 10
-311.788391
 20
-40.994858
  0
VERTEX
  8
0
 10
-311.417328
 20
-41.734177
  0
VERTEX
  8
0
 10
-311.030884
 20
-42.461903
  0
VERTEX
  8
0
 10
-310.739075
 20
-42.985336
  0
VERTEX
  8
0
 10
-310.680450
 20
-43.085529
  0
VERTEX
  8
0
 10
-310.621338
 20
-43.185448
  0
SEQEND
  0
POLYLINE
  8
0
 66
     1
  0
VERTEX
  8
0
 10
-310.621307
 20
-109.341553
  0
VERTEX
  8
0
 10
-311.455109
 20
-109.267784
  0
VERTEX
  8
0
 10
-312.327271
 20
-109.043381
  0
VERTEX
  8
0
 10
-313.047302
 20
-108.697701
  0
VERTEX
  8
0
 10
-313.424591
 20
-108.260117
  0
VERTEX
  8
0
 10
-313.412231
 20
-107.523148
  0
VERTEX
  8
0
 10
-313.157471
 20
-106.681473
  0
VERTEX
  8
0
 10
-312.885437
 20
-105.817810
  0
VERTEX
  8
0
 10
-312.606171
 20
-104.965546
  0
VERTEX
  8
0
 10
-312.362976
 20
-104.327934
  0
VERTEX
  8
0
 10
-312.089813
 20
-103.691109
  0
VERTEX
  8
0
 10
-311.788391
 20
-103.043716
  0
VERTEX
  8
0
 10
-311.417328
 20
-102.304398
  0
VERTEX
  8
0
 10
-311.030884
 20
-101.576675
  0
VERTEX
  8
0
 10
-310.739075
 20
-101.053238
  0
VERTEX
  8
0
 10
-310.680450
 20
-100.953041
  0
VERTEX
  8
0
 10
-310.621338
 20
-100.853127
  0
SEQEND
  0
POLYLINE
  8
0
 66
     1
  0
VERTEX
  8
0
 10
-308.821747
 20
-79.119644
  0
VERTEX
  8
0
 10
-309.570160
 20
-78.964081
  0
VERTEX
  8
0
 10
-310.293671
 20
-78.652328
  0
VERTEX
  8
0
 10
-311.044708
 20
-78.095718
  0
VERTEX
  8
0
 10
-311.675232
 20
-77.513992
  0
VERTEX
  8
0
 10
-312.052368
 20
-77.161842
  0
VERTEX
  8
0
 10
-312.396301
 20
-76.755707
  0
VERTEX
  8
0
 10
-312.682037
 20
-76.202301
  0
VERTEX
  8
0
 10
-312.885132
 20
-75.588882
  0
VERTEX
  8
0
 10
-313.065552
 20
-74.952797
  0
VERTEX
  8
0
 10
-313.219971
 20
-74.284775
  0
VERTEX
  8
0
 10
-313.343384
 20
-73.486473
  0
VERTEX
  8
0
 10
-313.408813
 20
-72.706131
  0
VERTEX
  8
0
 10
-313.427185
 20
-72.032806
  0
VERTEX
  8
0
 10
-313.408813
 20
-71.332443
  0
VERTEX
  8
0
 10
-313.339722
 20
-70.523712
  0
VERTEX
  8
0
 10
-313.219971
 20
-69.753799
  0
VERTEX
  8
0
 10
-313.067017
 20
-69.095718
  0
VERTEX
  8
0
 10
-312.885132
 20
-68.449692
  0
VERTEX
  8
0
 10
-312.675873
 20
-67.830101
  0
VERTEX
  8
0
 10
-312.396301
 20
-67.282867
  0
VERTEX
  8
0
 10
-312.094635
 20
-66.919952
  0
VERTEX
  8
0
 10
-311.675232
 20
-66.524582
  0
VERTEX
  8
0
 10
-310.996887
 20
-65.903191
  0
VERTEX
  8
0
 10
-310.293671
 20
-65.386246
  0
VERTEX
  8
0
 10
-309.581421
 20
-65.081726
  0
VERTEX
  8
0
 10
-308.821777
 20
-64.918930
  0
SEQEND
  0
POLYLINE
  8
0
 66
     1
  0
VERTEX
  8
0
 10
-310.417114
 20
-43.522713
  0
VERTEX
  8
0
 10
-310.181000
 20
-43.900406
  0
VERTEX
  8
0
 10
-309.879852
 20
-44.358078
  0
VERTEX
  8
0
 10
-309.363434
 20
-45.100643
  0
VERTEX
  8
0
 10
-308.821960
 20
-45.824753
  0
SEQEND
  0
POLYLINE
  8
0
 66
     1
  0
VERTEX
  8
0
 10
-310.417114
 20
-100.515862
  0
VERTEX
  8
0
 10
-310.181000
 20
-100.138168
  0
VERTEX
  8
0
 10
-309.879852
 20
-99.680496
  0
VERTEX
  8
0
 10
-309.363434
 20
-98.937927
  0
VERTEX
  8
0
 10
-308.821960
 20
-98.213821
  0
SEQEND
  0
POINT
  8
0
 10
-270.821960
 20
-202.639465
  0
POINT
  8
0
 10
-298.321960
 20
-202.639465
  0
LINE
  8
0
 10
-297.121948
 20
-163.995331
 11
-297.121948
 21
-131.138977
  0
LINE
  8
0
 10
-303.321960
 20
-163.995331
 11
-303.321960
 21
-154.139465
  0
LINE
  8
0
 10
-303.321960
 20
-154.139465
 11
-297.121948
 21
-154.139465
  0
LINE
  8
0
 10
-303.321960
 20
-251.139465
 11
-297.121948
 21
-251.139465
  0
LINE
  8
0
 10
-297.121948
 20
-251.139465
 11
-297.121948
 21
-172.137894
  0
LINE
  8
0
 10
-303.321960
 20
-251.139465
 11
-303.321960
 21
-172.137894
  0
LINE
  8
0
 10
-288.871979
 20
-157.313919
 11
-281.471985
 21
-157.313919
  0
LINE
  8
0
 10
-289.671967
 20
-155.334015
 11
-280.671967
 21
-155.334015
  0
LINE
  8
0
 10
-289.671967
 20
-149.884277
 11
-280.671967
 21
-149.884277
  0
LINE
  8
0
 10
-288.871979
 20
-149.035736
 11
-281.471985
 21
-149.035736
  0
LINE
  8
0
 10
-288.871979
 20
-161.697968
 11
-281.471985
 21
-161.697968
  0
LINE
  8
0
 10
-280.971985
 20
-161.197968
 11
-280.971985
 21
-156.399719
  0
LINE
  8
0
 10
-280.171967
 20
-159.783768
 11
-280.171967
 21
-150.384277
  0
LINE
  8
0
 10
-289.371979
 20
-161.197968
 11
-289.371979
 21
-156.399719
  0
LINE
  8
0
 10
-290.171967
 20
-159.783768
 11
-290.171967
 21
-150.384277
  0
LINE
  8
0
 10
-288.871979
 20
-155.899719
 11
-281.471985
 21
-155.899719
  0
LINE
  8
0
 10
-290.671967
 20
-160.283768
 11
-289.371979
 21
-160.283768
  0
LINE
  8
0
 10
-289.371979
 20
-149.884277
 11
-289.371979
 21
-149.535736
  0
LINE
  8
0
 10
-280.971985
 20
-149.884277
 11
-280.971985
 21
-149.535736
  0
LINE
  8
0
 10
-280.971985
 20
-160.283768
 11
-279.671967
 21
-160.283768
  0
LINE
  8
0
 10
-296.671967
 20
-160.000916
 11
-290.671967
 21
-160.000916
  0
LINE
  8
0
 10
-279.671967
 20
-160.283768
 11
-279.671967
 21
-154.344070
  0
LINE
  8
0
 10
-290.671967
 20
-160.283768
 11
-290.671967
 21
-154.344055
  0
LINE
  8
0
 10
-281.671967
 20
-167.496246
 11
-281.671967
 21
-161.697968
  0
LINE
  8
0
 10
-288.671967
 20
-167.496246
 11
-288.671967
 21
-161.697968
  0
LINE
  8
0
 10
-279.671967
 20
-160.000916
 11
-274.671967
 21
-160.000916
  0
LINE
  8
0
 10
-283.671936
 20
-164.667831
 11
-283.671936
 21
-167.496246
  0
LINE
  8
0
 10
-286.671967
 20
-164.667816
 11
-286.671967
 21
-167.496246
  0
LINE
  8
0
 10
-288.671967
 20
-167.496246
 11
-286.671967
 21
-167.496246
  0
LINE
  8
0
 10
-283.671967
 20
-167.496246
 11
-281.671967
 21
-167.496246
  0
LINE
  8
0
 10
-274.671967
 20
-165.445648
 11
-274.671967
 21
-154.344070
  0
LINE
  8
0
 10
-296.671967
 20
-165.445648
 11
-296.671967
 21
-154.344055
  0
LINE
  8
0
 10
-296.671967
 20
-154.344055
 11
-290.671967
 21
-154.344055
  0
LINE
  8
0
 10
-290.671967
 20
-154.626907
 11
-290.171967
 21
-154.626907
  0
LINE
  8
0
 10
-280.171967
 20
-154.626907
 11
-279.671967
 21
-154.626907
  0
LINE
  8
0
 10
-279.671967
 20
-154.344055
 11
-274.671967
 21
-154.344055
  0
LINE
  8
0
 10
-296.671967
 20
-165.445648
 11
-288.671967
 21
-165.445648
  0
LINE
  8
0
 10
-286.671967
 20
-165.869904
 11
-283.671967
 21
-165.869904
  0
LINE
  8
0
 10
-286.671967
 20
-166.930557
 11
-283.671967
 21
-166.930557
  0
LINE
  8
0
 10
-286.671967
 20
-165.445648
 11
-283.671967
 21
-165.445648
  0
LINE
  8
0
 10
-281.671967
 20
-165.445648
 11
-274.671967
 21
-165.445648
  0
LINE
  8
0
 10
-281.671967
 20
-165.869904
 11
-275.821960
 21
-165.869904
  0
LINE
  8
0
 10
-281.671967
 20
-166.930557
 11
-275.821960
 21
-166.930557
  0
LINE
  8
0
 10
-289.671936
 20
-166.577042
 11
-288.671936
 21
-165.869934
  0
LINE
  8
0
 10
-289.671936
 20
-167.637695
 11
-288.671967
 21
-166.930588
  0
LINE
  8
0
 10
-295.621979
 20
-167.637695
 11
-289.671967
 21
-167.637695
  0
LINE
  8
0
 10
-295.621979
 20
-166.577026
 11
-289.671967
 21
-166.577026
  0
LINE
  8
0
 10
-289.671967
 20
-167.637695
 11
-289.671967
 21
-166.577026
  0
LINE
  8
0
 10
-272.671967
 20
-161.793823
 11
-272.671967
 21
-156.793823
  0
LINE
  8
0
 10
-274.671967
 20
-161.793808
 11
-272.671967
 21
-161.793808
  0
LINE
  8
0
 10
-272.671967
 20
-161.293808
 11
-242.171951
 21
-161.293808
  0
LINE
  8
0
 10
-272.671967
 20
-157.293808
 11
-242.171951
 21
-157.293808
  0
LINE
  8
0
 10
-274.671967
 20
-156.793808
 11
-272.671967
 21
-156.793808
  0
LINE
  8
0
 10
-309.121979
 20
-172.137894
 11
-307.621979
 21
-172.137894
  0
LINE
  8
0
 10
-310.621979
 20
-171.066406
 11
-307.621979
 21
-171.066406
  0
LINE
  8
0
 10
-310.621979
 20
-163.995331
 11
-307.621979
 21
-163.995331
  0
LINE
  8
0
 10
-310.621979
 20
-174.143097
 11
-310.621979
 21
-163.995331
  0
LINE
  8
0
 10
-309.121979
 20
-172.995804
 11
-309.121979
 21
-172.137894
  0
LINE
  8
0
 10
-307.621979
 20
-175.203751
 11
-307.621979
 21
-171.066406
  0
LINE
  8
0
 10
-303.621979
 20
-175.203751
 11
-303.621979
 21
-171.066406
  0
LINE
  8
0
 10
-303.621979
 20
-172.137894
 11
-297.121979
 21
-172.137894
  0
LINE
  8
0
 10
-307.621979
 20
-172.298706
 11
-303.621979
 21
-172.298706
  0
LINE
  8
0
 10
-307.621979
 20
-163.106323
 11
-303.621979
 21
-163.106323
  0
LINE
  8
0
 10
-303.621979
 20
-163.995331
 11
-296.671967
 21
-163.995331
  0
LINE
  8
0
 10
-303.621979
 20
-171.066406
 11
-295.621979
 21
-171.066406
  0
LINE
  8
0
 10
-307.621979
 20
-163.995331
 11
-307.621979
 21
-163.106323
  0
LINE
  8
0
 10
-303.621979
 20
-163.995331
 11
-303.621979
 21
-163.106323
  0
LINE
  8
0
 10
-307.621979
 20
-175.203751
 11
-303.621979
 21
-175.203751
  0
LINE
  8
0
 10
-310.621979
 20
-174.143097
 11
-307.621979
 21
-174.143097
  0
LINE
  8
0
 10
-310.621979
 20
-172.995804
 11
-307.621979
 21
-172.995804
  0
LINE
  8
0
 10
-303.621979
 20
-174.143097
 11
-303.321991
 21
-174.143097
  0
LINE
  8
0
 10
-303.621979
 20
-172.995804
 11
-303.321991
 21
-172.995804
  0
LINE
  8
0
 10
-295.621979
 20
-165.445648
 11
-295.621979
 21
-173.208755
  0
LINE
  8
0
 10
-294.121979
 20
-173.208755
 11
-294.121979
 21
-167.637695
  0
LINE
  8
0
 10
-290.821960
 20
-192.839462
 11
-290.821960
 21
-220.317139
  0
LINE
  8
0
 10
-278.821960
 20
-173.022446
 11
-272.821960
 21
-173.022446
  0
LINE
  8
0
 10
-280.821960
 20
-180.735901
 11
-270.821960
 21
-180.735901
  0
LINE
  8
0
 10
-280.821960
 20
-188.143768
 11
-270.821960
 21
-188.143768
  0
LINE
  8
0
 10
-290.821960
 20
-204.053680
 11
-270.821960
 21
-204.053680
  0
LINE
  8
0
 10
-290.821960
 20
-220.317139
 11
-270.821960
 21
-220.317139
  0
LINE
  8
0
 10
-290.821960
 20
-201.366104
 11
-283.821960
 21
-201.366104
  0
LINE
  8
0
 10
-270.821960
 20
-170.112549
 11
-281.321960
 21
-170.112549
  0
LINE
  8
0
 10
-269.621948
 20
-176.355194
 11
-270.821960
 21
-176.355194
  0
LINE
  8
0
 10
-288.821960
 20
-168.556915
 11
-290.021942
 21
-168.556915
  0
LINE
  8
0
 10
-282.521942
 20
-172.092438
 11
-288.821960
 21
-172.092438
  0
LINE
  8
0
 10
-281.321960
 20
-172.940979
 11
-290.021942
 21
-172.940979
  0
LINE
  8
0
 10
-270.821960
 20
-170.112549
 11
-270.821960
 21
-220.317139
  0
LINE
  8
0
 10
-280.821960
 20
-170.112549
 11
-280.821960
 21
-198.009735
  0
LINE
  8
0
 10
-269.621948
 20
-168.556915
 11
-288.821960
 21
-168.556915
  0
LINE
  8
0
 10
-268.642914
 20
-166.259003
 11
-269.621948
 21
-166.259003
  0
LINE
  8
0
 10
-268.642914
 20
-173.259003
 11
-269.621948
 21
-173.259003
  0
LINE
  8
0
 10
-269.621948
 20
-162.192932
 11
-269.621948
 21
-176.355194
  0
LINE
  8
0
 10
-292.621948
 20
-131.138977
 11
-256.621948
 21
-131.138977
  0
LINE
  8
0
 10
-282.621948
 20
-180.138977
 11
-280.821960
 21
-180.138977
  0
LINE
  8
0
 10
-292.621948
 20
-153.183640
 11
-290.171967
 21
-153.183640
  0
LINE
  8
0
 10
-292.621948
 20
-131.138977
 11
-292.621948
 21
-154.344055
  0
LINE
  8
0
 10
-256.621948
 20
-131.138977
 11
-256.621948
 21
-157.293808
  0
LINE
  8
0
 10
-240.621964
 20
-160.593811
 11
-240.621964
 21
-176.439987
  0
LINE
  8
0
 10
-253.121964
 20
-139.286591
 11
-253.121964
 21
-145.403824
  0
LINE
  8
0
 10
-246.121964
 20
-141.584152
 11
-246.121964
 21
-144.984146
  0
LINE
  8
0
 10
-256.621948
 20
-147.362305
 11
-253.471954
 21
-147.362305
  0
LINE
  8
0
 10
-256.621948
 20
-143.445343
 11
-253.471954
 21
-143.445343
  0
LINE
  8
0
 10
-256.621948
 20
-139.367187
 11
-253.471954
 21
-139.367187
  0
LINE
  8
0
 10
-256.621948
 20
-139.205994
 11
-253.471954
 21
-139.205994
  0
LINE
  8
0
 10
-253.121964
 20
-141.284149
 11
-246.421967
 21
-141.284149
  0
LINE
  8
0
 10
-253.121964
 20
-145.284149
 11
-246.421967
 21
-145.284149
  0
LINE
  8
0
 10
-246.421997
 20
-141.284119
 11
-246.121979
 21
-141.584137
  0
LINE
  8
0
 10
-246.121979
 20
-144.984131
 11
-246.421982
 21
-145.284134
  0
LINE
  8
0
 10
-253.121964
 20
-141.534149
 11
-246.171982
 21
-141.534149
  0
LINE
  8
0
 10
-253.121964
 20
-145.034149
 11
-246.171982
 21
-145.034149
  0
LINE
  8
0
 10
-246.421936
 20
-141.284149
 11
-246.421936
 21
-145.284149
  0
LINE
  8
0
 10
-256.621948
 20
-177.939987
 11
-242.121964
 21
-177.939987
  0
LINE
  8
0
 10
-269.070984
 20
-156.681656
 11
-269.070984
 21
-156.793808
  0
LINE
  8
0
 10
-262.070984
 20
-156.681656
 11
-262.070984
 21
-157.293808
  0
LINE
  8
0
 10
-262.971008
 20
-157.171860
 11
-262.971008
 21
-157.293808
  0
LINE
  8
0
 10
-254.521973
 20
-161.685455
 11
-254.521973
 21
-161.293808
  0
LINE
  8
0
 10
-254.521973
 20
-161.685425
 11
-256.621979
 21
-161.869156
  0
LINE
  8
0
 10
-254.521973
 20
-151.752853
 11
-256.621979
 21
-151.569122
  0
LINE
  8
0
 10
-255.921967
 20
-172.239990
 11
-255.921967
 21
-165.239990
  0
LINE
  8
0
 10
-255.521973
 20
-171.339981
 11
-255.521973
 21
-166.139984
  0
LINE
  8
0
 10
-254.071960
 20
-168.771423
 11
-254.071960
 21
-168.708557
  0
LINE
  8
0
 10
-255.521973
 20
-166.139984
 11
-255.921967
 21
-166.139984
  0
LINE
  8
0
 10
-255.521973
 20
-171.339981
 11
-255.921967
 21
-171.339981
  0
LINE
  8
0
 10
-255.921967
 20
-165.239990
 11
-256.621948
 21
-165.239990
  0
LINE
  8
0
 10
-255.921967
 20
-172.239990
 11
-256.621948
 21
-172.239990
  0
LINE
  8
0
 10
-297.121948
 20
-131.138977
 11
-292.621948
 21
-131.138977
  0
LINE
  8
0
 10
-297.121948
 20
-193.139465
 11
-292.621948
 21
-193.139465
  0
LINE
  8
0
 10
-297.121948
 20
-153.106216
 11
-292.621948
 21
-153.106216
  0
LINE
  8
0
 10
-292.621948
 20
-193.139465
 11
-292.621948
 21
-167.637695
  0
LINE
  8
0
 10
-283.421967
 20
-178.639465
 11
-290.621948
 21
-178.639465
  0
LINE
  8
0
 10
-303.721954
 20
-140.591507
 11
-303.721954
 21
-150.218460
  0
LINE
  8
0
 10
-303.321960
 20
-140.404984
 11
-303.321960
 21
-150.404984
  0
LINE
  8
0
 10
-303.321960
 20
-140.404984
 11
-297.721954
 21
-140.404984
  0
LINE
  8
0
 10
-303.321960
 20
-150.404984
 11
-297.721954
 21
-150.404984
  0
LINE
  8
0
 10
-303.721985
 20
-140.591492
 11
-303.321991
 21
-140.404968
  0
LINE
  8
0
 10
-303.721954
 20
-150.218460
 11
-303.321960
 21
-150.404984
  0
LINE
  8
0
 10
-303.321960
 20
-142.404984
 11
-300.276672
 21
-142.404984
  0
LINE
  8
0
 10
-303.321960
 20
-144.404984
 11
-301.431366
 21
-144.404984
  0
LINE
  8
0
 10
-303.321960
 20
-146.404984
 11
-302.586060
 21
-146.404984
  0
LINE
  8
0
 10
-254.521973
 20
-157.293808
 11
-254.521973
 21
-151.752899
  0
LINE
  8
0
 10
-280.171967
 20
-153.183640
 11
-256.621948
 21
-153.183640
  0
LINE
  8
0
 10
-270.821960
 20
-180.138977
 11
-256.621948
 21
-180.138977
  0
LINE
  8
0
 10
-290.021973
 20
-167.637695
 11
-290.021973
 21
-172.940979
  0
LINE
  8
0
 10
-288.821960
 20
-167.036652
 11
-288.821960
 21
-172.092438
  0
LINE
  8
0
 10
-282.521973
 20
-167.496246
 11
-282.521973
 21
-172.092438
  0
LINE
  8
0
 10
-242.171951
 20
-157.293808
 11
-242.171951
 21
-161.293808
  0
LINE
  8
0
 10
-242.171951
 20
-159.593811
 11
-239.171951
 21
-159.593811
  0
LINE
  8
0
 10
-242.171951
 20
-158.993805
 11
-239.171951
 21
-158.993805
  0
LINE
  8
0
 10
-242.171951
 20
-160.593811
 11
-239.171951
 21
-160.593811
  0
LINE
  8
0
 10
-242.171951
 20
-157.993805
 11
-239.171951
 21
-157.993805
  0
LINE
  8
0
 10
-239.171951
 20
-157.993805
 11
-239.171951
 21
-158.993805
  0
LINE
  8
0
 10
-239.171951
 20
-159.593811
 11
-239.171951
 21
-160.593811
  0
LINE
  8
0
 10
-239.171951
 20
-158.118805
 11
-237.671951
 21
-158.118805
  0
LINE
  8
0
 10
-239.171951
 20
-158.243805
 11
-237.671951
 21
-158.243805
  0
LINE
  8
0
 10
-239.171951
 20
-158.368805
 11
-237.671951
 21
-158.368805
  0
LINE
  8
0
 10
-239.171951
 20
-158.493805
 11
-237.671951
 21
-158.493805
  0
LINE
  8
0
 10
-239.171951
 20
-158.618805
 11
-237.671951
 21
-158.618805
  0
LINE
  8
0
 10
-239.171951
 20
-158.743805
 11
-237.671951
 21
-158.743805
  0
LINE
  8
0
 10
-239.171951
 20
-158.868805
 11
-237.671951
 21
-158.868805
  0
LINE
  8
0
 10
-239.171951
 20
-159.718811
 11
-237.671951
 21
-159.718811
  0
LINE
  8
0
 10
-239.171951
 20
-159.843811
 11
-237.671951
 21
-159.843811
  0
LINE
  8
0
 10
-239.171951
 20
-159.968811
 11
-237.671951
 21
-159.968811
  0
LINE
  8
0
 10
-239.171951
 20
-160.093811
 11
-237.671951
 21
-160.093811
  0
LINE
  8
0
 10
-239.171951
 20
-160.218811
 11
-237.671951
 21
-160.218811
  0
LINE
  8
0
 10
-239.171951
 20
-160.343811
 11
-237.671951
 21
-160.343811
  0
LINE
  8
0
 10
-239.171951
 20
-160.468811
 11
-237.671951
 21
-160.468811
  0
LINE
  8
0
 10
-256.621948
 20
-161.293808
 11
-256.621948
 21
-180.138977
  0
LINE
  8
0
 10
-297.721954
 20
-150.654984
 11
-297.721954
 21
-140.154984
  0
LINE
  8
0
 10
-297.721954
 20
-140.154984
 11
-297.121948
 21
-140.154984
  0
LINE
  8
0
 10
-297.721954
 20
-150.654984
 11
-297.121948
 21
-150.654984
  0
LINE
  8
0
 10
-283.421967
 20
-191.639465
 11
-290.621948
 21
-191.639465
  0
LINE
  8
0
 10
-290.621948
 20
-192.839462
 11
-290.621948
 21
-177.439468
  0
LINE
  8
0
 10
-282.621948
 20
-190.839462
 11
-282.621948
 21
-179.439468
  0
LINE
  8
0
 10
-283.421967
 20
-191.639465
 11
-283.421967
 21
-178.639465
  0
LINE
  8
0
 10
-283.421967
 20
-191.639465
 11
-282.621979
 21
-190.839462
  0
LINE
  8
0
 10
-283.421967
 20
-178.639465
 11
-282.621979
 21
-179.439468
  0
LINE
  8
0
 10
-290.621948
 20
-192.839462
 11
-292.621948
 21
-192.839462
  0
LINE
  8
0
 10
-290.621948
 20
-177.439468
 11
-292.621948
 21
-177.439468
  0
LINE
  8
0
 10
-292.621948
 20
-186.294159
 11
-290.621948
 21
-185.139465
  0
LINE
  8
0
 10
-292.621979
 20
-185.485870
 11
-290.621979
 21
-184.331177
  0
LINE
  8
0
 10
-269.621948
 20
-162.192932
 11
-274.671967
 21
-162.192932
  0
LINE
  8
0
 10
-269.070984
 20
-156.681656
 11
-269.070984
 21
-157.293808
  0
LINE
  8
0
 10
-295.321960
 20
-211.139465
 11
-291.321960
 21
-211.139465
  0
LINE
  8
0
 10
-295.321960
 20
-194.139465
 11
-291.371948
 21
-194.139465
  0
LINE
  8
0
 10
-291.321960
 20
-194.189468
 11
-291.321960
 21
-211.089462
  0
LINE
  8
0
 10
-291.321960
 20
-211.039459
 11
-290.821960
 21
-211.039459
  0
LINE
  8
0
 10
-291.321960
 20
-194.239471
 11
-290.821960
 21
-194.239471
  0
LINE
  8
0
 10
-291.321960
 20
-194.189453
 11
-291.371948
 21
-194.139450
  0
LINE
  8
0
 10
-291.371948
 20
-211.139481
 11
-291.321960
 21
-211.089478
  0
LINE
  8
0
 10
-295.321960
 20
-193.139465
 11
-295.321960
 21
-217.339462
  0
LINE
  8
0
 10
-313.821960
 20
-160.039459
 11
-313.821960
 21
-245.239471
  0
LINE
  8
0
 10
-313.427216
 20
-244.639465
 11
-303.321960
 21
-244.639465
  0
LINE
  8
0
 10
-308.821960
 20
-227.139465
 11
-303.321960
 21
-227.139465
  0
LINE
  8
0
 10
-297.121948
 20
-217.639465
 11
-295.621948
 21
-217.639465
  0
LINE
  8
0
 10
-308.821960
 20
-178.139465
 11
-303.321960
 21
-178.139465
  0
LINE
  8
0
 10
-313.427216
 20
-160.639465
 11
-303.321960
 21
-160.639465
  0
LINE
  8
0
 10
-295.621948
 20
-217.639496
 11
-295.321930
 21
-217.339493
  0
LINE
  8
0
 10
-313.821960
 20
-245.239471
 11
-313.427246
 21
-244.639465
  0
LINE
  8
0
 10
-313.821960
 20
-160.039459
 11
-313.427246
 21
-160.639465
  0
LINE
  8
0
 10
-308.821960
 20
-174.143097
 11
-308.821960
 21
-178.139465
  0
LINE
  8
0
 10
-308.821960
 20
-191.521301
 11
-308.821960
 21
-213.757629
  0
LINE
  8
0
 10
-308.821960
 20
-227.139465
 11
-308.821960
 21
-236.931137
  0
LINE
  8
0
 10
-281.321960
 20
-170.112549
 11
-281.321960
 21
-172.940979
  0
LINE
  8
0
 10
-275.821960
 20
-166.930557
 11
-275.821960
 21
-165.445648
  0
ARC
  8
0
 10
-288.871979
 20
-161.197968
 40
0.500000
 50
180.000000
 51
270.000000
  0
ARC
  8
0
 10
-281.471954
 20
-161.197968
 40
0.500000
 50
270.000000
 51
0.000000
  0
ARC
  8
0
 10
-280.671967
 20
-159.783768
 40
0.500000
 50
270.000000
 51
0.000000
  0
ARC
  8
0
 10
-289.671967
 20
-159.783768
 40
0.500000
 50
180.000000
 51
270.000000
  0
ARC
  8
0
 10
-289.671967
 20
-150.384277
 40
0.500000
 50
90.000000
 51
180.000000
  0
ARC
  8
0
 10
-280.671967
 20
-150.384277
 40
0.500000
 50
0.000000
 51
90.000000
  0
ARC
  8
0
 10
-281.471954
 20
-149.535736
 40
0.500000
 50
0.000000
 51
90.000000
  0
ARC
  8
0
 10
-288.871979
 20
-149.535736
 40
0.500000
 50
90.000000
 51
180.000000
  0
ARC
  8
0
 10
-281.471954
 20
-156.399719
 40
0.500000
 50
0.000000
 51
90.000000
  0
ARC
  8
0
 10
-288.871979
 20
-156.399719
 40
0.500000
 50
90.000000
 51
180.000000
  0
ARC
  8
0
 10
-295.621979
 20
-173.208755
 40
1.499969
 50
180.000000
 51
0.000000
  0
ARC
  8
0
 10
-272.821960
 20
-175.022446
 40
2.000000
 50
0.000000
 51
90.000000
  0
ARC
  8
0
 10
-278.821960
 20
-175.022446
 40
2.000000
 50
90.000000
 51
180.000000
  0
ARC
  8
0
 10
-268.642914
 20
-167.559006
 40
1.300010
 50
16.601463
 51
90.000000
  0
ARC
  8
0
 10
-276.021942
 20
-169.759003
 40
9.000012
 50
343.398499
 51
16.601511
  0
ARC
  8
0
 10
-268.642914
 20
-171.959000
 40
1.300003
 50
270.000000
 51
343.398529
  0
ARC
  8
0
 10
-258.776489
 20
-145.403824
 40
5.654532
 50
339.735413
 51
20.264589
  0
ARC
  8
0
 10
-259.236755
 20
-141.406250
 40
6.114790
 50
340.520538
 51
19.479149
  0
ARC
  8
0
 10
-242.121964
 20
-176.439987
 40
1.500000
 50
270.000000
 51
0.000000
  0
CIRCLE
  8
0
 10
-277.171967
 20
-164.428619
 40
0.010000
  0
CIRCLE
  8
0
 10
-265.570984
 20
-158.203430
 40
0.010000
  0
CIRCLE
  8
0
 10
-282.672913
 20
-171.003418
 40
0.010000
  0
ARC
  8
0
 10
-266.353912
 20
-156.719177
 40
12.831949
 50
337.230591
 51
339.114410
  0
ARC
  8
0
 10
-257.071960
 20
-168.771423
 40
3.000013
 50
301.108856
 51
0.000000
  0
ARC
  8
0
 10
-257.071960
 20
-168.708557
 40
3.000000
 50
0.000000
 51
58.891155
  0
ARC
  8
0
 10
-266.353912
 20
-156.719177
 40
12.831949
 50
357.433380
 51
22.769403
  0
ARC
  8
0
 10
-284.427673
 20
-164.667816
 40
0.755707
 50
0.000000
 51
14.106952
  0
ARC
  8
0
 10
-284.625214
 20
-164.740234
 40
0.965187
 50
15.418217
 51
51.388004
  0
ARC
  8
0
 10
-285.171967
 20
-165.539047
 40
1.931895
 50
53.502094
 51
126.497902
  0
ARC
  8
0
 10
-285.718719
 20
-164.740234
 40
0.965198
 50
128.612000
 51
164.582657
  0
ARC
  8
0
 10
-285.916260
 20
-164.667816
 40
0.755696
 50
165.894165
 51
180.000000
  0
ARC
  8
0
 10
-304.802277
 20
-167.530838
 40
2.130293
 50
3.762343
 51
11.774014
  0
ARC
  8
0
 10
-305.019836
 20
-167.597321
 40
2.356940
 50
12.276987
 51
45.306618
  0
ARC
  8
0
 10
-305.621979
 20
-168.330414
 40
3.302720
 50
46.825485
 51
133.175827
  0
ARC
  8
0
 10
-306.224121
 20
-167.597336
 40
2.356945
 50
134.694962
 51
167.724457
  0
ARC
  8
0
 10
-306.441681
 20
-167.530869
 40
2.130292
 50
168.227188
 51
183.762756
  0
ARC
  8
0
 10
-292.953278
 20
-157.172485
 40
0.425082
 50
345.892914
 51
14.105082
  0
ARC
  8
0
 10
-293.064392
 20
-157.213226
 40
0.542913
 50
15.417397
 51
51.388477
  0
ARC
  8
0
 10
-293.371948
 20
-157.662552
 40
1.086693
 50
53.501793
 51
126.498207
  0
ARC
  8
0
 10
-293.679504
 20
-157.213226
 40
0.542927
 50
128.611526
 51
164.581055
  0
ARC
  8
0
 10
-293.790619
 20
-157.172485
 40
0.425082
 50
165.892929
 51
194.105087
  0
ARC
  8
0
 10
-293.679504
 20
-157.131744
 40
0.542913
 50
195.417404
 51
231.388474
  0
ARC
  8
0
 10
-293.371948
 20
-156.682419
 40
1.086693
 50
233.501785
 51
306.498199
  0
ARC
  8
0
 10
-293.064392
 20
-157.131744
 40
0.542927
 50
308.611511
 51
344.581055
  0
ARC
  8
0
 10
-307.085754
 20
-167.530869
 40
1.486221
 50
174.645645
 51
194.107010
  0
ARC
  8
0
 10
-306.697235
 20
-167.388443
 40
1.898241
 50
195.418152
 51
231.388535
  0
ARC
  8
0
 10
-305.621979
 20
-165.817490
 40
3.799360
 50
233.502243
 51
306.498047
  0
ARC
  8
0
 10
-304.546722
 20
-167.388428
 40
1.898228
 50
308.611755
 51
344.582306
  0
ARC
  8
0
 10
-304.158203
 20
-167.530869
 40
1.486220
 50
345.894135
 51
5.331300
  0
ARC
  8
0
 10
-305.622009
 20
-170.932373
 40
4.532871
 50
65.111382
 51
114.901741
  0
ARC
  8
0
 10
-292.627655
 20
-157.172485
 40
0.755700
 50
345.893036
 51
14.105829
  0
ARC
  8
0
 10
-292.825195
 20
-157.244904
 40
0.965183
 50
15.417344
 51
51.388004
  0
ARC
  8
0
 10
-293.371948
 20
-158.043716
 40
1.931895
 50
53.502094
 51
126.497902
  0
ARC
  8
0
 10
-293.918701
 20
-157.244904
 40
0.965198
 50
128.612000
 51
164.581787
  0
ARC
  8
0
 10
-294.116241
 20
-157.172485
 40
0.755700
 50
165.893051
 51
194.105835
  0
ARC
  8
0
 10
-293.918701
 20
-157.100067
 40
0.965183
 50
195.417343
 51
231.388000
  0
ARC
  8
0
 10
-293.371948
 20
-156.301254
 40
1.931895
 50
233.502090
 51
306.497894
  0
ARC
  8
0
 10
-292.825195
 20
-157.100067
 40
0.965198
 50
308.612000
 51
344.581787
  0
ARC
  8
0
 10
-284.352234
 20
-152.505585
 40
2.130294
 50
3.762753
 51
11.773612
  0
ARC
  8
0
 10
-284.569794
 20
-152.572052
 40
2.356934
 50
12.276262
 51
45.305832
  0
ARC
  8
0
 10
-285.171936
 20
-153.305145
 40
3.302730
 50
46.824921
 51
133.175262
  0
ARC
  8
0
 10
-285.774078
 20
-152.572052
 40
2.356923
 50
134.694427
 51
167.724106
  0
ARC
  8
0
 10
-285.991638
 20
-152.505585
 40
2.130295
 50
168.226791
 51
183.762756
  0
ARC
  8
0
 10
-286.635712
 20
-152.505585
 40
1.486220
 50
174.646225
 51
194.106430
  0
ARC
  8
0
 10
-286.247192
 20
-152.363159
 40
1.898237
 50
195.417709
 51
231.388245
  0
ARC
  8
0
 10
-285.171936
 20
-150.792206
 40
3.799348
 50
233.502106
 51
306.497894
  0
ARC
  8
0
 10
-284.096680
 20
-152.363159
 40
1.898228
 50
308.611755
 51
344.582306
  0
ARC
  8
0
 10
-283.708160
 20
-152.505585
 40
1.486224
 50
345.893555
 51
5.331300
  0
ARC
  8
0
 10
-285.171967
 20
-155.907104
 40
4.532872
 50
65.111816
 51
114.902168
  0
ARC
  8
0
 10
-281.821960
 20
-217.160477
 40
3.863758
 50
305.298248
 51
306.497681
  0
ARC
  8
0
 10
-280.728455
 20
-218.758072
 40
1.930390
 50
308.610992
 51
344.582031
  0
ARC
  8
0
 10
-280.333344
 20
-218.902924
 40
1.511397
 50
345.893616
 51
14.106391
  0
ARC
  8
0
 10
-280.728455
 20
-219.047775
 40
1.930403
 50
15.417976
 51
51.388996
  0
ARC
  8
0
 10
-281.821960
 20
-220.645370
 40
3.863760
 50
53.502323
 51
126.497673
  0
ARC
  8
0
 10
-282.915466
 20
-219.047775
 40
1.930390
 50
128.611008
 51
164.582031
  0
ARC
  8
0
 10
-283.310577
 20
-218.902924
 40
1.511397
 50
165.893616
 51
194.106384
  0
ARC
  8
0
 10
-282.915466
 20
-218.758072
 40
1.930403
 50
195.417969
 51
231.388992
  0
ARC
  8
0
 10
-281.821960
 20
-217.160477
 40
3.863760
 50
233.502319
 51
234.678543
  0
ARC
  8
0
 10
-281.821960
 20
-217.508972
 40
3.091003
 50
295.298523
 51
306.497681
  0
ARC
  8
0
 10
-280.947174
 20
-218.787048
 40
1.544323
 50
308.611542
 51
344.582062
  0
ARC
  8
0
 10
-280.631073
 20
-218.902924
 40
1.209100
 50
345.893250
 51
14.106742
  0
ARC
  8
0
 10
-280.947174
 20
-219.018799
 40
1.544315
 50
15.417927
 51
51.388466
  0
ARC
  8
0
 10
-281.821960
 20
-220.296875
 40
3.091008
 50
53.502323
 51
126.497673
  0
ARC
  8
0
 10
-282.696747
 20
-219.018799
 40
1.544323
 50
128.611542
 51
164.582077
  0
ARC
  8
0
 10
-283.012848
 20
-218.902924
 40
1.209100
 50
165.893265
 51
194.106735
  0
ARC
  8
0
 10
-282.696747
 20
-218.787048
 40
1.544315
 50
195.417923
 51
231.388458
  0
ARC
  8
0
 10
-281.821960
 20
-217.508972
 40
3.091008
 50
233.502319
 51
244.701477
  0
ARC
  8
0
 10
-283.821960
 20
-178.442780
 40
8.499495
 50
278.102783
 51
285.687103
  0
ARC
  8
0
 10
-281.825836
 20
-185.423111
 40
1.239917
 50
284.097137
 51
320.613495
  0
ARC
  8
0
 10
-281.104584
 20
-186.056000
 40
0.282636
 50
327.008301
 51
0.000000
  0
ARC
  8
0
 10
-283.822998
 20
-198.679520
 40
2.686585
 50
270.022125
 51
281.092377
  0
ARC
  8
0
 10
-283.874268
 20
-198.501663
 40
2.871031
 50
281.413544
 51
313.511749
  0
ARC
  8
0
 10
-284.442169
 20
-198.008774
 40
3.620221
 50
314.659332
 51
359.984772
  0
ARC
  8
0
 10
-253.471954
 20
-138.102829
 40
1.264267
 50
270.000000
 51
282.243713
  0
ARC
  8
0
 10
-253.230316
 20
-139.188187
 40
0.152463
 50
279.999664
 51
312.517853
  0
ARC
  8
0
 10
-253.142990
 20
-139.286591
 40
0.021033
 50
318.352661
 51
41.647346
  0
ARC
  8
0
 10
-253.230316
 20
-139.384995
 40
0.152471
 50
47.482155
 51
80.000328
  0
ARC
  8
0
 10
-253.471954
 20
-140.470352
 40
1.264261
 50
77.756294
 51
90.000000
  0
ARC
  8
0
 10
-272.799438
 20
-163.324524
 40
3.217310
 50
20.561197
 51
33.626457
  0
ARC
  8
0
 10
-287.330139
 20
-146.819672
 40
1.108161
 50
345.892181
 51
14.107806
  0
ARC
  8
0
 10
-287.619934
 20
-146.925919
 40
1.415484
 50
15.419636
 51
51.391315
  0
ARC
  8
0
 10
-288.421967
 20
-148.097778
 40
2.833618
 50
53.504974
 51
126.495026
  0
ARC
  8
0
 10
-289.223999
 20
-146.925919
 40
1.415502
 50
128.608688
 51
164.580368
  0
ARC
  8
0
 10
-289.513794
 20
-146.819672
 40
1.108161
 50
165.892197
 51
194.107803
  0
ARC
  8
0
 10
-289.223999
 20
-146.713425
 40
1.415484
 50
195.419632
 51
231.391312
  0
ARC
  8
0
 10
-288.421967
 20
-145.541565
 40
2.833618
 50
233.504974
 51
306.495026
  0
ARC
  8
0
 10
-287.619934
 20
-146.713425
 40
1.415502
 50
308.608673
 51
344.580353
  0
ARC
  8
0
 10
-263.834442
 20
-156.683136
 40
1.763459
 50
0.053543
 51
14.105742
  0
ARC
  8
0
 10
-264.295380
 20
-156.852097
 40
2.252276
 50
15.416729
 51
51.386627
  0
ARC
  8
0
 10
-265.570984
 20
-158.715683
 40
4.507541
 50
53.500561
 51
126.499435
  0
ARC
  8
0
 10
-266.846588
 20
-156.852097
 40
2.252257
 50
128.613373
 51
164.583267
  0
ARC
  8
0
 10
-267.307526
 20
-156.683136
 40
1.763469
 50
165.894257
 51
179.942993
  0
ARC
  8
0
 10
-263.834442
 20
-157.178116
 40
1.763458
 50
0.000000
 51
14.105742
  0
ARC
  8
0
 10
-264.295380
 20
-157.347076
 40
2.252276
 50
15.416729
 51
51.386627
  0
ARC
  8
0
 10
-265.570984
 20
-159.210648
 40
4.507528
 50
53.500446
 51
126.499557
  0
ARC
  8
0
 10
-266.846588
 20
-157.347076
 40
2.252257
 50
128.613373
 51
164.583267
  0
ARC
  8
0
 10
-267.307526
 20
-157.178116
 40
1.763469
 50
165.894257
 51
183.738266
  0
ARC
  8
0
 10
-264.280884
 20
-157.174942
 40
1.309910
 50
359.861176
 51
14.247650
  0
ARC
  8
0
 10
-264.622986
 20
-157.301315
 40
1.673034
 50
15.559076
 51
51.530018
  0
ARC
  8
0
 10
-265.567261
 20
-158.688187
 40
3.348578
 50
53.643192
 51
126.639412
  0
ARC
  8
0
 10
-266.518341
 20
-157.305984
 40
1.673041
 50
128.753326
 51
164.723389
  0
ARC
  8
0
 10
-266.861084
 20
-157.181290
 40
1.309895
 50
166.034988
 51
186.211212
  0
ARC
  8
0
 10
-264.280884
 20
-157.457794
 40
1.309909
 50
7.164090
 51
14.247650
  0
ARC
  8
0
 10
-264.622986
 20
-157.584167
 40
1.673034
 50
15.559076
 51
51.530018
  0
ARC
  8
0
 10
-265.567261
 20
-158.971039
 40
3.348578
 50
53.643192
 51
126.639412
  0
ARC
  8
0
 10
-266.518341
 20
-157.588837
 40
1.673041
 50
128.753326
 51
164.723389
  0
ARC
  8
0
 10
-266.861084
 20
-157.464142
 40
1.309895
 50
166.034988
 51
172.557922
  0
ARC
  8
0
 10
-264.765808
 20
-157.836853
 40
1.421408
 50
22.433262
 51
51.388222
  0
ARC
  8
0
 10
-265.570984
 20
-159.013214
 40
2.845018
 50
53.502056
 51
126.497940
  0
ARC
  8
0
 10
-266.376160
 20
-157.836853
 40
1.421421
 50
128.611786
 51
157.565598
  0
ARC
  8
0
 10
-264.966125
 20
-158.060303
 40
1.068369
 50
45.908501
 51
51.382877
  0
ARC
  8
0
 10
-265.570984
 20
-158.943848
 40
2.137660
 50
53.496387
 51
126.503609
  0
ARC
  8
0
 10
-266.175842
 20
-158.060303
 40
1.068362
 50
128.617126
 51
134.092072
  0
ARC
  8
0
 10
-274.621948
 20
-156.723679
 40
14.102457
 50
302.181671
 51
306.498627
  0
ARC
  8
0
 10
-270.630890
 20
-162.554474
 40
7.046135
 50
308.612335
 51
344.582642
  0
ARC
  8
0
 10
-269.188812
 20
-163.083130
 40
5.516846
 50
345.894043
 51
14.106118
  0
ARC
  8
0
 10
-270.630890
 20
-163.611786
 40
7.046132
 50
15.417472
 51
19.190865
  0
POLYLINE
  8
0
 66
     1
  0
VERTEX
  8
0
 10
-308.821960
 20
-178.139465
  0
VERTEX
  8
0
 10
-309.842560
 20
-178.193512
  0
VERTEX
  8
0
 10
-310.927643
 20
-178.436859
  0
VERTEX
  8
0
 10
-311.942200
 20
-178.825882
  0
VERTEX
  8
0
 10
-312.751312
 20
-179.316956
  0
VERTEX
  8
0
 10
-313.219971
 20
-179.866440
  0
VERTEX
  8
0
 10
-313.421570
 20
-180.707535
  0
VERTEX
  8
0
 10
-313.427216
 20
-181.657532
  0
VERTEX
  8
0
 10
-313.388794
 20
-182.335464
  0
VERTEX
  8
0
 10
-313.324127
 20
-182.996048
  0
VERTEX
  8
0
 10
-313.219971
 20
-183.704498
  0
VERTEX
  8
0
 10
-313.058258
 20
-184.523224
  0
VERTEX
  8
0
 10
-312.847534
 20
-185.337158
  0
VERTEX
  8
0
 10
-312.571289
 20
-186.199249
  0
VERTEX
  8
0
 10
-312.298920
 20
-186.928864
  0
VERTEX
  8
0
 10
-311.989838
 20
-187.636185
  0
VERTEX
  8
0
 10
-311.630219
 20
-188.328690
  0
VERTEX
  8
0
 10
-311.206177
 20
-189.013840
  0
VERTEX
  8
0
 10
-310.689880
 20
-189.710800
  0
VERTEX
  8
0
 10
-310.114716
 20
-190.362915
  0
VERTEX
  8
0
 10
-309.489258
 20
-190.967361
  0
VERTEX
  8
0
 10
-308.821960
 20
-191.521301
  0
SEQEND
  0
POLYLINE
  8
0
 66
     1
  0
VERTEX
  8
0
 10
-308.821960
 20
-227.139465
  0
VERTEX
  8
0
 10
-309.842560
 20
-227.085419
  0
VERTEX
  8
0
 10
-310.927643
 20
-226.842072
  0
VERTEX
  8
0
 10
-311.942200
 20
-226.453049
  0
VERTEX
  8
0
 10
-312.751312
 20
-225.961975
  0
VERTEX
  8
0
 10
-313.219971
 20
-225.412491
  0
VERTEX
  8
0
 10
-313.421570
 20
-224.571396
  0
VERTEX
  8
0
 10
-313.427216
 20
-223.621399
  0
VERTEX
  8
0
 10
-313.388794
 20
-222.943466
  0
VERTEX
  8
0
 10
-313.324127
 20
-222.282883
  0
VERTEX
  8
0
 10
-313.219971
 20
-221.574432
  0
VERTEX
  8
0
 10
-313.058258
 20
-220.755707
  0
VERTEX
  8
0
 10
-312.847534
 20
-219.941772
  0
VERTEX
  8
0
 10
-312.571289
 20
-219.079681
  0
VERTEX
  8
0
 10
-312.298920
 20
-218.350067
  0
VERTEX
  8
0
 10
-311.989838
 20
-217.642746
  0
VERTEX
  8
0
 10
-311.630219
 20
-216.950241
  0
VERTEX
  8
0
 10
-311.206177
 20
-216.265091
  0
VERTEX
  8
0
 10
-310.689880
 20
-215.568130
  0
VERTEX
  8
0
 10
-310.114716
 20
-214.916016
  0
VERTEX
  8
0
 10
-309.489258
 20
-214.311569
  0
VERTEX
  8
0
 10
-308.821960
 20
-213.757629
  0
SEQEND
  0
POLYLINE
  8
0
 66
     1
  0
VERTEX
  8
0
 10
-313.427216
 20
-160.639465
  0
VERTEX
  8
0
 10
-313.257904
 20
-160.947922
  0
VERTEX
  8
0
 10
-313.054199
 20
-161.315750
  0
VERTEX
  8
0
 10
-312.754883
 20
-161.851578
  0
VERTEX
  8
0
 10
-312.406189
 20
-162.467163
  0
VERTEX
  8
0
 10
-312.051239
 20
-163.086060
  0
VERTEX
  8
0
 10
-311.693054
 20
-163.703079
  0
VERTEX
  8
0
 10
-311.366699
 20
-164.258270
  0
VERTEX
  8
0
 10
-310.996185
 20
-164.879013
  0
VERTEX
  8
0
 10
-310.621582
 20
-165.497269
  0
SEQEND
  0
POLYLINE
  8
0
 66
     1
  0
VERTEX
  8
0
 10
-313.427216
 20
-244.639465
  0
VERTEX
  8
0
 10
-313.257904
 20
-244.331009
  0
VERTEX
  8
0
 10
-313.054199
 20
-243.963181
  0
VERTEX
  8
0
 10
-312.754883
 20
-243.427353
  0
VERTEX
  8
0
 10
-312.406189
 20
-242.811768
  0
VERTEX
  8
0
 10
-312.070587
 20
-242.225510
  0
VERTEX
  8
0
 10
-311.731720
 20
-241.641144
  0
VERTEX
  8
0
 10
-311.366699
 20
-241.020660
  0
VERTEX
  8
0
 10
-310.941925
 20
-240.309921
  0
VERTEX
  8
0
 10
-310.511841
 20
-239.602402
  0
VERTEX
  8
0
 10
-310.083801
 20
-238.909714
  0
VERTEX
  8
0
 10
-309.667816
 20
-238.247238
  0
VERTEX
  8
0
 10
-309.247192
 20
-237.587708
  0
VERTEX
  8
0
 10
-308.821960
 20
-236.931137
  0
SEQEND
  0
POINT
  8
0
 10
-111.755188
 20
-72.019287
  0
POINT
  8
0
 10
-63.255188
 20
-72.019287
  0
LINE
  8
0
 10
-164.363937
 20
-118.971146
 11
-153.120941
 21
-107.728149
  0
LINE
  8
0
 10
-158.707092
 20
-124.628014
 11
-147.464096
 21
-113.385017
  0
LINE
  8
0
 10
-154.393738
 20
-120.314690
 11
-160.050598
 21
-114.657837
  0
LINE
  8
0
 10
-146.756989
 20
-114.092133
 11
-147.181244
 21
-113.667877
  0
LINE
  8
0
 10
-146.898407
 20
-113.385025
 11
-153.120941
 21
-107.162483
  0
LINE
  8
0
 10
-160.050598
 20
-114.092117
 11
-153.120941
 21
-107.162476
  0
LINE
  8
0
 10
-153.828033
 20
-120.314667
 11
-146.898392
 21
-113.385025
  0
LINE
  8
0
 10
-148.949020
 20
-114.869965
 11
-154.605865
 21
-109.213112
  0
LINE
  8
0
 10
-152.696686
 20
-121.446030
 11
-154.110901
 21
-120.031815
  0
LINE
  8
0
 10
-159.414230
 20
-124.628036
 11
-164.363968
 21
-119.678291
  0
LINE
  8
0
 10
-157.434326
 20
-125.476547
 11
-158.494995
 21
-124.415894
  0
LINE
  8
0
 10
-159.767761
 20
-114.374954
 11
-161.181976
 21
-112.960739
  0
LINE
  8
0
 10
-165.212463
 20
-116.991241
 11
-161.181961
 21
-112.960739
  0
LINE
  8
0
 10
-156.727188
 20
-125.476532
 11
-152.696686
 21
-121.446030
  0
LINE
  8
0
 10
-164.151840
 20
-118.759033
 11
-165.212494
 21
-117.698380
  0
LINE
  8
0
 10
-148.878235
 20
-114.092110
 11
-148.878235
 21
-114.799217
  0
LINE
  8
0
 10
-153.828033
 20
-109.142349
 11
-154.535156
 21
-109.142349
  0
LINE
  8
0
 10
-155.949371
 20
-110.556534
 11
-150.292511
 21
-116.213394
  0
LINE
  8
0
 10
-154.888702
 20
-108.081734
 11
-154.464447
 21
-108.505989
  0
LINE
  8
0
 10
-153.828064
 20
-107.021072
 11
-153.403809
 21
-107.445328
  0
LINE
  8
0
 10
-152.959747
 20
-107.889374
 11
-153.120941
 21
-107.728165
  0
LINE
  8
0
 10
-147.464096
 20
-113.385025
 11
-153.120941
 21
-107.728165
  0
LINE
  8
0
 10
-148.241898
 20
-114.728539
 11
-147.817642
 21
-115.152802
  0
LINE
  8
0
 10
-154.181610
 20
-108.788834
 11
-148.524750
 21
-114.445686
  0
LINE
  8
0
 10
-158.707047
 20
-19.410542
 11
-147.464050
 21
-30.653542
  0
LINE
  8
0
 10
-164.363922
 20
-25.067387
 11
-153.120911
 21
-36.310387
  0
LINE
  8
0
 10
-160.050598
 20
-29.380741
 11
-154.393738
 21
-23.723888
  0
LINE
  8
0
 10
-153.828033
 20
-37.017487
 11
-153.403778
 21
-36.593227
  0
LINE
  8
0
 10
-153.120926
 20
-36.876053
 11
-146.898392
 21
-30.653519
  0
LINE
  8
0
 10
-153.828018
 20
-23.723888
 11
-146.898376
 21
-30.653534
  0
LINE
  8
0
 10
-160.050568
 20
-29.946442
 11
-153.120926
 21
-36.876087
  0
LINE
  8
0
 10
-154.605881
 20
-34.825447
 11
-148.949020
 21
-29.168591
  0
LINE
  8
0
 10
-161.181931
 20
-31.077789
 11
-159.767715
 21
-29.663574
  0
LINE
  8
0
 10
-164.363937
 20
-24.360252
 11
-159.414185
 21
-19.410503
  0
LINE
  8
0
 10
-165.212463
 20
-26.340149
 11
-164.151794
 21
-25.279488
  0
LINE
  8
0
 10
-154.110870
 20
-24.006721
 11
-152.696655
 21
-22.592506
  0
LINE
  8
0
 10
-156.727142
 20
-18.562012
 11
-152.696640
 21
-22.592518
  0
LINE
  8
0
 10
-165.212433
 20
-27.047287
 11
-161.181931
 21
-31.077793
  0
LINE
  8
0
 10
-158.494934
 20
-19.622635
 11
-157.434280
 21
-18.561974
  0
LINE
  8
0
 10
-153.828018
 20
-34.896236
 11
-154.535126
 21
-34.896236
  0
LINE
  8
0
 10
-148.878250
 20
-29.946438
 11
-148.878250
 21
-29.239330
  0
LINE
  8
0
 10
-150.292450
 20
-27.825111
 11
-155.949295
 21
-33.481964
  0
LINE
  8
0
 10
-142.095963
 20
-32.486122
 11
-141.144287
 21
-33.437798
  0
LINE
  8
0
 10
-147.817642
 20
-28.885769
 11
-148.241898
 21
-29.310024
  0
LINE
  8
0
 10
-147.817627
 20
-28.885761
 11
-139.685898
 21
-37.017490
  0
LINE
  8
0
 10
-154.888702
 20
-35.956837
 11
-151.332367
 21
-39.513168
  0
LINE
  8
0
 10
-146.756989
 20
-29.946426
 11
-147.181244
 21
-30.370682
  0
LINE
  8
0
 10
-139.685913
 20
-37.017487
 11
-141.882797
 21
-39.214367
  0
LINE
  8
0
 10
-147.625275
 20
-30.814728
 11
-147.464066
 21
-30.653519
  0
LINE
  8
0
 10
-153.120926
 20
-36.310375
 11
-147.464066
 21
-30.653519
  0
LINE
  8
0
 10
-154.464447
 20
-35.532578
 11
-154.888702
 21
-35.956837
  0
LINE
  8
0
 10
-148.524734
 20
-29.592869
 11
-154.181595
 21
-35.249725
  0
LINE
  8
0
 10
-134.255676
 20
-63.619282
 11
-161.211029
 21
-36.663925
  0
LINE
  8
0
 10
-161.211029
 20
-107.374634
 11
-134.255676
 21
-80.419289
  0
LINE
  8
0
 10
-161.211060
 20
-107.374641
 11
-183.255676
 21
-85.330002
  0
LINE
  8
0
 10
-183.255692
 20
-58.708565
 11
-161.211029
 21
-36.663910
  0
LINE
  8
0
 10
-134.255676
 20
-80.419289
 11
-134.255676
 21
-63.619282
  0
LINE
  8
0
 10
-183.255676
 20
-85.418816
 11
-183.255676
 21
-58.619747
  0
LINE
  8
0
 10
-154.847076
 20
-43.027878
 11
-148.129562
 21
-36.310368
  0
LINE
  8
0
 10
-147.775986
 20
-50.098961
 11
-141.058472
 21
-43.381451
  0
LINE
  8
0
 10
-153.608292
 20
-100.905960
 11
-154.175339
 21
-100.338913
  0
LINE
  8
0
 10
-147.880707
 20
-95.178413
 11
-148.447769
 21
-94.611366
  0
LINE
  8
0
 10
-147.104233
 20
-36.628551
 11
-146.468475
 21
-35.992798
  0
LINE
  8
0
 10
-141.376678
 20
-42.356140
 11
-140.740921
 21
-41.720383
  0
LINE
  8
0
 10
-140.909027
 20
-42.823776
 11
-147.571854
 21
-36.160957
  0
LINE
  8
0
 10
-153.608246
 20
-100.905960
 11
-147.880692
 21
-95.178398
  0
LINE
  8
0
 10
-146.468475
 20
-35.992832
 11
-140.740906
 21
-41.720398
  0
LINE
  8
0
 10
-141.058472
 20
-43.381454
 11
-140.909042
 21
-42.823780
  0
LINE
  8
0
 10
-148.129532
 20
-36.310375
 11
-147.571854
 21
-36.160946
  0
LINE
  8
0
 10
-141.058472
 20
-43.381454
 11
-148.129532
 21
-36.310387
  0
LINE
  8
0
 10
-170.949310
 20
-82.292122
 11
-167.032349
 21
-79.844528
  0
LINE
  8
0
 10
-175.188675
 20
-75.507744
 11
-171.271713
 21
-73.060150
  0
LINE
  8
0
 10
-170.949295
 20
-82.292099
 11
-175.027466
 21
-80.123703
  0
LINE
  8
0
 10
-167.193527
 20
-75.228523
 11
-171.271683
 21
-73.060120
  0
LINE
  8
0
 10
-175.027481
 20
-80.123734
 11
-175.188675
 21
-75.507736
  0
LINE
  8
0
 10
-167.032425
 20
-79.844536
 11
-167.193619
 21
-75.228546
  0
LINE
  8
0
 10
-170.411316
 20
-79.549934
 11
-172.488159
 21
-76.226280
  0
LINE
  8
0
 10
-169.732864
 20
-79.126007
 11
-171.809708
 21
-75.802345
  0
LINE
  8
0
 10
-167.678070
 20
-69.453018
 11
-166.717758
 21
-64.935143
  0
LINE
  8
0
 10
-175.503220
 20
-67.789719
 11
-174.542923
 21
-63.271839
  0
LINE
  8
0
 10
-167.678070
 20
-69.453033
 11
-172.070801
 21
-70.880325
  0
LINE
  8
0
 10
-170.150192
 20
-61.844585
 11
-174.542938
 21
-63.271873
  0
LINE
  8
0
 10
-172.070816
 20
-70.880295
 11
-175.503250
 21
-67.789711
  0
LINE
  8
0
 10
-166.717773
 20
-64.935143
 11
-170.150208
 21
-61.844559
  0
LINE
  8
0
 10
-169.276901
 20
-67.161102
 11
-173.110443
 21
-66.346260
  0
LINE
  8
0
 10
-169.110565
 20
-66.378586
 11
-172.944107
 21
-65.563744
  0
LINE
  8
0
 10
-121.255188
 20
-107.144066
 11
-121.255188
 21
-91.710152
  0
LINE
  8
0
 10
-121.255188
 20
-60.411098
 11
-121.255188
 21
-36.894508
  0
LINE
  8
0
 10
-161.288452
 20
-107.386047
 11
-183.255203
 21
-85.419296
  0
LINE
  8
0
 10
-183.255203
 20
-58.619270
 11
-161.288452
 21
-36.652512
  0
LINE
  8
0
 10
-161.288437
 20
-107.386047
 11
-161.244034
 21
-107.341644
  0
LINE
  8
0
 10
-159.691437
 20
-106.844971
 11
-154.741684
 21
-101.895226
  0
LINE
  8
0
 10
-158.772186
 20
-106.491425
 11
-155.095230
 21
-102.814468
  0
LINE
  8
0
 10
-155.930634
 20
-105.700485
 11
-155.886169
 21
-105.656021
  0
LINE
  8
0
 10
-155.095261
 20
-102.814468
 11
-155.378113
 21
-102.531624
  0
LINE
  8
0
 10
-158.772202
 20
-106.491425
 11
-159.055054
 21
-106.208572
  0
LINE
  8
0
 10
-154.741714
 20
-101.895233
 11
-155.236694
 21
-101.400253
  0
LINE
  8
0
 10
-159.691437
 20
-106.844971
 11
-160.186417
 21
-106.350006
  0
LINE
  8
0
 10
-146.891418
 20
-94.044975
 11
-141.941681
 21
-89.095230
  0
LINE
  8
0
 10
-145.972183
 20
-93.691422
 11
-142.295227
 21
-90.014465
  0
LINE
  8
0
 10
-143.130630
 20
-92.900482
 11
-143.086166
 21
-92.856018
  0
LINE
  8
0
 10
-142.295227
 20
-90.014473
 11
-142.578079
 21
-89.731628
  0
LINE
  8
0
 10
-145.972183
 20
-93.691437
 11
-146.255020
 21
-93.408592
  0
LINE
  8
0
 10
-141.941681
 20
-89.095230
 11
-142.436646
 21
-88.600258
  0
LINE
  8
0
 10
-146.891418
 20
-94.044983
 11
-147.386383
 21
-93.550018
  0
LINE
  8
0
 10
-141.941666
 20
-54.943340
 11
-146.891418
 21
-49.993591
  0
LINE
  8
0
 10
-142.295227
 20
-54.024101
 11
-145.972168
 21
-50.347145
  0
LINE
  8
0
 10
-143.086151
 20
-51.182549
 11
-143.130615
 21
-51.138084
  0
LINE
  8
0
 10
-145.972183
 20
-50.347157
 11
-146.255035
 21
-50.629997
  0
LINE
  8
0
 10
-142.295227
 20
-54.024101
 11
-142.578064
 21
-54.306942
  0
LINE
  8
0
 10
-146.891403
 20
-49.993584
 11
-147.386383
 21
-50.488556
  0
LINE
  8
0
 10
-141.941650
 20
-54.943336
 11
-142.436630
 21
-55.438309
  0
LINE
  8
0
 10
-154.741669
 20
-42.143337
 11
-159.691422
 21
-37.193592
  0
LINE
  8
0
 10
-155.095215
 20
-41.224098
 11
-158.772171
 21
-37.547142
  0
LINE
  8
0
 10
-155.886154
 20
-38.382545
 11
-155.930618
 21
-38.338081
  0
LINE
  8
0
 10
-158.772156
 20
-37.547142
 11
-159.055008
 21
-37.829983
  0
LINE
  8
0
 10
-155.095200
 20
-41.224094
 11
-155.378052
 21
-41.506939
  0
LINE
  8
0
 10
-159.691406
 20
-37.193600
 11
-160.186386
 21
-37.688572
  0
LINE
  8
0
 10
-154.741653
 20
-42.143333
 11
-155.236633
 21
-42.638306
  0
LINE
  8
0
 10
-161.288437
 20
-36.652519
 11
-161.244019
 21
-36.696926
  0
LINE
  8
0
 10
-100.865746
 20
-60.281315
 11
-109.633865
 21
-51.513191
  0
LINE
  8
0
 10
-127.311539
 20
-70.605072
 11
-111.048080
 21
-54.341621
  0
LINE
  8
0
 10
-140.681396
 20
-92.460213
 11
-134.736160
 21
-86.514977
  0
LINE
  8
0
 10
-153.274246
 20
-101.636307
 11
-144.081711
 21
-93.922852
  0
LINE
  8
0
 10
-134.736160
 20
-86.514977
 11
-130.013733
 21
-79.770638
  0
LINE
  8
0
 10
-106.805443
 20
-54.341621
 11
-111.048080
 21
-54.341621
  0
LINE
  8
0
 10
-107.583260
 20
-66.998825
 11
-100.865746
 21
-60.281315
  0
LINE
  8
0
 10
-141.372208
 20
-113.538345
 11
-133.658752
 21
-104.345810
  0
LINE
  8
0
 10
-132.196121
 20
-100.945496
 11
-126.250877
 21
-95.000259
  0
LINE
  8
0
 10
-126.250877
 20
-95.000259
 11
-119.506538
 21
-90.277832
  0
LINE
  8
0
 10
-110.340973
 20
-87.575638
 11
-94.077522
 21
-71.312180
  0
LINE
  8
0
 10
-94.077522
 20
-67.069542
 11
-94.077522
 21
-71.312180
  0
LINE
  8
0
 10
-100.017220
 20
-61.129845
 11
-94.077522
 21
-67.069542
  0
LINE
  8
0
 10
-106.734726
 20
-67.847359
 11
-100.017212
 21
-61.129845
  0
LINE
  8
0
 10
-112.108742
 20
-80.858124
 11
-120.594025
 21
-72.372841
  0
LINE
  8
0
 10
-111.401634
 20
-80.858124
 11
-102.916351
 21
-72.372841
  0
LINE
  8
0
 10
-102.916351
 20
-71.665733
 11
-106.734734
 21
-67.847359
  0
LINE
  8
0
 10
-120.594025
 20
-71.665733
 11
-112.108742
 21
-63.180454
  0
LINE
  8
0
 10
-121.301132
 20
-71.665733
 11
-112.108742
 21
-62.473347
  0
LINE
  8
0
 10
-102.209244
 20
-71.665733
 11
-106.381180
 21
-67.493805
  0
LINE
  8
0
 10
-111.401634
 20
-81.565231
 11
-102.209244
 21
-72.372841
  0
LINE
  8
0
 10
-112.108742
 20
-81.565231
 11
-121.301132
 21
-72.372841
  0
LINE
  8
0
 10
-107.583260
 20
-66.998833
 11
-111.401634
 21
-63.180454
  0
LINE
  8
0
 10
-107.229706
 20
-66.645279
 11
-111.401634
 21
-62.473347
  0
LINE
  8
0
 10
-102.279961
 20
-61.695526
 11
-101.431427
 21
-62.544056
  0
LINE
  8
0
 10
-106.522598
 20
-65.938171
 11
-105.674072
 21
-66.786697
  0
LINE
  8
0
 10
-116.446114
 20
-57.618332
 11
-110.599792
 21
-51.772011
  0
LINE
  8
0
 10
-116.704933
 20
-58.584259
 11
-109.633865
 21
-51.513191
  0
LINE
  8
0
 10
-116.704933
 20
-58.584259
 11
-115.997826
 21
-59.291367
  0
LINE
  8
0
 10
-116.704933
 20
-58.584259
 11
-116.446114
 21
-57.618332
  0
LINE
  8
0
 10
-109.633858
 20
-51.513222
 11
-110.599785
 21
-51.772041
  0
LINE
  8
0
 10
-154.888702
 20
-108.081734
 11
-145.696320
 21
-98.889343
  0
LINE
  8
0
 10
-152.201706
 20
-105.394745
 11
-145.130630
 21
-112.465805
  0
LINE
  8
0
 10
-147.817627
 20
-115.152802
 11
-138.625244
 21
-105.960411
  0
LINE
  8
0
 10
-142.867889
 20
-98.889351
 11
-138.625259
 21
-103.131989
  0
LINE
  8
0
 10
-144.635651
 20
-102.799751
 11
-144.635651
 21
-106.999756
  0
LINE
  8
0
 10
-146.735641
 20
-104.899750
 11
-142.535645
 21
-104.899750
  0
LINE
  8
0
 10
-125.791084
 20
-102.319283
 11
-127.523140
 21
-99.319283
  0
LINE
  8
0
 10
-127.523140
 20
-99.319283
 11
-130.569901
 21
-99.319283
  0
LINE
  8
0
 10
-132.719299
 20
-102.319290
 11
-131.557343
 21
-100.306717
  0
LINE
  8
0
 10
-130.987244
 20
-105.319283
 11
-132.719299
 21
-102.319283
  0
LINE
  8
0
 10
-127.523140
 20
-105.319305
 11
-130.987244
 21
-105.319305
  0
LINE
  8
0
 10
-125.791092
 20
-102.319283
 11
-127.523140
 21
-105.319290
  0
LINE
  8
0
 10
-125.791084
 20
-41.719284
 11
-127.523132
 21
-38.719292
  0
LINE
  8
0
 10
-127.523132
 20
-38.719307
 11
-130.987244
 21
-38.719307
  0
LINE
  8
0
 10
-132.719284
 20
-41.719292
 11
-130.987228
 21
-38.719288
  0
LINE
  8
0
 10
-130.987244
 20
-44.719284
 11
-132.719284
 21
-41.719284
  0
LINE
  8
0
 10
-127.523132
 20
-44.719284
 11
-130.987244
 21
-44.719284
  0
LINE
  8
0
 10
-125.791084
 20
-41.719284
 11
-127.523132
 21
-44.719284
  0
LINE
  8
0
 10
-145.654663
 20
-58.364586
 11
-146.654663
 21
-58.941933
  0
LINE
  8
0
 10
-146.654663
 20
-58.941933
 11
-146.654663
 21
-60.096630
  0
LINE
  8
0
 10
-145.654663
 20
-60.673981
 11
-146.654663
 21
-60.096630
  0
LINE
  8
0
 10
-144.654663
 20
-60.096634
 11
-145.654663
 21
-60.673981
  0
LINE
  8
0
 10
-144.654663
 20
-58.941933
 11
-144.654663
 21
-60.096634
  0
LINE
  8
0
 10
-145.654663
 20
-58.364582
 11
-144.654663
 21
-58.941933
  0
LINE
  8
0
 10
-145.654663
 20
-83.364578
 11
-146.654663
 21
-83.941933
  0
LINE
  8
0
 10
-146.654663
 20
-83.941933
 11
-146.654663
 21
-85.096634
  0
LINE
  8
0
 10
-145.654663
 20
-85.673981
 11
-146.654663
 21
-85.096626
  0
LINE
  8
0
 10
-144.654663
 20
-85.096634
 11
-145.654663
 21
-85.673981
  0
LINE
  8
0
 10
-144.654663
 20
-83.941933
 11
-144.654663
 21
-85.096634
  0
LINE
  8
0
 10
-145.654663
 20
-83.364578
 11
-144.654663
 21
-83.941933
  0
LINE
  8
0
 10
-157.675476
 20
-88.611168
 11
-157.675476
 21
-93.611168
  0
LINE
  8
0
 10
-160.175476
 20
-91.111168
 11
-155.175476
 21
-91.111168
  0
LINE
  8
0
 10
-157.675476
 20
-50.427399
 11
-157.675476
 21
-55.427399
  0
LINE
  8
0
 10
-160.175476
 20
-52.927399
 11
-155.175476
 21
-52.927399
  0
LINE
  8
0
 10
-133.404312
 20
-35.232784
 11
-132.803589
 21
-36.273285
  0
LINE
  8
0
 10
-132.798096
 20
-34.882782
 11
-132.197357
 21
-35.923286
  0
LINE
  8
0
 10
-132.798096
 20
-109.155792
 11
-132.197372
 21
-108.115280
  0
LINE
  8
0
 10
-133.404327
 20
-108.805786
 11
-132.803589
 21
-107.765289
  0
LINE
  8
0
 10
-117.550743
 20
-21.966370
 11
-118.019402
 21
-23.715439
  0
LINE
  8
0
 10
-105.959633
 20
-21.966373
 11
-105.490967
 21
-23.715443
  0
LINE
  8
0
 10
-117.550743
 20
-122.072197
 11
-118.019409
 21
-120.323120
  0
LINE
  8
0
 10
-105.959641
 20
-122.072205
 11
-105.490982
 21
-120.323135
  0
LINE
  8
0
 10
-73.054962
 20
-101.596199
 11
-71.305878
 21
-102.064865
  0
LINE
  8
0
 10
-66.790726
 20
-90.746262
 11
-65.510330
 21
-92.026665
  0
LINE
  8
0
 10
-66.790718
 20
-53.292377
 11
-65.510300
 21
-52.011955
  0
LINE
  8
0
 10
-73.054901
 20
-42.442413
 11
-71.305855
 21
-41.973763
  0
LINE
  8
0
 10
-155.365738
 20
-102.519287
 11
-152.630005
 21
-102.519287
  0
CIRCLE
  8
0
 10
-94.255203
 20
-41.708389
 40
4.500000
  0
ARC
  8
0
 10
-159.060638
 20
-124.274452
 40
0.500006
 50
224.999374
 51
314.999390
  0
ARC
  8
0
 10
-164.010391
 20
-119.324699
 40
0.500006
 50
135.000626
 51
224.999374
  0
ARC
  8
0
 10
-164.858917
 20
-117.344810
 40
0.499995
 50
134.999374
 51
225.000626
  0
ARC
  8
0
 10
-157.080750
 20
-125.122978
 40
0.499995
 50
225.000626
 51
315.000610
  0
ARC
  8
0
 10
-160.329926
 20
-120.593979
 40
3.504956
 50
173.984512
 51
276.015442
  0
CIRCLE
  8
0
 10
-155.100845
 20
-115.364906
 40
2.500000
  0
CIRCLE
  8
0
 10
-155.100845
 20
-115.364906
 40
2.000000
  0
ARC
  8
0
 10
-164.010361
 20
-24.713837
 40
0.499995
 50
134.999374
 51
225.000626
  0
ARC
  8
0
 10
-159.060608
 20
-19.764088
 40
0.500006
 50
44.999382
 51
134.999374
  0
ARC
  8
0
 10
-157.080719
 20
-18.915565
 40
0.500006
 50
44.999382
 51
134.999374
  0
ARC
  8
0
 10
-164.858887
 20
-26.693737
 40
0.499995
 50
134.999374
 51
225.000626
  0
ARC
  8
0
 10
-160.329880
 20
-23.444561
 40
3.504966
 50
83.984787
 51
186.015335
  0
CIRCLE
  8
0
 10
-155.100815
 20
-28.673637
 40
2.500000
  0
CIRCLE
  8
0
 10
-155.100815
 20
-28.673637
 40
2.000000
  0
ARC
  8
0
 10
-121.654686
 20
-62.119789
 40
35.999996
 50
124.597847
 51
127.016388
  0
CIRCLE
  8
0
 10
-157.675476
 20
-91.111168
 40
5.500000
  0
CIRCLE
  8
0
 10
-157.675476
 20
-52.927399
 40
5.500000
  0
CIRCLE
  8
0
 10
-145.654663
 20
-72.019287
 40
0.750000
  0
CIRCLE
  8
0
 10
-145.654663
 20
-72.019287
 40
9.200000
  0
ARC
  8
0
 10
-145.654663
 20
-72.019287
 40
10.000007
 50
103.304718
 51
256.695282
  0
ARC
  8
0
 10
-155.622864
 20
-93.163773
 40
8.000002
 50
284.585663
 51
345.414337
  0
ARC
  8
0
 10
-148.483078
 20
-43.735012
 40
7.999993
 50
14.585622
 51
75.414444
  0
CIRCLE
  8
0
 10
-171.110504
 20
-77.676132
 40
2.000000
  0
CIRCLE
  8
0
 10
-171.110504
 20
-77.676132
 40
1.750000
  0
CIRCLE
  8
0
 10
-171.110504
 20
-77.676132
 40
4.000000
  0
CIRCLE
  8
0
 10
-171.110504
 20
-66.362427
 40
2.000000
  0
CIRCLE
  8
0
 10
-171.110504
 20
-66.362427
 40
1.750000
  0
CIRCLE
  8
0
 10
-171.110504
 20
-66.362427
 40
4.000000
  0
ARC
  8
0
 10
-145.654663
 20
-72.019287
 40
9.999995
 50
283.304657
 51
76.695282
  0
ARC
  8
0
 10
-111.755188
 20
-72.019287
 40
14.999998
 50
129.296478
 51
171.869919
  0
ARC
  8
0
 10
-111.755188
 20
-72.019287
 40
42.999996
 50
112.431503
 51
133.157013
  0
ARC
  8
0
 10
-111.755188
 20
-72.019287
 40
43.000000
 50
235.337509
 51
247.568527
  0
ARC
  8
0
 10
-126.255188
 20
-107.144066
 40
5.000001
 50
247.568451
 51
0.000000
  0
ARC
  8
0
 10
-126.255188
 20
-36.894508
 40
5.000000
 50
0.000000
 51
112.431557
  0
ARC
  8
0
 10
-148.970535
 20
-100.724998
 40
3.999998
 50
71.135796
 51
82.878708
  0
CIRCLE
  8
0
 10
-157.675476
 20
-91.111168
 40
5.150000
  0
CIRCLE
  8
0
 10
-157.675476
 20
-52.927399
 40
5.150000
  0
CIRCLE
  8
0
 10
-145.654663
 20
-84.519287
 40
2.600000
  0
CIRCLE
  8
0
 10
-145.654663
 20
-84.519287
 40
3.500000
  0
CIRCLE
  8
0
 10
-145.654663
 20
-59.519279
 40
2.600000
  0
CIRCLE
  8
0
 10
-145.654663
 20
-59.519279
 40
3.500000
  0
ARC
  8
0
 10
-158.051941
 20
-103.579163
 40
3.000004
 50
256.108643
 51
314.999786
  0
ARC
  8
0
 10
-158.007477
 20
-103.534698
 40
2.999992
 50
314.999786
 51
13.891067
  0
ARC
  8
0
 10
-145.251938
 20
-90.779167
 40
3.000000
 50
256.108948
 51
315.000092
  0
ARC
  8
0
 10
-145.207474
 20
-90.734703
 40
2.999998
 50
315.000092
 51
13.891067
  0
ARC
  8
0
 10
-145.207474
 20
-53.303867
 40
3.000000
 50
346.108948
 51
44.999947
  0
ARC
  8
0
 10
-145.251938
 20
-53.259403
 40
3.000000
 50
44.999947
 51
103.891068
  0
ARC
  8
0
 10
-158.007477
 20
-40.503864
 40
3.000000
 50
346.108948
 51
44.999947
  0
ARC
  8
0
 10
-158.051941
 20
-40.459400
 40
3.000000
 50
44.999947
 51
103.891068
  0
ARC
  8
0
 10
-111.755188
 20
-72.019287
 40
50.999996
 50
215.501633
 51
219.373703
  0
ARC
  8
0
 10
-144.216934
 20
-88.924683
 40
4.999998
 50
271.549744
 51
315.000000
  0
ARC
  8
0
 10
-142.301010
 20
-71.166992
 40
14.999996
 50
325.000000
 51
2.146879
  0
ARC
  8
0
 10
-128.660583
 20
-104.481033
 40
5.000005
 50
135.000000
 51
178.450272
  0
ARC
  8
0
 10
-110.902893
 20
-102.565109
 40
15.000000
 50
87.853149
 51
125.000031
  0
ARC
  8
0
 10
-111.755188
 20
-80.504570
 40
0.500001
 50
225.000000
 51
315.000000
  0
ARC
  8
0
 10
-103.269905
 20
-72.019287
 40
0.500001
 50
315.000000
 51
45.000000
  0
ARC
  8
0
 10
-111.755188
 20
-63.534004
 40
0.500001
 50
45.000000
 51
135.000000
  0
ARC
  8
0
 10
-120.240471
 20
-72.019287
 40
0.500001
 50
135.000000
 51
225.000000
  0
ARC
  8
0
 10
-111.755188
 20
-81.211678
 40
0.500001
 50
225.000000
 51
315.000000
  0
ARC
  8
0
 10
-102.562798
 20
-72.019287
 40
0.500001
 50
315.000000
 51
45.000000
  0
ARC
  8
0
 10
-111.755188
 20
-62.826900
 40
0.500001
 50
45.000000
 51
135.000000
  0
ARC
  8
0
 10
-120.947578
 20
-72.019287
 40
0.500001
 50
135.000000
 51
225.000000
  0
ARC
  8
0
 10
-140.039459
 20
-104.546204
 40
2.000002
 50
315.000000
 51
45.000000
  0
ARC
  8
0
 10
-144.282104
 20
-100.303558
 40
2.000002
 50
45.000000
 51
135.000000
  0
CIRCLE
  8
0
 10
-144.635651
 20
-104.899750
 40
3.500000
  0
ARC
  8
0
 10
-111.755188
 20
-72.019287
 40
51.000000
 50
230.626251
 51
234.498444
  0
ARC
  8
0
 10
-129.255188
 20
-102.319283
 40
6.500006
 50
211.423569
 51
72.994041
  0
CIRCLE
  8
0
 10
-129.255188
 20
-41.719284
 40
6.500000
  0
ARC
  8
0
 10
-129.255188
 20
-41.719284
 40
7.700002
 50
122.605324
 51
117.394722
  0
ARC
  8
0
 10
-129.255188
 20
-102.319283
 40
7.700004
 50
242.605301
 51
68.342682
  0
ARC
  8
0
 10
-129.255188
 20
-102.319283
 40
5.699996
 50
208.698181
 51
77.361412
  0
CIRCLE
  8
0
 10
-129.255188
 20
-41.719284
 40
5.700000
  0
ARC
  8
0
 10
-129.255188
 20
-102.319283
 40
7.700006
 50
214.399811
 51
237.394684
  0
CIRCLE
  8
0
 10
-94.255150
 20
-41.708420
 40
4.000000
  0
CIRCLE
  8
0
 10
-94.255150
 20
-41.708420
 40
3.375000
  0
ARC
  8
0
 10
-111.755188
 20
-23.519287
 40
6.000007
 50
14.999975
 51
164.999985
  0
ARC
  8
0
 10
-111.755196
 20
-120.519287
 40
6.000001
 50
195.000031
 51
344.999939
  0
ARC
  8
0
 10
-69.752960
 20
-96.269302
 40
6.000009
 50
254.999985
 51
45.000053
  0
ARC
  8
0
 10
-69.752945
 20
-47.769318
 40
6.000001
 50
315.000061
 51
104.999962
  0
ARC
  8
0
 10
-122.849030
 20
-22.421349
 40
4.999999
 50
342.391663
 51
345.000000
  0
ARC
  8
0
 10
-122.849045
 20
-121.617218
 40
4.999998
 50
14.999949
 51
17.608339
  0
ARC
  8
0
 10
-100.661354
 20
-121.617233
 40
5.000003
 50
162.391495
 51
164.999969
  0
ARC
  8
0
 10
-74.349060
 20
-106.425827
 40
5.000007
 50
74.999992
 51
77.608330
  0
ARC
  8
0
 10
-63.255188
 20
-87.210732
 40
5.000002
 50
222.391479
 51
225.000000
  0
ARC
  8
0
 10
-63.255188
 20
-56.827911
 40
5.000003
 50
135.000031
 51
137.608246
  0
ARC
  8
0
 10
-74.348999
 20
-37.612789
 40
5.000001
 50
282.391510
 51
285.000031
  0
ARC
  8
0
 10
-100.661339
 20
-22.421349
 40
5.000000
 50
195.000031
 51
197.608383
  0
ARC
  8
0
 10
-111.755188
 20
-23.519287
 40
2.600002
 50
358.464050
 51
181.535950
  0
ARC
  8
0
 10
-111.755188
 20
-120.519287
 40
2.600002
 50
178.464142
 51
1.535866
  0
ARC
  8
0
 10
-69.752960
 20
-96.269295
 40
2.599999
 50
238.464066
 51
61.535931
  0
ARC
  8
0
 10
-69.752945
 20
-47.769318
 40
2.600001
 50
298.464111
 51
121.535797
  0
ARC
  8
0
 10
-111.755188
 20
-72.019287
 40
48.500000
 50
234.730759
 51
129.082703
  0
ENDSEC
  0
EOF
