  0
SECTION
  2
HEADER
  0
ENDSEC
  0
SECTION
  2
TABLES
  0
TABLE
  2
LTYPE
 70
     4
  0
LTYPE
  2
CONTINUOUS
 70
    64
  3
Solid line
 72
    65
 73
     0
 40
0.000000
  0
LTYPE
  2
DASHED
 70
    64
  3
__ __ __ __ __ __ __ __ __ __ __ __ __ __ __
 72
    65
 73
     2
 40
3.500000
 49
2.000000
 49
-1.500000
  0
LTYPE
  2
CENTER
 70
    64
  3
____ _ ____ _ ____ _ ____ _ ____ _ ____ _ ____
 72
    65
 73
     4
 40
17.500000
 49
13.000000
 49
-1.500000
 49
1.500000
 49
-1.500000
  0
LTYPE
  2
PHANTOM
 70
    64
  3
_____ _ _ _____ _ _ _____ _ _ _____ _ _ ____  
 72
    65
 73
     6
 40
15.500000
 49
8.000000
 49
-1.500000
 49
1.500000
 49
-1.500000
 49
1.500000
 49
-1.500000
  0
LTYPE
  2
DASHED1
 70
    64
  3
__ __ __ __ __ __ __ __ __ __ __ __ __ __ __
 72
    65
 73
     2
 40
1.500000
 49
1.000000
 49
-0.500000
  0
LTYPE
  2
DASHED2
 70
    64
  3
__ __ __ __ __ __ __ __ __ __ __ __ __ __ __
 72
    65
 73
     2
 40
3.500000
 49
2.500000
 49
-1.000000
  0
LTYPE
  2
DASHED3
 70
    64
  3
__ __ __ __ __ __ __ __ __ __ __ __ __ __ __
 72
    65
 73
     2
 40
6.000000
 49
4.000000
 49
-2.000000
  0
LTYPE
  2
DASHED4
 70
    64
  3
__ __ __ __ __ __ __ __ __ __ __ __ __ __ __
 72
    65
 73
     2
 40
12.000000
 49
10.000000
 49
-2.000000
  0
LTYPE
  2
DASHED5
 70
    64
  3
__ __ __ __ __ __ __ __ __ __ __ __ __ __ __
 72
    65
 73
     2
 40
17.000000
 49
15.000000
 49
-2.000000
  0
LTYPE
  2
DASHED6
 70
    64
  3
__ __ __ __ __ __ __ __ __ __ __ __ __ __ __
 72
    65
 73
     2
 40
29.000000
 49
27.000000
 49
-2.000000
  0
LTYPE
  2
PHANTOM1
 70
    64
  3
_____ _ _ _____ _ _ _____ _ _ _____ _ _ ____  
 72
    65
 73
     6
 40
31.000000
 49
25.000000
 49
-1.500000
 49
1.000000
 49
-1.000000
 49
1.000000
 49
-1.500000
  0
LTYPE
  2
PHANTOM2
 70
    64
  3
_____ _ _ _____ _ _ _____ _ _ _____ _ _ ____  
 72
    65
 73
     6
 40
36.000000
 49
27.000000
 49
-1.500000
 49
2.500000
 49
-1.000000
 49
2.500000
 49
-1.500000
  0
LTYPE
  2
PHANTOM3
 70
    64
  3
_____ _ _ _____ _ _ _____ _ _ _____ _ _ ____  
 72
    65
 73
     6
 40
78.000000
 49
64.000000
 49
-2.000000
 49
4.000000
 49
-2.000000
 49
4.000000
 49
-2.000000
  0
LTYPE
  2
CENTER1
 70
    64
  3
____ _ ____ _ ____ _ ____ _ ____ _ ____ _ ____
 72
    65
 73
     4
 40
19.000000
 49
14.000000
 49
-1.000000
 49
3.000000
 49
-1.000000
  0
LTYPE
  2
CENTER2
 70
    64
  3
____ _ ____ _ ____ _ ____ _ ____ _ ____ _ ____
 72
    65
 73
     4
 40
28.500000
 49
25.000000
 49
-1.000000
 49
1.500000
 49
-1.000000
  0
LTYPE
  2
CENTER3
 70
    64
  3
____ _ ____ _ ____ _ ____ _ ____ _ ____ _ ____
 72
    65
 73
     4
 40
31.500000
 49
27.000000
 49
-1.000000
 49
2.500000
 49
-1.000000
  0
LTYPE
  2
CENTER4
 70
    64
  3
____ _ ____ _ ____ _ ____ _ ____ _ ____ _ ____
 72
    65
 73
     4
 40
50.000000
 49
45.000000
 49
-1.000000
 49
3.000000
 49
-1.000000
  0
LTYPE
  2
CENTER5
 70
    64
  3
____ _ ____ _ ____ _ ____ _ ____ _ ____ _ ____
 72
    65
 73
     4
 40
100.000000
 49
92.000000
 49
-2.000000
 49
4.000000
 49
-2.000000
  0
LTYPE
  2
SBK1
 70
    64
  3
______ _ _ _ ______ _ _ _ ______ _ _ _ _____  
 72
    65
 73
     8
 40
60.500000
 49
45.000000
 49
-2.000000
 49
2.500000
 49
-2.000000
 49
2.500000
 49
-2.000000
 49
2.500000
 49
-2.000000
  0
LTYPE
  2
SBK2
 70
    64
  3
______ _ _ _ ______ _ _ _ ______ _ _ _ _____  
 72
    65
 73
     8
 40
84.000000
 49
64.000000
 49
-2.000000
 49
4.000000
 49
-2.000000
 49
4.000000
 49
-2.000000
 49
4.000000
 49
-2.000000
  0
LTYPE
  2
STCH
 70
    64
  3
__ __ __ __ __ __ __ __ __ __ __ __ __ __ __
 72
    65
 73
     2
 40
3.000000
 49
1.000000
 49
-2.000000
  0
LTYPE
  2
MTCH
 70
    64
  3
_____ _ _ _____ _ _ _____ _ _ _____ _ _ ____  
 72
    65
 73
     6
 40
80.000000
 49
66.000000
 49
-2.000000
 49
4.000000
 49
-2.000000
 49
4.000000
 49
-2.000000
  0
ENDTAB
  0
TABLE
  2
LAYER
 70
     1
  0
LAYER
  2
0
 70
     0
 62
     7
  6
CONTINUOUS
  0
ENDTAB
  0
TABLE
  2
STYLE
 70
     1
  0
STYLE
  2
STANDARD
 70
     0
 40
0.000000
 41
1.000000
 50
0.000000
 71
     0
 42
0.200000
  3
txt
  4
BIGFONT
  0
ENDTAB
  0
TABLE
  2
VIEW
 70
     0
  0
ENDTAB
  0
ENDSEC
  0
SECTION
  2
BLOCKS
  0
ENDSEC
  0
SECTION
  2
ENTITIES
  0
LINE
  8
0
 10
-420.500000
 20
297.000000
 11
420.500000
 21
297.000000
  0
LINE
  8
0
 10
-420.500000
 20
-297.000000
 11
420.500000
 21
-297.000000
  0
LINE
  8
0
 10
420.500000
 20
297.000000
 11
420.500000
 21
-297.000000
  0
LINE
  8
0
 10
-420.500000
 20
297.000000
 11
-420.500000
 21
-297.000000
  0
LINE
  8
0
 10
399.799988
 20
276.250000
 11
399.799988
 21
-276.750000
  0
LINE
  8
0
 10
-399.250000
 20
276.250000
 11
-399.250000
 21
-276.750000
  0
LINE
  8
0
 10
-399.250000
 20
276.250000
 11
399.799988
 21
276.250000
  0
LINE
  8
0
 10
-399.250000
 20
-276.750000
 11
399.799988
 21
-276.750000
  0
LINE
  8
0
 10
-399.250000
 20
261.250000
 11
-299.250000
 21
261.250000
  0
LINE
  8
0
 10
-299.250000
 20
276.250000
 11
-299.250000
 21
261.250000
  0
LINE
  8
0
 10
299.799988
 20
-256.750000
 11
399.799988
 21
-256.750000
  0
LINE
  8
0
 10
299.799988
 20
-256.750000
 11
299.799988
 21
-276.750000
  0
LINE
  8
0
 10
-399.250000
 20
-261.750000
 11
85.274994
 21
-261.750000
  0
LINE
  8
0
 10
-399.250000
 20
-100.250000
 11
-249.725006
 21
-100.250000
  0
LINE
  8
0
 10
-399.250000
 20
-85.250000
 11
-249.725006
 21
-85.250000
  0
LINE
  8
0
 10
299.799988
 20
261.250000
 11
399.799988
 21
261.250000
  0
LINE
  8
0
 10
299.799988
 20
276.250000
 11
299.799988
 21
261.250000
  0
LINE
  8
0
 10
85.274994
 20
-85.250000
 11
399.799988
 21
-85.250000
  0
LINE
  8
0
 10
85.274994
 20
-100.250000
 11
399.799988
 21
-100.250000
  0
LINE
  8
0
 10
85.274994
 20
-276.750000
 11
85.274994
 21
26.250000
  0
LINE
  8
0
 10
-199.725006
 20
76.250000
 11
35.275024
 21
76.250000
  0
LINE
  8
0
 10
-249.725006
 20
-100.250000
 11
-249.725006
 21
26.250006
  0
LINE
  8
0
 10
-199.725021
 20
76.250000
 11
-249.725021
 21
26.250002
  0
LINE
  8
0
 10
85.274994
 20
26.250002
 11
35.275024
 21
76.250000
  0
LINE
  8
0
 10
35.275024
 20
76.250000
 11
35.275024
 21
276.250000
  0
TEXT
  8
0
 10
-394.856873
 20
264.350006
 40
6.000000
  1
ROTARY ACTUATER
 50
0.000000
 41
1.052631
 51
0.000000
  7
STANDARD
  0
TEXT
  8
0
 10
303.465027
 20
-271.149994
 40
6.000000
  1
ＫＯＧＡＮＥＩ，ＣＯＲＰ．
 50
0.000000
 41
0.902367
 51
15.000000
  7
STANDARD
  0
TEXT
  8
0
 10
157.293121
 20
-97.025002
 40
6.000000
  1
SWING ANGLE : 270 DEGREE
 50
0.000000
 41
1.052631
 51
0.000000
  7
STANDARD
  0
TEXT
  8
0
 10
-399.231873
 20
-97.025002
 40
6.000000
  1
SWING ANGLE : 90 DEGREE
 50
0.000000
 41
1.052632
 51
0.000000
  7
STANDARD
  0
TEXT
  8
0
 10
-272.094391
 20
-273.649994
 40
6.000000
  1
SWING ANGLE : 180 DEGREE
 50
0.000000
 41
1.052631
 51
0.000000
  7
STANDARD
  0
TEXT
  8
0
 10
181.498459
 20
-187.711563
 40
6.000000
  1
MODEL : RAK300-US
 50
0.000000
 41
1.052632
 51
0.000000
  7
STANDARD
  0
TEXT
  8
0
 10
304.193115
 20
264.350006
 40
6.000000
  1
DATE: MAY ,1992
 50
0.000000
 41
1.052632
 51
0.000000
  7
STANDARD
  0
POINT
  8
0
 10
-305.000000
 20
160.000000
  0
POINT
  8
0
 10
-335.000000
 20
160.000000
  0
LINE
  8
0
 10
-314.299988
 20
132.569397
 11
-314.299988
 21
126.806496
  0
LINE
  8
0
 10
-308.299988
 20
128.185333
 11
-308.299988
 21
126.806496
  0
LINE
  8
0
 10
-314.500000
 20
116.624161
 11
-307.099976
 21
116.624161
  0
LINE
  8
0
 10
-315.299988
 20
114.644257
 11
-306.299988
 21
114.644257
  0
LINE
  8
0
 10
-315.299988
 20
109.194519
 11
-306.299988
 21
109.194519
  0
LINE
  8
0
 10
-314.500000
 20
108.345978
 11
-307.099976
 21
108.345978
  0
LINE
  8
0
 10
-314.500000
 20
121.008224
 11
-307.099976
 21
121.008224
  0
LINE
  8
0
 10
-306.599976
 20
120.508224
 11
-306.599976
 21
115.709961
  0
LINE
  8
0
 10
-305.799988
 20
119.094009
 11
-305.799988
 21
109.694519
  0
LINE
  8
0
 10
-315.000000
 20
120.508224
 11
-315.000000
 21
115.709961
  0
LINE
  8
0
 10
-315.799988
 20
119.094009
 11
-315.799988
 21
109.694519
  0
LINE
  8
0
 10
-314.500000
 20
115.209961
 11
-307.099976
 21
115.209961
  0
LINE
  8
0
 10
-316.299988
 20
119.594009
 11
-315.000000
 21
119.594009
  0
LINE
  8
0
 10
-315.000000
 20
109.194519
 11
-315.000000
 21
108.845978
  0
LINE
  8
0
 10
-306.599976
 20
109.194519
 11
-306.599976
 21
108.845978
  0
LINE
  8
0
 10
-306.599976
 20
119.594009
 11
-305.299988
 21
119.594009
  0
LINE
  8
0
 10
-322.299988
 20
119.311165
 11
-316.299988
 21
119.311165
  0
LINE
  8
0
 10
-305.299988
 20
119.594009
 11
-305.299988
 21
113.654312
  0
LINE
  8
0
 10
-316.299988
 20
119.594009
 11
-316.299988
 21
113.654312
  0
LINE
  8
0
 10
-307.299988
 20
126.806503
 11
-307.299988
 21
121.008224
  0
LINE
  8
0
 10
-314.299988
 20
126.806496
 11
-314.299988
 21
121.008224
  0
LINE
  8
0
 10
-305.299988
 20
119.311165
 11
-300.299988
 21
119.311165
  0
LINE
  8
0
 10
-309.299927
 20
123.978073
 11
-309.299927
 21
126.806496
  0
LINE
  8
0
 10
-312.299988
 20
123.978065
 11
-312.299988
 21
126.806496
  0
LINE
  8
0
 10
-314.299988
 20
126.806496
 11
-312.299988
 21
126.806496
  0
LINE
  8
0
 10
-309.299988
 20
126.806496
 11
-307.299988
 21
126.806496
  0
LINE
  8
0
 10
-300.299988
 20
124.755890
 11
-300.299988
 21
113.654312
  0
LINE
  8
0
 10
-332.300018
 20
125.887283
 11
-332.300018
 21
115.527374
  0
LINE
  8
0
 10
-322.299988
 20
113.654312
 11
-316.299988
 21
113.654312
  0
LINE
  8
0
 10
-316.299988
 20
113.937149
 11
-315.799988
 21
113.937149
  0
LINE
  8
0
 10
-305.799988
 20
113.937149
 11
-305.299988
 21
113.937149
  0
LINE
  8
0
 10
-305.299988
 20
113.654312
 11
-300.299988
 21
113.654312
  0
LINE
  8
0
 10
-322.299988
 20
124.755890
 11
-314.299988
 21
124.755890
  0
LINE
  8
0
 10
-312.299988
 20
125.180153
 11
-309.299988
 21
125.180153
  0
LINE
  8
0
 10
-312.299988
 20
126.240807
 11
-309.299988
 21
126.240807
  0
LINE
  8
0
 10
-312.299988
 20
124.755890
 11
-309.299988
 21
124.755890
  0
LINE
  8
0
 10
-307.299988
 20
124.755890
 11
-300.299988
 21
124.755890
  0
LINE
  8
0
 10
-307.299988
 20
125.180153
 11
-303.299988
 21
125.180153
  0
LINE
  8
0
 10
-307.299988
 20
126.240807
 11
-303.299988
 21
126.240807
  0
LINE
  8
0
 10
-315.299957
 20
125.887291
 11
-314.299957
 21
125.180191
  0
LINE
  8
0
 10
-315.299957
 20
126.947937
 11
-314.299988
 21
126.240845
  0
LINE
  8
0
 10
-333.799988
 20
126.947937
 11
-315.299988
 21
126.947937
  0
LINE
  8
0
 10
-332.300018
 20
125.887283
 11
-315.299988
 21
125.887283
  0
LINE
  8
0
 10
-315.299988
 20
126.947937
 11
-315.299988
 21
125.887283
  0
LINE
  8
0
 10
-297.799988
 20
121.104065
 11
-297.799988
 21
116.104065
  0
LINE
  8
0
 10
-300.299988
 20
121.104057
 11
-297.799988
 21
121.104057
  0
LINE
  8
0
 10
-297.799988
 20
120.604057
 11
-282.722076
 21
120.604057
  0
LINE
  8
0
 10
-297.799988
 20
116.604057
 11
-282.722076
 21
116.604057
  0
LINE
  8
0
 10
-300.299988
 20
116.104057
 11
-297.799988
 21
116.104057
  0
LINE
  8
0
 10
-345.800018
 20
123.669937
 11
-344.300018
 21
123.669937
  0
LINE
  8
0
 10
-347.300018
 20
122.598450
 11
-344.300018
 21
122.598450
  0
LINE
  8
0
 10
-347.300018
 20
115.527374
 11
-344.300018
 21
115.527374
  0
LINE
  8
0
 10
-347.300018
 20
125.675140
 11
-347.300018
 21
115.527374
  0
LINE
  8
0
 10
-345.800018
 20
124.527855
 11
-345.800018
 21
123.669937
  0
LINE
  8
0
 10
-344.300018
 20
126.735802
 11
-344.300018
 21
122.598450
  0
LINE
  8
0
 10
-340.300018
 20
126.735802
 11
-340.300018
 21
122.598450
  0
LINE
  8
0
 10
-340.300018
 20
123.669937
 11
-333.800018
 21
123.669937
  0
LINE
  8
0
 10
-344.300018
 20
123.830757
 11
-340.300018
 21
123.830757
  0
LINE
  8
0
 10
-344.300018
 20
114.638367
 11
-340.300018
 21
114.638367
  0
LINE
  8
0
 10
-340.300018
 20
115.527374
 11
-332.300018
 21
115.527374
  0
LINE
  8
0
 10
-340.300018
 20
122.598450
 11
-332.300018
 21
122.598450
  0
LINE
  8
0
 10
-344.300018
 20
115.527374
 11
-344.300018
 21
114.638367
  0
LINE
  8
0
 10
-340.300018
 20
115.527374
 11
-340.300018
 21
114.638367
  0
LINE
  8
0
 10
-344.300018
 20
126.735802
 11
-340.300018
 21
126.735802
  0
LINE
  8
0
 10
-347.300018
 20
125.675140
 11
-344.300018
 21
125.675140
  0
LINE
  8
0
 10
-347.300018
 20
124.527855
 11
-344.300018
 21
124.527855
  0
LINE
  8
0
 10
-340.300018
 20
125.675140
 11
-340.000031
 21
125.675140
  0
LINE
  8
0
 10
-340.300018
 20
124.527855
 11
-340.000031
 21
124.527855
  0
LINE
  8
0
 10
-316.500000
 20
179.445435
 11
-318.815857
 21
178.500000
  0
LINE
  8
0
 10
-314.184143
 20
178.500000
 11
-316.499969
 21
179.445419
  0
LINE
  8
0
 10
-316.500000
 20
179.445435
 11
-316.500000
 21
178.500000
  0
LINE
  8
0
 10
-314.299988
 20
132.569397
 11
-307.099976
 21
132.569397
  0
LINE
  8
0
 10
-314.299988
 20
129.033859
 11
-307.099976
 21
129.033859
  0
LINE
  8
0
 10
-314.299988
 20
128.185333
 11
-308.299988
 21
128.185333
  0
LINE
  8
0
 10
-333.799988
 20
115.527374
 11
-333.799988
 21
103.500000
  0
LINE
  8
0
 10
-340.000000
 20
115.527374
 11
-340.000000
 21
103.500000
  0
LINE
  8
0
 10
-333.799988
 20
216.500000
 11
-333.799988
 21
123.669937
  0
LINE
  8
0
 10
-340.000000
 20
216.500000
 11
-340.000000
 21
123.669937
  0
LINE
  8
0
 10
-308.299988
 20
178.500000
 11
-308.299988
 21
132.569397
  0
LINE
  8
0
 10
-307.099976
 20
178.500000
 11
-307.099976
 21
126.240807
  0
LINE
  8
0
 10
-324.500000
 20
178.500000
 11
-307.099976
 21
178.500000
  0
LINE
  8
0
 10
-324.500000
 20
178.500000
 11
-324.500000
 21
141.500000
  0
LINE
  8
0
 10
-324.500000
 20
141.500000
 11
-308.299988
 21
141.500000
  0
LINE
  8
0
 10
-340.000000
 20
103.500000
 11
-333.799988
 21
103.500000
  0
LINE
  8
0
 10
-306.299988
 20
174.000000
 11
-306.299988
 21
146.000000
  0
LINE
  8
0
 10
-307.099976
 20
146.000000
 11
-306.299988
 21
146.000000
  0
LINE
  8
0
 10
-307.099976
 20
174.000000
 11
-306.299988
 21
174.000000
  0
LINE
  8
0
 10
-340.000000
 20
216.500000
 11
-333.799988
 21
216.500000
  0
LINE
  8
0
 10
-322.299988
 20
124.755890
 11
-322.299988
 21
113.654312
  0
LINE
  8
0
 10
-332.300018
 20
118.816208
 11
-322.299988
 21
118.816208
  0
LINE
  8
0
 10
-282.722076
 20
120.604057
 11
-282.722076
 21
116.604057
  0
LINE
  8
0
 10
-282.722076
 20
118.304062
 11
-279.722076
 21
118.304062
  0
LINE
  8
0
 10
-282.722076
 20
118.904053
 11
-279.722076
 21
118.904053
  0
LINE
  8
0
 10
-282.722076
 20
117.304062
 11
-279.722076
 21
117.304062
  0
LINE
  8
0
 10
-282.722076
 20
119.904053
 11
-279.722076
 21
119.904053
  0
LINE
  8
0
 10
-279.722076
 20
119.904053
 11
-279.722076
 21
118.904053
  0
LINE
  8
0
 10
-279.722076
 20
118.304062
 11
-279.722076
 21
117.304062
  0
LINE
  8
0
 10
-279.722076
 20
119.779053
 11
-278.222076
 21
119.779053
  0
LINE
  8
0
 10
-279.722076
 20
119.654053
 11
-278.222076
 21
119.654053
  0
LINE
  8
0
 10
-279.722076
 20
119.529053
 11
-278.222076
 21
119.529053
  0
LINE
  8
0
 10
-279.722076
 20
119.404053
 11
-278.222076
 21
119.404053
  0
LINE
  8
0
 10
-279.722076
 20
119.279053
 11
-278.222076
 21
119.279053
  0
LINE
  8
0
 10
-279.722076
 20
119.154053
 11
-278.222076
 21
119.154053
  0
LINE
  8
0
 10
-279.722076
 20
119.029053
 11
-278.222076
 21
119.029053
  0
LINE
  8
0
 10
-279.722076
 20
118.179062
 11
-278.222076
 21
118.179062
  0
LINE
  8
0
 10
-279.722076
 20
118.054062
 11
-278.222076
 21
118.054062
  0
LINE
  8
0
 10
-279.722076
 20
117.929062
 11
-278.222076
 21
117.929062
  0
LINE
  8
0
 10
-279.722076
 20
117.804062
 11
-278.222076
 21
117.804062
  0
LINE
  8
0
 10
-279.722076
 20
117.679062
 11
-278.222076
 21
117.679062
  0
LINE
  8
0
 10
-279.722076
 20
117.554062
 11
-278.222076
 21
117.554062
  0
LINE
  8
0
 10
-279.722076
 20
117.429062
 11
-278.222076
 21
117.429062
  0
LINE
  8
0
 10
-325.732971
 20
160.000000
 11
-331.766907
 21
160.000000
  0
LINE
  8
0
 10
-325.299988
 20
153.000000
 11
-325.299988
 21
167.000000
  0
LINE
  8
0
 10
-332.199951
 20
150.300003
 11
-332.199951
 21
169.700012
  0
LINE
  8
0
 10
-325.299927
 20
153.000000
 11
-330.799927
 21
153.000000
  0
LINE
  8
0
 10
-325.299927
 20
167.000000
 11
-330.799927
 21
167.000000
  0
LINE
  8
0
 10
-331.500000
 20
182.199997
 11
-331.500000
 21
167.187576
  0
LINE
  8
0
 10
-305.000000
 20
171.649994
 11
-305.000000
 21
148.350006
  0
LINE
  8
0
 10
-352.500000
 20
215.000000
 11
-352.500000
 21
105.000000
  0
LINE
  8
0
 10
-348.000000
 20
205.000000
 11
-348.000000
 21
203.640991
  0
LINE
  8
0
 10
-348.822662
 20
116.359001
 11
-347.300018
 21
116.359001
  0
LINE
  8
0
 10
-333.799988
 20
137.500000
 11
-331.799988
 21
137.500000
  0
LINE
  8
0
 10
-331.500000
 20
147.500000
 11
-328.049988
 21
147.500000
  0
LINE
  8
0
 10
-348.000000
 20
151.000000
 11
-340.000000
 21
151.000000
  0
LINE
  8
0
 10
-348.000000
 20
169.000000
 11
-340.000000
 21
169.000000
  0
LINE
  8
0
 10
-331.500000
 20
172.500000
 11
-328.049988
 21
172.500000
  0
LINE
  8
0
 10
-333.799988
 20
182.500000
 11
-331.799988
 21
182.500000
  0
LINE
  8
0
 10
-348.822571
 20
203.640991
 11
-340.000000
 21
203.640991
  0
LINE
  8
0
 10
-331.800018
 20
137.500015
 11
-331.500000
 21
137.800018
  0
LINE
  8
0
 10
-331.499939
 20
182.200027
 11
-331.799957
 21
182.500031
  0
LINE
  8
0
 10
-352.500122
 20
105.000046
 11
-348.000122
 21
115.000046
  0
LINE
  8
0
 10
-352.500122
 20
214.999954
 11
-348.000122
 21
204.999954
  0
LINE
  8
0
 10
-328.000000
 20
172.449997
 11
-328.000000
 21
167.000000
  0
LINE
  8
0
 10
-328.000000
 20
147.550003
 11
-324.500000
 21
147.550003
  0
LINE
  8
0
 10
-328.000000
 20
172.449997
 11
-324.500000
 21
172.449997
  0
LINE
  8
0
 10
-305.799957
 20
147.549957
 11
-304.999969
 21
148.349960
  0
LINE
  8
0
 10
-305.799988
 20
172.450012
 11
-304.999969
 21
171.650024
  0
LINE
  8
0
 10
-305.799988
 20
172.449997
 11
-305.799988
 21
147.550003
  0
LINE
  8
0
 10
-328.049988
 20
172.500000
 11
-328.000000
 21
172.449997
  0
LINE
  8
0
 10
-328.049988
 20
147.500015
 11
-328.000000
 21
147.550018
  0
LINE
  8
0
 10
-325.299988
 20
161.027496
 11
-324.500000
 21
161.027496
  0
LINE
  8
0
 10
-325.299988
 20
158.972504
 11
-324.500000
 21
158.972504
  0
LINE
  8
0
 10
-327.000000
 20
147.592484
 11
-324.500000
 21
147.592484
  0
LINE
  8
0
 10
-327.000000
 20
172.407532
 11
-327.000000
 21
167.000000
  0
LINE
  8
0
 10
-327.000000
 20
172.407532
 11
-324.500000
 21
172.407532
  0
LINE
  8
0
 10
-327.000000
 20
172.407501
 11
-324.500000
 21
171.065521
  0
LINE
  8
0
 10
-305.800018
 20
172.407532
 11
-306.299988
 21
172.139160
  0
LINE
  8
0
 10
-305.800018
 20
147.592499
 11
-306.299988
 21
147.860901
  0
LINE
  8
0
 10
-327.000000
 20
147.592484
 11
-324.500000
 21
148.934464
  0
LINE
  8
0
 10
-305.799988
 20
158.972488
 11
-305.000000
 21
159.326859
  0
LINE
  8
0
 10
-304.999939
 20
160.673203
 11
-305.799957
 21
161.027588
  0
LINE
  8
0
 10
-305.799988
 20
147.592484
 11
-305.000000
 21
148.369461
  0
LINE
  8
0
 10
-305.800110
 20
172.407440
 11
-305.000092
 21
171.630463
  0
LINE
  8
0
 10
-348.000000
 20
194.411758
 11
-348.000000
 21
169.000000
  0
LINE
  8
0
 10
-348.000000
 20
151.000000
 11
-348.000000
 21
125.588242
  0
LINE
  8
0
 10
-348.000000
 20
116.359001
 11
-348.000000
 21
115.000000
  0
LINE
  8
0
 10
-331.500000
 20
152.812439
 11
-331.500000
 21
137.800003
  0
LINE
  8
0
 10
-328.000000
 20
153.000000
 11
-328.000000
 21
147.550003
  0
LINE
  8
0
 10
-327.000000
 20
153.000000
 11
-327.000000
 21
147.592484
  0
LINE
  8
0
 10
-306.299988
 20
172.407532
 11
-305.799988
 21
172.407532
  0
LINE
  8
0
 10
-306.299988
 20
172.449997
 11
-305.799988
 21
172.449997
  0
LINE
  8
0
 10
-306.299988
 20
161.295868
 11
-305.800018
 21
161.027496
  0
LINE
  8
0
 10
-324.500000
 20
162.369507
 11
-325.299988
 21
161.940063
  0
LINE
  8
0
 10
-306.299988
 20
161.027496
 11
-305.799988
 21
161.027496
  0
LINE
  8
0
 10
-306.299988
 20
158.972504
 11
-305.799988
 21
158.972504
  0
LINE
  8
0
 10
-306.299988
 20
158.704102
 11
-305.799988
 21
158.972504
  0
LINE
  8
0
 10
-324.500000
 20
157.630539
 11
-325.299988
 21
158.059967
  0
LINE
  8
0
 10
-306.299988
 20
147.592484
 11
-305.799988
 21
147.592484
  0
LINE
  8
0
 10
-306.299988
 20
147.550003
 11
-305.799988
 21
147.550003
  0
LINE
  8
0
 10
-303.299988
 20
126.240807
 11
-303.299988
 21
124.755890
  0
ARC
  8
0
 10
-314.500000
 20
120.508224
 40
0.500000
 50
90.000000
 51
180.000000
  0
ARC
  8
0
 10
-307.099976
 20
120.508224
 40
0.500000
 50
0.000000
 51
90.000000
  0
ARC
  8
0
 10
-306.299988
 20
119.094009
 40
0.500000
 50
0.000000
 51
90.000000
  0
ARC
  8
0
 10
-315.299988
 20
119.094009
 40
0.500000
 50
90.000000
 51
180.000000
  0
ARC
  8
0
 10
-315.299988
 20
109.694519
 40
0.500000
 50
180.000000
 51
270.000000
  0
ARC
  8
0
 10
-306.299988
 20
109.694519
 40
0.500000
 50
270.000000
 51
0.000000
  0
ARC
  8
0
 10
-307.099976
 20
108.845978
 40
0.500000
 50
270.000000
 51
0.000000
  0
ARC
  8
0
 10
-314.500000
 20
108.845978
 40
0.500000
 50
180.000000
 51
270.000000
  0
ARC
  8
0
 10
-307.099976
 20
115.709961
 40
0.500000
 50
270.000000
 51
0.000000
  0
ARC
  8
0
 10
-314.500000
 20
115.709961
 40
0.500000
 50
180.000000
 51
270.000000
  0
ARC
  8
0
 10
-333.000000
 20
150.300003
 40
0.799988
 50
180.000000
 51
0.000000
  0
ARC
  8
0
 10
-333.000000
 20
169.700012
 40
0.799988
 50
0.000000
 51
180.000000
  0
ARC
  8
0
 10
-339.661560
 20
156.500000
 40
14.361597
 50
345.894714
 51
14.105341
  0
ARC
  8
0
 10
-339.661560
 20
163.500000
 40
14.361597
 50
345.894714
 51
14.105341
  0
ARC
  8
0
 10
-330.799988
 20
168.400009
 40
1.399994
 50
180.000000
 51
270.000000
  0
ARC
  8
0
 10
-330.799988
 20
151.600006
 40
1.400009
 50
90.000000
 51
180.000000
  0
ARC
  8
0
 10
-317.838379
 20
163.500000
 40
14.361639
 50
164.597061
 51
194.105255
  0
ARC
  8
0
 10
-317.838379
 20
156.500000
 40
14.361630
 50
165.894684
 51
195.402878
  0
ARC
  8
0
 10
-348.822571
 20
202.641586
 40
1.000000
 50
90.000000
 51
174.261398
  0
ARC
  8
0
 10
-348.822662
 20
117.359375
 40
0.999991
 50
185.641602
 51
270.000000
  0
ARC
  8
0
 10
-311.544281
 20
123.978065
 40
0.755707
 50
179.999420
 51
194.106384
  0
ARC
  8
0
 10
-311.346741
 20
124.050491
 40
0.965187
 50
195.418213
 51
231.388290
  0
ARC
  8
0
 10
-310.799988
 20
124.849297
 40
1.931895
 50
233.502090
 51
306.497894
  0
ARC
  8
0
 10
-310.253235
 20
124.050491
 40
0.965204
 50
308.611725
 51
344.581787
  0
ARC
  8
0
 10
-310.055695
 20
123.978065
 40
0.755698
 50
345.893616
 51
359.999420
  0
ARC
  8
0
 10
-343.119720
 20
119.062920
 40
2.130294
 50
176.237457
 51
191.772614
  0
ARC
  8
0
 10
-342.902161
 20
119.129387
 40
2.356926
 50
192.275360
 51
225.304779
  0
ARC
  8
0
 10
-342.300018
 20
119.862480
 40
3.302728
 50
226.824173
 51
313.174347
  0
ARC
  8
0
 10
-341.697876
 20
119.129372
 40
2.356923
 50
314.693390
 51
347.723206
  0
ARC
  8
0
 10
-341.480316
 20
119.062904
 40
2.130303
 50
348.225800
 51
356.237457
  0
ARC
  8
0
 10
-318.581299
 20
116.482742
 40
0.425080
 50
345.893921
 51
14.107077
  0
ARC
  8
0
 10
-318.692413
 20
116.442009
 40
0.542915
 50
15.418174
 51
51.388477
  0
ARC
  8
0
 10
-318.999969
 20
115.992676
 40
1.086699
 50
53.502033
 51
126.498207
  0
ARC
  8
0
 10
-319.307526
 20
116.442001
 40
0.542927
 50
128.611526
 51
164.581833
  0
ARC
  8
0
 10
-319.418640
 20
116.482742
 40
0.425080
 50
165.893921
 51
194.107071
  0
ARC
  8
0
 10
-319.307526
 20
116.523476
 40
0.542915
 50
195.418167
 51
231.388474
  0
ARC
  8
0
 10
-318.999969
 20
116.972809
 40
1.086699
 50
233.502029
 51
306.498199
  0
ARC
  8
0
 10
-318.692413
 20
116.523483
 40
0.542927
 50
308.611511
 51
344.581818
  0
ARC
  8
0
 10
-340.836243
 20
119.062904
 40
1.486226
 50
354.669006
 51
14.106153
  0
ARC
  8
0
 10
-341.224762
 20
118.920471
 40
1.898237
 50
15.417706
 51
51.388241
  0
ARC
  8
0
 10
-342.300018
 20
117.349533
 40
3.799335
 50
53.501961
 51
126.497833
  0
ARC
  8
0
 10
-343.375275
 20
118.920486
 40
1.898234
 50
128.611618
 51
164.582077
  0
ARC
  8
0
 10
-343.763794
 20
119.062920
 40
1.486224
 50
165.893570
 51
185.354065
  0
ARC
  8
0
 10
-342.300049
 20
122.464424
 40
4.532882
 50
245.098267
 51
294.888550
  0
ARC
  8
0
 10
-318.255676
 20
116.482742
 40
0.755698
 50
345.893616
 51
14.106391
  0
ARC
  8
0
 10
-318.453217
 20
116.410316
 40
0.965187
 50
15.418217
 51
51.388287
  0
ARC
  8
0
 10
-318.999969
 20
115.611519
 40
1.931889
 50
53.501961
 51
126.498039
  0
ARC
  8
0
 10
-319.546722
 20
116.410316
 40
0.965204
 50
128.611710
 51
164.581787
  0
ARC
  8
0
 10
-319.744263
 20
116.482742
 40
0.755698
 50
165.893616
 51
194.106384
  0
ARC
  8
0
 10
-319.546722
 20
116.555168
 40
0.965187
 50
195.418213
 51
231.388290
  0
ARC
  8
0
 10
-318.999969
 20
117.353966
 40
1.931889
 50
233.501953
 51
306.498047
  0
ARC
  8
0
 10
-318.453217
 20
116.555168
 40
0.965204
 50
308.611725
 51
344.581787
  0
ARC
  8
0
 10
-311.619659
 20
111.815826
 40
2.130295
 50
176.236832
 51
191.773209
  0
ARC
  8
0
 10
-311.402100
 20
111.882294
 40
2.356930
 50
192.275894
 51
225.305573
  0
ARC
  8
0
 10
-310.799957
 20
112.615395
 40
3.302724
 50
226.824829
 51
313.174988
  0
ARC
  8
0
 10
-310.197815
 20
111.882294
 40
2.356934
 50
314.694183
 51
347.723724
  0
ARC
  8
0
 10
-309.980255
 20
111.815826
 40
2.130298
 50
348.226379
 51
356.237244
  0
ARC
  8
0
 10
-309.336182
 20
111.815834
 40
1.486227
 50
354.668701
 51
14.106438
  0
ARC
  8
0
 10
-309.724701
 20
111.673401
 40
1.898239
 50
15.417928
 51
51.388382
  0
ARC
  8
0
 10
-310.799957
 20
110.102455
 40
3.799348
 50
53.502098
 51
126.497902
  0
ARC
  8
0
 10
-311.875214
 20
111.673401
 40
1.898234
 50
128.611618
 51
164.582291
  0
ARC
  8
0
 10
-312.263733
 20
111.815834
 40
1.486222
 50
165.893845
 51
185.354065
  0
ARC
  8
0
 10
-310.799988
 20
115.217346
 40
4.532874
 50
245.097794
 51
294.888184
  0
ARC
  8
0
 10
-315.507935
 20
178.031219
 40
3.577648
 50
7.538996
 51
11.306050
  0
ARC
  8
0
 10
-315.771271
 20
177.953979
 40
3.851112
 50
11.664816
 51
43.965679
  0
ARC
  8
0
 10
-316.500000
 20
177.102219
 40
4.968077
 50
45.201584
 51
134.799530
  0
ARC
  8
0
 10
-317.228729
 20
177.953964
 40
3.851100
 50
136.035599
 51
168.336075
  0
ARC
  8
0
 10
-317.492065
 20
178.031189
 40
3.577659
 50
168.694672
 51
172.474335
  0
ARC
  8
0
 10
-315.588745
 20
177.910492
 40
1.608682
 50
21.435778
 51
51.389080
  0
ARC
  8
0
 10
-316.500000
 20
176.579163
 40
3.219795
 50
53.502369
 51
126.497627
  0
ARC
  8
0
 10
-317.411255
 20
177.910492
 40
1.608653
 50
128.610916
 51
158.533554
  0
ARC
  8
0
 10
-314.232483
 20
178.031204
 40
2.302213
 50
11.743009
 51
14.106610
  0
ARC
  8
0
 10
-314.834351
 20
177.810562
 40
2.940478
 50
15.418020
 51
51.388481
  0
ARC
  8
0
 10
-316.500000
 20
175.377014
 40
5.885464
 50
53.502392
 51
126.497696
  0
ARC
  8
0
 10
-318.165649
 20
177.810562
 40
2.940458
 50
128.611710
 51
164.582260
  0
ARC
  8
0
 10
-318.767517
 20
178.031204
 40
2.302210
 50
165.893753
 51
168.232483
  0
POLYLINE
  8
0
 66
     1
  0
VERTEX
  8
0
 10
-349.817474
 20
202.742355
  0
VERTEX
  8
0
 10
-349.831940
 20
202.490585
  0
VERTEX
  8
0
 10
-349.789215
 20
202.044891
  0
VERTEX
  8
0
 10
-349.704163
 20
201.295914
  0
VERTEX
  8
0
 10
-349.609436
 20
200.560074
  0
VERTEX
  8
0
 10
-349.504364
 20
199.889130
  0
VERTEX
  8
0
 10
-349.351990
 20
199.121017
  0
VERTEX
  8
0
 10
-349.156952
 20
198.292267
  0
VERTEX
  8
0
 10
-348.976471
 20
197.587463
  0
VERTEX
  8
0
 10
-348.784821
 20
196.886642
  0
VERTEX
  8
0
 10
-348.589508
 20
196.216354
  0
VERTEX
  8
0
 10
-348.305176
 20
195.310745
  0
VERTEX
  8
0
 10
-348.000000
 20
194.411758
  0
SEQEND
  0
POLYLINE
  8
0
 66
     1
  0
VERTEX
  8
0
 10
-348.000000
 20
125.588242
  0
VERTEX
  8
0
 10
-348.300598
 20
124.704430
  0
VERTEX
  8
0
 10
-348.589508
 20
123.783646
  0
VERTEX
  8
0
 10
-348.794830
 20
123.076714
  0
VERTEX
  8
0
 10
-348.988403
 20
122.366219
  0
VERTEX
  8
0
 10
-349.156952
 20
121.707733
  0
VERTEX
  8
0
 10
-349.338348
 20
120.943512
  0
VERTEX
  8
0
 10
-349.504364
 20
120.110870
  0
VERTEX
  8
0
 10
-349.622467
 20
119.344925
  0
VERTEX
  8
0
 10
-349.719818
 20
118.572823
  0
VERTEX
  8
0
 10
-349.789215
 20
117.955109
  0
VERTEX
  8
0
 10
-349.821899
 20
117.608337
  0
VERTEX
  8
0
 10
-349.817841
 20
117.261375
  0
SEQEND
  0
POLYLINE
  8
0
 66
     1
  0
VERTEX
  8
0
 10
-348.000000
 20
169.000000
  0
VERTEX
  8
0
 10
-348.117096
 20
168.164841
  0
VERTEX
  8
0
 10
-348.330322
 20
167.392990
  0
VERTEX
  8
0
 10
-348.577087
 20
166.835052
  0
VERTEX
  8
0
 10
-348.872559
 20
166.195343
  0
VERTEX
  8
0
 10
-349.102753
 20
165.557068
  0
VERTEX
  8
0
 10
-349.274872
 20
164.898163
  0
VERTEX
  8
0
 10
-349.414795
 20
164.199265
  0
VERTEX
  8
0
 10
-349.545380
 20
163.412674
  0
VERTEX
  8
0
 10
-349.651581
 20
162.624512
  0
VERTEX
  8
0
 10
-349.726654
 20
161.883820
  0
VERTEX
  8
0
 10
-349.782532
 20
160.943130
  0
VERTEX
  8
0
 10
-349.800018
 20
160.000000
  0
VERTEX
  8
0
 10
-349.784821
 20
159.084946
  0
VERTEX
  8
0
 10
-349.726654
 20
158.116180
  0
VERTEX
  8
0
 10
-349.647064
 20
157.332397
  0
VERTEX
  8
0
 10
-349.540436
 20
156.551086
  0
VERTEX
  8
0
 10
-349.414795
 20
155.800735
  0
VERTEX
  8
0
 10
-349.267609
 20
155.095749
  0
VERTEX
  8
0
 10
-349.082855
 20
154.401352
  0
VERTEX
  8
0
 10
-348.872559
 20
153.804657
  0
VERTEX
  8
0
 10
-348.602539
 20
153.227356
  0
VERTEX
  8
0
 10
-348.330322
 20
152.607010
  0
VERTEX
  8
0
 10
-348.109955
 20
151.816116
  0
VERTEX
  8
0
 10
-348.000000
 20
151.000000
  0
SEQEND
  0
POINT
  8
0
 10
-305.000000
 20
10.000000
  0
POINT
  8
0
 10
-335.000000
 20
10.000000
  0
LINE
  8
0
 10
-314.299988
 20
37.430611
 11
-314.299988
 21
43.052063
  0
LINE
  8
0
 10
-308.299988
 20
41.814671
 11
-308.299988
 21
43.193504
  0
LINE
  8
0
 10
-314.500000
 20
53.375835
 11
-307.099976
 21
53.375835
  0
LINE
  8
0
 10
-315.299988
 20
55.355740
 11
-306.299988
 21
55.355740
  0
LINE
  8
0
 10
-315.299988
 20
60.805485
 11
-306.299988
 21
60.805485
  0
LINE
  8
0
 10
-314.500000
 20
61.654018
 11
-307.099976
 21
61.654018
  0
LINE
  8
0
 10
-314.500000
 20
48.991779
 11
-307.099976
 21
48.991779
  0
LINE
  8
0
 10
-306.599976
 20
49.491779
 11
-306.599976
 21
54.290043
  0
LINE
  8
0
 10
-305.799988
 20
50.905987
 11
-305.799988
 21
60.305485
  0
LINE
  8
0
 10
-315.000000
 20
49.491779
 11
-315.000000
 21
54.290043
  0
LINE
  8
0
 10
-315.799988
 20
50.905991
 11
-315.799988
 21
60.305485
  0
LINE
  8
0
 10
-314.500000
 20
54.790043
 11
-307.099976
 21
54.790043
  0
LINE
  8
0
 10
-316.299988
 20
50.405991
 11
-315.000000
 21
50.405991
  0
LINE
  8
0
 10
-315.000000
 20
60.805485
 11
-315.000000
 21
61.154018
  0
LINE
  8
0
 10
-306.599976
 20
60.805485
 11
-306.599976
 21
61.154018
  0
LINE
  8
0
 10
-306.599976
 20
50.405991
 11
-305.299988
 21
50.405991
  0
LINE
  8
0
 10
-322.299988
 20
50.688835
 11
-316.299988
 21
50.688835
  0
LINE
  8
0
 10
-305.299988
 20
50.405991
 11
-305.299988
 21
56.345688
  0
LINE
  8
0
 10
-316.299988
 20
50.405991
 11
-316.299988
 21
56.345692
  0
LINE
  8
0
 10
-307.299988
 20
43.193501
 11
-307.299988
 21
48.991779
  0
LINE
  8
0
 10
-314.299988
 20
43.193504
 11
-314.299988
 21
48.991779
  0
LINE
  8
0
 10
-305.299988
 20
50.688835
 11
-300.299988
 21
50.688835
  0
LINE
  8
0
 10
-309.299927
 20
46.021927
 11
-309.299927
 21
43.193504
  0
LINE
  8
0
 10
-312.299988
 20
46.021935
 11
-312.299988
 21
43.193504
  0
LINE
  8
0
 10
-314.299988
 20
43.193504
 11
-312.299988
 21
43.193504
  0
LINE
  8
0
 10
-309.299988
 20
43.193504
 11
-307.299988
 21
43.193504
  0
LINE
  8
0
 10
-300.299988
 20
45.244110
 11
-300.299988
 21
56.345688
  0
LINE
  8
0
 10
-332.300018
 20
44.112717
 11
-332.300018
 21
54.472630
  0
LINE
  8
0
 10
-322.299988
 20
56.345692
 11
-316.299988
 21
56.345692
  0
LINE
  8
0
 10
-316.299988
 20
56.062847
 11
-315.799988
 21
56.062847
  0
LINE
  8
0
 10
-305.799988
 20
56.062847
 11
-305.299988
 21
56.062847
  0
LINE
  8
0
 10
-305.299988
 20
56.345692
 11
-300.299988
 21
56.345692
  0
LINE
  8
0
 10
-322.299988
 20
45.244110
 11
-314.299988
 21
45.244110
  0
LINE
  8
0
 10
-312.299988
 20
45.244110
 11
-309.299988
 21
45.244110
  0
LINE
  8
0
 10
-307.299988
 20
45.244110
 11
-300.299988
 21
45.244110
  0
LINE
  8
0
 10
-307.299988
 20
44.819847
 11
-303.299988
 21
44.819847
  0
LINE
  8
0
 10
-307.299988
 20
43.759193
 11
-303.299988
 21
43.759193
  0
LINE
  8
0
 10
-315.299957
 20
44.112709
 11
-314.299988
 21
44.819809
  0
LINE
  8
0
 10
-315.299988
 20
43.052063
 11
-314.299988
 21
43.759163
  0
LINE
  8
0
 10
-333.799988
 20
43.052063
 11
-315.299988
 21
43.052063
  0
LINE
  8
0
 10
-332.300018
 20
44.112717
 11
-315.299957
 21
44.112717
  0
LINE
  8
0
 10
-315.299988
 20
43.052063
 11
-315.299988
 21
44.112717
  0
LINE
  8
0
 10
-297.799988
 20
48.895939
 11
-297.799988
 21
53.895939
  0
LINE
  8
0
 10
-300.299988
 20
48.895943
 11
-297.799988
 21
48.895943
  0
LINE
  8
0
 10
-297.799988
 20
49.395943
 11
-282.722076
 21
49.395943
  0
LINE
  8
0
 10
-297.799988
 20
53.395943
 11
-282.722076
 21
53.395943
  0
LINE
  8
0
 10
-300.299988
 20
53.895943
 11
-297.799988
 21
53.895943
  0
LINE
  8
0
 10
-345.800018
 20
46.330059
 11
-344.300018
 21
46.330059
  0
LINE
  8
0
 10
-347.300018
 20
47.401554
 11
-344.300018
 21
47.401554
  0
LINE
  8
0
 10
-347.300018
 20
54.472630
 11
-344.300018
 21
54.472630
  0
LINE
  8
0
 10
-347.300018
 20
44.324860
 11
-347.300018
 21
54.472630
  0
LINE
  8
0
 10
-345.800018
 20
45.472145
 11
-345.800018
 21
46.330059
  0
LINE
  8
0
 10
-344.300018
 20
43.264198
 11
-344.300018
 21
47.401554
  0
LINE
  8
0
 10
-340.300018
 20
43.264198
 11
-340.300018
 21
47.401554
  0
LINE
  8
0
 10
-340.300018
 20
46.330059
 11
-333.800018
 21
46.330059
  0
LINE
  8
0
 10
-344.300018
 20
46.169243
 11
-340.300018
 21
46.169243
  0
LINE
  8
0
 10
-344.300018
 20
55.361633
 11
-340.300018
 21
55.361633
  0
LINE
  8
0
 10
-340.300018
 20
54.472630
 11
-332.300018
 21
54.472630
  0
LINE
  8
0
 10
-340.300018
 20
47.401554
 11
-332.300018
 21
47.401554
  0
LINE
  8
0
 10
-344.300018
 20
54.472630
 11
-344.300018
 21
55.361633
  0
LINE
  8
0
 10
-340.300018
 20
54.472630
 11
-340.300018
 21
55.361633
  0
LINE
  8
0
 10
-344.300018
 20
43.264198
 11
-340.300018
 21
43.264198
  0
LINE
  8
0
 10
-347.300018
 20
44.324856
 11
-344.300018
 21
44.324856
  0
LINE
  8
0
 10
-347.300018
 20
45.472145
 11
-344.300018
 21
45.472145
  0
LINE
  8
0
 10
-340.300018
 20
44.324856
 11
-340.000031
 21
44.324856
  0
LINE
  8
0
 10
-340.300018
 20
45.472145
 11
-340.000031
 21
45.472145
  0
LINE
  8
0
 10
-316.500000
 20
-9.445435
 11
-318.815826
 21
-8.500000
  0
LINE
  8
0
 10
-314.184143
 20
-8.499998
 11
-316.500000
 21
-9.445429
  0
LINE
  8
0
 10
-316.500000
 20
-9.445435
 11
-316.500000
 21
-8.500000
  0
LINE
  8
0
 10
-314.299988
 20
37.430611
 11
-307.099976
 21
37.430611
  0
LINE
  8
0
 10
-314.299988
 20
40.966145
 11
-307.099976
 21
40.966145
  0
LINE
  8
0
 10
-314.299988
 20
41.814671
 11
-308.299988
 21
41.814671
  0
LINE
  8
0
 10
-333.799988
 20
54.472630
 11
-333.799988
 21
66.500000
  0
LINE
  8
0
 10
-340.000000
 20
54.472630
 11
-340.000000
 21
66.500000
  0
LINE
  8
0
 10
-333.799988
 20
-46.500000
 11
-333.799988
 21
-34.472630
  0
LINE
  8
0
 10
-340.000000
 20
-46.500000
 11
-340.000000
 21
-34.472630
  0
LINE
  8
0
 10
-308.299988
 20
-8.500000
 11
-308.299988
 21
37.430611
  0
LINE
  8
0
 10
-307.099976
 20
-8.500000
 11
-307.099976
 21
43.759193
  0
LINE
  8
0
 10
-324.500000
 20
-8.500000
 11
-307.099976
 21
-8.500000
  0
LINE
  8
0
 10
-324.500000
 20
28.500000
 11
-308.299988
 21
28.500000
  0
LINE
  8
0
 10
-340.000000
 20
66.500000
 11
-333.799988
 21
66.500000
  0
LINE
  8
0
 10
-306.299988
 20
-4.000000
 11
-306.299988
 21
24.000000
  0
LINE
  8
0
 10
-307.099976
 20
24.000000
 11
-306.299988
 21
24.000000
  0
LINE
  8
0
 10
-307.099976
 20
-4.000000
 11
-306.299988
 21
-4.000000
  0
LINE
  8
0
 10
-324.500000
 20
-8.500000
 11
-324.500000
 21
28.500000
  0
LINE
  8
0
 10
-340.000000
 20
-46.500000
 11
-333.799988
 21
-46.500000
  0
LINE
  8
0
 10
-322.299988
 20
45.244110
 11
-322.299988
 21
56.345692
  0
LINE
  8
0
 10
-332.300018
 20
51.183796
 11
-322.299988
 21
51.183796
  0
LINE
  8
0
 10
-314.500000
 20
-33.375835
 11
-307.099976
 21
-33.375835
  0
LINE
  8
0
 10
-315.299988
 20
-35.355740
 11
-306.299988
 21
-35.355740
  0
LINE
  8
0
 10
-315.299988
 20
-40.805485
 11
-306.299988
 21
-40.805485
  0
LINE
  8
0
 10
-314.500000
 20
-41.654018
 11
-307.099976
 21
-41.654018
  0
LINE
  8
0
 10
-314.500000
 20
-28.991779
 11
-307.099976
 21
-28.991779
  0
LINE
  8
0
 10
-306.599976
 20
-29.491779
 11
-306.599976
 21
-34.290043
  0
LINE
  8
0
 10
-305.799988
 20
-30.905987
 11
-305.799988
 21
-40.305485
  0
LINE
  8
0
 10
-315.000000
 20
-29.491779
 11
-315.000000
 21
-34.290043
  0
LINE
  8
0
 10
-315.799988
 20
-30.905991
 11
-315.799988
 21
-40.305485
  0
LINE
  8
0
 10
-314.500000
 20
-34.790043
 11
-307.099976
 21
-34.790043
  0
LINE
  8
0
 10
-316.299988
 20
-30.405991
 11
-315.000000
 21
-30.405991
  0
LINE
  8
0
 10
-315.000000
 20
-40.805485
 11
-315.000000
 21
-41.154018
  0
LINE
  8
0
 10
-306.599976
 20
-40.805485
 11
-306.599976
 21
-41.154018
  0
LINE
  8
0
 10
-306.599976
 20
-30.405991
 11
-305.299988
 21
-30.405991
  0
LINE
  8
0
 10
-322.299988
 20
-30.688835
 11
-316.299988
 21
-30.688835
  0
LINE
  8
0
 10
-305.299988
 20
-30.405991
 11
-305.299988
 21
-36.345688
  0
LINE
  8
0
 10
-316.299988
 20
-30.405991
 11
-316.299988
 21
-36.345692
  0
LINE
  8
0
 10
-307.299988
 20
-23.193501
 11
-307.299988
 21
-28.991779
  0
LINE
  8
0
 10
-314.299988
 20
-23.193504
 11
-314.299988
 21
-28.991779
  0
LINE
  8
0
 10
-305.299988
 20
-30.688835
 11
-300.299988
 21
-30.688835
  0
LINE
  8
0
 10
-309.299927
 20
-26.021927
 11
-309.299927
 21
-23.193504
  0
LINE
  8
0
 10
-312.299988
 20
-26.021935
 11
-312.299988
 21
-23.193504
  0
LINE
  8
0
 10
-314.299988
 20
-23.193504
 11
-312.299988
 21
-23.193504
  0
LINE
  8
0
 10
-309.299988
 20
-23.193504
 11
-307.299988
 21
-23.193504
  0
LINE
  8
0
 10
-300.299988
 20
-25.244110
 11
-300.299988
 21
-36.345688
  0
LINE
  8
0
 10
-332.300018
 20
-24.112717
 11
-332.300018
 21
-34.472630
  0
LINE
  8
0
 10
-322.299988
 20
-36.345692
 11
-316.299988
 21
-36.345692
  0
LINE
  8
0
 10
-316.299988
 20
-36.062847
 11
-315.799988
 21
-36.062847
  0
LINE
  8
0
 10
-305.799988
 20
-36.062847
 11
-305.299988
 21
-36.062847
  0
LINE
  8
0
 10
-305.299988
 20
-36.345692
 11
-300.299988
 21
-36.345692
  0
LINE
  8
0
 10
-322.299988
 20
-25.244110
 11
-314.299988
 21
-25.244110
  0
LINE
  8
0
 10
-312.299988
 20
-24.819847
 11
-309.299988
 21
-24.819847
  0
LINE
  8
0
 10
-312.299988
 20
-23.759193
 11
-309.299988
 21
-23.759193
  0
LINE
  8
0
 10
-312.299988
 20
-25.244110
 11
-309.299988
 21
-25.244110
  0
LINE
  8
0
 10
-307.299988
 20
-25.244110
 11
-300.299988
 21
-25.244110
  0
LINE
  8
0
 10
-307.299988
 20
-24.819847
 11
-303.299988
 21
-24.819847
  0
LINE
  8
0
 10
-307.299988
 20
-23.759193
 11
-303.299988
 21
-23.759193
  0
LINE
  8
0
 10
-315.299957
 20
-24.112709
 11
-314.299957
 21
-24.819809
  0
LINE
  8
0
 10
-315.299957
 20
-23.052067
 11
-314.299988
 21
-23.759167
  0
LINE
  8
0
 10
-333.799988
 20
-23.052063
 11
-315.299988
 21
-23.052063
  0
LINE
  8
0
 10
-332.300018
 20
-24.112717
 11
-315.299988
 21
-24.112717
  0
LINE
  8
0
 10
-315.299988
 20
-23.052063
 11
-315.299988
 21
-24.112717
  0
LINE
  8
0
 10
-297.799988
 20
-28.895939
 11
-297.799988
 21
-33.895939
  0
LINE
  8
0
 10
-300.299988
 20
-28.895943
 11
-297.799988
 21
-28.895943
  0
LINE
  8
0
 10
-297.799988
 20
-29.395943
 11
-282.722076
 21
-29.395943
  0
LINE
  8
0
 10
-297.799988
 20
-33.395943
 11
-282.722076
 21
-33.395943
  0
LINE
  8
0
 10
-300.299988
 20
-33.895943
 11
-297.799988
 21
-33.895943
  0
LINE
  8
0
 10
-345.800018
 20
-26.330059
 11
-344.300018
 21
-26.330059
  0
LINE
  8
0
 10
-347.300018
 20
-27.401554
 11
-344.300018
 21
-27.401554
  0
LINE
  8
0
 10
-347.300018
 20
-34.472630
 11
-344.300018
 21
-34.472630
  0
LINE
  8
0
 10
-347.300018
 20
-24.324860
 11
-347.300018
 21
-34.472630
  0
LINE
  8
0
 10
-345.800018
 20
-25.472145
 11
-345.800018
 21
-26.330059
  0
LINE
  8
0
 10
-344.300018
 20
-23.264198
 11
-344.300018
 21
-27.401554
  0
LINE
  8
0
 10
-340.300018
 20
-23.264198
 11
-340.300018
 21
-27.401554
  0
LINE
  8
0
 10
-340.300018
 20
-26.330059
 11
-333.800018
 21
-26.330059
  0
LINE
  8
0
 10
-344.300018
 20
-26.169243
 11
-340.300018
 21
-26.169243
  0
LINE
  8
0
 10
-344.300018
 20
-35.361633
 11
-340.300018
 21
-35.361633
  0
LINE
  8
0
 10
-340.300018
 20
-34.472630
 11
-332.300018
 21
-34.472630
  0
LINE
  8
0
 10
-340.300018
 20
-27.401554
 11
-332.300018
 21
-27.401554
  0
LINE
  8
0
 10
-344.300018
 20
-34.472630
 11
-344.300018
 21
-35.361633
  0
LINE
  8
0
 10
-340.300018
 20
-34.472630
 11
-340.300018
 21
-35.361633
  0
LINE
  8
0
 10
-344.300018
 20
-23.264198
 11
-340.300018
 21
-23.264198
  0
LINE
  8
0
 10
-347.300018
 20
-24.324856
 11
-344.300018
 21
-24.324856
  0
LINE
  8
0
 10
-347.300018
 20
-25.472145
 11
-344.300018
 21
-25.472145
  0
LINE
  8
0
 10
-340.300018
 20
-24.324856
 11
-340.000031
 21
-24.324856
  0
LINE
  8
0
 10
-340.300018
 20
-25.472145
 11
-340.000031
 21
-25.472145
  0
LINE
  8
0
 10
-322.299988
 20
-25.244110
 11
-322.299988
 21
-36.345692
  0
LINE
  8
0
 10
-332.300018
 20
-31.183796
 11
-322.299988
 21
-31.183796
  0
LINE
  8
0
 10
-333.799988
 20
-26.330059
 11
-333.799988
 21
46.330059
  0
LINE
  8
0
 10
-340.000000
 20
-26.330059
 11
-340.000000
 21
46.330059
  0
LINE
  8
0
 10
-282.722076
 20
53.395943
 11
-282.722076
 21
49.395943
  0
LINE
  8
0
 10
-282.722076
 20
51.095943
 11
-279.722076
 21
51.095943
  0
LINE
  8
0
 10
-282.722076
 20
51.695942
 11
-279.722076
 21
51.695942
  0
LINE
  8
0
 10
-282.722076
 20
50.095943
 11
-279.722076
 21
50.095943
  0
LINE
  8
0
 10
-282.722076
 20
52.695942
 11
-279.722076
 21
52.695942
  0
LINE
  8
0
 10
-279.722076
 20
52.695942
 11
-279.722076
 21
51.695942
  0
LINE
  8
0
 10
-279.722076
 20
51.095943
 11
-279.722076
 21
50.095943
  0
LINE
  8
0
 10
-279.722076
 20
52.570942
 11
-278.222076
 21
52.570942
  0
LINE
  8
0
 10
-279.722076
 20
52.445942
 11
-278.222076
 21
52.445942
  0
LINE
  8
0
 10
-279.722076
 20
52.320942
 11
-278.222076
 21
52.320942
  0
LINE
  8
0
 10
-279.722076
 20
52.195942
 11
-278.222076
 21
52.195942
  0
LINE
  8
0
 10
-279.722076
 20
52.070942
 11
-278.222076
 21
52.070942
  0
LINE
  8
0
 10
-279.722076
 20
51.945942
 11
-278.222076
 21
51.945942
  0
LINE
  8
0
 10
-279.722076
 20
51.820942
 11
-278.222076
 21
51.820942
  0
LINE
  8
0
 10
-279.722076
 20
50.970943
 11
-278.222076
 21
50.970943
  0
LINE
  8
0
 10
-279.722076
 20
50.845943
 11
-278.222076
 21
50.845943
  0
LINE
  8
0
 10
-279.722076
 20
50.720943
 11
-278.222076
 21
50.720943
  0
LINE
  8
0
 10
-279.722076
 20
50.595943
 11
-278.222076
 21
50.595943
  0
LINE
  8
0
 10
-279.722076
 20
50.470943
 11
-278.222076
 21
50.470943
  0
LINE
  8
0
 10
-279.722076
 20
50.345943
 11
-278.222076
 21
50.345943
  0
LINE
  8
0
 10
-279.722076
 20
50.220943
 11
-278.222076
 21
50.220943
  0
LINE
  8
0
 10
-282.722076
 20
-29.395943
 11
-282.722076
 21
-33.395943
  0
LINE
  8
0
 10
-282.722076
 20
-31.695942
 11
-279.722076
 21
-31.695942
  0
LINE
  8
0
 10
-282.722076
 20
-31.095943
 11
-279.722076
 21
-31.095943
  0
LINE
  8
0
 10
-282.722076
 20
-32.695942
 11
-279.722076
 21
-32.695942
  0
LINE
  8
0
 10
-282.722076
 20
-30.095943
 11
-279.722076
 21
-30.095943
  0
LINE
  8
0
 10
-279.722076
 20
-30.095943
 11
-279.722076
 21
-31.095943
  0
LINE
  8
0
 10
-279.722076
 20
-31.695942
 11
-279.722076
 21
-32.695942
  0
LINE
  8
0
 10
-279.722076
 20
-30.220943
 11
-278.222076
 21
-30.220943
  0
LINE
  8
0
 10
-279.722076
 20
-30.345943
 11
-278.222076
 21
-30.345943
  0
LINE
  8
0
 10
-279.722076
 20
-30.470943
 11
-278.222076
 21
-30.470943
  0
LINE
  8
0
 10
-279.722076
 20
-30.595943
 11
-278.222076
 21
-30.595943
  0
LINE
  8
0
 10
-279.722076
 20
-30.720943
 11
-278.222076
 21
-30.720943
  0
LINE
  8
0
 10
-279.722076
 20
-30.845943
 11
-278.222076
 21
-30.845943
  0
LINE
  8
0
 10
-279.722076
 20
-30.970943
 11
-278.222076
 21
-30.970943
  0
LINE
  8
0
 10
-279.722076
 20
-31.820942
 11
-278.222076
 21
-31.820942
  0
LINE
  8
0
 10
-279.722076
 20
-31.945942
 11
-278.222076
 21
-31.945942
  0
LINE
  8
0
 10
-279.722076
 20
-32.070942
 11
-278.222076
 21
-32.070942
  0
LINE
  8
0
 10
-279.722076
 20
-32.195942
 11
-278.222076
 21
-32.195942
  0
LINE
  8
0
 10
-279.722076
 20
-32.320942
 11
-278.222076
 21
-32.320942
  0
LINE
  8
0
 10
-279.722076
 20
-32.445942
 11
-278.222076
 21
-32.445942
  0
LINE
  8
0
 10
-279.722076
 20
-32.570942
 11
-278.222076
 21
-32.570942
  0
LINE
  8
0
 10
-325.299988
 20
-31.183796
 11
-325.299988
 21
-37.000000
  0
LINE
  8
0
 10
-332.199982
 20
-20.299999
 11
-332.199982
 21
-23.052063
  0
LINE
  8
0
 10
-325.925201
 20
-21.917095
 11
-330.799988
 21
-21.917095
  0
LINE
  8
0
 10
-325.925201
 20
-34.041447
 11
-331.574768
 21
-34.041447
  0
LINE
  8
0
 10
-325.925201
 20
-38.082901
 11
-330.799988
 21
-38.082901
  0
LINE
  8
0
 10
-325.299988
 20
-36.999989
 11
-325.925201
 21
-38.082893
  0
LINE
  8
0
 10
-325.925201
 20
-21.917101
 11
-325.269928
 21
-23.052063
  0
LINE
  8
0
 10
-325.299988
 20
57.000004
 11
-325.299988
 21
51.183796
  0
LINE
  8
0
 10
-332.199982
 20
59.700001
 11
-332.199982
 21
51.183796
  0
LINE
  8
0
 10
-325.925201
 20
58.082905
 11
-330.799988
 21
58.082905
  0
LINE
  8
0
 10
-325.925201
 20
54.041454
 11
-331.574768
 21
54.041454
  0
LINE
  8
0
 10
-325.925201
 20
41.917099
 11
-330.799988
 21
41.917099
  0
LINE
  8
0
 10
-325.269928
 20
43.052063
 11
-325.925201
 21
41.917103
  0
LINE
  8
0
 10
-325.925201
 20
58.082909
 11
-325.299988
 21
57.000004
  0
LINE
  8
0
 10
-332.199982
 20
-31.183796
 11
-332.199982
 21
-39.699997
  0
LINE
  8
0
 10
-332.199982
 20
43.052063
 11
-332.199982
 21
40.300003
  0
LINE
  8
0
 10
-331.500000
 20
32.199997
 11
-331.500000
 21
-12.199997
  0
LINE
  8
0
 10
-305.000000
 20
21.650002
 11
-305.000000
 21
-1.649993
  0
LINE
  8
0
 10
-352.500000
 20
65.000000
 11
-352.500000
 21
-45.000000
  0
LINE
  8
0
 10
-349.799988
 20
-39.000000
 11
-340.000000
 21
-39.000000
  0
LINE
  8
0
 10
-348.000000
 20
-19.000000
 11
-340.000000
 21
-19.000000
  0
LINE
  8
0
 10
-333.799988
 20
-12.500000
 11
-331.799988
 21
-12.500000
  0
LINE
  8
0
 10
-331.500000
 20
-2.500000
 11
-328.049988
 21
-2.500000
  0
LINE
  8
0
 10
-331.500000
 20
22.500000
 11
-328.049927
 21
22.500000
  0
LINE
  8
0
 10
-333.799988
 20
32.500000
 11
-331.799988
 21
32.500000
  0
LINE
  8
0
 10
-348.000000
 20
39.000000
 11
-340.000000
 21
39.000000
  0
LINE
  8
0
 10
-349.799988
 20
59.000000
 11
-340.000000
 21
59.000000
  0
LINE
  8
0
 10
-331.800018
 20
-12.499979
 11
-331.500000
 21
-12.199980
  0
LINE
  8
0
 10
-331.799988
 20
32.499966
 11
-331.499969
 21
32.199959
  0
LINE
  8
0
 10
-328.000000
 20
22.450001
 11
-328.000000
 21
-2.449995
  0
LINE
  8
0
 10
-328.000000
 20
-2.450000
 11
-324.500000
 21
-2.450000
  0
LINE
  8
0
 10
-328.000000
 20
22.450001
 11
-324.500000
 21
22.450001
  0
LINE
  8
0
 10
-305.799957
 20
-2.450041
 11
-304.999969
 21
-1.650033
  0
LINE
  8
0
 10
-305.799988
 20
22.450020
 11
-304.999969
 21
21.650021
  0
LINE
  8
0
 10
-305.799988
 20
22.449997
 11
-305.799988
 21
-2.450003
  0
LINE
  8
0
 10
-327.999969
 20
22.450027
 11
-328.049957
 21
22.500029
  0
LINE
  8
0
 10
-328.049988
 20
-2.499987
 11
-328.000000
 21
-2.449987
  0
LINE
  8
0
 10
-352.500092
 20
-44.999954
 11
-349.800110
 21
-38.999954
  0
LINE
  8
0
 10
-352.500092
 20
64.999954
 11
-349.800110
 21
58.999954
  0
LINE
  8
0
 10
-348.000000
 20
54.299999
 11
-348.000000
 21
39.000000
  0
LINE
  8
0
 10
-348.000000
 20
-19.000000
 11
-348.000000
 21
-34.299999
  0
LINE
  8
0
 10
-348.000000
 20
25.302853
 11
-348.000000
 21
-5.302854
  0
LINE
  8
0
 10
-306.299988
 20
11.027496
 11
-305.799988
 21
11.027496
  0
LINE
  8
0
 10
-306.299988
 20
22.407532
 11
-305.799988
 21
22.407532
  0
LINE
  8
0
 10
-327.000122
 20
11.027496
 11
-324.500000
 21
11.027496
  0
LINE
  8
0
 10
-327.000122
 20
8.972504
 11
-324.500000
 21
8.972504
  0
LINE
  8
0
 10
-327.000122
 20
-2.407516
 11
-324.500000
 21
-2.407516
  0
LINE
  8
0
 10
-326.991364
 20
22.407532
 11
-324.500000
 21
22.407532
  0
LINE
  8
0
 10
-327.000122
 20
22.407532
 11
-324.500000
 21
21.065477
  0
LINE
  8
0
 10
-305.799988
 20
22.407551
 11
-306.299988
 21
22.139149
  0
LINE
  8
0
 10
-305.799988
 20
-2.407495
 11
-306.299988
 21
-2.139106
  0
LINE
  8
0
 10
-327.000122
 20
-2.407594
 11
-324.500000
 21
-1.065542
  0
LINE
  8
0
 10
-305.800018
 20
8.972483
 11
-305.000000
 21
9.326859
  0
LINE
  8
0
 10
-304.999908
 20
10.673258
 11
-305.799896
 21
11.027630
  0
LINE
  8
0
 10
-305.799988
 20
-2.407523
 11
-305.000000
 21
-1.630537
  0
LINE
  8
0
 10
-305.800110
 20
22.407410
 11
-305.000122
 21
21.630423
  0
LINE
  8
0
 10
-303.299988
 20
43.759193
 11
-303.299988
 21
45.244110
  0
LINE
  8
0
 10
-303.299988
 20
-23.759193
 11
-303.299988
 21
-25.244110
  0
LINE
  8
0
 10
-327.000122
 20
22.450001
 11
-327.000122
 21
-2.407516
  0
LINE
  8
0
 10
-312.299988
 20
44.819847
 11
-309.299988
 21
44.819847
  0
LINE
  8
0
 10
-312.299988
 20
43.759193
 11
-309.299988
 21
43.759193
  0
LINE
  8
0
 10
-306.299988
 20
22.407532
 11
-305.799988
 21
22.407532
  0
LINE
  8
0
 10
-306.299988
 20
-2.450000
 11
-305.799988
 21
-2.450000
  0
LINE
  8
0
 10
-306.299988
 20
22.450001
 11
-305.799988
 21
22.450001
  0
LINE
  8
0
 10
-306.299988
 20
-2.407516
 11
-305.799988
 21
-2.407516
  0
LINE
  8
0
 10
-324.500000
 20
7.630532
 11
-327.000122
 21
8.972584
  0
LINE
  8
0
 10
-306.299988
 20
8.704096
 11
-305.799988
 21
8.972501
  0
LINE
  8
0
 10
-306.299988
 20
11.295826
 11
-305.800049
 21
11.027462
  0
LINE
  8
0
 10
-324.500000
 20
12.369498
 11
-327.000031
 21
11.027496
  0
LINE
  8
0
 10
-306.299988
 20
11.027496
 11
-305.799988
 21
11.027496
  0
LINE
  8
0
 10
-306.299988
 20
8.972504
 11
-305.799988
 21
8.972504
  0
ARC
  8
0
 10
-314.500000
 20
49.491779
 40
0.500000
 50
180.000000
 51
270.000000
  0
ARC
  8
0
 10
-307.099976
 20
49.491779
 40
0.500000
 50
270.000000
 51
0.000000
  0
ARC
  8
0
 10
-306.299988
 20
50.905987
 40
0.500000
 50
270.000000
 51
0.000000
  0
ARC
  8
0
 10
-315.299988
 20
50.905991
 40
0.500000
 50
180.000000
 51
270.000000
  0
ARC
  8
0
 10
-315.299988
 20
60.305485
 40
0.500000
 50
90.000000
 51
180.000000
  0
ARC
  8
0
 10
-306.299988
 20
60.305485
 40
0.500000
 50
0.000000
 51
90.000000
  0
ARC
  8
0
 10
-307.099976
 20
61.154018
 40
0.500000
 50
0.000000
 51
90.000000
  0
ARC
  8
0
 10
-314.500000
 20
61.154018
 40
0.500000
 50
90.000000
 51
180.000000
  0
ARC
  8
0
 10
-307.099976
 20
54.290043
 40
0.500000
 50
0.000000
 51
90.000000
  0
ARC
  8
0
 10
-314.500000
 20
54.290043
 40
0.500000
 50
90.000000
 51
180.000000
  0
ARC
  8
0
 10
-314.500000
 20
-29.491779
 40
0.500000
 50
90.000000
 51
180.000000
  0
ARC
  8
0
 10
-307.099976
 20
-29.491779
 40
0.500000
 50
0.000000
 51
90.000000
  0
ARC
  8
0
 10
-306.299988
 20
-30.905987
 40
0.500000
 50
0.000000
 51
90.000000
  0
ARC
  8
0
 10
-315.299988
 20
-30.905991
 40
0.500000
 50
90.000000
 51
180.000000
  0
ARC
  8
0
 10
-315.299988
 20
-40.305485
 40
0.500000
 50
180.000000
 51
270.000000
  0
ARC
  8
0
 10
-306.299988
 20
-40.305485
 40
0.500000
 50
270.000000
 51
0.000000
  0
ARC
  8
0
 10
-307.099976
 20
-41.154018
 40
0.500000
 50
270.000000
 51
0.000000
  0
ARC
  8
0
 10
-314.500000
 20
-41.154018
 40
0.500000
 50
180.000000
 51
270.000000
  0
ARC
  8
0
 10
-307.099976
 20
-34.290043
 40
0.500000
 50
270.000000
 51
0.000000
  0
ARC
  8
0
 10
-314.500000
 20
-34.290043
 40
0.500000
 50
180.000000
 51
270.000000
  0
ARC
  8
0
 10
-333.000000
 20
-20.300003
 40
0.800018
 50
0.000000
 51
180.000000
  0
ARC
  8
0
 10
-333.000000
 20
-39.700001
 40
0.799988
 50
180.000000
 51
0.000000
  0
ARC
  8
0
 10
-338.674774
 20
-30.000000
 40
13.374787
 50
342.412048
 51
354.922119
  0
ARC
  8
0
 10
-331.797699
 20
-36.827789
 40
6.499993
 50
358.481842
 51
25.383085
  0
ARC
  8
0
 10
-330.799988
 20
-20.517097
 40
1.399994
 50
180.000000
 51
270.000000
  0
ARC
  8
0
 10
-330.799988
 20
-39.482903
 40
1.400002
 50
90.000000
 51
180.000000
  0
ARC
  8
0
 10
-318.825195
 20
-29.999996
 40
13.374787
 50
185.077866
 51
197.587906
  0
ARC
  8
0
 10
-325.702271
 20
-36.827789
 40
6.499998
 50
154.616852
 51
181.518097
  0
ARC
  8
0
 10
-333.000000
 20
59.699997
 40
0.800018
 50
0.000000
 51
180.000000
  0
ARC
  8
0
 10
-333.000000
 20
40.299999
 40
0.799988
 50
180.000000
 51
0.000000
  0
ARC
  8
0
 10
-338.674774
 20
50.000000
 40
13.374787
 50
5.077866
 51
17.587961
  0
ARC
  8
0
 10
-331.797699
 20
56.827789
 40
6.499993
 50
334.616943
 51
1.518205
  0
ARC
  8
0
 10
-330.799988
 20
59.482903
 40
1.399994
 50
180.000000
 51
270.000000
  0
ARC
  8
0
 10
-330.799988
 20
40.517097
 40
1.400002
 50
90.000000
 51
180.000000
  0
ARC
  8
0
 10
-325.702271
 20
56.827789
 40
6.499993
 50
178.481766
 51
205.382996
  0
ARC
  8
0
 10
-318.825195
 20
50.000004
 40
13.374793
 50
162.411972
 51
174.922165
  0
ARC
  8
0
 10
-310.055695
 20
46.021935
 40
0.755707
 50
0.000289
 51
14.106671
  0
ARC
  8
0
 10
-310.253235
 20
45.949512
 40
0.965187
 50
15.418217
 51
51.388145
  0
ARC
  8
0
 10
-310.799988
 20
45.150707
 40
1.931892
 50
53.502026
 51
126.497971
  0
ARC
  8
0
 10
-311.346741
 20
45.949509
 40
0.965204
 50
128.611710
 51
164.581787
  0
ARC
  8
0
 10
-311.544281
 20
46.021935
 40
0.755698
 50
165.893616
 51
180.000290
  0
ARC
  8
0
 10
-341.480316
 20
50.937103
 40
2.130293
 50
3.762445
 51
11.774115
  0
ARC
  8
0
 10
-341.697876
 20
50.870632
 40
2.356939
 50
12.276806
 51
45.306618
  0
ARC
  8
0
 10
-342.300018
 20
50.137524
 40
3.302731
 50
46.825668
 51
133.175827
  0
ARC
  8
0
 10
-342.902161
 20
50.870617
 40
2.356934
 50
134.695221
 51
167.724640
  0
ARC
  8
0
 10
-343.119720
 20
50.937080
 40
2.130291
 50
168.227295
 51
183.762650
  0
ARC
  8
0
 10
-318.581299
 20
53.517258
 40
0.425081
 50
345.893433
 51
14.106079
  0
ARC
  8
0
 10
-318.692413
 20
53.476521
 40
0.542914
 50
15.417786
 51
51.388226
  0
ARC
  8
0
 10
-318.999969
 20
53.027199
 40
1.086687
 50
53.501553
 51
126.498085
  0
ARC
  8
0
 10
-319.307526
 20
53.476524
 40
0.542930
 50
128.611267
 51
164.581436
  0
ARC
  8
0
 10
-319.418640
 20
53.517265
 40
0.425081
 50
165.893417
 51
194.106079
  0
ARC
  8
0
 10
-319.307526
 20
53.558002
 40
0.542914
 50
195.417786
 51
231.388229
  0
ARC
  8
0
 10
-318.999969
 20
54.007324
 40
1.086687
 50
233.501556
 51
306.498077
  0
ARC
  8
0
 10
-318.692413
 20
53.557999
 40
0.542930
 50
308.611267
 51
344.581451
  0
ARC
  8
0
 10
-343.763794
 20
50.937080
 40
1.486221
 50
174.645645
 51
194.106583
  0
ARC
  8
0
 10
-343.375275
 20
51.079514
 40
1.898240
 50
195.418045
 51
231.388458
  0
ARC
  8
0
 10
-342.300018
 20
52.650467
 40
3.799357
 50
233.502197
 51
306.498016
  0
ARC
  8
0
 10
-341.224762
 20
51.079525
 40
1.898228
 50
308.611755
 51
344.582520
  0
ARC
  8
0
 10
-340.836243
 20
50.937096
 40
1.486221
 50
345.893982
 51
5.331007
  0
ARC
  8
0
 10
-342.300049
 20
47.535580
 40
4.532871
 50
65.111382
 51
114.901802
  0
ARC
  8
0
 10
-318.255676
 20
53.517262
 40
0.755698
 50
345.893616
 51
14.106391
  0
ARC
  8
0
 10
-318.453217
 20
53.444836
 40
0.965187
 50
15.418217
 51
51.388287
  0
ARC
  8
0
 10
-318.999969
 20
52.646038
 40
1.931889
 50
53.501961
 51
126.498039
  0
ARC
  8
0
 10
-319.546722
 20
53.444839
 40
0.965201
 50
128.611847
 51
164.582001
  0
ARC
  8
0
 10
-319.744263
 20
53.517262
 40
0.755698
 50
165.893616
 51
194.106384
  0
ARC
  8
0
 10
-319.546722
 20
53.589687
 40
0.965187
 50
195.418213
 51
231.388290
  0
ARC
  8
0
 10
-318.999969
 20
54.388485
 40
1.931889
 50
233.501953
 51
306.498047
  0
ARC
  8
0
 10
-318.453217
 20
53.589684
 40
0.965201
 50
308.611847
 51
344.582001
  0
ARC
  8
0
 10
-309.980255
 20
58.184170
 40
2.130295
 50
3.762957
 51
11.773512
  0
ARC
  8
0
 10
-310.197815
 20
58.117702
 40
2.356933
 50
12.276172
 51
45.305767
  0
ARC
  8
0
 10
-310.799957
 20
57.384602
 40
3.302732
 50
46.824963
 51
133.175125
  0
ARC
  8
0
 10
-311.402100
 20
58.117702
 40
2.356926
 50
134.694366
 51
167.724014
  0
ARC
  8
0
 10
-311.619659
 20
58.184170
 40
2.130296
 50
168.226685
 51
183.762955
  0
ARC
  8
0
 10
-312.263733
 20
58.184166
 40
1.486221
 50
174.645935
 51
194.106293
  0
ARC
  8
0
 10
-311.875214
 20
58.326599
 40
1.898238
 50
195.417816
 51
231.388382
  0
ARC
  8
0
 10
-310.799957
 20
59.897545
 40
3.799348
 50
233.502106
 51
306.497894
  0
ARC
  8
0
 10
-309.724701
 20
58.326599
 40
1.898234
 50
308.611603
 51
344.582184
  0
ARC
  8
0
 10
-309.336182
 20
58.184166
 40
1.486223
 50
345.893707
 51
5.331153
  0
ARC
  8
0
 10
-310.799988
 20
54.782658
 40
4.532876
 50
65.111832
 51
114.902168
  0
ARC
  8
0
 10
-317.492065
 20
-8.031199
 40
3.577660
 50
187.525497
 51
191.305222
  0
ARC
  8
0
 10
-317.228729
 20
-7.953972
 40
3.851099
 50
191.663864
 51
223.964432
  0
ARC
  8
0
 10
-316.500000
 20
-7.102225
 40
4.968070
 50
225.200500
 51
314.798492
  0
ARC
  8
0
 10
-315.771271
 20
-7.953985
 40
3.851094
 50
316.034393
 51
348.335114
  0
ARC
  8
0
 10
-315.507935
 20
-8.031217
 40
3.577671
 50
348.693756
 51
352.460815
  0
ARC
  8
0
 10
-317.411255
 20
-7.910501
 40
1.608686
 50
201.465897
 51
231.389130
  0
ARC
  8
0
 10
-316.500000
 20
-6.579167
 40
3.219799
 50
233.502426
 51
306.497559
  0
ARC
  8
0
 10
-315.588745
 20
-7.910501
 40
1.608655
 50
308.610870
 51
338.564240
  0
ARC
  8
0
 10
-318.767517
 20
-8.031201
 40
2.302199
 50
191.767487
 51
194.106293
  0
ARC
  8
0
 10
-318.165649
 20
-7.810559
 40
2.940475
 50
195.417786
 51
231.388382
  0
ARC
  8
0
 10
-316.500000
 20
-5.377024
 40
5.885447
 50
233.502274
 51
306.497620
  0
ARC
  8
0
 10
-314.834351
 20
-7.810568
 40
2.940472
 50
308.611481
 51
344.581909
  0
ARC
  8
0
 10
-314.232483
 20
-8.031215
 40
2.302214
 50
345.893402
 51
348.257324
  0
ARC
  8
0
 10
-318.581299
 20
-33.517258
 40
0.425080
 50
345.893921
 51
14.106578
  0
ARC
  8
0
 10
-318.692413
 20
-33.557999
 40
0.542916
 50
15.418562
 51
51.388729
  0
ARC
  8
0
 10
-318.999969
 20
-34.007324
 40
1.086696
 50
53.501911
 51
126.498444
  0
ARC
  8
0
 10
-319.307526
 20
-33.558002
 40
0.542924
 50
128.611771
 51
164.582214
  0
ARC
  8
0
 10
-319.418640
 20
-33.517265
 40
0.425080
 50
165.893921
 51
194.106583
  0
ARC
  8
0
 10
-319.307526
 20
-33.476524
 40
0.542916
 50
195.418564
 51
231.388733
  0
ARC
  8
0
 10
-318.999969
 20
-33.027199
 40
1.086696
 50
233.501907
 51
306.498444
  0
ARC
  8
0
 10
-318.692413
 20
-33.476521
 40
0.542924
 50
308.611786
 51
344.582214
  0
ARC
  8
0
 10
-340.836243
 20
-30.937096
 40
1.486226
 50
354.669067
 51
14.106009
  0
ARC
  8
0
 10
-341.224762
 20
-31.079527
 40
1.898235
 50
15.417540
 51
51.388241
  0
ARC
  8
0
 10
-342.300018
 20
-32.650467
 40
3.799337
 50
53.501980
 51
126.497818
  0
ARC
  8
0
 10
-343.375275
 20
-31.079515
 40
1.898237
 50
128.611542
 51
164.581909
  0
ARC
  8
0
 10
-343.763794
 20
-30.937080
 40
1.486225
 50
165.893417
 51
185.354355
  0
ARC
  8
0
 10
-342.300049
 20
-27.535580
 40
4.532880
 50
245.098251
 51
294.888550
  0
ARC
  8
0
 10
-318.255676
 20
-33.517262
 40
0.755698
 50
345.893616
 51
14.106391
  0
ARC
  8
0
 10
-318.453217
 20
-33.589684
 40
0.965186
 50
15.417998
 51
51.388145
  0
ARC
  8
0
 10
-318.999969
 20
-34.388485
 40
1.931889
 50
53.501961
 51
126.498039
  0
ARC
  8
0
 10
-319.546722
 20
-33.589687
 40
0.965204
 50
128.611710
 51
164.581787
  0
ARC
  8
0
 10
-319.744263
 20
-33.517262
 40
0.755698
 50
165.893616
 51
194.106384
  0
ARC
  8
0
 10
-319.546722
 20
-33.444839
 40
0.965186
 50
195.417999
 51
231.388153
  0
ARC
  8
0
 10
-318.999969
 20
-32.646038
 40
1.931889
 50
233.501953
 51
306.498047
  0
ARC
  8
0
 10
-318.453217
 20
-33.444836
 40
0.965204
 50
308.611725
 51
344.581787
  0
ARC
  8
0
 10
-311.619659
 20
-38.184170
 40
2.130295
 50
176.237045
 51
191.773315
  0
ARC
  8
0
 10
-311.402100
 20
-38.117702
 40
2.356931
 50
192.275986
 51
225.305634
  0
ARC
  8
0
 10
-310.799957
 20
-37.384602
 40
3.302727
 50
226.824875
 51
313.175049
  0
ARC
  8
0
 10
-310.197815
 20
-38.117702
 40
2.356931
 50
314.694244
 51
347.723816
  0
ARC
  8
0
 10
-309.980255
 20
-38.184170
 40
2.130297
 50
348.226501
 51
356.237030
  0
ARC
  8
0
 10
-309.336182
 20
-38.184166
 40
1.486226
 50
354.668854
 51
14.106295
  0
ARC
  8
0
 10
-309.724701
 20
-38.326599
 40
1.898238
 50
15.417817
 51
51.388382
  0
ARC
  8
0
 10
-310.799957
 20
-39.897545
 40
3.799348
 50
53.502098
 51
126.497902
  0
ARC
  8
0
 10
-311.875214
 20
-38.326599
 40
1.898234
 50
128.611618
 51
164.582184
  0
ARC
  8
0
 10
-312.263733
 20
-38.184166
 40
1.486223
 50
165.893707
 51
185.354065
  0
ARC
  8
0
 10
-343.119720
 20
-30.937080
 40
2.130294
 50
176.237350
 51
191.772705
  0
ARC
  8
0
 10
-342.902161
 20
-30.870617
 40
2.356926
 50
192.275360
 51
225.304779
  0
ARC
  8
0
 10
-342.300018
 20
-30.137524
 40
3.302728
 50
226.824173
 51
313.174347
  0
ARC
  8
0
 10
-341.697876
 20
-30.870632
 40
2.356923
 50
314.693390
 51
347.723206
  0
ARC
  8
0
 10
-341.480316
 20
-30.937103
 40
2.130302
 50
348.225891
 51
356.237549
  0
ARC
  8
0
 10
-310.799988
 20
-34.782658
 40
4.532877
 50
245.097809
 51
294.888184
  0
ARC
  8
0
 10
-311.544281
 20
-26.021933
 40
0.755707
 50
179.999863
 51
194.106384
  0
ARC
  8
0
 10
-311.346741
 20
-25.949509
 40
0.965186
 50
195.418106
 51
231.388214
  0
ARC
  8
0
 10
-310.799988
 20
-25.150707
 40
1.931890
 50
233.501999
 51
306.497925
  0
ARC
  8
0
 10
-310.253235
 20
-25.949511
 40
0.965204
 50
308.611725
 51
344.581787
  0
ARC
  8
0
 10
-310.055695
 20
-26.021936
 40
0.755698
 50
345.893616
 51
359.999847
  0
POLYLINE
  8
0
 66
     1
  0
VERTEX
  8
0
 10
-349.799988
 20
59.000000
  0
VERTEX
  8
0
 10
-349.698212
 20
58.720554
  0
VERTEX
  8
0
 10
-349.570496
 20
58.374657
  0
VERTEX
  8
0
 10
-349.357239
 20
57.806187
  0
VERTEX
  8
0
 10
-349.134003
 20
57.217632
  0
VERTEX
  8
0
 10
-348.889709
 20
56.573605
  0
VERTEX
  8
0
 10
-348.630005
 20
55.895317
  0
VERTEX
  8
0
 10
-348.317841
 20
55.096542
  0
VERTEX
  8
0
 10
-348.000000
 20
54.299999
  0
SEQEND
  0
POLYLINE
  8
0
 66
     1
  0
VERTEX
  8
0
 10
-349.799988
 20
-39.000000
  0
VERTEX
  8
0
 10
-349.698212
 20
-38.720554
  0
VERTEX
  8
0
 10
-349.570496
 20
-38.374657
  0
VERTEX
  8
0
 10
-349.357239
 20
-37.806187
  0
VERTEX
  8
0
 10
-349.134003
 20
-37.217632
  0
VERTEX
  8
0
 10
-348.889709
 20
-36.573605
  0
VERTEX
  8
0
 10
-348.630005
 20
-35.895317
  0
VERTEX
  8
0
 10
-348.317841
 20
-35.096542
  0
VERTEX
  8
0
 10
-348.000000
 20
-34.299999
  0
SEQEND
  0
POLYLINE
  8
0
 66
     1
  0
VERTEX
  8
0
 10
-348.000000
 20
-5.302854
  0
VERTEX
  8
0
 10
-348.251709
 20
-5.971635
  0
VERTEX
  8
0
 10
-348.486664
 20
-6.646605
  0
VERTEX
  8
0
 10
-348.724487
 20
-7.382919
  0
VERTEX
  8
0
 10
-348.984039
 20
-8.249454
  0
VERTEX
  8
0
 10
-349.214142
 20
-9.123968
  0
VERTEX
  8
0
 10
-349.408508
 20
-10.027548
  0
VERTEX
  8
0
 10
-349.562408
 20
-10.997130
  0
VERTEX
  8
0
 10
-349.669342
 20
-11.973124
  0
VERTEX
  8
0
 10
-349.737000
 20
-12.920111
  0
VERTEX
  8
0
 10
-349.772186
 20
-13.816030
  0
VERTEX
  8
0
 10
-349.781281
 20
-14.715286
  0
VERTEX
  8
0
 10
-349.764008
 20
-15.564739
  0
VERTEX
  8
0
 10
-349.715332
 20
-16.286821
  0
VERTEX
  8
0
 10
-349.594727
 20
-16.991222
  0
VERTEX
  8
0
 10
-349.359009
 20
-17.630854
  0
VERTEX
  8
0
 10
-348.774963
 20
-18.401867
  0
VERTEX
  8
0
 10
-348.000000
 20
-19.000000
  0
SEQEND
  0
POLYLINE
  8
0
 66
     1
  0
VERTEX
  8
0
 10
-348.000000
 20
39.000000
  0
VERTEX
  8
0
 10
-348.769928
 20
38.411560
  0
VERTEX
  8
0
 10
-349.359009
 20
37.630852
  0
VERTEX
  8
0
 10
-349.599915
 20
37.000088
  0
VERTEX
  8
0
 10
-349.716766
 20
36.321789
  0
VERTEX
  8
0
 10
-349.764008
 20
35.564739
  0
VERTEX
  8
0
 10
-349.783356
 20
34.684383
  0
VERTEX
  8
0
 10
-349.774017
 20
33.815292
  0
VERTEX
  8
0
 10
-349.737000
 20
32.920113
  0
VERTEX
  8
0
 10
-349.667053
 20
31.946964
  0
VERTEX
  8
0
 10
-349.559387
 20
30.974241
  0
VERTEX
  8
0
 10
-349.408508
 20
30.027548
  0
VERTEX
  8
0
 10
-349.210754
 20
29.118336
  0
VERTEX
  8
0
 10
-348.973572
 20
28.218571
  0
VERTEX
  8
0
 10
-348.724487
 20
27.382919
  0
VERTEX
  8
0
 10
-348.498383
 20
26.684029
  0
VERTEX
  8
0
 10
-348.257568
 20
25.990347
  0
VERTEX
  8
0
 10
-348.000000
 20
25.302853
  0
SEQEND
  0
POINT
  8
0
 10
-175.000000
 20
160.000000
  0
POINT
  8
0
 10
-104.250000
 20
160.000000
  0
LINE
  8
0
 10
-205.794495
 20
120.083832
 11
-214.916168
 21
129.205505
  0
LINE
  8
0
 10
-202.258942
 20
123.619370
 11
-203.107483
 21
124.467903
  0
LINE
  8
0
 10
-202.258987
 20
123.619370
 11
-205.794525
 21
120.083839
  0
LINE
  8
0
 10
-211.380646
 20
132.741043
 11
-214.916183
 21
129.205505
  0
LINE
  8
0
 10
-203.814621
 20
123.760788
 11
-205.935928
 21
121.639473
  0
LINE
  8
0
 10
-211.239227
 20
131.185410
 11
-213.360535
 21
129.064087
  0
LINE
  8
0
 10
-201.162964
 20
131.008636
 11
-205.405609
 21
126.765999
  0
LINE
  8
0
 10
-203.991394
 20
133.837051
 11
-208.234024
 21
129.594421
  0
LINE
  8
0
 10
-201.162949
 20
131.008621
 11
-203.991379
 21
133.837051
  0
LINE
  8
0
 10
-204.557068
 20
127.614517
 11
-207.385498
 21
130.442932
  0
LINE
  8
0
 10
-210.532104
 20
131.892517
 11
-211.380630
 21
132.741043
  0
LINE
  8
0
 10
-206.112686
 20
127.473106
 11
-207.526901
 21
128.887314
  0
LINE
  8
0
 10
-158.383011
 20
169.545914
 11
-165.454086
 21
176.616974
  0
LINE
  8
0
 10
-156.028244
 20
172.848022
 11
-162.151978
 21
178.971756
  0
LINE
  8
0
 10
-155.828033
 20
172.100922
 11
-158.382996
 21
169.545975
  0
LINE
  8
0
 10
-162.899094
 20
179.171982
 11
-165.454056
 21
176.617035
  0
LINE
  8
0
 10
-157.796005
 20
173.668488
 11
-160.150757
 21
171.313736
  0
LINE
  8
0
 10
-161.331543
 20
177.204010
 11
-163.686295
 21
174.849258
  0
LINE
  8
0
 10
-156.028244
 20
172.848038
 11
-155.828049
 21
172.100891
  0
LINE
  8
0
 10
-162.151947
 20
178.971695
 11
-162.899109
 21
179.171890
  0
LINE
  8
0
 10
-153.875183
 20
174.937607
 11
-160.062378
 21
181.124786
  0
LINE
  8
0
 10
-158.736542
 20
179.799026
 11
-160.857864
 21
177.677689
  0
LINE
  8
0
 10
-155.200989
 20
176.263474
 11
-157.322327
 21
174.142151
  0
LINE
  8
0
 10
-155.554535
 20
176.617020
 11
-157.675873
 21
174.495697
  0
LINE
  8
0
 10
-158.382980
 20
179.445435
 11
-160.504303
 21
177.324127
  0
LINE
  8
0
  6
CENTER
 10
-124.927277
 20
109.927246
 11
-140.189651
 21
125.189621
  0
LINE
  8
0
  6
CENTER
 10
-130.775650
 20
121.432472
 11
-136.432510
 21
115.775620
  0
LINE
  8
0
 10
-134.523300
 20
125.180130
 11
-140.180161
 21
119.523285
  0
LINE
  8
0
 10
-129.997833
 20
109.340942
 11
-141.240814
 21
120.583939
  0
LINE
  8
0
 10
-124.340988
 20
114.997795
 11
-135.583984
 21
126.240799
  0
LINE
  8
0
 10
-128.654327
 20
119.311157
 11
-134.311172
 21
113.654297
  0
LINE
  8
0
 10
-135.583969
 20
126.240814
 11
-141.240829
 21
120.583969
  0
LINE
  8
0
 10
-135.583954
 20
126.806503
 11
-141.806503
 21
120.583961
  0
LINE
  8
0
 10
-134.876862
 20
113.654289
 11
-141.806503
 21
120.583923
  0
LINE
  8
0
 10
-128.654312
 20
119.876831
 11
-135.583954
 21
126.806465
  0
LINE
  8
0
 10
-134.099045
 20
124.755882
 11
-139.755890
 21
119.099030
  0
LINE
  8
0
 10
-127.522957
 20
121.008209
 11
-128.937164
 21
119.593994
  0
LINE
  8
0
 10
-124.340973
 20
114.290703
 11
-129.290726
 21
109.340958
  0
LINE
  8
0
 10
-123.492416
 20
116.270569
 11
-124.553070
 21
115.209915
  0
LINE
  8
0
 10
-134.594025
 20
113.937149
 11
-136.008240
 21
112.522934
  0
LINE
  8
0
 10
-131.977722
 20
108.492416
 11
-136.008240
 21
112.522919
  0
LINE
  8
0
 10
-123.492432
 20
116.977676
 11
-127.522934
 21
121.008179
  0
LINE
  8
0
 10
-130.209930
 20
109.553055
 11
-131.270599
 21
108.492401
  0
LINE
  8
0
 10
-134.876862
 20
124.826653
 11
-134.169754
 21
124.826653
  0
LINE
  8
0
 10
-139.826630
 20
119.876839
 11
-139.826630
 21
119.169731
  0
LINE
  8
0
 10
-133.816193
 20
125.887238
 11
-134.240448
 21
125.462982
  0
LINE
  8
0
 10
-225.659058
 20
114.997818
 11
-214.416046
 21
126.240814
  0
LINE
  8
0
 10
-220.002213
 20
109.340958
 11
-208.759216
 21
120.583961
  0
LINE
  8
0
 10
-215.688858
 20
113.654320
 11
-221.345703
 21
119.311172
  0
LINE
  8
0
 10
-134.876862
 20
126.947922
 11
-135.301132
 21
126.523666
  0
LINE
  8
0
 10
-208.193512
 20
120.583969
 11
-214.416046
 21
126.806503
  0
LINE
  8
0
 10
-221.345703
 20
119.876854
 11
-214.416046
 21
126.806503
  0
LINE
  8
0
 10
-215.123169
 20
113.654312
 11
-208.193512
 21
120.583961
  0
LINE
  8
0
 10
-210.244125
 20
119.099030
 11
-215.900970
 21
124.755890
  0
LINE
  8
0
 10
-213.991806
 20
112.522926
 11
-215.406006
 21
113.937141
  0
LINE
  8
0
 10
-218.729416
 20
108.492455
 11
-219.790070
 21
109.553116
  0
LINE
  8
0
 10
-221.062866
 20
119.593994
 11
-222.477081
 21
121.008209
  0
LINE
  8
0
 10
-226.507584
 20
116.977722
 11
-222.477081
 21
121.008224
  0
LINE
  8
0
 10
-218.022324
 20
108.492447
 11
-213.991806
 21
112.522949
  0
LINE
  8
0
 10
-225.446930
 20
115.209976
 11
-226.507584
 21
116.270630
  0
LINE
  8
0
 10
-210.173355
 20
119.876862
 11
-210.173355
 21
119.169754
  0
LINE
  8
0
 10
-215.123138
 20
124.826614
 11
-215.830261
 21
124.826614
  0
LINE
  8
0
 10
-130.527390
 20
122.598419
 11
-134.876862
 21
126.947906
  0
LINE
  8
0
 10
-137.598450
 20
115.527359
 11
-141.947922
 21
119.876831
  0
LINE
  8
0
 10
-208.759216
 20
120.583969
 11
-214.416061
 21
126.240814
  0
LINE
  8
0
 10
-209.819870
 20
119.523308
 11
-215.476715
 21
125.180161
  0
LINE
  8
0
 10
-140.462997
 20
119.240448
 11
-140.887268
 21
118.816177
  0
LINE
  8
0
 10
-141.523682
 20
120.301117
 11
-141.947937
 21
119.876862
  0
LINE
  8
0
 10
-129.638367
 20
123.830719
 11
-130.717545
 21
124.909889
  0
LINE
  8
0
 10
-138.830765
 20
114.638336
 11
-139.909943
 21
115.717514
  0
LINE
  8
0
 10
-138.412430
 20
117.755569
 11
-132.755585
 21
123.412422
  0
LINE
  8
0
 10
-220.361633
 20
123.830765
 11
-219.282471
 21
124.909935
  0
LINE
  8
0
 10
-219.472656
 20
122.598450
 11
-215.123169
 21
126.947922
  0
LINE
  8
0
 10
-215.759567
 20
125.462997
 11
-216.183823
 21
125.887268
  0
LINE
  8
0
 10
-214.698914
 20
126.523666
 11
-215.123169
 21
126.947929
  0
LINE
  8
0
 10
-208.052109
 20
119.876862
 11
-208.476379
 21
120.301117
  0
LINE
  8
0
 10
-212.401581
 20
115.527382
 11
-208.052094
 21
119.876862
  0
LINE
  8
0
 10
-209.112762
 20
118.816193
 11
-209.537018
 21
119.240463
  0
LINE
  8
0
 10
-211.169266
 20
114.638374
 11
-210.090088
 21
115.717545
  0
LINE
  8
0
 10
-225.659058
 20
114.290710
 11
-220.709305
 21
109.340965
  0
LINE
  8
0
 10
-217.244461
 20
123.412392
 11
-211.587616
 21
117.755547
  0
LINE
  8
0
 10
-210.532120
 20
131.892532
 11
-196.198792
 21
152.362640
  0
LINE
  8
0
 10
-203.107498
 20
124.467911
 11
-182.637390
 21
138.801224
  0
LINE
  8
0
 10
-126.917076
 20
160.000015
 11
-130.958527
 21
167.000000
  0
LINE
  8
0
 10
-130.958557
 20
167.000000
 11
-139.041443
 21
167.000000
  0
LINE
  8
0
 10
-143.082916
 20
160.000000
 11
-139.041458
 21
167.000000
  0
LINE
  8
0
 10
-139.041443
 20
153.000015
 11
-143.082886
 21
160.000015
  0
LINE
  8
0
 10
-130.958557
 20
153.000000
 11
-139.041443
 21
153.000000
  0
LINE
  8
0
 10
-126.917084
 20
160.000000
 11
-130.958542
 21
153.000000
  0
LINE
  8
0
 10
-206.917084
 20
160.000000
 11
-210.958527
 21
167.000000
  0
LINE
  8
0
 10
-210.958557
 20
167.000000
 11
-219.041443
 21
167.000000
  0
LINE
  8
0
 10
-223.082916
 20
160.000000
 11
-219.041458
 21
167.000000
  0
LINE
  8
0
 10
-219.041443
 20
153.000015
 11
-223.082886
 21
160.000000
  0
LINE
  8
0
 10
-210.958557
 20
153.000000
 11
-219.041443
 21
153.000000
  0
LINE
  8
0
 10
-206.917084
 20
160.000000
 11
-210.958542
 21
153.000000
  0
LINE
  8
0
 10
-182.244446
 20
224.441132
 11
-182.963837
 21
221.756317
  0
LINE
  8
0
 10
-167.755554
 20
224.441162
 11
-167.036163
 21
221.756332
  0
LINE
  8
0
 10
-182.244431
 20
95.558868
 11
-182.963837
 21
98.243683
  0
LINE
  8
0
 10
-167.755569
 20
95.558868
 11
-167.036179
 21
98.243683
  0
LINE
  8
0
 10
-125.499397
 20
122.224945
 11
-122.814560
 21
121.505547
  0
LINE
  8
0
 10
-117.535530
 20
136.018707
 11
-115.570122
 21
134.053299
  0
LINE
  8
0
 10
-117.535522
 20
183.981232
 11
-115.570084
 21
185.946671
  0
LINE
  8
0
 10
-125.499344
 20
197.775055
 11
-122.814545
 21
198.494431
  0
LINE
  8
0
 10
-119.000000
 20
139.554230
 11
-119.000000
 21
152.500000
  0
LINE
  8
0
 10
-129.293411
 20
198.274597
 11
-140.505203
 21
204.747726
  0
LINE
  8
0
 10
-185.293488
 20
101.279648
 11
-196.505249
 21
107.752754
  0
LINE
  8
0
 10
-164.706543
 20
101.279709
 11
-153.495285
 21
107.752541
  0
LINE
  8
0
 10
-218.289764
 20
199.669846
 11
-209.495316
 21
204.747330
  0
LINE
  8
0
 10
-236.651733
 20
199.000000
 11
-220.789764
 21
199.000000
  0
LINE
  8
0
 10
-236.651794
 20
121.000000
 11
-220.789749
 21
121.000000
  0
LINE
  8
0
 10
-241.000000
 20
125.999985
 11
-241.000000
 21
193.999985
  0
LINE
  8
0
 10
-162.592468
 20
161.027512
 11
-173.972504
 21
172.407532
  0
LINE
  8
0
 10
-176.027496
 20
147.592468
 11
-187.407532
 21
158.972488
  0
LINE
  8
0
 10
-187.407532
 20
161.027496
 11
-176.027512
 21
172.407532
  0
LINE
  8
0
 10
-173.972488
 20
147.592468
 11
-162.592468
 21
158.972504
  0
LINE
  8
0
 10
-175.673111
 20
148.369461
 11
-186.630539
 21
159.326874
  0
LINE
  8
0
 10
-174.326874
 20
148.369461
 11
-163.369461
 21
159.326874
  0
LINE
  8
0
 10
-186.630539
 20
160.673111
 11
-175.673126
 21
171.630539
  0
LINE
  8
0
 10
-163.369461
 20
160.673126
 11
-174.326889
 21
171.630539
  0
LINE
  8
0
 10
-174.326889
 20
171.630539
 11
-173.972504
 21
172.407532
  0
LINE
  8
0
 10
-175.673126
 20
171.630539
 11
-176.027496
 21
172.407532
  0
LINE
  8
0
 10
-187.407532
 20
161.027496
 11
-186.630539
 21
160.673111
  0
LINE
  8
0
 10
-187.407532
 20
158.972488
 11
-186.630539
 21
159.326874
  0
LINE
  8
0
 10
-176.027496
 20
147.592468
 11
-175.673111
 21
148.369461
  0
LINE
  8
0
 10
-173.972488
 20
147.592468
 11
-174.326874
 21
148.369461
  0
LINE
  8
0
 10
-162.592468
 20
158.972504
 11
-163.369461
 21
159.326874
  0
LINE
  8
0
 10
-163.369461
 20
160.673126
 11
-162.592468
 21
161.027512
  0
LINE
  8
0
 10
-196.504684
 20
212.247467
 11
-185.293472
 21
218.720276
  0
LINE
  8
0
 10
-153.494751
 20
212.247253
 11
-164.706512
 21
218.720367
  0
LINE
  8
0
 10
-119.000000
 20
167.500000
 11
-119.000000
 21
180.445709
  0
LINE
  8
0
 10
-130.060257
 20
121.282768
 11
-129.293503
 21
121.725456
  0
ARC
  8
0
 10
-162.625626
 20
172.374374
 40
5.000007
 50
15.000010
 51
74.999825
  0
ARC
  8
0
 10
-157.499954
 20
172.196747
 40
1.501207
 50
348.626221
 51
101.373207
  0
ARC
  8
0
 10
-162.803253
 20
177.500046
 40
1.501204
 50
348.626801
 51
101.373207
  0
ARC
  8
0
 10
-157.901947
 20
177.098053
 40
4.569721
 50
331.785919
 51
118.214020
  0
ARC
  8
0
 10
-124.694504
 20
114.644241
 40
0.500001
 50
314.998749
 51
45.000000
  0
ARC
  8
0
 10
-129.644272
 20
109.694489
 40
0.499990
 50
225.000000
 51
315.001251
  0
ARC
  8
0
 10
-131.624161
 20
108.845970
 40
0.500006
 50
224.999374
 51
314.999390
  0
ARC
  8
0
 10
-123.845993
 20
116.624146
 40
0.500011
 50
315.000000
 51
44.998764
  0
ARC
  8
0
 10
-128.698547
 20
113.698509
 40
3.519534
 50
274.156464
 51
355.843414
  0
CIRCLE
  8
0
 10
-133.604065
 20
118.604042
 40
2.500000
  0
CIRCLE
  8
0
 10
-133.604065
 20
118.604042
 40
2.000000
  0
CIRCLE
  8
0
 10
-216.395966
 20
118.604065
 40
2.500000
  0
CIRCLE
  8
0
 10
-216.395966
 20
118.604065
 40
2.000000
  0
ARC
  8
0
 10
-220.355759
 20
109.694519
 40
0.500001
 50
225.001236
 51
315.000000
  0
ARC
  8
0
 10
-225.305511
 20
114.644264
 40
0.499995
 50
134.999374
 51
225.000626
  0
ARC
  8
0
 10
-226.154037
 20
116.624161
 40
0.500001
 50
134.998764
 51
225.000000
  0
ARC
  8
0
 10
-218.375854
 20
108.845985
 40
0.500006
 50
224.999374
 51
314.999390
  0
ARC
  8
0
 10
-221.301483
 20
113.698532
 40
3.519542
 50
184.156693
 51
265.843292
  0
ARC
  8
0
 10
-159.272034
 20
144.272034
 40
36.000008
 50
304.597839
 51
307.979584
  0
ARC
  8
0
 10
-159.272034
 20
144.272034
 40
36.000004
 50
322.020325
 51
325.402069
  0
ARC
  8
0
 10
-190.727982
 20
144.272034
 40
36.000004
 50
214.597839
 51
217.979614
  0
ARC
  8
0
 10
-190.727982
 20
144.272034
 40
35.999992
 50
232.020355
 51
235.402084
  0
ARC
  8
0
 10
-175.000000
 20
160.000000
 40
56.499996
 50
320.077057
 51
219.922882
  0
ARC
  8
0
 10
-175.000000
 20
160.000000
 40
56.500000
 50
230.077026
 51
309.922913
  0
CIRCLE
  8
0
 10
-155.000000
 20
194.641022
 40
5.500000
  0
CIRCLE
  8
0
 10
-175.000000
 20
160.000000
 40
14.000000
  0
ARC
  8
0
 10
-175.000000
 20
160.000000
 40
18.500006
 50
271.652832
 51
178.347122
  0
ARC
  8
0
 10
-208.486053
 20
160.966278
 40
15.000001
 50
324.999969
 51
358.347107
  0
ARC
  8
0
 10
-174.033737
 20
126.513939
 40
14.999992
 50
91.652824
 51
125.000008
  0
CIRCLE
  8
0
 10
-175.000000
 20
160.000000
 40
12.650000
  0
CIRCLE
  8
0
 10
-135.000000
 20
160.000000
 40
10.500000
  0
CIRCLE
  8
0
 10
-135.000000
 20
160.000000
 40
7.000000
  0
CIRCLE
  8
0
 10
-135.000000
 20
160.000000
 40
5.000000
  0
CIRCLE
  8
0
 10
-215.000000
 20
160.000000
 40
5.000000
  0
CIRCLE
  8
0
 10
-215.000000
 20
160.000000
 40
10.500000
  0
CIRCLE
  8
0
 10
-215.000000
 20
160.000000
 40
7.000000
  0
CIRCLE
  8
0
 10
-154.999969
 20
194.640991
 40
5.000000
  0
CIRCLE
  8
0
 10
-154.999969
 20
194.640991
 40
4.250000
  0
ARC
  8
0
 10
-175.000015
 20
222.500000
 40
7.500003
 50
15.000026
 51
164.999969
  0
ARC
  8
0
 10
-175.000000
 20
97.500000
 40
7.500003
 50
195.000031
 51
344.999969
  0
ARC
  8
0
 10
-120.873413
 20
128.750000
 40
7.500009
 50
255.000046
 51
44.999916
  0
ARC
  8
0
 10
-120.873405
 20
191.249985
 40
7.499997
 50
315.000000
 51
104.999969
  0
ARC
  8
0
 10
-187.793488
 20
223.050415
 40
4.999997
 50
300.000031
 51
345.000000
  0
ARC
  8
0
 10
-187.793457
 20
96.949585
 40
4.999990
 50
14.999971
 51
59.999981
  0
ARC
  8
0
 10
-162.206528
 20
96.949570
 40
5.000004
 50
119.999977
 51
164.999985
  0
ARC
  8
0
 10
-126.793488
 20
117.395325
 40
4.999992
 50
74.999947
 51
120.000015
  0
ARC
  8
0
 10
-114.000000
 20
139.554230
 40
5.000000
 50
180.000000
 51
224.999878
  0
ARC
  8
0
 10
-114.000000
 20
180.445709
 40
4.999995
 50
135.000122
 51
180.000000
  0
ARC
  8
0
 10
-126.793442
 20
202.604675
 40
5.000010
 50
240.000076
 51
285.000000
  0
ARC
  8
0
 10
-162.206543
 20
223.050415
 40
5.000007
 50
195.000015
 51
239.999985
  0
ARC
  8
0
 10
-220.789764
 20
203.999985
 40
5.000000
 50
270.000000
 51
300.000031
  0
ARC
  8
0
 10
-220.789749
 20
115.999985
 40
4.999998
 50
83.821495
 51
90.000000
  0
ARC
  8
0
 10
-235.999985
 20
125.999985
 40
5.000000
 50
180.000000
 51
256.516968
  0
ARC
  8
0
 10
-236.000015
 20
193.999985
 40
4.999999
 50
103.482849
 51
179.999832
  0
ARC
  8
0
 10
-175.000000
 20
160.000000
 40
70.749992
 50
216.991135
 51
143.008896
  0
CIRCLE
  8
0
 10
-175.000000
 20
160.000000
 40
12.450000
  0
ARC
  8
0
 10
-175.000000
 20
160.000000
 40
11.650002
 50
176.687653
 51
183.312347
  0
ARC
  8
0
 10
-175.000000
 20
160.000000
 40
11.650001
 50
266.687744
 51
273.312347
  0
ARC
  8
0
 10
-175.000000
 20
160.000000
 40
11.650002
 50
356.687653
 51
3.312267
  0
ARC
  8
0
 10
-175.000000
 20
160.000000
 40
11.650002
 50
86.687660
 51
93.312340
  0
ARC
  8
0
 10
-239.497345
 20
208.586578
 40
10.000002
 50
283.482941
 51
323.008911
  0
ARC
  8
0
 10
-239.497314
 20
111.413391
 40
9.999995
 50
36.991211
 51
76.517151
  0
POINT
  8
0
 10
-190.000000
 20
-30.000000
  0
POINT
  8
0
 10
-160.000000
 20
-30.000000
  0
LINE
  8
0
 10
-164.299942
 20
12.244453
 11
-164.299942
 21
3.193493
  0
LINE
  8
0
 10
-167.299988
 20
12.244465
 11
-167.299988
 21
3.193493
  0
LINE
  8
0
 10
-169.499985
 20
21.654007
 11
-162.099991
 21
21.654007
  0
LINE
  8
0
 10
-170.299988
 20
20.805481
 11
-169.999985
 21
20.805481
  0
LINE
  8
0
 10
-169.499985
 20
17.477055
 11
-162.099991
 21
17.477055
  0
LINE
  8
0
 10
-171.299988
 20
16.062832
 11
-169.299988
 21
16.062832
  0
LINE
  8
0
 10
-169.999985
 20
21.154007
 11
-169.999985
 21
16.062832
  0
LINE
  8
0
 10
-161.599991
 20
21.154007
 11
-161.599991
 21
16.062836
  0
LINE
  8
0
 10
-160.799988
 20
20.305481
 11
-160.799988
 21
16.062836
  0
LINE
  8
0
 10
-170.799973
 20
20.305481
 11
-170.799973
 21
16.062832
  0
LINE
  8
0
 10
-171.299988
 20
16.345680
 11
-171.299988
 21
16.062832
  0
LINE
  8
0
 10
-160.299973
 20
16.345680
 11
-160.299973
 21
16.062832
  0
LINE
  8
0
 10
-177.299988
 20
16.345680
 11
-171.299988
 21
16.345680
  0
LINE
  8
0
 10
-160.299988
 20
16.345680
 11
-155.299988
 21
16.345680
  0
LINE
  8
0
 10
-161.599991
 20
20.805481
 11
-161.299988
 21
20.805481
  0
LINE
  8
0
 10
-162.099991
 20
17.052792
 11
-162.099991
 21
16.062836
  0
LINE
  8
0
 10
-169.499985
 20
17.052788
 11
-169.499985
 21
16.062832
  0
LINE
  8
0
 10
-169.499985
 20
17.052788
 11
-162.099991
 21
17.052788
  0
LINE
  8
0
 10
-167.299988
 20
9.416031
 11
-164.299942
 21
9.416031
  0
LINE
  8
0
 10
-169.299988
 20
3.193489
 11
-167.299988
 21
3.193489
  0
LINE
  8
0
 10
-169.299973
 20
17.052788
 11
-169.299973
 21
3.193489
  0
LINE
  8
0
 10
-162.299973
 20
17.052788
 11
-162.299973
 21
3.193493
  0
LINE
  8
0
 10
-164.299942
 20
3.193489
 11
-162.299973
 21
3.193489
  0
LINE
  8
0
 10
-162.299973
 20
16.062832
 11
-160.299988
 21
16.062832
  0
LINE
  8
0
 10
-177.299988
 20
16.345680
 11
-177.299988
 21
11.183823
  0
LINE
  8
0
 10
-155.299973
 20
16.345680
 11
-155.299973
 21
5.244099
  0
LINE
  8
0
 10
-152.799988
 20
13.895943
 11
-152.799988
 21
8.895943
  0
LINE
  8
0
 10
-167.299988
 20
10.900955
 11
-164.299942
 21
10.900955
  0
LINE
  8
0
 10
-167.299988
 20
10.476692
 11
-164.299942
 21
10.476692
  0
LINE
  8
0
 10
-167.299988
 20
3.759174
 11
-164.299942
 21
3.759174
  0
LINE
  8
0
 10
-162.299973
 20
10.476692
 11
-158.299973
 21
10.476692
  0
LINE
  8
0
 10
-162.299973
 20
3.759174
 11
-158.299973
 21
3.759174
  0
LINE
  8
0
 10
-158.299973
 20
5.244099
 11
-155.299988
 21
5.244099
  0
LINE
  8
0
 10
-155.299988
 20
13.895939
 11
-152.799988
 21
13.895939
  0
LINE
  8
0
 10
-152.799988
 20
13.395939
 11
-137.722061
 21
13.395939
  0
LINE
  8
0
 10
-152.799988
 20
9.395939
 11
-137.722061
 21
9.395939
  0
LINE
  8
0
 10
-155.299988
 20
8.895939
 11
-152.799988
 21
8.895939
  0
LINE
  8
0
 10
-162.299973
 20
10.900955
 11
-155.299988
 21
10.900955
  0
LINE
  8
0
 10
-170.299973
 20
10.123154
 11
-169.299988
 21
9.416054
  0
LINE
  8
0
 10
-170.299973
 20
11.183800
 11
-169.299988
 21
10.476696
  0
LINE
  8
0
 10
-187.300018
 20
11.183846
 11
-170.299973
 21
11.183846
  0
LINE
  8
0
 10
-188.799988
 20
10.123177
 11
-170.299988
 21
10.123177
  0
LINE
  8
0
 10
-188.799988
 20
3.052097
 11
-170.300079
 21
3.052097
  0
LINE
  8
0
 10
-170.299988
 20
10.123169
 11
-170.299973
 21
11.183826
  0
LINE
  8
0
 10
-170.300034
 20
3.052132
 11
-169.300018
 21
3.759228
  0
LINE
  8
0
 10
-202.300018
 20
14.472626
 11
-199.300018
 21
14.472626
  0
LINE
  8
0
 10
-200.800003
 20
13.401127
 11
-199.300018
 21
13.401127
  0
LINE
  8
0
 10
-188.800018
 20
14.472626
 11
-187.300018
 21
14.472626
  0
LINE
  8
0
 10
-202.300018
 20
12.543217
 11
-199.300018
 21
12.543217
  0
LINE
  8
0
 10
-202.300018
 20
11.395924
 11
-195.000031
 21
11.395924
  0
LINE
  8
0
 10
-202.300003
 20
14.472626
 11
-202.300003
 21
4.324856
  0
LINE
  8
0
 10
-200.800003
 20
13.401127
 11
-200.800003
 21
12.543217
  0
LINE
  8
0
 10
-199.300018
 20
15.361629
 11
-199.300018
 21
11.395924
  0
LINE
  8
0
 10
-195.300003
 20
15.361629
 11
-195.300003
 21
11.395924
  0
LINE
  8
0
 10
-195.300018
 20
13.401127
 11
-195.000031
 21
13.401127
  0
LINE
  8
0
 10
-195.300018
 20
14.472626
 11
-195.000031
 21
14.472626
  0
LINE
  8
0
 10
-195.300018
 20
12.543217
 11
-195.000031
 21
12.543217
  0
LINE
  8
0
 10
-199.300018
 20
12.456585
 11
-195.300018
 21
12.456585
  0
LINE
  8
0
 10
-199.300018
 20
15.361629
 11
-195.300018
 21
15.361629
  0
LINE
  8
0
 10
-199.300018
 20
4.324856
 11
-199.300018
 21
3.264198
  0
LINE
  8
0
 10
-195.300003
 20
4.324856
 11
-195.300003
 21
3.264198
  0
LINE
  8
0
 10
-199.300018
 20
3.264198
 11
-195.300018
 21
3.264198
  0
LINE
  8
0
 10
-202.300018
 20
4.324856
 11
-198.352509
 21
4.324856
  0
LINE
  8
0
 10
-199.300003
 20
7.860386
 11
-199.300003
 21
5.526932
  0
LINE
  8
0
 10
-195.300003
 20
7.860394
 11
-195.300003
 21
5.526932
  0
LINE
  8
0
 10
-196.246262
 20
4.324856
 11
-195.000031
 21
4.324856
  0
LINE
  8
0
 10
-169.299973
 20
-57.430611
 11
-169.299973
 21
-63.052063
  0
LINE
  8
0
 10
-163.299973
 20
-61.814671
 11
-163.299973
 21
-63.193504
  0
LINE
  8
0
 10
-169.499969
 20
-73.375839
 11
-162.099976
 21
-73.375839
  0
LINE
  8
0
 10
-170.299957
 20
-75.355743
 11
-161.299988
 21
-75.355743
  0
LINE
  8
0
 10
-170.299957
 20
-80.805481
 11
-161.299988
 21
-80.805481
  0
LINE
  8
0
 10
-169.499969
 20
-81.654022
 11
-162.099976
 21
-81.654022
  0
LINE
  8
0
 10
-169.499969
 20
-68.991776
 11
-162.099976
 21
-68.991776
  0
LINE
  8
0
 10
-161.599976
 20
-69.491776
 11
-161.599976
 21
-74.290039
  0
LINE
  8
0
 10
-160.799988
 20
-70.905991
 11
-160.799988
 21
-80.305481
  0
LINE
  8
0
 10
-169.999969
 20
-69.491776
 11
-169.999969
 21
-74.290039
  0
LINE
  8
0
 10
-170.799957
 20
-70.905991
 11
-170.799957
 21
-80.305481
  0
LINE
  8
0
 10
-169.499969
 20
-74.790039
 11
-162.099976
 21
-74.790039
  0
LINE
  8
0
 10
-171.299988
 20
-70.405991
 11
-169.999969
 21
-70.405991
  0
LINE
  8
0
 10
-169.999969
 20
-80.805481
 11
-169.999969
 21
-81.154022
  0
LINE
  8
0
 10
-161.599976
 20
-80.805481
 11
-161.599976
 21
-81.154022
  0
LINE
  8
0
 10
-161.599976
 20
-70.405991
 11
-160.299957
 21
-70.405991
  0
LINE
  8
0
 10
-177.299988
 20
-70.688835
 11
-171.299988
 21
-70.688835
  0
LINE
  8
0
 10
-160.299957
 20
-70.405991
 11
-160.299957
 21
-76.345688
  0
LINE
  8
0
 10
-171.299988
 20
-70.405991
 11
-171.299988
 21
-76.345688
  0
LINE
  8
0
 10
-162.299957
 20
-63.193501
 11
-162.299957
 21
-68.991776
  0
LINE
  8
0
 10
-169.299957
 20
-63.193504
 11
-169.299957
 21
-68.991776
  0
LINE
  8
0
 10
-160.299957
 20
-70.688835
 11
-155.299957
 21
-70.688835
  0
LINE
  8
0
 10
-164.299927
 20
-66.021927
 11
-164.299927
 21
-63.193504
  0
LINE
  8
0
 10
-167.299988
 20
-66.021935
 11
-167.299988
 21
-63.193504
  0
LINE
  8
0
 10
-169.299957
 20
-63.193504
 11
-167.299988
 21
-63.193504
  0
LINE
  8
0
 10
-164.299957
 20
-63.193504
 11
-162.299957
 21
-63.193504
  0
LINE
  8
0
 10
-155.299957
 20
-65.244110
 11
-155.299957
 21
-76.345688
  0
LINE
  8
0
 10
-187.300018
 20
-64.112717
 11
-187.300018
 21
-74.472626
  0
LINE
  8
0
 10
-177.299988
 20
-76.345688
 11
-171.299988
 21
-76.345688
  0
LINE
  8
0
 10
-171.299988
 20
-76.062851
 11
-170.799957
 21
-76.062851
  0
LINE
  8
0
 10
-160.799988
 20
-76.062851
 11
-160.299957
 21
-76.062851
  0
LINE
  8
0
 10
-160.299957
 20
-76.345688
 11
-155.299957
 21
-76.345688
  0
LINE
  8
0
 10
-177.299988
 20
-65.244110
 11
-169.299957
 21
-65.244110
  0
LINE
  8
0
 10
-167.299988
 20
-64.819847
 11
-164.299988
 21
-64.819847
  0
LINE
  8
0
 10
-167.299988
 20
-63.759193
 11
-164.299957
 21
-63.759193
  0
LINE
  8
0
 10
-167.299988
 20
-65.244110
 11
-164.299988
 21
-65.244110
  0
LINE
  8
0
 10
-162.299957
 20
-65.244110
 11
-155.299957
 21
-65.244110
  0
LINE
  8
0
 10
-162.299957
 20
-64.819847
 11
-158.299957
 21
-64.819847
  0
LINE
  8
0
 10
-162.299957
 20
-63.759193
 11
-158.299957
 21
-63.759193
  0
LINE
  8
0
 10
-170.299957
 20
-64.112709
 11
-169.299957
 21
-64.819809
  0
LINE
  8
0
 10
-170.299957
 20
-63.052063
 11
-169.299973
 21
-63.759163
  0
LINE
  8
0
 10
-188.799988
 20
-63.052063
 11
-170.299957
 21
-63.052063
  0
LINE
  8
0
 10
-187.300018
 20
-64.112717
 11
-170.299957
 21
-64.112717
  0
LINE
  8
0
 10
-170.299957
 20
-63.052063
 11
-170.299957
 21
-64.112717
  0
LINE
  8
0
 10
-152.799988
 20
-68.895935
 11
-152.799988
 21
-73.895935
  0
LINE
  8
0
 10
-155.299957
 20
-68.895943
 11
-152.799988
 21
-68.895943
  0
LINE
  8
0
 10
-152.799988
 20
-69.395943
 11
-137.722076
 21
-69.395943
  0
LINE
  8
0
 10
-152.799988
 20
-73.395943
 11
-137.722076
 21
-73.395943
  0
LINE
  8
0
 10
-155.299957
 20
-73.895943
 11
-152.799988
 21
-73.895943
  0
LINE
  8
0
 10
-200.800018
 20
-66.330063
 11
-199.300018
 21
-66.330063
  0
LINE
  8
0
 10
-202.300018
 20
-67.401550
 11
-199.300018
 21
-67.401550
  0
LINE
  8
0
 10
-202.300018
 20
-74.472626
 11
-199.300018
 21
-74.472626
  0
LINE
  8
0
 10
-202.300018
 20
-64.324860
 11
-202.300018
 21
-74.472626
  0
LINE
  8
0
 10
-200.800018
 20
-65.472145
 11
-200.800018
 21
-66.330063
  0
LINE
  8
0
 10
-199.300018
 20
-63.264198
 11
-199.300018
 21
-67.401550
  0
LINE
  8
0
 10
-195.300018
 20
-63.264198
 11
-195.300018
 21
-67.401550
  0
LINE
  8
0
 10
-195.300018
 20
-66.330063
 11
-188.800018
 21
-66.330063
  0
LINE
  8
0
 10
-199.300018
 20
-66.169243
 11
-195.300018
 21
-66.169243
  0
LINE
  8
0
 10
-199.300018
 20
-75.361633
 11
-195.300018
 21
-75.361633
  0
LINE
  8
0
 10
-195.300018
 20
-74.472626
 11
-187.300018
 21
-74.472626
  0
LINE
  8
0
 10
-195.300018
 20
-67.401550
 11
-187.300018
 21
-67.401550
  0
LINE
  8
0
 10
-199.300018
 20
-74.472626
 11
-199.300018
 21
-75.361633
  0
LINE
  8
0
 10
-195.300018
 20
-74.472626
 11
-195.300018
 21
-75.361633
  0
LINE
  8
0
 10
-199.300018
 20
-63.264198
 11
-195.300018
 21
-63.264198
  0
LINE
  8
0
 10
-202.300018
 20
-64.324860
 11
-199.300018
 21
-64.324860
  0
LINE
  8
0
 10
-202.300018
 20
-65.472145
 11
-199.300018
 21
-65.472145
  0
LINE
  8
0
 10
-195.300018
 20
-64.324860
 11
-195.000031
 21
-64.324860
  0
LINE
  8
0
 10
-195.300018
 20
-65.472145
 11
-195.000031
 21
-65.472145
  0
LINE
  8
0
 10
-171.500000
 20
-10.554564
 11
-173.815842
 21
-11.500002
  0
LINE
  8
0
 10
-169.184143
 20
-11.500006
 11
-171.499969
 21
-10.554577
  0
LINE
  8
0
 10
-171.499985
 20
-10.554565
 11
-171.499985
 21
-11.500000
  0
LINE
  8
0
 10
-169.299973
 20
-57.430611
 11
-162.099960
 21
-57.430611
  0
LINE
  8
0
 10
-169.299973
 20
-60.966145
 11
-162.099960
 21
-60.966145
  0
LINE
  8
0
 10
-169.299973
 20
-61.814671
 11
-163.299973
 21
-61.814671
  0
LINE
  8
0
 10
-188.799988
 20
-74.472626
 11
-188.799988
 21
-86.500000
  0
LINE
  8
0
 10
-195.000000
 20
-74.472626
 11
-195.000000
 21
-86.500000
  0
LINE
  8
0
 10
-188.799988
 20
26.500000
 11
-188.799988
 21
-66.330063
  0
LINE
  8
0
 10
-195.000000
 20
26.500000
 11
-195.000000
 21
-66.330063
  0
LINE
  8
0
 10
-163.299988
 20
-11.500000
 11
-163.299988
 21
-57.430611
  0
LINE
  8
0
 10
-162.099976
 20
-11.500000
 11
-162.099976
 21
-63.759193
  0
LINE
  8
0
 10
-179.499985
 20
-11.500000
 11
-162.099976
 21
-11.500000
  0
LINE
  8
0
 10
-179.499985
 20
-11.500000
 11
-179.499985
 21
-48.500000
  0
LINE
  8
0
 10
-179.499985
 20
-48.500000
 11
-163.299988
 21
-48.500000
  0
LINE
  8
0
 10
-195.000000
 20
-86.500000
 11
-188.799988
 21
-86.500000
  0
LINE
  8
0
 10
-161.299988
 20
-16.000000
 11
-161.299988
 21
-44.000000
  0
LINE
  8
0
 10
-162.099976
 20
-44.000000
 11
-161.299988
 21
-44.000000
  0
LINE
  8
0
 10
-162.099976
 20
-16.000000
 11
-161.299988
 21
-16.000000
  0
LINE
  8
0
 10
-195.000000
 20
26.500000
 11
-188.799988
 21
26.500000
  0
LINE
  8
0
 10
-177.299988
 20
-65.244110
 11
-177.299988
 21
-76.345688
  0
LINE
  8
0
 10
-187.300018
 20
-71.183792
 11
-177.299988
 21
-71.183792
  0
LINE
  8
0
 10
-187.300018
 20
14.472626
 11
-187.300018
 21
11.183826
  0
LINE
  8
0
 10
-137.722061
 20
13.395939
 11
-137.722061
 21
9.395939
  0
LINE
  8
0
 10
-137.722061
 20
11.095940
 11
-134.722061
 21
11.095940
  0
LINE
  8
0
 10
-137.722061
 20
11.695938
 11
-134.722061
 21
11.695938
  0
LINE
  8
0
 10
-137.722061
 20
10.095940
 11
-134.722061
 21
10.095940
  0
LINE
  8
0
 10
-137.722061
 20
12.695938
 11
-134.722061
 21
12.695938
  0
LINE
  8
0
 10
-134.722061
 20
12.695938
 11
-134.722061
 21
11.695938
  0
LINE
  8
0
 10
-134.722061
 20
11.095940
 11
-134.722061
 21
10.095940
  0
LINE
  8
0
 10
-134.722061
 20
12.570938
 11
-133.222061
 21
12.570938
  0
LINE
  8
0
 10
-134.722061
 20
12.445938
 11
-133.222061
 21
12.445938
  0
LINE
  8
0
 10
-134.722061
 20
12.320938
 11
-133.222061
 21
12.320938
  0
LINE
  8
0
 10
-134.722061
 20
12.195938
 11
-133.222061
 21
12.195938
  0
LINE
  8
0
 10
-134.722061
 20
12.070938
 11
-133.222061
 21
12.070938
  0
LINE
  8
0
 10
-134.722061
 20
11.945938
 11
-133.222061
 21
11.945938
  0
LINE
  8
0
 10
-134.722061
 20
11.820938
 11
-133.222061
 21
11.820938
  0
LINE
  8
0
 10
-134.722061
 20
10.970940
 11
-133.222061
 21
10.970940
  0
LINE
  8
0
 10
-134.722061
 20
10.845940
 11
-133.222061
 21
10.845940
  0
LINE
  8
0
 10
-134.722061
 20
10.720940
 11
-133.222061
 21
10.720940
  0
LINE
  8
0
 10
-134.722061
 20
10.595940
 11
-133.222061
 21
10.595940
  0
LINE
  8
0
 10
-134.722061
 20
10.470940
 11
-133.222061
 21
10.470940
  0
LINE
  8
0
 10
-134.722061
 20
10.345940
 11
-133.222061
 21
10.345940
  0
LINE
  8
0
 10
-134.722061
 20
10.220940
 11
-133.222061
 21
10.220940
  0
LINE
  8
0
 10
-137.722076
 20
-69.395943
 11
-137.722076
 21
-73.395943
  0
LINE
  8
0
 10
-137.722076
 20
-71.695938
 11
-134.722076
 21
-71.695938
  0
LINE
  8
0
 10
-137.722076
 20
-71.095947
 11
-134.722076
 21
-71.095947
  0
LINE
  8
0
 10
-137.722076
 20
-72.695938
 11
-134.722076
 21
-72.695938
  0
LINE
  8
0
 10
-137.722076
 20
-70.095947
 11
-134.722076
 21
-70.095947
  0
LINE
  8
0
 10
-134.722076
 20
-70.095947
 11
-134.722076
 21
-71.095947
  0
LINE
  8
0
 10
-134.722076
 20
-71.695938
 11
-134.722076
 21
-72.695938
  0
LINE
  8
0
 10
-134.722076
 20
-70.220947
 11
-133.222076
 21
-70.220947
  0
LINE
  8
0
 10
-134.722076
 20
-70.345947
 11
-133.222076
 21
-70.345947
  0
LINE
  8
0
 10
-134.722076
 20
-70.470947
 11
-133.222076
 21
-70.470947
  0
LINE
  8
0
 10
-134.722076
 20
-70.595947
 11
-133.222076
 21
-70.595947
  0
LINE
  8
0
 10
-134.722076
 20
-70.720947
 11
-133.222076
 21
-70.720947
  0
LINE
  8
0
 10
-134.722076
 20
-70.845947
 11
-133.222076
 21
-70.845947
  0
LINE
  8
0
 10
-134.722076
 20
-70.970947
 11
-133.222076
 21
-70.970947
  0
LINE
  8
0
 10
-134.722076
 20
-71.820938
 11
-133.222076
 21
-71.820938
  0
LINE
  8
0
 10
-134.722076
 20
-71.945938
 11
-133.222076
 21
-71.945938
  0
LINE
  8
0
 10
-134.722076
 20
-72.070938
 11
-133.222076
 21
-72.070938
  0
LINE
  8
0
 10
-134.722076
 20
-72.195938
 11
-133.222076
 21
-72.195938
  0
LINE
  8
0
 10
-134.722076
 20
-72.320938
 11
-133.222076
 21
-72.320938
  0
LINE
  8
0
 10
-134.722076
 20
-72.445938
 11
-133.222076
 21
-72.445938
  0
LINE
  8
0
 10
-134.722076
 20
-72.570938
 11
-133.222076
 21
-72.570938
  0
LINE
  8
0
 10
-180.732971
 20
-29.999996
 11
-186.766907
 21
-29.999996
  0
LINE
  8
0
 10
-180.299988
 20
-36.999992
 11
-180.299988
 21
-22.999994
  0
LINE
  8
0
 10
-187.199951
 20
-39.699993
 11
-187.199951
 21
-20.299992
  0
LINE
  8
0
 10
-180.299927
 20
-36.999996
 11
-185.799927
 21
-36.999996
  0
LINE
  8
0
 10
-180.299927
 20
-22.999996
 11
-185.799927
 21
-22.999996
  0
LINE
  8
0
 10
-186.500000
 20
-7.799999
 11
-186.500000
 21
-22.812422
  0
LINE
  8
0
 10
-207.500000
 20
25.000000
 11
-207.500000
 21
-85.000000
  0
LINE
  8
0
 10
-203.000000
 20
14.999996
 11
-203.000000
 21
13.640999
  0
LINE
  8
0
 10
-203.822662
 20
-73.640999
 11
-202.300018
 21
-73.640999
  0
LINE
  8
0
 10
-188.799988
 20
-52.500000
 11
-186.800003
 21
-52.500000
  0
LINE
  8
0
 10
-186.500000
 20
-42.500000
 11
-183.050003
 21
-42.500000
  0
LINE
  8
0
 10
-203.000000
 20
-39.000000
 11
-195.000000
 21
-39.000000
  0
LINE
  8
0
 10
-203.000000
 20
-21.000000
 11
-195.000000
 21
-21.000000
  0
LINE
  8
0
 10
-186.500000
 20
-17.500000
 11
-183.050003
 21
-17.500000
  0
LINE
  8
0
 10
-188.799988
 20
-7.500000
 11
-186.800003
 21
-7.500000
  0
LINE
  8
0
 10
-203.822571
 20
13.640999
 11
-202.300003
 21
13.640999
  0
LINE
  8
0
 10
-186.800018
 20
-52.499977
 11
-186.500015
 21
-52.199982
  0
LINE
  8
0
 10
-186.499939
 20
-7.799971
 11
-186.799957
 21
-7.499968
  0
LINE
  8
0
 10
-207.500122
 20
-84.999954
 11
-203.000122
 21
-74.999954
  0
LINE
  8
0
 10
-207.500122
 20
24.999950
 11
-203.000122
 21
14.999954
  0
LINE
  8
0
 10
-183.000000
 20
-17.550003
 11
-183.000000
 21
-22.999996
  0
LINE
  8
0
 10
-183.049988
 20
-17.500000
 11
-183.000000
 21
-17.549999
  0
LINE
  8
0
 10
-183.050003
 20
-42.499981
 11
-183.000000
 21
-42.449982
  0
LINE
  8
0
 10
-203.000000
 20
4.411758
 11
-203.000000
 21
-21.000000
  0
LINE
  8
0
 10
-203.000000
 20
-39.000000
 11
-203.000000
 21
-64.411758
  0
LINE
  8
0
 10
-203.000000
 20
-73.640999
 11
-203.000000
 21
-75.000000
  0
LINE
  8
0
 10
-183.000000
 20
-36.999996
 11
-183.000000
 21
-42.449997
  0
LINE
  8
0
 10
-186.500000
 20
-37.187565
 11
-186.500000
 21
-52.199997
  0
LINE
  8
0
 10
-161.299988
 20
-31.027496
 11
-160.800003
 21
-31.027496
  0
LINE
  8
0
 10
-161.299988
 20
-28.972504
 11
-160.800003
 21
-28.972504
  0
LINE
  8
0
 10
-179.499985
 20
-27.630501
 11
-180.299988
 21
-28.059938
  0
LINE
  8
0
 10
-161.299988
 20
-28.704174
 11
-160.800049
 21
-28.972538
  0
LINE
  8
0
 10
-161.299988
 20
-31.295904
 11
-160.799973
 21
-31.027500
  0
LINE
  8
0
 10
-179.499985
 20
-32.369469
 11
-180.299988
 21
-31.940031
  0
LINE
  8
0
 10
-161.299988
 20
-42.407516
 11
-160.800003
 21
-42.407516
  0
LINE
  8
0
 10
-160.000000
 20
-18.349998
 11
-160.000000
 21
-41.649994
  0
LINE
  8
0
 10
-183.000000
 20
-42.450001
 11
-179.499985
 21
-42.450001
  0
LINE
  8
0
 10
-183.000000
 20
-17.549999
 11
-179.499985
 21
-17.549999
  0
LINE
  8
0
 10
-160.799957
 20
-42.450043
 11
-159.999954
 21
-41.650036
  0
LINE
  8
0
 10
-160.799988
 20
-17.549976
 11
-159.999969
 21
-18.349974
  0
LINE
  8
0
 10
-160.800003
 20
-17.550003
 11
-160.800003
 21
-42.450005
  0
LINE
  8
0
 10
-182.999969
 20
-17.549973
 11
-183.049957
 21
-17.499969
  0
LINE
  8
0
 10
-183.050003
 20
-42.499985
 11
-183.000000
 21
-42.449986
  0
LINE
  8
0
 10
-161.299988
 20
-28.972504
 11
-160.800003
 21
-28.972504
  0
LINE
  8
0
 10
-161.299988
 20
-17.592468
 11
-160.800003
 21
-17.592468
  0
LINE
  8
0
 10
-180.299988
 20
-28.972504
 11
-179.499985
 21
-28.972504
  0
LINE
  8
0
 10
-180.299988
 20
-31.027496
 11
-179.499985
 21
-31.027496
  0
LINE
  8
0
 10
-182.000107
 20
-42.407516
 11
-179.499985
 21
-42.407516
  0
LINE
  8
0
 10
-181.991379
 20
-17.592468
 11
-179.499985
 21
-17.592468
  0
LINE
  8
0
 10
-182.000107
 20
-17.592468
 11
-179.499985
 21
-18.934521
  0
LINE
  8
0
 10
-160.799973
 20
-17.592449
 11
-161.299988
 21
-17.860851
  0
LINE
  8
0
 10
-160.800003
 20
-42.407494
 11
-161.299988
 21
-42.139107
  0
LINE
  8
0
 10
-182.000107
 20
-42.407593
 11
-179.499985
 21
-41.065544
  0
LINE
  8
0
 10
-160.800003
 20
-31.027517
 11
-160.000015
 21
-30.673141
  0
LINE
  8
0
 10
-159.999908
 20
-29.326742
 11
-160.799896
 21
-28.972370
  0
LINE
  8
0
 10
-160.799988
 20
-42.407524
 11
-159.999985
 21
-41.630539
  0
LINE
  8
0
 10
-160.800125
 20
-17.592583
 11
-160.000122
 21
-18.369572
  0
LINE
  8
0
 10
-161.299988
 20
-17.549999
 11
-160.800003
 21
-17.549999
  0
LINE
  8
0
 10
-161.299988
 20
-17.592468
 11
-160.800003
 21
-17.592468
  0
LINE
  8
0
 10
-161.299988
 20
-42.450001
 11
-160.800003
 21
-42.450001
  0
LINE
  8
0
 10
-158.299957
 20
-63.759193
 11
-158.299957
 21
-65.244110
  0
LINE
  8
0
 10
-162.299973
 20
9.416031
 11
-158.299973
 21
9.416031
  0
LINE
  8
0
 10
-158.299973
 20
10.476692
 11
-158.299973
 21
3.759178
  0
ARC
  8
0
 10
-169.499985
 20
21.154007
 40
0.500000
 50
90.000000
 51
180.000000
  0
ARC
  8
0
 10
-162.099991
 20
21.154007
 40
0.500000
 50
0.000000
 51
90.000000
  0
ARC
  8
0
 10
-162.099991
 20
16.977058
 40
0.500000
 50
0.000000
 51
90.000000
  0
ARC
  8
0
 10
-169.499985
 20
16.977055
 40
0.500000
 50
90.000000
 51
180.000000
  0
ARC
  8
0
 10
-161.299988
 20
20.305481
 40
0.500000
 50
0.000000
 51
90.000000
  0
ARC
  8
0
 10
-170.299988
 20
20.305481
 40
0.500000
 50
90.000000
 51
180.000000
  0
ARC
  8
0
 10
-169.499969
 20
-69.491776
 40
0.500000
 50
90.000000
 51
180.000000
  0
ARC
  8
0
 10
-162.099976
 20
-69.491776
 40
0.500000
 50
0.000000
 51
90.000000
  0
ARC
  8
0
 10
-161.299988
 20
-70.905991
 40
0.500000
 50
0.000000
 51
90.000000
  0
ARC
  8
0
 10
-170.299957
 20
-70.905991
 40
0.500000
 50
90.000000
 51
180.000000
  0
ARC
  8
0
 10
-170.299957
 20
-80.305481
 40
0.500000
 50
180.000000
 51
270.000000
  0
ARC
  8
0
 10
-161.299988
 20
-80.305481
 40
0.500000
 50
270.000000
 51
0.000000
  0
ARC
  8
0
 10
-162.099976
 20
-81.154022
 40
0.500000
 50
270.000000
 51
0.000000
  0
ARC
  8
0
 10
-169.499969
 20
-81.154022
 40
0.500000
 50
180.000000
 51
270.000000
  0
ARC
  8
0
 10
-162.099976
 20
-74.290039
 40
0.500000
 50
270.000000
 51
0.000000
  0
ARC
  8
0
 10
-169.499969
 20
-74.290039
 40
0.500000
 50
180.000000
 51
270.000000
  0
ARC
  8
0
 10
-188.000000
 20
-39.699993
 40
0.800003
 50
180.000000
 51
0.000000
  0
ARC
  8
0
 10
-188.000000
 20
-20.299992
 40
0.800003
 50
0.000000
 51
180.000000
  0
ARC
  8
0
 10
-194.661560
 20
-33.499992
 40
14.361613
 50
345.894714
 51
14.105333
  0
ARC
  8
0
 10
-194.661560
 20
-26.499992
 40
14.361613
 50
345.894714
 51
14.105326
  0
ARC
  8
0
 10
-185.799988
 20
-21.599995
 40
1.399994
 50
180.000000
 51
270.000000
  0
ARC
  8
0
 10
-185.799988
 20
-38.399994
 40
1.400002
 50
90.000000
 51
180.000000
  0
ARC
  8
0
 10
-172.838379
 20
-26.499994
 40
14.361607
 50
164.597076
 51
194.105286
  0
ARC
  8
0
 10
-172.838379
 20
-33.499992
 40
14.361615
 50
165.894684
 51
195.402954
  0
ARC
  8
0
 10
-203.822571
 20
12.641582
 40
1.000000
 50
90.000000
 51
174.261185
  0
ARC
  8
0
 10
-203.822662
 20
-72.640625
 40
1.000007
 50
185.641525
 51
270.000000
  0
ARC
  8
0
 10
-165.055679
 20
12.244462
 40
0.755692
 50
0.000217
 51
14.106461
  0
ARC
  8
0
 10
-165.253235
 20
12.172037
 40
0.965201
 50
15.417976
 51
51.388996
  0
ARC
  8
0
 10
-165.799988
 20
11.373234
 40
1.931884
 50
53.502426
 51
126.497627
  0
ARC
  8
0
 10
-166.346741
 20
12.172036
 40
0.965193
 50
128.611069
 51
164.582184
  0
ARC
  8
0
 10
-166.544296
 20
12.244460
 40
0.755698
 50
165.893677
 51
179.999924
  0
ARC
  8
0
 10
-196.506088
 20
5.526928
 40
0.806076
 50
345.893555
 51
14.106445
  0
ARC
  8
0
 10
-196.716827
 20
5.449675
 40
1.029559
 50
15.417752
 51
51.388000
  0
ARC
  8
0
 10
-197.300018
 20
4.597623
 40
2.060678
 50
53.502102
 51
126.497910
  0
ARC
  8
0
 10
-197.883209
 20
5.449675
 40
1.029554
 50
128.612015
 51
164.582245
  0
ARC
  8
0
 10
-198.093948
 20
5.526928
 40
0.806076
 50
165.893555
 51
194.106445
  0
ARC
  8
0
 10
-197.883209
 20
5.604181
 40
1.029559
 50
195.417755
 51
231.388000
  0
ARC
  8
0
 10
-197.300018
 20
6.456233
 40
2.060678
 50
233.502106
 51
306.497894
  0
ARC
  8
0
 10
-196.716827
 20
5.604181
 40
1.029554
 50
308.612030
 51
344.582245
  0
ARC
  8
0
 10
-196.307617
 20
5.526932
 40
1.007603
 50
345.893646
 51
14.106373
  0
ARC
  8
0
 10
-196.571014
 20
5.430367
 40
1.286930
 50
15.417968
 51
51.388809
  0
ARC
  8
0
 10
-197.300018
 20
4.365300
 40
2.575845
 50
53.502266
 51
126.497749
  0
ARC
  8
0
 10
-198.029022
 20
5.430366
 40
1.286929
 50
128.611206
 51
164.582031
  0
ARC
  8
0
 10
-198.292419
 20
5.526932
 40
1.007603
 50
165.893646
 51
194.106369
  0
ARC
  8
0
 10
-198.029022
 20
5.623497
 40
1.286930
 50
195.417969
 51
231.388809
  0
ARC
  8
0
 10
-197.300018
 20
6.688563
 40
2.575845
 50
233.502274
 51
306.497742
  0
ARC
  8
0
 10
-196.571014
 20
5.623497
 40
1.286929
 50
308.611206
 51
344.582031
  0
ARC
  8
0
 10
-196.307617
 20
7.860391
 40
1.007601
 50
359.873688
 51
14.106425
  0
ARC
  8
0
 10
-196.571014
 20
7.763825
 40
1.286930
 50
15.418009
 51
51.388836
  0
ARC
  8
0
 10
-197.300018
 20
6.698761
 40
2.575844
 50
53.502254
 51
126.497795
  0
ARC
  8
0
 10
-198.029022
 20
7.763824
 40
1.286928
 50
128.611237
 51
164.582138
  0
ARC
  8
0
 10
-198.292419
 20
7.860389
 40
1.007603
 50
165.893738
 51
180.105362
  0
ARC
  8
0
 10
-166.544281
 20
-66.021935
 40
0.755692
 50
179.999420
 51
194.106384
  0
ARC
  8
0
 10
-166.346725
 20
-65.949509
 40
0.965201
 50
195.417969
 51
231.388992
  0
ARC
  8
0
 10
-165.799973
 20
-65.150703
 40
1.931886
 50
233.502457
 51
306.497528
  0
ARC
  8
0
 10
-165.253220
 20
-65.949509
 40
0.965195
 50
308.610992
 51
344.582031
  0
ARC
  8
0
 10
-165.055664
 20
-66.021935
 40
0.755698
 50
345.893616
 51
359.999420
  0
ARC
  8
0
 10
-198.119720
 20
-70.937080
 40
2.130294
 50
176.237457
 51
191.772614
  0
ARC
  8
0
 10
-197.902161
 20
-70.870613
 40
2.356926
 50
192.275360
 51
225.305038
  0
ARC
  8
0
 10
-197.300003
 20
-70.137520
 40
3.302728
 50
226.824173
 51
313.174347
  0
ARC
  8
0
 10
-196.697876
 20
-70.870628
 40
2.356934
 50
314.693634
 51
347.723114
  0
ARC
  8
0
 10
-196.480316
 20
-70.937096
 40
2.130288
 50
348.225708
 51
356.237457
  0
ARC
  8
0
 10
-173.581299
 20
-73.517258
 40
0.425080
 50
345.893921
 51
14.107077
  0
ARC
  8
0
 10
-173.692429
 20
-73.557991
 40
0.542930
 50
15.417746
 51
51.388477
  0
ARC
  8
0
 10
-173.999969
 20
-74.007324
 40
1.086690
 50
53.502678
 51
126.497559
  0
ARC
  8
0
 10
-174.307510
 20
-73.557999
 40
0.542927
 50
128.611526
 51
164.582260
  0
ARC
  8
0
 10
-174.418640
 20
-73.517258
 40
0.425080
 50
165.893921
 51
194.107071
  0
ARC
  8
0
 10
-174.307510
 20
-73.476524
 40
0.542930
 50
195.417740
 51
231.388474
  0
ARC
  8
0
 10
-173.999969
 20
-73.027191
 40
1.086690
 50
233.502686
 51
306.497559
  0
ARC
  8
0
 10
-173.692429
 20
-73.476517
 40
0.542927
 50
308.611511
 51
344.582245
  0
ARC
  8
0
 10
-195.836227
 20
-70.937096
 40
1.486211
 50
354.668945
 51
14.106296
  0
ARC
  8
0
 10
-196.224762
 20
-71.079529
 40
1.898237
 50
15.417706
 51
51.388241
  0
ARC
  8
0
 10
-197.300034
 20
-72.650467
 40
3.799345
 50
53.501778
 51
126.497650
  0
ARC
  8
0
 10
-198.375275
 20
-71.079514
 40
1.898234
 50
128.611618
 51
164.582077
  0
ARC
  8
0
 10
-198.763809
 20
-70.937080
 40
1.486209
 50
165.893417
 51
185.354416
  0
ARC
  8
0
 10
-197.300064
 20
-67.535576
 40
4.532875
 50
245.098221
 51
294.888580
  0
ARC
  8
0
 10
-173.255661
 20
-73.517258
 40
0.755698
 50
345.893616
 51
14.106391
  0
ARC
  8
0
 10
-173.453217
 20
-73.589684
 40
0.965201
 50
15.417976
 51
51.388996
  0
ARC
  8
0
 10
-173.999969
 20
-74.388481
 40
1.931880
 50
53.502323
 51
126.497673
  0
ARC
  8
0
 10
-174.546722
 20
-73.589684
 40
0.965195
 50
128.611008
 51
164.582031
  0
ARC
  8
0
 10
-174.744278
 20
-73.517258
 40
0.755698
 50
165.893616
 51
194.106384
  0
ARC
  8
0
 10
-174.546722
 20
-73.444832
 40
0.965201
 50
195.417969
 51
231.388992
  0
ARC
  8
0
 10
-173.999969
 20
-72.646034
 40
1.931880
 50
233.502319
 51
306.497681
  0
ARC
  8
0
 10
-173.453217
 20
-73.444832
 40
0.965195
 50
308.610992
 51
344.582031
  0
ARC
  8
0
 10
-166.619659
 20
-78.184174
 40
2.130295
 50
176.236832
 51
191.773209
  0
ARC
  8
0
 10
-166.402100
 20
-78.117706
 40
2.356930
 50
192.275894
 51
225.305573
  0
ARC
  8
0
 10
-165.799957
 20
-77.384605
 40
3.302724
 50
226.824829
 51
313.174988
  0
ARC
  8
0
 10
-165.197815
 20
-78.117706
 40
2.356934
 50
314.694183
 51
347.723724
  0
ARC
  8
0
 10
-164.980255
 20
-78.184174
 40
2.130298
 50
348.226379
 51
356.237244
  0
ARC
  8
0
 10
-164.336166
 20
-78.184166
 40
1.486211
 50
354.668640
 51
14.106581
  0
ARC
  8
0
 10
-164.724701
 20
-78.326599
 40
1.898239
 50
15.417928
 51
51.388382
  0
ARC
  8
0
 10
-165.799957
 20
-79.897545
 40
3.799348
 50
53.502098
 51
126.497902
  0
ARC
  8
0
 10
-166.875214
 20
-78.326599
 40
1.898234
 50
128.611618
 51
164.582291
  0
ARC
  8
0
 10
-167.263748
 20
-78.184166
 40
1.486207
 50
165.893707
 51
185.354416
  0
ARC
  8
0
 10
-165.799988
 20
-74.782654
 40
4.532875
 50
245.098007
 51
294.888367
  0
ARC
  8
0
 10
-170.507919
 20
-11.968783
 40
3.577651
 50
7.539269
 51
11.306293
  0
ARC
  8
0
 10
-170.771240
 20
-12.046015
 40
3.851083
 50
11.664963
 51
43.965599
  0
ARC
  8
0
 10
-171.499969
 20
-12.897776
 40
4.968072
 50
45.201523
 51
134.799622
  0
ARC
  8
0
 10
-172.228714
 20
-12.046028
 40
3.851103
 50
136.035568
 51
168.336136
  0
ARC
  8
0
 10
-172.492050
 20
-11.968801
 40
3.577658
 50
168.694778
 51
172.474564
  0
ARC
  8
0
 10
-170.588730
 20
-12.089499
 40
1.608652
 50
21.435984
 51
51.388721
  0
ARC
  8
0
 10
-171.499985
 20
-13.420833
 40
3.219809
 50
53.502224
 51
126.497787
  0
ARC
  8
0
 10
-172.411240
 20
-12.089499
 40
1.608664
 50
128.611298
 51
158.534195
  0
ARC
  8
0
 10
-169.232468
 20
-11.968785
 40
2.302210
 50
11.742683
 51
14.106587
  0
ARC
  8
0
 10
-169.834320
 20
-12.189432
 40
2.940464
 50
15.418171
 51
51.388748
  0
ARC
  8
0
 10
-171.499985
 20
-14.622976
 40
5.885463
 50
53.502388
 51
126.497726
  0
ARC
  8
0
 10
-173.165649
 20
-12.189442
 40
2.940454
 50
128.611374
 51
164.582138
  0
ARC
  8
0
 10
-173.767502
 20
-11.968799
 40
2.302211
 50
165.893707
 51
168.232681
  0
POLYLINE
  8
0
 66
     1
  0
VERTEX
  8
0
 10
-204.817474
 20
12.742354
  0
VERTEX
  8
0
 10
-204.831924
 20
12.490580
  0
VERTEX
  8
0
 10
-204.789215
 20
12.044891
  0
VERTEX
  8
0
 10
-204.704163
 20
11.295918
  0
VERTEX
  8
0
 10
-204.609421
 20
10.560068
  0
VERTEX
  8
0
 10
-204.504364
 20
9.889130
  0
VERTEX
  8
0
 10
-204.351990
 20
9.121021
  0
VERTEX
  8
0
 10
-204.156952
 20
8.292267
  0
VERTEX
  8
0
 10
-203.976471
 20
7.587467
  0
VERTEX
  8
0
 10
-203.784821
 20
6.886642
  0
VERTEX
  8
0
 10
-203.589508
 20
6.216354
  0
VERTEX
  8
0
 10
-203.305176
 20
5.310746
  0
VERTEX
  8
0
 10
-203.000000
 20
4.411758
  0
SEQEND
  0
POLYLINE
  8
0
 66
     1
  0
VERTEX
  8
0
 10
-203.000000
 20
-64.411758
  0
VERTEX
  8
0
 10
-203.300613
 20
-65.295570
  0
VERTEX
  8
0
 10
-203.589508
 20
-66.216354
  0
VERTEX
  8
0
 10
-203.794846
 20
-66.923286
  0
VERTEX
  8
0
 10
-203.988403
 20
-67.633781
  0
VERTEX
  8
0
 10
-204.156952
 20
-68.292267
  0
VERTEX
  8
0
 10
-204.338333
 20
-69.056488
  0
VERTEX
  8
0
 10
-204.504364
 20
-69.889130
  0
VERTEX
  8
0
 10
-204.622467
 20
-70.655075
  0
VERTEX
  8
0
 10
-204.719803
 20
-71.427177
  0
VERTEX
  8
0
 10
-204.789215
 20
-72.044891
  0
VERTEX
  8
0
 10
-204.821899
 20
-72.391663
  0
VERTEX
  8
0
 10
-204.817841
 20
-72.738625
  0
SEQEND
  0
POLYLINE
  8
0
 66
     1
  0
VERTEX
  8
0
 10
-203.000000
 20
-21.000000
  0
VERTEX
  8
0
 10
-203.117096
 20
-21.835159
  0
VERTEX
  8
0
 10
-203.330307
 20
-22.607010
  0
VERTEX
  8
0
 10
-203.577072
 20
-23.164955
  0
VERTEX
  8
0
 10
-203.872559
 20
-23.804657
  0
VERTEX
  8
0
 10
-204.102753
 20
-24.442924
  0
VERTEX
  8
0
 10
-204.274887
 20
-25.101833
  0
VERTEX
  8
0
 10
-204.414810
 20
-25.800735
  0
VERTEX
  8
0
 10
-204.545380
 20
-26.587330
  0
VERTEX
  8
0
 10
-204.651566
 20
-27.375484
  0
VERTEX
  8
0
 10
-204.726654
 20
-28.116180
  0
VERTEX
  8
0
 10
-204.782516
 20
-29.056866
  0
VERTEX
  8
0
 10
-204.800018
 20
-30.000000
  0
VERTEX
  8
0
 10
-204.784821
 20
-30.915060
  0
VERTEX
  8
0
 10
-204.726654
 20
-31.883820
  0
VERTEX
  8
0
 10
-204.647064
 20
-32.667595
  0
VERTEX
  8
0
 10
-204.540436
 20
-33.448917
  0
VERTEX
  8
0
 10
-204.414810
 20
-34.199265
  0
VERTEX
  8
0
 10
-204.267609
 20
-34.904243
  0
VERTEX
  8
0
 10
-204.082855
 20
-35.598644
  0
VERTEX
  8
0
 10
-203.872559
 20
-36.195343
  0
VERTEX
  8
0
 10
-203.602539
 20
-36.772652
  0
VERTEX
  8
0
 10
-203.330307
 20
-37.392990
  0
VERTEX
  8
0
 10
-203.109940
 20
-38.183891
  0
VERTEX
  8
0
 10
-203.000000
 20
-39.000000
  0
SEQEND
  0
POINT
  8
0
 10
-160.000000
 20
-170.000000
  0
POINT
  8
0
 10
-190.000000
 20
-170.000000
  0
LINE
  8
0
 10
-164.299942
 20
-212.244446
 11
-164.299942
 21
-203.193497
  0
LINE
  8
0
 10
-167.299988
 20
-212.244461
 11
-167.299988
 21
-203.193497
  0
LINE
  8
0
 10
-169.499985
 20
-221.654007
 11
-162.099991
 21
-221.654007
  0
LINE
  8
0
 10
-170.299988
 20
-220.805481
 11
-169.999985
 21
-220.805481
  0
LINE
  8
0
 10
-169.499985
 20
-217.477051
 11
-162.099991
 21
-217.477051
  0
LINE
  8
0
 10
-171.299988
 20
-216.062836
 11
-169.299988
 21
-216.062836
  0
LINE
  8
0
 10
-169.999985
 20
-221.154007
 11
-169.999985
 21
-216.062836
  0
LINE
  8
0
 10
-161.599991
 20
-221.154007
 11
-161.599991
 21
-216.062836
  0
LINE
  8
0
 10
-160.799988
 20
-220.305481
 11
-160.799988
 21
-216.062836
  0
LINE
  8
0
 10
-170.799973
 20
-220.305481
 11
-170.799973
 21
-216.062836
  0
LINE
  8
0
 10
-171.299988
 20
-216.345673
 11
-171.299988
 21
-216.062836
  0
LINE
  8
0
 10
-160.299973
 20
-216.345673
 11
-160.299973
 21
-216.062836
  0
LINE
  8
0
 10
-177.299988
 20
-216.345673
 11
-171.299988
 21
-216.345673
  0
LINE
  8
0
 10
-160.299988
 20
-216.345673
 11
-155.299988
 21
-216.345673
  0
LINE
  8
0
 10
-161.599991
 20
-220.805481
 11
-161.299988
 21
-220.805481
  0
LINE
  8
0
 10
-162.099991
 20
-217.052795
 11
-162.099991
 21
-216.062836
  0
LINE
  8
0
 10
-169.499985
 20
-217.052795
 11
-169.499985
 21
-216.062836
  0
LINE
  8
0
 10
-169.499985
 20
-217.052795
 11
-162.099991
 21
-217.052795
  0
LINE
  8
0
 10
-167.299988
 20
-209.416031
 11
-164.299942
 21
-209.416031
  0
LINE
  8
0
 10
-169.299988
 20
-203.193481
 11
-167.299988
 21
-203.193481
  0
LINE
  8
0
 10
-169.299973
 20
-217.052795
 11
-169.299973
 21
-203.193481
  0
LINE
  8
0
 10
-162.299973
 20
-217.052795
 11
-162.299973
 21
-203.193497
  0
LINE
  8
0
 10
-164.299942
 20
-203.193481
 11
-162.299973
 21
-203.193481
  0
LINE
  8
0
 10
-162.299973
 20
-216.062836
 11
-160.299988
 21
-216.062836
  0
LINE
  8
0
 10
-177.299988
 20
-216.345673
 11
-177.299988
 21
-211.183823
  0
LINE
  8
0
 10
-155.299973
 20
-216.345673
 11
-155.299973
 21
-205.244095
  0
LINE
  8
0
 10
-152.799988
 20
-213.895935
 11
-152.799988
 21
-208.895935
  0
LINE
  8
0
 10
-167.299988
 20
-210.900955
 11
-164.299942
 21
-210.900955
  0
LINE
  8
0
 10
-167.299988
 20
-210.476685
 11
-164.299942
 21
-210.476685
  0
LINE
  8
0
 10
-167.299988
 20
-203.759171
 11
-164.299942
 21
-203.759171
  0
LINE
  8
0
 10
-162.299973
 20
-210.476685
 11
-158.299973
 21
-210.476685
  0
LINE
  8
0
 10
-162.299973
 20
-203.759171
 11
-158.299973
 21
-203.759171
  0
LINE
  8
0
 10
-158.299973
 20
-205.244095
 11
-155.299988
 21
-205.244095
  0
LINE
  8
0
 10
-155.299988
 20
-213.895935
 11
-152.799988
 21
-213.895935
  0
LINE
  8
0
 10
-152.799988
 20
-213.395935
 11
-137.722061
 21
-213.395935
  0
LINE
  8
0
 10
-152.799988
 20
-209.395935
 11
-137.722061
 21
-209.395935
  0
LINE
  8
0
 10
-155.299988
 20
-208.895935
 11
-152.799988
 21
-208.895935
  0
LINE
  8
0
 10
-162.299973
 20
-210.900955
 11
-155.299988
 21
-210.900955
  0
LINE
  8
0
 10
-170.299973
 20
-210.123138
 11
-169.299988
 21
-209.416046
  0
LINE
  8
0
 10
-170.299988
 20
-211.183777
 11
-169.300003
 21
-210.476685
  0
LINE
  8
0
 10
-180.299988
 20
-211.183838
 11
-170.299973
 21
-211.183838
  0
LINE
  8
0
 10
-180.299988
 20
-210.123169
 11
-170.299973
 21
-210.123169
  0
LINE
  8
0
 10
-180.299988
 20
-203.052094
 11
-170.299988
 21
-203.052094
  0
LINE
  8
0
 10
-170.299988
 20
-210.123169
 11
-170.299973
 21
-211.183823
  0
LINE
  8
0
 10
-170.300018
 20
-203.052124
 11
-169.300018
 21
-203.759216
  0
LINE
  8
0
 10
-202.300018
 20
-214.472626
 11
-199.300018
 21
-214.472626
  0
LINE
  8
0
 10
-200.800003
 20
-213.401123
 11
-199.300018
 21
-213.401123
  0
LINE
  8
0
 10
-202.300018
 20
-212.543213
 11
-199.300018
 21
-212.543213
  0
LINE
  8
0
 10
-202.300018
 20
-211.395920
 11
-195.000031
 21
-211.395920
  0
LINE
  8
0
 10
-202.300003
 20
-214.472626
 11
-202.300003
 21
-204.324860
  0
LINE
  8
0
 10
-200.800003
 20
-213.401123
 11
-200.800003
 21
-212.543213
  0
LINE
  8
0
 10
-199.300018
 20
-215.361633
 11
-199.300018
 21
-211.395920
  0
LINE
  8
0
 10
-195.300003
 20
-215.361633
 11
-195.300003
 21
-211.395920
  0
LINE
  8
0
 10
-195.300018
 20
-213.401123
 11
-195.000031
 21
-213.401123
  0
LINE
  8
0
 10
-195.300018
 20
-214.472626
 11
-195.000031
 21
-214.472626
  0
LINE
  8
0
 10
-195.300018
 20
-212.543213
 11
-195.000031
 21
-212.543213
  0
LINE
  8
0
 10
-199.300018
 20
-212.456589
 11
-195.300018
 21
-212.456589
  0
LINE
  8
0
 10
-199.300018
 20
-215.361633
 11
-195.300018
 21
-215.361633
  0
LINE
  8
0
 10
-199.300018
 20
-204.324860
 11
-199.300018
 21
-203.264191
  0
LINE
  8
0
 10
-195.300003
 20
-204.324860
 11
-195.300003
 21
-203.264191
  0
LINE
  8
0
 10
-199.300018
 20
-203.264191
 11
-195.300018
 21
-203.264191
  0
LINE
  8
0
 10
-202.300018
 20
-204.324860
 11
-198.352509
 21
-204.324860
  0
LINE
  8
0
 10
-199.300003
 20
-207.860382
 11
-199.300003
 21
-205.526932
  0
LINE
  8
0
 10
-195.300003
 20
-207.860397
 11
-195.300003
 21
-205.526932
  0
LINE
  8
0
 10
-196.246262
 20
-204.324860
 11
-195.000031
 21
-204.324860
  0
LINE
  8
0
 10
-169.299973
 20
-142.569397
 11
-169.299973
 21
-136.947937
  0
LINE
  8
0
 10
-163.299973
 20
-138.185333
 11
-163.299973
 21
-136.806488
  0
LINE
  8
0
 10
-169.499985
 20
-126.624161
 11
-162.099991
 21
-126.624161
  0
LINE
  8
0
 10
-170.299973
 20
-124.644257
 11
-161.299988
 21
-124.644257
  0
LINE
  8
0
 10
-170.299973
 20
-119.194519
 11
-161.299988
 21
-119.194519
  0
LINE
  8
0
 10
-169.499985
 20
-118.345978
 11
-162.099991
 21
-118.345978
  0
LINE
  8
0
 10
-169.499985
 20
-131.008224
 11
-162.099991
 21
-131.008224
  0
LINE
  8
0
 10
-161.599991
 20
-130.508224
 11
-161.599991
 21
-125.709961
  0
LINE
  8
0
 10
-160.799988
 20
-129.094009
 11
-160.799988
 21
-119.694519
  0
LINE
  8
0
 10
-169.999985
 20
-130.508224
 11
-169.999985
 21
-125.709961
  0
LINE
  8
0
 10
-170.799973
 20
-129.094009
 11
-170.799973
 21
-119.694519
  0
LINE
  8
0
 10
-169.499985
 20
-125.209961
 11
-162.099991
 21
-125.209961
  0
LINE
  8
0
 10
-171.299988
 20
-129.594009
 11
-169.999985
 21
-129.594009
  0
LINE
  8
0
 10
-169.999985
 20
-119.194519
 11
-169.999985
 21
-118.845978
  0
LINE
  8
0
 10
-161.599991
 20
-119.194519
 11
-161.599991
 21
-118.845978
  0
LINE
  8
0
 10
-161.599991
 20
-129.594009
 11
-160.299973
 21
-129.594009
  0
LINE
  8
0
 10
-177.299988
 20
-129.311157
 11
-171.299988
 21
-129.311157
  0
LINE
  8
0
 10
-160.299973
 20
-129.594009
 11
-160.299973
 21
-123.654312
  0
LINE
  8
0
 10
-171.299988
 20
-129.594009
 11
-171.299988
 21
-123.654312
  0
LINE
  8
0
 10
-162.299973
 20
-136.806503
 11
-162.299973
 21
-131.008224
  0
LINE
  8
0
 10
-169.299973
 20
-136.806488
 11
-169.299973
 21
-131.008224
  0
LINE
  8
0
 10
-160.299973
 20
-129.311157
 11
-155.299973
 21
-129.311157
  0
LINE
  8
0
 10
-164.299942
 20
-133.978073
 11
-164.299942
 21
-136.806488
  0
LINE
  8
0
 10
-167.299988
 20
-133.978058
 11
-167.299988
 21
-136.806488
  0
LINE
  8
0
 10
-169.299973
 20
-136.806488
 11
-167.299988
 21
-136.806488
  0
LINE
  8
0
 10
-164.299973
 20
-136.806488
 11
-162.299973
 21
-136.806488
  0
LINE
  8
0
 10
-155.299973
 20
-134.755890
 11
-155.299973
 21
-123.654312
  0
LINE
  8
0
 10
-187.300018
 20
-135.887283
 11
-187.300018
 21
-125.527374
  0
LINE
  8
0
 10
-177.299988
 20
-123.654312
 11
-171.299988
 21
-123.654312
  0
LINE
  8
0
 10
-171.299988
 20
-123.937149
 11
-170.799973
 21
-123.937149
  0
LINE
  8
0
 10
-160.799988
 20
-123.937149
 11
-160.299973
 21
-123.937149
  0
LINE
  8
0
 10
-160.299973
 20
-123.654312
 11
-155.299973
 21
-123.654312
  0
LINE
  8
0
 10
-177.299988
 20
-134.755890
 11
-169.299973
 21
-134.755890
  0
LINE
  8
0
 10
-167.299988
 20
-135.180145
 11
-164.299988
 21
-135.180145
  0
LINE
  8
0
 10
-167.299988
 20
-136.240814
 11
-164.299973
 21
-136.240814
  0
LINE
  8
0
 10
-167.299988
 20
-134.755890
 11
-164.299988
 21
-134.755890
  0
LINE
  8
0
 10
-162.299973
 20
-134.755890
 11
-155.299973
 21
-134.755890
  0
LINE
  8
0
 10
-162.299973
 20
-135.180145
 11
-158.299973
 21
-135.180145
  0
LINE
  8
0
 10
-162.299973
 20
-136.240814
 11
-158.299973
 21
-136.240814
  0
LINE
  8
0
 10
-170.299973
 20
-135.887299
 11
-169.299973
 21
-135.180191
  0
LINE
  8
0
 10
-170.299988
 20
-136.947937
 11
-169.300003
 21
-136.240845
  0
LINE
  8
0
 10
-188.799988
 20
-136.947937
 11
-170.299973
 21
-136.947937
  0
LINE
  8
0
 10
-187.300018
 20
-135.887283
 11
-170.299973
 21
-135.887283
  0
LINE
  8
0
 10
-170.299973
 20
-136.947937
 11
-170.299973
 21
-135.887283
  0
LINE
  8
0
 10
-152.799988
 20
-131.104065
 11
-152.799988
 21
-126.104065
  0
LINE
  8
0
 10
-155.299973
 20
-131.104065
 11
-152.799988
 21
-131.104065
  0
LINE
  8
0
 10
-152.799988
 20
-130.604065
 11
-137.722076
 21
-130.604065
  0
LINE
  8
0
 10
-152.799988
 20
-126.604057
 11
-137.722076
 21
-126.604057
  0
LINE
  8
0
 10
-155.299973
 20
-126.104057
 11
-152.799988
 21
-126.104057
  0
LINE
  8
0
 10
-200.800018
 20
-133.669937
 11
-199.300018
 21
-133.669937
  0
LINE
  8
0
 10
-202.300018
 20
-132.598450
 11
-199.300018
 21
-132.598450
  0
LINE
  8
0
 10
-202.300018
 20
-125.527374
 11
-199.300018
 21
-125.527374
  0
LINE
  8
0
 10
-202.300018
 20
-135.675140
 11
-202.300018
 21
-125.527374
  0
LINE
  8
0
 10
-200.800018
 20
-134.527863
 11
-200.800018
 21
-133.669937
  0
LINE
  8
0
 10
-199.300018
 20
-136.735809
 11
-199.300018
 21
-132.598450
  0
LINE
  8
0
 10
-195.300018
 20
-136.735809
 11
-195.300018
 21
-132.598450
  0
LINE
  8
0
 10
-195.300018
 20
-133.669937
 11
-188.800018
 21
-133.669937
  0
LINE
  8
0
 10
-199.300018
 20
-133.830750
 11
-195.300018
 21
-133.830750
  0
LINE
  8
0
 10
-199.300018
 20
-124.638367
 11
-195.300018
 21
-124.638367
  0
LINE
  8
0
 10
-195.300018
 20
-125.527374
 11
-187.300018
 21
-125.527374
  0
LINE
  8
0
 10
-195.300018
 20
-132.598450
 11
-187.300018
 21
-132.598450
  0
LINE
  8
0
 10
-199.300018
 20
-125.527374
 11
-199.300018
 21
-124.638367
  0
LINE
  8
0
 10
-195.300018
 20
-125.527374
 11
-195.300018
 21
-124.638367
  0
LINE
  8
0
 10
-199.300018
 20
-136.735809
 11
-195.300018
 21
-136.735809
  0
LINE
  8
0
 10
-202.300018
 20
-135.675140
 11
-199.300018
 21
-135.675140
  0
LINE
  8
0
 10
-202.300018
 20
-134.527863
 11
-199.300018
 21
-134.527863
  0
LINE
  8
0
 10
-195.300018
 20
-135.675140
 11
-195.000031
 21
-135.675140
  0
LINE
  8
0
 10
-195.300018
 20
-134.527863
 11
-195.000031
 21
-134.527863
  0
LINE
  8
0
 10
-171.500000
 20
-189.445435
 11
-173.815842
 21
-188.500000
  0
LINE
  8
0
 10
-169.184174
 20
-188.500000
 11
-171.500000
 21
-189.445419
  0
LINE
  8
0
 10
-171.499985
 20
-189.445435
 11
-171.499985
 21
-188.500000
  0
LINE
  8
0
 10
-169.299973
 20
-142.569397
 11
-162.099960
 21
-142.569397
  0
LINE
  8
0
 10
-169.299973
 20
-139.033859
 11
-162.099960
 21
-139.033859
  0
LINE
  8
0
 10
-169.299973
 20
-138.185333
 11
-163.299973
 21
-138.185333
  0
LINE
  8
0
 10
-188.799988
 20
-125.527374
 11
-188.799988
 21
-113.500000
  0
LINE
  8
0
 10
-195.000000
 20
-125.527374
 11
-195.000000
 21
-113.500000
  0
LINE
  8
0
 10
-188.799988
 20
-226.500000
 11
-188.799988
 21
-133.669937
  0
LINE
  8
0
 10
-195.000000
 20
-226.500000
 11
-195.000000
 21
-133.669937
  0
LINE
  8
0
 10
-163.299988
 20
-188.500000
 11
-163.299988
 21
-142.569397
  0
LINE
  8
0
 10
-162.099976
 20
-188.500000
 11
-162.099976
 21
-136.240814
  0
LINE
  8
0
 10
-179.499985
 20
-188.500000
 11
-162.099976
 21
-188.500000
  0
LINE
  8
0
 10
-179.499985
 20
-151.500000
 11
-163.299988
 21
-151.500000
  0
LINE
  8
0
 10
-195.000000
 20
-113.500000
 11
-188.799988
 21
-113.500000
  0
LINE
  8
0
 10
-161.299988
 20
-184.000000
 11
-161.299988
 21
-156.000000
  0
LINE
  8
0
 10
-162.099976
 20
-156.000000
 11
-161.299988
 21
-156.000000
  0
LINE
  8
0
 10
-162.099976
 20
-184.000000
 11
-161.299988
 21
-184.000000
  0
LINE
  8
0
 10
-179.499985
 20
-188.500000
 11
-179.499985
 21
-151.500000
  0
LINE
  8
0
 10
-195.000000
 20
-226.500000
 11
-188.799988
 21
-226.500000
  0
LINE
  8
0
 10
-177.299988
 20
-134.755890
 11
-177.299988
 21
-123.654312
  0
LINE
  8
0
 10
-187.300018
 20
-128.816208
 11
-177.299988
 21
-128.816208
  0
LINE
  8
0
 10
-137.722076
 20
-126.604057
 11
-137.722076
 21
-130.604065
  0
LINE
  8
0
 10
-137.722076
 20
-128.904053
 11
-134.722076
 21
-128.904053
  0
LINE
  8
0
 10
-137.722076
 20
-128.304062
 11
-134.722076
 21
-128.304062
  0
LINE
  8
0
 10
-137.722076
 20
-129.904053
 11
-134.722076
 21
-129.904053
  0
LINE
  8
0
 10
-137.722076
 20
-127.304062
 11
-134.722076
 21
-127.304062
  0
LINE
  8
0
 10
-134.722076
 20
-127.304062
 11
-134.722076
 21
-128.304062
  0
LINE
  8
0
 10
-134.722076
 20
-128.904053
 11
-134.722076
 21
-129.904053
  0
LINE
  8
0
 10
-134.722076
 20
-127.429062
 11
-133.222076
 21
-127.429062
  0
LINE
  8
0
 10
-134.722076
 20
-127.554062
 11
-133.222076
 21
-127.554062
  0
LINE
  8
0
 10
-134.722076
 20
-127.679062
 11
-133.222076
 21
-127.679062
  0
LINE
  8
0
 10
-134.722076
 20
-127.804062
 11
-133.222076
 21
-127.804062
  0
LINE
  8
0
 10
-134.722076
 20
-127.929062
 11
-133.222076
 21
-127.929062
  0
LINE
  8
0
 10
-134.722076
 20
-128.054062
 11
-133.222076
 21
-128.054062
  0
LINE
  8
0
 10
-134.722076
 20
-128.179062
 11
-133.222076
 21
-128.179062
  0
LINE
  8
0
 10
-134.722076
 20
-129.029053
 11
-133.222076
 21
-129.029053
  0
LINE
  8
0
 10
-134.722076
 20
-129.154053
 11
-133.222076
 21
-129.154053
  0
LINE
  8
0
 10
-134.722076
 20
-129.279053
 11
-133.222076
 21
-129.279053
  0
LINE
  8
0
 10
-134.722076
 20
-129.404053
 11
-133.222076
 21
-129.404053
  0
LINE
  8
0
 10
-134.722076
 20
-129.529053
 11
-133.222076
 21
-129.529053
  0
LINE
  8
0
 10
-134.722076
 20
-129.654053
 11
-133.222076
 21
-129.654053
  0
LINE
  8
0
 10
-134.722076
 20
-129.779053
 11
-133.222076
 21
-129.779053
  0
LINE
  8
0
 10
-137.722061
 20
-209.395935
 11
-137.722061
 21
-213.395935
  0
LINE
  8
0
 10
-137.722061
 20
-211.695938
 11
-134.722061
 21
-211.695938
  0
LINE
  8
0
 10
-137.722061
 20
-211.095947
 11
-134.722061
 21
-211.095947
  0
LINE
  8
0
 10
-137.722061
 20
-212.695938
 11
-134.722061
 21
-212.695938
  0
LINE
  8
0
 10
-137.722061
 20
-210.095947
 11
-134.722061
 21
-210.095947
  0
LINE
  8
0
 10
-134.722061
 20
-210.095947
 11
-134.722061
 21
-211.095947
  0
LINE
  8
0
 10
-134.722061
 20
-211.695938
 11
-134.722061
 21
-212.695938
  0
LINE
  8
0
 10
-134.722061
 20
-210.220947
 11
-133.222061
 21
-210.220947
  0
LINE
  8
0
 10
-134.722061
 20
-210.345947
 11
-133.222061
 21
-210.345947
  0
LINE
  8
0
 10
-134.722061
 20
-210.470947
 11
-133.222061
 21
-210.470947
  0
LINE
  8
0
 10
-134.722061
 20
-210.595947
 11
-133.222061
 21
-210.595947
  0
LINE
  8
0
 10
-134.722061
 20
-210.720947
 11
-133.222061
 21
-210.720947
  0
LINE
  8
0
 10
-134.722061
 20
-210.845947
 11
-133.222061
 21
-210.845947
  0
LINE
  8
0
 10
-134.722061
 20
-210.970947
 11
-133.222061
 21
-210.970947
  0
LINE
  8
0
 10
-134.722061
 20
-211.820938
 11
-133.222061
 21
-211.820938
  0
LINE
  8
0
 10
-134.722061
 20
-211.945938
 11
-133.222061
 21
-211.945938
  0
LINE
  8
0
 10
-134.722061
 20
-212.070938
 11
-133.222061
 21
-212.070938
  0
LINE
  8
0
 10
-134.722061
 20
-212.195938
 11
-133.222061
 21
-212.195938
  0
LINE
  8
0
 10
-134.722061
 20
-212.320938
 11
-133.222061
 21
-212.320938
  0
LINE
  8
0
 10
-134.722061
 20
-212.445938
 11
-133.222061
 21
-212.445938
  0
LINE
  8
0
 10
-134.722061
 20
-212.570938
 11
-133.222061
 21
-212.570938
  0
LINE
  8
0
 10
-180.299988
 20
-123.000000
 11
-180.299988
 21
-128.816208
  0
LINE
  8
0
 10
-187.199982
 20
-120.300003
 11
-187.199982
 21
-128.816208
  0
LINE
  8
0
 10
-180.925201
 20
-121.917099
 11
-185.799988
 21
-121.917099
  0
LINE
  8
0
 10
-180.925201
 20
-125.958542
 11
-186.574783
 21
-125.958542
  0
LINE
  8
0
 10
-180.925201
 20
-138.082901
 11
-185.799988
 21
-138.082901
  0
LINE
  8
0
 10
-180.269943
 20
-136.947937
 11
-180.925217
 21
-138.082901
  0
LINE
  8
0
 10
-180.925217
 20
-121.917084
 11
-180.300003
 21
-122.999992
  0
LINE
  8
0
 10
-180.299988
 20
-203.000000
 11
-180.299988
 21
-217.000000
  0
LINE
  8
0
 10
-187.199982
 20
-200.300003
 11
-187.199982
 21
-219.699997
  0
LINE
  8
0
 10
-180.925201
 20
-201.917099
 11
-185.799988
 21
-201.917099
  0
LINE
  8
0
 10
-180.925201
 20
-205.958542
 11
-186.574783
 21
-205.958542
  0
LINE
  8
0
 10
-180.925201
 20
-214.041443
 11
-186.574783
 21
-214.041443
  0
LINE
  8
0
 10
-180.925201
 20
-218.082901
 11
-185.799988
 21
-218.082901
  0
LINE
  8
0
 10
-180.300003
 20
-217.000000
 11
-180.925217
 21
-218.082901
  0
LINE
  8
0
 10
-180.925217
 20
-201.917099
 11
-180.300003
 21
-203.000000
  0
LINE
  8
0
 10
-187.199982
 20
-136.947937
 11
-187.199982
 21
-139.699997
  0
LINE
  8
0
 10
-207.500000
 20
-115.000000
 11
-207.500000
 21
-225.000000
  0
LINE
  8
0
 10
-204.800003
 20
-219.000000
 11
-195.000000
 21
-219.000000
  0
LINE
  8
0
 10
-203.000000
 20
-199.000000
 11
-195.000000
 21
-199.000000
  0
LINE
  8
0
 10
-203.000000
 20
-141.000000
 11
-195.000000
 21
-141.000000
  0
LINE
  8
0
 10
-204.800003
 20
-121.000000
 11
-195.000000
 21
-121.000000
  0
LINE
  8
0
 10
-207.500092
 20
-224.999954
 11
-204.800095
 21
-218.999954
  0
LINE
  8
0
 10
-207.500092
 20
-115.000046
 11
-204.800095
 21
-121.000046
  0
LINE
  8
0
 10
-203.000000
 20
-125.699997
 11
-203.000000
 21
-141.000000
  0
LINE
  8
0
 10
-203.000000
 20
-199.000000
 11
-203.000000
 21
-214.300003
  0
LINE
  8
0
 10
-203.000000
 20
-154.697144
 11
-203.000000
 21
-185.302856
  0
LINE
  8
0
 10
-183.050003
 20
-182.499985
 11
-183.000000
 21
-182.449982
  0
LINE
  8
0
 10
-160.800125
 20
-157.592590
 11
-160.000122
 21
-158.369568
  0
LINE
  8
0
 10
-160.799988
 20
-182.407516
 11
-159.999985
 21
-181.630539
  0
LINE
  8
0
 10
-186.500000
 20
-147.800003
 11
-186.500000
 21
-192.199997
  0
LINE
  8
0
 10
-188.799988
 20
-192.500000
 11
-186.800003
 21
-192.500000
  0
LINE
  8
0
 10
-186.500000
 20
-182.500000
 11
-183.050003
 21
-182.500000
  0
LINE
  8
0
 10
-188.799988
 20
-147.500000
 11
-186.800003
 21
-147.500000
  0
LINE
  8
0
 10
-186.800018
 20
-192.499985
 11
-186.500015
 21
-192.199982
  0
LINE
  8
0
 10
-186.799988
 20
-147.500031
 11
-186.499985
 21
-147.800049
  0
LINE
  8
0
 10
-161.299988
 20
-171.027496
 11
-160.800003
 21
-171.027496
  0
LINE
  8
0
 10
-161.299988
 20
-168.972504
 11
-160.800003
 21
-168.972504
  0
LINE
  8
0
 10
-179.499985
 20
-167.630508
 11
-182.000015
 21
-168.972504
  0
LINE
  8
0
 10
-161.299988
 20
-168.704178
 11
-160.800049
 21
-168.972534
  0
LINE
  8
0
 10
-161.299988
 20
-171.295898
 11
-160.799973
 21
-171.027496
  0
LINE
  8
0
 10
-179.499985
 20
-172.369461
 11
-182.000107
 21
-171.027420
  0
LINE
  8
0
 10
-161.299988
 20
-182.407516
 11
-160.800003
 21
-182.407516
  0
LINE
  8
0
 10
-160.000000
 20
-158.350006
 11
-160.000000
 21
-181.649994
  0
LINE
  8
0
 10
-183.000000
 20
-182.449997
 11
-179.499985
 21
-182.449997
  0
LINE
  8
0
 10
-183.000000
 20
-157.550003
 11
-179.499985
 21
-157.550003
  0
LINE
  8
0
 10
-160.799957
 20
-182.450043
 11
-159.999954
 21
-181.650040
  0
LINE
  8
0
 10
-160.799988
 20
-157.549973
 11
-159.999969
 21
-158.349976
  0
LINE
  8
0
 10
-160.800003
 20
-157.550003
 11
-160.800003
 21
-182.449997
  0
LINE
  8
0
 10
-182.999969
 20
-157.549973
 11
-183.049957
 21
-157.499969
  0
LINE
  8
0
 10
-183.050003
 20
-182.499985
 11
-183.000000
 21
-182.449982
  0
LINE
  8
0
 10
-161.299988
 20
-168.972504
 11
-160.800003
 21
-168.972504
  0
LINE
  8
0
 10
-161.299988
 20
-157.592468
 11
-160.800003
 21
-157.592468
  0
LINE
  8
0
 10
-182.000107
 20
-168.972504
 11
-179.499985
 21
-168.972504
  0
LINE
  8
0
 10
-182.000107
 20
-171.027496
 11
-179.499985
 21
-171.027496
  0
LINE
  8
0
 10
-182.000107
 20
-182.407516
 11
-179.499985
 21
-182.407516
  0
LINE
  8
0
 10
-181.991379
 20
-157.592468
 11
-179.499985
 21
-157.592468
  0
LINE
  8
0
 10
-182.000107
 20
-157.592468
 11
-179.499985
 21
-158.934525
  0
LINE
  8
0
 10
-160.799973
 20
-157.592453
 11
-161.299988
 21
-157.860855
  0
LINE
  8
0
 10
-160.800003
 20
-182.407501
 11
-161.299988
 21
-182.139099
  0
LINE
  8
0
 10
-182.000107
 20
-182.407593
 11
-179.499985
 21
-181.065536
  0
LINE
  8
0
 10
-160.800003
 20
-171.027512
 11
-160.000015
 21
-170.673141
  0
LINE
  8
0
 10
-159.999908
 20
-169.326736
 11
-160.799896
 21
-168.972366
  0
LINE
  8
0
 10
-160.799988
 20
-182.407516
 11
-159.999985
 21
-181.630539
  0
LINE
  8
0
 10
-160.800125
 20
-157.592590
 11
-160.000122
 21
-158.369568
  0
LINE
  8
0
 10
-161.299988
 20
-157.550003
 11
-160.800003
 21
-157.550003
  0
LINE
  8
0
 10
-161.299988
 20
-157.592468
 11
-160.800003
 21
-157.592468
  0
LINE
  8
0
 10
-161.299988
 20
-182.449997
 11
-160.800003
 21
-182.449997
  0
LINE
  8
0
 10
-186.500000
 20
-157.500000
 11
-183.050003
 21
-157.500000
  0
LINE
  8
0
 10
-182.000107
 20
-157.592468
 11
-182.000107
 21
-182.407593
  0
LINE
  8
0
 10
-158.299973
 20
-136.240814
 11
-158.299973
 21
-134.755890
  0
LINE
  8
0
 10
-162.299973
 20
-209.416031
 11
-158.299973
 21
-209.416031
  0
LINE
  8
0
 10
-158.299973
 20
-210.476685
 11
-158.299973
 21
-203.759186
  0
ARC
  8
0
 10
-169.499985
 20
-221.154007
 40
0.500000
 50
180.000000
 51
270.000000
  0
ARC
  8
0
 10
-162.099991
 20
-221.154007
 40
0.500000
 50
270.000000
 51
0.000000
  0
ARC
  8
0
 10
-162.099991
 20
-216.977051
 40
0.500000
 50
270.000000
 51
0.000000
  0
ARC
  8
0
 10
-169.499985
 20
-216.977051
 40
0.500000
 50
180.000000
 51
270.000000
  0
ARC
  8
0
 10
-161.299988
 20
-220.305481
 40
0.500000
 50
270.000000
 51
0.000000
  0
ARC
  8
0
 10
-170.299988
 20
-220.305481
 40
0.500000
 50
180.000000
 51
270.000000
  0
ARC
  8
0
 10
-169.499985
 20
-130.508224
 40
0.500000
 50
180.000000
 51
270.000000
  0
ARC
  8
0
 10
-162.099976
 20
-130.508224
 40
0.500000
 50
270.000000
 51
0.000000
  0
ARC
  8
0
 10
-161.299988
 20
-129.094009
 40
0.500000
 50
270.000000
 51
0.000000
  0
ARC
  8
0
 10
-170.299973
 20
-129.094009
 40
0.500000
 50
180.000000
 51
270.000000
  0
ARC
  8
0
 10
-170.299973
 20
-119.694519
 40
0.500000
 50
90.000000
 51
180.000000
  0
ARC
  8
0
 10
-161.299988
 20
-119.694519
 40
0.500000
 50
0.000000
 51
90.000000
  0
ARC
  8
0
 10
-162.099976
 20
-118.845978
 40
0.500000
 50
0.000000
 51
90.000000
  0
ARC
  8
0
 10
-169.499985
 20
-118.845978
 40
0.500000
 50
90.000000
 51
180.000000
  0
ARC
  8
0
 10
-162.099976
 20
-125.709961
 40
0.500000
 50
0.000000
 51
90.000000
  0
ARC
  8
0
 10
-169.499985
 20
-125.709961
 40
0.500000
 50
90.000000
 51
180.000000
  0
ARC
  8
0
 10
-188.000000
 20
-120.300003
 40
0.800003
 50
0.000000
 51
180.000000
  0
ARC
  8
0
 10
-188.000000
 20
-139.699997
 40
0.799988
 50
180.000000
 51
0.000000
  0
ARC
  8
0
 10
-193.674789
 20
-130.000000
 40
13.374803
 50
5.077844
 51
17.587957
  0
ARC
  8
0
 10
-186.797714
 20
-123.172211
 40
6.500007
 50
334.617004
 51
1.518167
  0
ARC
  8
0
 10
-185.799988
 20
-120.517097
 40
1.399994
 50
180.000000
 51
270.000000
  0
ARC
  8
0
 10
-185.799988
 20
-139.482910
 40
1.400009
 50
90.000000
 51
180.000000
  0
ARC
  8
0
 10
-180.702271
 20
-123.172211
 40
6.499993
 50
178.481766
 51
205.382935
  0
ARC
  8
0
 10
-173.825195
 20
-130.000000
 40
13.374794
 50
162.411957
 51
174.922150
  0
ARC
  8
0
 10
-180.702271
 20
-216.827789
 40
6.499997
 50
154.616882
 51
181.518173
  0
ARC
  8
0
 10
-188.000000
 20
-200.300003
 40
0.800003
 50
0.000000
 51
180.000000
  0
ARC
  8
0
 10
-188.000000
 20
-219.699997
 40
0.799988
 50
180.000000
 51
0.000000
  0
ARC
  8
0
 10
-193.674789
 20
-210.000000
 40
13.374799
 50
342.412109
 51
17.587957
  0
ARC
  8
0
 10
-186.797714
 20
-203.172211
 40
6.500010
 50
334.616943
 51
1.518167
  0
ARC
  8
0
 10
-186.797714
 20
-216.827789
 40
6.500008
 50
358.481842
 51
25.383116
  0
ARC
  8
0
 10
-185.799988
 20
-200.517090
 40
1.399994
 50
180.000000
 51
270.000000
  0
ARC
  8
0
 10
-185.799988
 20
-219.482910
 40
1.400009
 50
90.000000
 51
180.000000
  0
ARC
  8
0
 10
-180.702271
 20
-203.172211
 40
6.499993
 50
178.481827
 51
205.382935
  0
ARC
  8
0
 10
-173.825195
 20
-210.000000
 40
13.374794
 50
162.411957
 51
197.587891
  0
ARC
  8
0
 10
-189.600006
 20
-192.899994
 40
0.399994
 50
89.997818
 51
180.000000
  0
ARC
  8
0
 10
-166.544296
 20
-212.244461
 40
0.755707
 50
180.000000
 51
194.105835
  0
ARC
  8
0
 10
-166.346741
 20
-212.172043
 40
0.965197
 50
195.417099
 51
231.388718
  0
ARC
  8
0
 10
-165.799988
 20
-211.373230
 40
1.931886
 50
233.502457
 51
306.497528
  0
ARC
  8
0
 10
-165.253235
 20
-212.172043
 40
0.965189
 50
308.611298
 51
344.582031
  0
ARC
  8
0
 10
-165.055679
 20
-212.244461
 40
0.755700
 50
345.893036
 51
0.000000
  0
ARC
  8
0
 10
-196.506088
 20
-205.526932
 40
0.806076
 50
345.893799
 51
14.106215
  0
ARC
  8
0
 10
-196.716827
 20
-205.604187
 40
1.029558
 50
15.417702
 51
51.388199
  0
ARC
  8
0
 10
-197.300018
 20
-206.456238
 40
2.060682
 50
53.502182
 51
126.497818
  0
ARC
  8
0
 10
-197.883209
 20
-205.604187
 40
1.029559
 50
128.611801
 51
164.582306
  0
ARC
  8
0
 10
-198.093948
 20
-205.526932
 40
0.806076
 50
165.893784
 51
194.106216
  0
ARC
  8
0
 10
-197.883209
 20
-205.449677
 40
1.029558
 50
195.417694
 51
231.388199
  0
ARC
  8
0
 10
-197.300018
 20
-204.597626
 40
2.060682
 50
233.502182
 51
306.497833
  0
ARC
  8
0
 10
-196.716827
 20
-205.449677
 40
1.029559
 50
308.611786
 51
344.582306
  0
ARC
  8
0
 10
-196.307617
 20
-205.526932
 40
1.007603
 50
345.893677
 51
14.106320
  0
ARC
  8
0
 10
-196.571014
 20
-205.623505
 40
1.286932
 50
15.418255
 51
51.389103
  0
ARC
  8
0
 10
-197.300018
 20
-206.688568
 40
2.575851
 50
53.502369
 51
126.497635
  0
ARC
  8
0
 10
-198.029022
 20
-205.623489
 40
1.286926
 50
128.611328
 51
164.582397
  0
ARC
  8
0
 10
-198.292419
 20
-205.526932
 40
1.007603
 50
165.893677
 51
194.106323
  0
ARC
  8
0
 10
-198.029022
 20
-205.430359
 40
1.286932
 50
195.418259
 51
231.389099
  0
ARC
  8
0
 10
-197.300018
 20
-204.365295
 40
2.575851
 50
233.502365
 51
306.497620
  0
ARC
  8
0
 10
-196.571014
 20
-205.430374
 40
1.286926
 50
308.611328
 51
344.582397
  0
ARC
  8
0
 10
-198.292419
 20
-207.860382
 40
1.007601
 50
179.895020
 51
194.106323
  0
ARC
  8
0
 10
-198.029022
 20
-207.763809
 40
1.286932
 50
195.418259
 51
231.389099
  0
ARC
  8
0
 10
-197.300018
 20
-206.698746
 40
2.575851
 50
233.502365
 51
306.497620
  0
ARC
  8
0
 10
-196.571014
 20
-207.763824
 40
1.286926
 50
308.611328
 51
344.582397
  0
ARC
  8
0
 10
-196.307617
 20
-207.860382
 40
1.007603
 50
345.893677
 51
0.125812
  0
ARC
  8
0
 10
-165.055679
 20
-133.978058
 40
0.755692
 50
0.000000
 51
14.106952
  0
ARC
  8
0
 10
-165.253235
 20
-134.050476
 40
0.965201
 50
15.417976
 51
51.388714
  0
ARC
  8
0
 10
-165.799988
 20
-134.849289
 40
1.931886
 50
53.502457
 51
126.497543
  0
ARC
  8
0
 10
-166.346741
 20
-134.050476
 40
0.965189
 50
128.611282
 51
164.582901
  0
ARC
  8
0
 10
-166.544296
 20
-133.978058
 40
0.755696
 50
165.894165
 51
180.001160
  0
ARC
  8
0
 10
-196.480316
 20
-129.062897
 40
2.130293
 50
3.762343
 51
11.774097
  0
ARC
  8
0
 10
-196.697876
 20
-129.129379
 40
2.356925
 50
12.277066
 51
45.306484
  0
ARC
  8
0
 10
-197.300003
 20
-129.862473
 40
3.302725
 50
46.825577
 51
133.175919
  0
ARC
  8
0
 10
-197.902161
 20
-129.129395
 40
2.356928
 50
134.694824
 51
167.724457
  0
ARC
  8
0
 10
-198.119720
 20
-129.062927
 40
2.130292
 50
168.227188
 51
183.762344
  0
ARC
  8
0
 10
-173.581299
 20
-126.482742
 40
0.425082
 50
345.892914
 51
14.106079
  0
ARC
  8
0
 10
-173.692429
 20
-126.523483
 40
0.542930
 50
15.417746
 51
51.388477
  0
ARC
  8
0
 10
-173.999969
 20
-126.972809
 40
1.086684
 50
53.502438
 51
126.497322
  0
ARC
  8
0
 10
-174.307510
 20
-126.523476
 40
0.542927
 50
128.611526
 51
164.582260
  0
ARC
  8
0
 10
-174.418640
 20
-126.482742
 40
0.425082
 50
165.892929
 51
194.106079
  0
ARC
  8
0
 10
-174.307510
 20
-126.442001
 40
0.542930
 50
195.417740
 51
231.388474
  0
ARC
  8
0
 10
-173.999969
 20
-125.992676
 40
1.086684
 50
233.502441
 51
306.497314
  0
ARC
  8
0
 10
-173.692429
 20
-126.442009
 40
0.542927
 50
308.611511
 51
344.582245
  0
ARC
  8
0
 10
-198.763809
 20
-129.062912
 40
1.486205
 50
174.646164
 51
194.107147
  0
ARC
  8
0
 10
-198.375275
 20
-128.920486
 40
1.898241
 50
195.418152
 51
231.388535
  0
ARC
  8
0
 10
-197.300034
 20
-127.349533
 40
3.799351
 50
233.502426
 51
306.498230
  0
ARC
  8
0
 10
-196.224762
 20
-128.920471
 40
1.898228
 50
308.611755
 51
344.582306
  0
ARC
  8
0
 10
-195.836227
 20
-129.062912
 40
1.486205
 50
345.893982
 51
5.331355
  0
ARC
  8
0
 10
-197.300064
 20
-132.464417
 40
4.532885
 50
65.111465
 51
114.901741
  0
ARC
  8
0
 10
-173.255661
 20
-126.482742
 40
0.755698
 50
345.893616
 51
14.106391
  0
ARC
  8
0
 10
-173.453217
 20
-126.555168
 40
0.965201
 50
15.417976
 51
51.388996
  0
ARC
  8
0
 10
-173.999969
 20
-127.353966
 40
1.931880
 50
53.502323
 51
126.497673
  0
ARC
  8
0
 10
-174.546722
 20
-126.555168
 40
0.965195
 50
128.611008
 51
164.582031
  0
ARC
  8
0
 10
-174.744278
 20
-126.482742
 40
0.755698
 50
165.893616
 51
194.106384
  0
ARC
  8
0
 10
-174.546722
 20
-126.410316
 40
0.965201
 50
195.417969
 51
231.388992
  0
ARC
  8
0
 10
-173.999969
 20
-125.611519
 40
1.931880
 50
233.502319
 51
306.497681
  0
ARC
  8
0
 10
-173.453217
 20
-126.410316
 40
0.965195
 50
308.610992
 51
344.582031
  0
ARC
  8
0
 10
-164.980255
 20
-121.815826
 40
2.130294
 50
3.762753
 51
11.773612
  0
ARC
  8
0
 10
-165.197815
 20
-121.882294
 40
2.356934
 50
12.276262
 51
45.305832
  0
ARC
  8
0
 10
-165.799957
 20
-122.615395
 40
3.302735
 50
46.825008
 51
133.175171
  0
ARC
  8
0
 10
-166.402100
 20
-121.882294
 40
2.356923
 50
134.694427
 51
167.724106
  0
ARC
  8
0
 10
-166.619659
 20
-121.815826
 40
2.130295
 50
168.226791
 51
183.763168
  0
ARC
  8
0
 10
-167.263748
 20
-121.815834
 40
1.486205
 50
174.645874
 51
194.106293
  0
ARC
  8
0
 10
-166.875214
 20
-121.673401
 40
1.898237
 50
195.417709
 51
231.388382
  0
ARC
  8
0
 10
-165.799957
 20
-120.102455
 40
3.799348
 50
233.502106
 51
306.497894
  0
ARC
  8
0
 10
-164.724701
 20
-121.673401
 40
1.898234
 50
308.611603
 51
344.582062
  0
ARC
  8
0
 10
-164.336166
 20
-121.815834
 40
1.486209
 50
345.893433
 51
5.331355
  0
ARC
  8
0
 10
-165.799988
 20
-125.217346
 40
4.532872
 50
65.111595
 51
114.901993
  0
ARC
  8
0
 10
-172.492050
 20
-188.031189
 40
3.577659
 50
187.525421
 51
191.305328
  0
ARC
  8
0
 10
-172.228714
 20
-187.953964
 40
3.851100
 50
191.663925
 51
223.964401
  0
ARC
  8
0
 10
-171.499969
 20
-187.102219
 40
4.968077
 50
225.200333
 51
314.798431
  0
ARC
  8
0
 10
-170.771240
 20
-187.953979
 40
3.851099
 50
316.034332
 51
348.335083
  0
ARC
  8
0
 10
-170.507919
 20
-188.031219
 40
3.577653
 50
348.693909
 51
352.460999
  0
ARC
  8
0
 10
-172.411240
 20
-187.910507
 40
1.608663
 50
201.465240
 51
231.389084
  0
ARC
  8
0
 10
-171.500000
 20
-186.579163
 40
3.219798
 50
233.502747
 51
306.498077
  0
ARC
  8
0
 10
-170.588745
 20
-187.910492
 40
1.608672
 50
308.611755
 51
338.564545
  0
ARC
  8
0
 10
-173.767502
 20
-188.031204
 40
2.302215
 50
191.767441
 51
194.106247
  0
ARC
  8
0
 10
-173.165649
 20
-187.810562
 40
2.940459
 50
195.417816
 51
231.388535
  0
ARC
  8
0
 10
-171.499985
 20
-185.377014
 40
5.885451
 50
233.502304
 51
306.497620
  0
ARC
  8
0
 10
-169.834320
 20
-187.810562
 40
2.940460
 50
308.611298
 51
344.581909
  0
ARC
  8
0
 10
-169.232468
 20
-188.031204
 40
2.302214
 50
345.893402
 51
348.256989
  0
POLYLINE
  8
0
 66
     1
  0
VERTEX
  8
0
 10
-204.800003
 20
-121.000000
  0
VERTEX
  8
0
 10
-204.698212
 20
-121.279449
  0
VERTEX
  8
0
 10
-204.570496
 20
-121.625343
  0
VERTEX
  8
0
 10
-204.357239
 20
-122.193810
  0
VERTEX
  8
0
 10
-204.134003
 20
-122.782364
  0
VERTEX
  8
0
 10
-203.889709
 20
-123.426392
  0
VERTEX
  8
0
 10
-203.630005
 20
-124.104683
  0
VERTEX
  8
0
 10
-203.317841
 20
-124.903458
  0
VERTEX
  8
0
 10
-203.000000
 20
-125.699997
  0
SEQEND
  0
POLYLINE
  8
0
 66
     1
  0
VERTEX
  8
0
 10
-204.800003
 20
-219.000000
  0
VERTEX
  8
0
 10
-204.698212
 20
-218.720551
  0
VERTEX
  8
0
 10
-204.570496
 20
-218.374664
  0
VERTEX
  8
0
 10
-204.357239
 20
-217.806198
  0
VERTEX
  8
0
 10
-204.134003
 20
-217.217636
  0
VERTEX
  8
0
 10
-203.889709
 20
-216.573608
  0
VERTEX
  8
0
 10
-203.630005
 20
-215.895325
  0
VERTEX
  8
0
 10
-203.317841
 20
-215.096542
  0
VERTEX
  8
0
 10
-203.000000
 20
-214.300003
  0
SEQEND
  0
POLYLINE
  8
0
 66
     1
  0
VERTEX
  8
0
 10
-203.000000
 20
-185.302856
  0
VERTEX
  8
0
 10
-203.251724
 20
-185.971634
  0
VERTEX
  8
0
 10
-203.486679
 20
-186.646606
  0
VERTEX
  8
0
 10
-203.724503
 20
-187.382919
  0
VERTEX
  8
0
 10
-203.984055
 20
-188.249451
  0
VERTEX
  8
0
 10
-204.214157
 20
-189.123962
  0
VERTEX
  8
0
 10
-204.408508
 20
-190.027542
  0
VERTEX
  8
0
 10
-204.562408
 20
-190.997131
  0
VERTEX
  8
0
 10
-204.669357
 20
-191.973114
  0
VERTEX
  8
0
 10
-204.737000
 20
-192.920105
  0
VERTEX
  8
0
 10
-204.772171
 20
-193.816025
  0
VERTEX
  8
0
 10
-204.781281
 20
-194.715286
  0
VERTEX
  8
0
 10
-204.764008
 20
-195.564743
  0
VERTEX
  8
0
 10
-204.715332
 20
-196.286819
  0
VERTEX
  8
0
 10
-204.594711
 20
-196.991226
  0
VERTEX
  8
0
 10
-204.359009
 20
-197.630859
  0
VERTEX
  8
0
 10
-203.774963
 20
-198.401871
  0
VERTEX
  8
0
 10
-203.000000
 20
-199.000000
  0
SEQEND
  0
POLYLINE
  8
0
 66
     1
  0
VERTEX
  8
0
 10
-203.000000
 20
-141.000000
  0
VERTEX
  8
0
 10
-203.769928
 20
-141.588440
  0
VERTEX
  8
0
 10
-204.359009
 20
-142.369141
  0
VERTEX
  8
0
 10
-204.599930
 20
-142.999908
  0
VERTEX
  8
0
 10
-204.716782
 20
-143.678207
  0
VERTEX
  8
0
 10
-204.764008
 20
-144.435257
  0
VERTEX
  8
0
 10
-204.783356
 20
-145.315613
  0
VERTEX
  8
0
 10
-204.774017
 20
-146.184708
  0
VERTEX
  8
0
 10
-204.737000
 20
-147.079895
  0
VERTEX
  8
0
 10
-204.667038
 20
-148.053040
  0
VERTEX
  8
0
 10
-204.559402
 20
-149.025772
  0
VERTEX
  8
0
 10
-204.408508
 20
-149.972458
  0
VERTEX
  8
0
 10
-204.210770
 20
-150.881668
  0
VERTEX
  8
0
 10
-203.973572
 20
-151.781433
  0
VERTEX
  8
0
 10
-203.724503
 20
-152.617081
  0
VERTEX
  8
0
 10
-203.498398
 20
-153.315964
  0
VERTEX
  8
0
 10
-203.257584
 20
-154.009644
  0
VERTEX
  8
0
 10
-203.000000
 20
-154.697144
  0
SEQEND
  0
POINT
  8
0
 10
-40.000000
 20
-30.000000
  0
POINT
  8
0
 10
30.750000
 20
-30.000000
  0
LINE
  8
0
 10
-70.794487
 20
-69.916168
 11
-79.916161
 21
-60.794498
  0
LINE
  8
0
 10
-67.258942
 20
-66.380630
 11
-68.107475
 21
-65.532089
  0
LINE
  8
0
 10
-67.258980
 20
-66.380615
 11
-70.794518
 21
-69.916153
  0
LINE
  8
0
 10
-76.380653
 20
-57.258961
 11
-79.916183
 21
-60.794495
  0
LINE
  8
0
 10
-68.814621
 20
-66.239204
 11
-70.935936
 21
-68.360519
  0
LINE
  8
0
 10
-76.239227
 20
-58.814590
 11
-78.360550
 21
-60.935913
  0
LINE
  8
0
 10
-66.162971
 20
-58.991356
 11
-70.405609
 21
-63.233997
  0
LINE
  8
0
 10
-68.991394
 20
-56.162933
 11
-73.234039
 21
-60.405571
  0
LINE
  8
0
 10
-66.162964
 20
-58.991371
 11
-68.991386
 21
-56.162949
  0
LINE
  8
0
 10
-69.557076
 20
-62.385490
 11
-72.385506
 21
-59.557060
  0
LINE
  8
0
 10
-75.532097
 20
-58.107471
 11
-76.380623
 21
-57.258945
  0
LINE
  8
0
 10
-71.112679
 20
-62.526886
 11
-72.526894
 21
-61.112675
  0
LINE
  8
0
 10
-23.383018
 20
-20.454084
 11
-30.454086
 21
-13.383017
  0
LINE
  8
0
 10
-21.028236
 20
-17.151974
 11
-27.151966
 21
-11.028244
  0
LINE
  8
0
 10
-20.828039
 20
-17.899078
 11
-23.382994
 21
-20.454033
  0
LINE
  8
0
 10
-27.899101
 20
-10.828009
 11
-30.454060
 21
-13.382969
  0
LINE
  8
0
 10
-22.796009
 20
-16.331512
 11
-25.150763
 21
-18.686264
  0
LINE
  8
0
 10
-26.331535
 20
-12.795986
 11
-28.686295
 21
-15.150744
  0
LINE
  8
0
 10
-21.028280
 20
-17.151966
 11
-20.828083
 21
-17.899113
  0
LINE
  8
0
 10
-27.151966
 20
-11.028330
 11
-27.899109
 21
-10.828133
  0
LINE
  8
0
 10
-18.875191
 20
-15.062393
 11
-25.062374
 21
-8.875210
  0
LINE
  8
0
 10
-23.736544
 20
-10.200972
 11
-25.857872
 21
-12.322306
  0
LINE
  8
0
 10
-20.200991
 20
-13.736526
 11
-22.322315
 21
-15.857854
  0
LINE
  8
0
 10
-20.554539
 20
-13.382980
 11
-22.675861
 21
-15.504308
  0
LINE
  8
0
 10
-23.382969
 20
-10.554565
 11
-25.504288
 21
-12.675888
  0
LINE
  8
0
 10
-5.180130
 20
10.476707
 11
0.476723
 21
4.819851
  0
LINE
  8
0
 10
10.659054
 20
15.002171
 11
-0.583942
 21
3.759182
  0
LINE
  8
0
 10
5.002213
 20
20.659019
 11
-6.240788
 21
9.416027
  0
LINE
  8
0
 10
0.688866
 20
16.345692
 11
6.345718
 21
10.688835
  0
LINE
  8
0
 10
-6.240799
 20
9.416027
 11
-0.583950
 21
3.759171
  0
LINE
  8
0
 10
-6.806492
 20
9.416054
 11
-0.583954
 21
3.193508
  0
LINE
  8
0
 10
6.345718
 20
10.123127
 11
-0.583920
 21
3.193493
  0
LINE
  8
0
 10
0.123173
 20
16.345688
 11
-6.806469
 21
9.416054
  0
LINE
  8
0
 10
-4.755867
 20
10.900970
 11
0.900986
 21
5.244114
  0
LINE
  8
0
 10
-1.008175
 20
17.477051
 11
0.406036
 21
16.062836
  0
LINE
  8
0
 10
5.709312
 20
20.659031
 11
10.659061
 21
15.709282
  0
LINE
  8
0
 10
3.729443
 20
21.507584
 11
4.790100
 21
20.446922
  0
LINE
  8
0
 10
6.062889
 20
10.405979
 11
7.477100
 21
8.991764
  0
LINE
  8
0
 10
11.507576
 20
13.022270
 11
7.477081
 21
8.991776
  0
LINE
  8
0
 10
3.022324
 20
21.507576
 11
-1.008175
 21
17.477081
  0
LINE
  8
0
 10
10.446960
 20
14.790062
 11
11.507614
 21
13.729408
  0
LINE
  8
0
 10
-4.826660
 20
10.123138
 11
-4.826660
 21
10.830246
  0
LINE
  8
0
 10
0.123169
 20
5.173370
 11
0.830261
 21
5.173370
  0
LINE
  8
0
 10
-5.887238
 20
11.183815
 11
-5.462975
 21
10.759552
  0
LINE
  8
0
 10
-90.659058
 20
-75.002182
 11
-79.416054
 21
-63.759186
  0
LINE
  8
0
 10
-85.002213
 20
-80.659050
 11
-73.759209
 21
-69.416046
  0
LINE
  8
0
 10
-80.688858
 20
-76.345680
 11
-86.345711
 21
-70.688828
  0
LINE
  8
0
 10
-6.947906
 20
10.123135
 11
-6.523643
 21
9.698868
  0
LINE
  8
0
 10
-73.193512
 20
-69.416031
 11
-79.416046
 21
-63.193493
  0
LINE
  8
0
 10
-86.345695
 20
-70.123154
 11
-79.416046
 21
-63.193504
  0
LINE
  8
0
 10
-80.123161
 20
-76.345688
 11
-73.193512
 21
-69.416046
  0
LINE
  8
0
 10
-75.244125
 20
-70.900970
 11
-80.900978
 21
-65.244110
  0
LINE
  8
0
 10
-78.991798
 20
-77.477074
 11
-80.406013
 21
-76.062859
  0
LINE
  8
0
 10
-83.729416
 20
-81.507538
 11
-84.790077
 21
-80.446884
  0
LINE
  8
0
 10
-86.062866
 20
-70.406006
 11
-87.477081
 21
-68.991791
  0
LINE
  8
0
 10
-91.507584
 20
-73.022285
 11
-87.477081
 21
-68.991776
  0
LINE
  8
0
 10
-83.022316
 20
-81.507561
 11
-78.991806
 21
-77.477051
  0
LINE
  8
0
 10
-90.446930
 20
-74.790024
 11
-91.507591
 21
-73.729370
  0
LINE
  8
0
 10
-75.173355
 20
-70.123138
 11
-75.173355
 21
-70.830246
  0
LINE
  8
0
 10
-80.123146
 20
-65.173386
 11
-80.830254
 21
-65.173386
  0
LINE
  8
0
 10
-2.598423
 20
14.472622
 11
-6.947903
 21
10.123146
  0
LINE
  8
0
 10
4.472645
 20
7.401550
 11
0.123161
 21
3.052074
  0
LINE
  8
0
 10
-73.759216
 20
-69.416031
 11
-79.416061
 21
-63.759186
  0
LINE
  8
0
 10
-74.819870
 20
-70.476692
 11
-80.476723
 21
-64.819839
  0
LINE
  8
0
 10
0.759560
 20
4.537014
 11
1.183826
 21
4.112743
  0
LINE
  8
0
 10
-0.301105
 20
3.476326
 11
0.123158
 21
3.052063
  0
LINE
  8
0
 10
-3.830704
 20
15.361645
 11
-4.909882
 21
14.282471
  0
LINE
  8
0
 10
5.361660
 20
6.169228
 11
4.282486
 21
5.090054
  0
LINE
  8
0
 10
2.244419
 20
6.587563
 11
-3.412430
 21
12.244411
  0
LINE
  8
0
 10
-85.361633
 20
-66.169243
 11
-84.282463
 21
-65.090073
  0
LINE
  8
0
 10
-84.472649
 20
-67.401550
 11
-80.123169
 21
-63.052074
  0
LINE
  8
0
 10
-80.759567
 20
-64.537003
 11
-81.183823
 21
-64.112732
  0
LINE
  8
0
 10
-79.698914
 20
-63.476334
 11
-80.123177
 21
-63.052071
  0
LINE
  8
0
 10
-73.052109
 20
-70.123138
 11
-73.476372
 21
-69.698883
  0
LINE
  8
0
 10
-77.401581
 20
-74.472618
 11
-73.052101
 21
-70.123138
  0
LINE
  8
0
 10
-74.112762
 20
-71.183807
 11
-74.537025
 21
-70.759537
  0
LINE
  8
0
 10
-76.169250
 20
-75.361633
 11
-75.090080
 21
-74.282455
  0
LINE
  8
0
 10
-90.659073
 20
-75.709290
 11
-85.709320
 21
-80.659035
  0
LINE
  8
0
 10
-82.244461
 20
-66.587601
 11
-76.587616
 21
-72.244453
  0
LINE
  8
0
 10
-75.532135
 20
-58.107475
 11
-61.198799
 21
-37.637363
  0
LINE
  8
0
 10
-68.107513
 20
-65.532082
 11
-47.637405
 21
-51.198769
  0
LINE
  8
0
 10
8.082912
 20
-30.000000
 11
4.041466
 21
-23.000002
  0
LINE
  8
0
 10
4.041451
 20
-23.000000
 11
-4.041451
 21
-23.000000
  0
LINE
  8
0
 10
-8.082912
 20
-29.999996
 11
-4.041462
 21
-23.000000
  0
LINE
  8
0
 10
-4.041443
 20
-36.999992
 11
-8.082891
 21
-29.999992
  0
LINE
  8
0
 10
4.041451
 20
-37.000000
 11
-4.041451
 21
-37.000000
  0
LINE
  8
0
 10
8.082909
 20
-29.999998
 11
4.041454
 21
-37.000000
  0
LINE
  8
0
 10
-71.917091
 20
-30.000000
 11
-75.958542
 21
-23.000004
  0
LINE
  8
0
 10
-75.958549
 20
-23.000000
 11
-84.041451
 21
-23.000000
  0
LINE
  8
0
 10
-88.082916
 20
-29.999996
 11
-84.041458
 21
-22.999998
  0
LINE
  8
0
 10
-84.041443
 20
-36.999992
 11
-88.082886
 21
-29.999996
  0
LINE
  8
0
 10
-75.958549
 20
-37.000000
 11
-84.041451
 21
-37.000000
  0
LINE
  8
0
 10
-71.917091
 20
-30.000000
 11
-75.958542
 21
-37.000000
  0
LINE
  8
0
 10
-47.244442
 20
34.441139
 11
-47.963837
 21
31.756325
  0
LINE
  8
0
 10
-32.755558
 20
34.441154
 11
-32.036160
 21
31.756332
  0
LINE
  8
0
 10
-47.244438
 20
-94.441132
 11
-47.963829
 21
-91.756317
  0
LINE
  8
0
 10
-32.755573
 20
-94.441132
 11
-32.036182
 21
-91.756317
  0
LINE
  8
0
 10
9.500603
 20
-67.775055
 11
12.185440
 21
-68.494453
  0
LINE
  8
0
 10
17.464470
 20
-53.981293
 11
19.429878
 21
-55.946705
  0
LINE
  8
0
 10
17.464474
 20
-6.018768
 11
19.429916
 21
-4.053324
  0
LINE
  8
0
 10
9.500660
 20
7.775047
 11
12.185455
 21
8.494434
  0
LINE
  8
0
 10
16.000000
 20
-50.445763
 11
16.000000
 21
-37.500000
  0
LINE
  8
0
 10
5.706593
 20
8.274601
 11
4.939861
 21
8.717274
  0
LINE
  8
0
 10
-50.293491
 20
-88.720352
 11
-61.505230
 21
-82.247253
  0
LINE
  8
0
 10
-29.706539
 20
-88.720291
 11
-18.495283
 21
-82.247459
  0
LINE
  8
0
 10
-83.289764
 20
9.669846
 11
-74.495316
 21
14.747326
  0
LINE
  8
0
 10
-101.651733
 20
9.000000
 11
-85.789772
 21
9.000000
  0
LINE
  8
0
 10
-101.651794
 20
-69.000000
 11
-85.789749
 21
-69.000000
  0
LINE
  8
0
 10
-106.000000
 20
-64.000015
 11
-106.000000
 21
3.999989
  0
LINE
  8
0
 10
-27.592470
 20
-28.972494
 11
-38.972500
 21
-17.592470
  0
LINE
  8
0
 10
-41.027500
 20
-42.407532
 11
-52.407528
 21
-31.027506
  0
LINE
  8
0
 10
-52.407532
 20
-28.972500
 11
-41.027508
 21
-17.592472
  0
LINE
  8
0
 10
-38.972492
 20
-42.407528
 11
-27.592470
 21
-31.027500
  0
LINE
  8
0
 10
-40.673119
 20
-41.630539
 11
-51.630539
 21
-30.673122
  0
LINE
  8
0
 10
-39.326874
 20
-41.630539
 11
-28.369461
 21
-30.673120
  0
LINE
  8
0
 10
-51.630539
 20
-29.326881
 11
-40.673122
 21
-18.369461
  0
LINE
  8
0
 10
-28.369461
 20
-29.326878
 11
-39.326881
 21
-18.369461
  0
LINE
  8
0
 10
-39.326889
 20
-18.369459
 11
-38.972507
 21
-17.592468
  0
LINE
  8
0
 10
-40.673122
 20
-18.369461
 11
-41.027504
 21
-17.592472
  0
LINE
  8
0
 10
-52.407532
 20
-28.972506
 11
-51.630539
 21
-29.326887
  0
LINE
  8
0
 10
-52.407524
 20
-31.027510
 11
-51.630535
 21
-30.673126
  0
LINE
  8
0
 10
-41.027489
 20
-42.407532
 11
-40.673103
 21
-41.630543
  0
LINE
  8
0
 10
-38.972492
 20
-42.407524
 11
-39.326870
 21
-41.630535
  0
LINE
  8
0
 10
-27.592470
 20
-31.027496
 11
-28.369461
 21
-30.673120
  0
LINE
  8
0
 10
-28.369463
 20
-29.326881
 11
-27.592472
 21
-28.972494
  0
LINE
  8
0
 10
-61.504692
 20
22.247471
 11
-50.293472
 21
28.720276
  0
LINE
  8
0
 10
-18.494770
 20
22.247257
 11
-29.706518
 21
28.720360
  0
LINE
  8
0
 10
16.000000
 20
-22.500000
 11
16.000000
 21
-9.554295
  0
LINE
  8
0
 10
-5.504707
 20
-74.747345
 11
5.706501
 21
-68.274544
  0
ARC
  8
0
 10
-27.625626
 20
-17.625626
 40
5.000000
 50
14.999985
 51
74.999924
  0
ARC
  8
0
 10
-22.499954
 20
-17.803257
 40
1.501202
 50
348.626465
 51
101.373436
  0
ARC
  8
0
 10
-27.803253
 20
-12.499952
 40
1.501202
 50
348.626404
 51
101.373367
  0
ARC
  8
0
 10
-22.901947
 20
-12.901947
 40
4.569711
 50
331.785828
 51
118.214096
  0
ARC
  8
0
 10
5.355774
 20
20.305492
 40
0.500001
 50
45.000000
 51
135.000000
  0
ARC
  8
0
 10
10.305511
 20
15.355724
 40
0.500001
 50
315.000000
 51
45.000000
  0
ARC
  8
0
 10
11.154037
 20
13.375835
 40
0.500001
 50
315.000000
 51
45.000000
  0
ARC
  8
0
 10
3.375854
 20
21.154003
 40
0.500001
 50
45.000000
 51
135.000000
  0
ARC
  8
0
 10
6.301491
 20
16.301456
 40
3.519531
 50
4.156829
 51
85.843109
  0
CIRCLE
  8
0
 10
1.395966
 20
11.395931
 40
2.500000
  0
CIRCLE
  8
0
 10
1.395966
 20
11.395931
 40
2.000000
  0
CIRCLE
  8
0
 10
-81.395958
 20
-71.395935
 40
2.500000
  0
CIRCLE
  8
0
 10
-81.395958
 20
-71.395935
 40
2.000000
  0
ARC
  8
0
 10
-85.355759
 20
-80.305481
 40
0.500006
 50
225.000626
 51
314.999390
  0
ARC
  8
0
 10
-90.305504
 20
-75.355736
 40
0.500001
 50
135.000000
 51
225.000000
  0
ARC
  8
0
 10
-91.154037
 20
-73.375839
 40
0.500006
 50
134.999374
 51
224.999374
  0
ARC
  8
0
 10
-83.375854
 20
-81.154015
 40
0.500001
 50
225.000000
 51
315.000000
  0
ARC
  8
0
 10
-86.301498
 20
-76.301476
 40
3.519527
 50
184.156586
 51
265.843414
  0
ARC
  8
0
 10
-24.272018
 20
-14.272035
 40
36.000000
 50
34.597836
 51
37.979599
  0
ARC
  8
0
 10
-24.272018
 20
-14.272035
 40
36.000000
 50
52.020340
 51
55.402084
  0
ARC
  8
0
 10
-55.727982
 20
-45.727966
 40
36.000004
 50
214.597839
 51
217.979614
  0
ARC
  8
0
 10
-55.727982
 20
-45.727966
 40
35.999996
 50
232.020340
 51
235.402084
  0
ARC
  8
0
 10
-40.000000
 20
-30.000000
 40
56.500004
 50
50.077053
 51
219.922882
  0
ARC
  8
0
 10
-40.000000
 20
-30.000000
 40
56.500000
 50
230.077026
 51
39.922932
  0
CIRCLE
  8
0
 10
-20.000000
 20
4.641014
 40
5.500000
  0
CIRCLE
  8
0
 10
-40.000000
 20
-30.000000
 40
14.000000
  0
ARC
  8
0
 10
-40.000000
 20
-30.000000
 40
18.499998
 50
271.652832
 51
178.347137
  0
ARC
  8
0
 10
-73.486053
 20
-29.033720
 40
14.999997
 50
325.000000
 51
358.347107
  0
ARC
  8
0
 10
-39.033737
 20
-63.486061
 40
15.000000
 50
91.652847
 51
125.000000
  0
CIRCLE
  8
0
 10
-40.000000
 20
-30.000000
 40
12.650000
  0
CIRCLE
  8
0
 10
0.000000
 20
-30.000000
 40
10.500000
  0
CIRCLE
  8
0
 10
0.000000
 20
-30.000000
 40
7.000000
  0
CIRCLE
  8
0
 10
0.000000
 20
-30.000000
 40
5.000000
  0
CIRCLE
  8
0
 10
-80.000000
 20
-30.000000
 40
5.000000
  0
CIRCLE
  8
0
 10
-80.000000
 20
-30.000000
 40
10.500000
  0
CIRCLE
  8
0
 10
-80.000000
 20
-30.000000
 40
7.000000
  0
CIRCLE
  8
0
 10
-19.999966
 20
4.640995
 40
5.000000
  0
CIRCLE
  8
0
 10
-19.999966
 20
4.640995
 40
4.250000
  0
ARC
  8
0
 10
-40.000015
 20
32.500000
 40
7.500003
 50
15.000026
 51
164.999969
  0
ARC
  8
0
 10
-39.999996
 20
-92.500000
 40
7.500000
 50
195.000031
 51
344.999969
  0
ARC
  8
0
 10
14.126587
 20
-61.250008
 40
7.500001
 50
255.000031
 51
44.999981
  0
ARC
  8
0
 10
14.126595
 20
1.249981
 40
7.499999
 50
315.000000
 51
104.999969
  0
ARC
  8
0
 10
-52.793480
 20
33.050419
 40
5.000000
 50
300.000000
 51
344.999969
  0
ARC
  8
0
 10
-52.793465
 20
-93.050415
 40
5.000001
 50
14.999937
 51
59.999981
  0
ARC
  8
0
 10
-27.206528
 20
-93.050430
 40
5.000004
 50
119.999977
 51
164.999985
  0
ARC
  8
0
 10
8.206512
 20
-72.604675
 40
4.999991
 50
74.999985
 51
120.000015
  0
ARC
  8
0
 10
21.000000
 20
-50.445763
 40
5.000000
 50
180.000000
 51
225.000031
  0
ARC
  8
0
 10
21.000000
 20
-9.554295
 40
5.000000
 50
135.000000
 51
179.999985
  0
ARC
  8
0
 10
8.206562
 20
12.604668
 40
5.000000
 50
240.000000
 51
284.999939
  0
ARC
  8
0
 10
-27.206547
 20
33.050419
 40
5.000003
 50
195.000015
 51
240.000000
  0
ARC
  8
0
 10
-85.789772
 20
13.999989
 40
5.000000
 50
270.000000
 51
300.000000
  0
ARC
  8
0
 10
-85.789749
 20
-74.000015
 40
5.000000
 50
83.821320
 51
90.000000
  0
ARC
  8
0
 10
-100.999985
 20
-64.000015
 40
5.000000
 50
180.000000
 51
256.516968
  0
ARC
  8
0
 10
-101.000015
 20
3.999989
 40
4.999999
 50
103.482849
 51
179.999954
  0
ARC
  8
0
 10
-40.000000
 20
-30.000000
 40
70.750000
 50
216.991135
 51
143.008896
  0
CIRCLE
  8
0
 10
-40.000000
 20
-30.000000
 40
12.450000
  0
ARC
  8
0
 10
-40.000000
 20
-30.000000
 40
11.650002
 50
176.687683
 51
183.312302
  0
ARC
  8
0
 10
-40.000000
 20
-30.000000
 40
11.650001
 50
266.687714
 51
273.312347
  0
ARC
  8
0
 10
-40.000000
 20
-30.000000
 40
11.650000
 50
356.687653
 51
3.312285
  0
ARC
  8
0
 10
-40.000000
 20
-30.000000
 40
11.650000
 50
86.687675
 51
93.312302
  0
ARC
  8
0
 10
-104.497337
 20
18.586582
 40
10.000000
 50
283.482880
 51
323.008850
  0
ARC
  8
0
 10
-104.497322
 20
-78.586609
 40
10.000001
 50
36.991184
 51
76.517105
  0
POINT
  8
0
 10
160.000000
 20
160.000000
  0
POINT
  8
0
 10
130.000000
 20
160.000000
  0
LINE
  8
0
 10
150.700027
 20
132.569397
 11
150.700027
 21
126.806496
  0
LINE
  8
0
 10
156.700027
 20
128.185333
 11
156.700027
 21
126.806496
  0
LINE
  8
0
 10
150.500031
 20
116.624161
 11
157.900024
 21
116.624161
  0
LINE
  8
0
 10
149.700043
 20
114.644257
 11
158.700027
 21
114.644257
  0
LINE
  8
0
 10
149.700043
 20
109.194519
 11
158.700027
 21
109.194519
  0
LINE
  8
0
 10
150.500031
 20
108.345978
 11
157.900024
 21
108.345978
  0
LINE
  8
0
 10
150.500031
 20
121.008224
 11
157.900024
 21
121.008224
  0
LINE
  8
0
 10
158.400024
 20
120.508224
 11
158.400024
 21
115.709961
  0
LINE
  8
0
 10
159.200027
 20
119.094009
 11
159.200027
 21
109.694519
  0
LINE
  8
0
 10
150.000031
 20
120.508224
 11
150.000031
 21
115.709961
  0
LINE
  8
0
 10
149.200043
 20
119.094009
 11
149.200043
 21
109.694519
  0
LINE
  8
0
 10
150.500031
 20
115.209961
 11
157.900024
 21
115.209961
  0
LINE
  8
0
 10
148.700027
 20
119.594009
 11
150.000031
 21
119.594009
  0
LINE
  8
0
 10
150.000031
 20
109.194519
 11
150.000031
 21
108.845978
  0
LINE
  8
0
 10
158.400024
 20
109.194519
 11
158.400024
 21
108.845978
  0
LINE
  8
0
 10
158.400024
 20
119.594009
 11
159.700043
 21
119.594009
  0
LINE
  8
0
 10
142.700027
 20
119.311165
 11
148.700027
 21
119.311165
  0
LINE
  8
0
 10
159.700043
 20
119.594009
 11
159.700043
 21
113.654312
  0
LINE
  8
0
 10
148.700027
 20
119.594009
 11
148.700027
 21
113.654312
  0
LINE
  8
0
 10
157.700043
 20
126.806503
 11
157.700043
 21
121.008224
  0
LINE
  8
0
 10
150.700043
 20
126.806496
 11
150.700043
 21
121.008224
  0
LINE
  8
0
 10
159.700043
 20
119.311165
 11
164.700043
 21
119.311165
  0
LINE
  8
0
 10
155.700073
 20
123.978073
 11
155.700073
 21
126.806496
  0
LINE
  8
0
 10
152.700027
 20
123.978065
 11
152.700027
 21
126.806496
  0
LINE
  8
0
 10
150.700043
 20
126.806496
 11
152.700027
 21
126.806496
  0
LINE
  8
0
 10
155.700043
 20
126.806496
 11
157.700043
 21
126.806496
  0
LINE
  8
0
 10
164.700043
 20
124.755890
 11
164.700043
 21
113.654312
  0
LINE
  8
0
 10
132.699982
 20
125.887283
 11
132.699982
 21
115.527374
  0
LINE
  8
0
 10
142.700027
 20
113.654312
 11
148.700027
 21
113.654312
  0
LINE
  8
0
 10
148.700027
 20
113.937149
 11
149.200043
 21
113.937149
  0
LINE
  8
0
 10
159.200027
 20
113.937149
 11
159.700043
 21
113.937149
  0
LINE
  8
0
 10
159.700043
 20
113.654312
 11
164.700043
 21
113.654312
  0
LINE
  8
0
 10
142.700027
 20
124.755890
 11
150.700043
 21
124.755890
  0
LINE
  8
0
 10
152.700027
 20
125.180153
 11
155.700027
 21
125.180153
  0
LINE
  8
0
 10
152.700027
 20
126.240807
 11
155.700043
 21
126.240807
  0
LINE
  8
0
 10
152.700027
 20
124.755890
 11
155.700027
 21
124.755890
  0
LINE
  8
0
 10
157.700043
 20
124.755890
 11
164.700043
 21
124.755890
  0
LINE
  8
0
 10
157.700043
 20
125.180153
 11
161.700043
 21
125.180153
  0
LINE
  8
0
 10
157.700043
 20
126.240807
 11
161.700043
 21
126.240807
  0
LINE
  8
0
 10
149.700058
 20
125.887299
 11
150.700043
 21
125.180199
  0
LINE
  8
0
 10
149.700058
 20
126.947937
 11
150.700043
 21
126.240845
  0
LINE
  8
0
 10
131.200012
 20
126.947937
 11
149.700043
 21
126.947937
  0
LINE
  8
0
 10
132.699982
 20
125.887283
 11
149.700043
 21
125.887283
  0
LINE
  8
0
 10
149.700043
 20
126.947937
 11
149.700043
 21
125.887283
  0
LINE
  8
0
 10
167.200012
 20
121.104065
 11
167.200012
 21
116.104065
  0
LINE
  8
0
 10
164.700043
 20
121.104057
 11
167.200012
 21
121.104057
  0
LINE
  8
0
 10
167.200012
 20
120.604057
 11
182.277924
 21
120.604057
  0
LINE
  8
0
 10
167.200012
 20
116.604057
 11
182.277924
 21
116.604057
  0
LINE
  8
0
 10
164.700043
 20
116.104057
 11
167.200012
 21
116.104057
  0
LINE
  8
0
 10
119.199989
 20
123.669937
 11
120.699989
 21
123.669937
  0
LINE
  8
0
 10
117.699989
 20
122.598450
 11
120.699989
 21
122.598450
  0
LINE
  8
0
 10
117.699989
 20
115.527374
 11
120.699989
 21
115.527374
  0
LINE
  8
0
 10
117.699989
 20
125.675140
 11
117.699989
 21
115.527374
  0
LINE
  8
0
 10
119.199989
 20
124.527855
 11
119.199989
 21
123.669937
  0
LINE
  8
0
 10
120.699989
 20
126.735802
 11
120.699989
 21
122.598450
  0
LINE
  8
0
 10
124.699989
 20
126.735802
 11
124.699989
 21
122.598450
  0
LINE
  8
0
 10
124.699989
 20
123.669937
 11
131.199982
 21
123.669937
  0
LINE
  8
0
 10
120.699989
 20
123.830757
 11
124.699989
 21
123.830757
  0
LINE
  8
0
 10
120.699989
 20
114.638367
 11
124.699989
 21
114.638367
  0
LINE
  8
0
 10
124.699989
 20
115.527374
 11
132.699982
 21
115.527374
  0
LINE
  8
0
 10
124.699989
 20
122.598450
 11
132.699982
 21
122.598450
  0
LINE
  8
0
 10
120.699989
 20
115.527374
 11
120.699989
 21
114.638367
  0
LINE
  8
0
 10
124.699989
 20
115.527374
 11
124.699989
 21
114.638367
  0
LINE
  8
0
 10
120.699989
 20
126.735802
 11
124.699989
 21
126.735802
  0
LINE
  8
0
 10
117.699989
 20
125.675140
 11
120.699989
 21
125.675140
  0
LINE
  8
0
 10
117.699989
 20
124.527855
 11
120.699989
 21
124.527855
  0
LINE
  8
0
 10
124.699989
 20
125.675140
 11
124.999977
 21
125.675140
  0
LINE
  8
0
 10
124.699989
 20
124.527855
 11
124.999977
 21
124.527855
  0
LINE
  8
0
 10
148.500000
 20
179.445435
 11
146.184158
 21
178.500000
  0
LINE
  8
0
 10
150.815857
 20
178.499985
 11
148.500031
 21
179.445419
  0
LINE
  8
0
 10
148.500015
 20
179.445435
 11
148.500015
 21
178.500000
  0
LINE
  8
0
 10
150.700027
 20
132.569397
 11
157.900040
 21
132.569397
  0
LINE
  8
0
 10
150.700027
 20
129.033859
 11
157.900040
 21
129.033859
  0
LINE
  8
0
 10
150.700027
 20
128.185333
 11
156.700027
 21
128.185333
  0
LINE
  8
0
 10
131.200012
 20
115.527374
 11
131.200012
 21
103.500000
  0
LINE
  8
0
 10
125.000008
 20
115.527374
 11
125.000008
 21
103.500000
  0
LINE
  8
0
 10
131.200012
 20
216.500000
 11
131.200012
 21
204.472626
  0
LINE
  8
0
 10
125.000008
 20
216.500000
 11
125.000008
 21
204.472626
  0
LINE
  8
0
 10
156.700012
 20
178.500000
 11
156.700012
 21
132.569397
  0
LINE
  8
0
 10
157.900024
 20
178.500000
 11
157.900024
 21
126.240807
  0
LINE
  8
0
 10
140.500015
 20
178.500000
 11
157.900024
 21
178.500000
  0
LINE
  8
0
 10
140.500015
 20
178.500000
 11
140.500015
 21
141.500000
  0
LINE
  8
0
 10
140.500015
 20
141.500000
 11
156.700012
 21
141.500000
  0
LINE
  8
0
 10
125.000008
 20
103.500000
 11
131.200012
 21
103.500000
  0
LINE
  8
0
 10
158.700012
 20
174.000000
 11
158.700012
 21
146.000000
  0
LINE
  8
0
 10
157.900024
 20
146.000000
 11
158.700012
 21
146.000000
  0
LINE
  8
0
 10
157.900024
 20
174.000000
 11
158.700012
 21
174.000000
  0
LINE
  8
0
 10
125.000008
 20
216.500000
 11
131.200012
 21
216.500000
  0
LINE
  8
0
 10
142.700027
 20
124.755890
 11
142.700027
 21
113.654312
  0
LINE
  8
0
 10
132.699982
 20
118.816208
 11
142.700027
 21
118.816208
  0
LINE
  8
0
 10
151.500015
 20
203.375839
 11
158.900009
 21
203.375839
  0
LINE
  8
0
 10
150.700027
 20
205.355743
 11
159.700012
 21
205.355743
  0
LINE
  8
0
 10
150.700027
 20
210.805481
 11
159.700012
 21
210.805481
  0
LINE
  8
0
 10
151.500015
 20
211.654022
 11
158.900009
 21
211.654022
  0
LINE
  8
0
 10
151.500015
 20
198.991776
 11
158.900009
 21
198.991776
  0
LINE
  8
0
 10
159.400009
 20
199.491776
 11
159.400009
 21
204.290039
  0
LINE
  8
0
 10
160.200012
 20
200.905991
 11
160.200012
 21
210.305481
  0
LINE
  8
0
 10
151.000015
 20
199.491776
 11
151.000015
 21
204.290039
  0
LINE
  8
0
 10
150.200027
 20
200.905991
 11
150.200027
 21
210.305481
  0
LINE
  8
0
 10
151.500015
 20
204.790039
 11
158.900009
 21
204.790039
  0
LINE
  8
0
 10
149.700012
 20
200.405991
 11
151.000015
 21
200.405991
  0
LINE
  8
0
 10
151.000015
 20
210.805481
 11
151.000015
 21
211.154022
  0
LINE
  8
0
 10
159.400009
 20
210.805481
 11
159.400009
 21
211.154022
  0
LINE
  8
0
 10
159.400009
 20
200.405991
 11
160.700027
 21
200.405991
  0
LINE
  8
0
 10
143.700012
 20
200.688843
 11
149.700012
 21
200.688843
  0
LINE
  8
0
 10
160.700027
 20
200.405991
 11
160.700027
 21
206.345688
  0
LINE
  8
0
 10
149.700012
 20
200.405991
 11
149.700012
 21
206.345688
  0
LINE
  8
0
 10
158.700027
 20
193.193497
 11
158.700027
 21
198.991776
  0
LINE
  8
0
 10
151.700027
 20
193.193512
 11
151.700027
 21
198.991776
  0
LINE
  8
0
 10
160.700027
 20
200.688843
 11
165.700027
 21
200.688843
  0
LINE
  8
0
 10
156.700058
 20
196.021927
 11
156.700058
 21
193.193512
  0
LINE
  8
0
 10
153.700012
 20
196.021942
 11
153.700012
 21
193.193512
  0
LINE
  8
0
 10
151.700027
 20
193.193512
 11
153.700012
 21
193.193512
  0
LINE
  8
0
 10
156.700027
 20
193.193512
 11
158.700027
 21
193.193512
  0
LINE
  8
0
 10
165.700027
 20
195.244110
 11
165.700027
 21
206.345688
  0
LINE
  8
0
 10
132.699982
 20
194.112717
 11
132.699982
 21
204.472626
  0
LINE
  8
0
 10
143.700012
 20
206.345688
 11
149.700012
 21
206.345688
  0
LINE
  8
0
 10
149.700012
 20
206.062851
 11
150.200027
 21
206.062851
  0
LINE
  8
0
 10
160.200012
 20
206.062851
 11
160.700027
 21
206.062851
  0
LINE
  8
0
 10
160.700027
 20
206.345688
 11
165.700027
 21
206.345688
  0
LINE
  8
0
 10
143.700012
 20
195.244110
 11
151.700027
 21
195.244110
  0
LINE
  8
0
 10
153.700012
 20
194.819855
 11
156.700012
 21
194.819855
  0
LINE
  8
0
 10
153.700012
 20
193.759186
 11
156.700027
 21
193.759186
  0
LINE
  8
0
 10
153.700012
 20
195.244110
 11
156.700012
 21
195.244110
  0
LINE
  8
0
 10
158.700027
 20
195.244110
 11
165.700027
 21
195.244110
  0
LINE
  8
0
 10
158.700027
 20
194.819855
 11
162.700027
 21
194.819855
  0
LINE
  8
0
 10
158.700027
 20
193.759186
 11
162.700027
 21
193.759186
  0
LINE
  8
0
 10
150.700043
 20
194.112717
 11
151.700027
 21
194.819809
  0
LINE
  8
0
 10
150.700027
 20
193.052063
 11
151.700027
 21
193.759171
  0
LINE
  8
0
 10
131.200012
 20
193.052063
 11
150.700027
 21
193.052063
  0
LINE
  8
0
 10
132.699982
 20
194.112717
 11
150.700027
 21
194.112717
  0
LINE
  8
0
 10
150.700027
 20
193.052063
 11
150.700027
 21
194.112717
  0
LINE
  8
0
 10
168.200012
 20
198.895935
 11
168.200012
 21
203.895935
  0
LINE
  8
0
 10
165.700027
 20
198.895935
 11
168.200012
 21
198.895935
  0
LINE
  8
0
 10
168.200012
 20
199.395935
 11
183.277924
 21
199.395935
  0
LINE
  8
0
 10
168.200012
 20
203.395935
 11
183.277924
 21
203.395935
  0
LINE
  8
0
 10
165.700027
 20
203.895935
 11
168.200012
 21
203.895935
  0
LINE
  8
0
 10
119.199989
 20
196.330063
 11
120.699989
 21
196.330063
  0
LINE
  8
0
 10
117.699989
 20
197.401550
 11
120.699989
 21
197.401550
  0
LINE
  8
0
 10
117.699989
 20
204.472626
 11
120.699989
 21
204.472626
  0
LINE
  8
0
 10
117.699989
 20
194.324860
 11
117.699989
 21
204.472626
  0
LINE
  8
0
 10
119.199989
 20
195.472137
 11
119.199989
 21
196.330063
  0
LINE
  8
0
 10
120.699989
 20
193.264191
 11
120.699989
 21
197.401550
  0
LINE
  8
0
 10
124.699989
 20
193.264191
 11
124.699989
 21
197.401550
  0
LINE
  8
0
 10
124.699989
 20
196.330063
 11
131.199982
 21
196.330063
  0
LINE
  8
0
 10
120.699989
 20
196.169250
 11
124.699989
 21
196.169250
  0
LINE
  8
0
 10
120.699989
 20
205.361633
 11
124.699989
 21
205.361633
  0
LINE
  8
0
 10
124.699989
 20
204.472626
 11
132.699982
 21
204.472626
  0
LINE
  8
0
 10
124.699989
 20
197.401550
 11
132.699982
 21
197.401550
  0
LINE
  8
0
 10
120.699989
 20
204.472626
 11
120.699989
 21
205.361633
  0
LINE
  8
0
 10
124.699989
 20
204.472626
 11
124.699989
 21
205.361633
  0
LINE
  8
0
 10
120.699989
 20
193.264191
 11
124.699989
 21
193.264191
  0
LINE
  8
0
 10
117.699989
 20
194.324860
 11
120.699989
 21
194.324860
  0
LINE
  8
0
 10
117.699989
 20
195.472137
 11
120.699989
 21
195.472137
  0
LINE
  8
0
 10
124.699989
 20
194.324860
 11
124.999977
 21
194.324860
  0
LINE
  8
0
 10
124.699989
 20
195.472137
 11
124.999977
 21
195.472137
  0
LINE
  8
0
 10
143.700012
 20
195.244110
 11
143.700012
 21
206.345688
  0
LINE
  8
0
 10
132.699982
 20
201.183792
 11
143.700012
 21
201.183792
  0
LINE
  8
0
 10
131.200012
 20
196.330063
 11
131.200012
 21
123.669937
  0
LINE
  8
0
 10
125.000008
 20
196.330063
 11
125.000008
 21
123.669937
  0
LINE
  8
0
 10
183.277924
 20
203.395935
 11
183.277924
 21
199.395935
  0
LINE
  8
0
 10
183.277924
 20
201.095947
 11
186.277924
 21
201.095947
  0
LINE
  8
0
 10
183.277924
 20
201.695938
 11
186.277924
 21
201.695938
  0
LINE
  8
0
 10
183.277924
 20
200.095947
 11
186.277924
 21
200.095947
  0
LINE
  8
0
 10
183.277924
 20
202.695938
 11
186.277924
 21
202.695938
  0
LINE
  8
0
 10
186.277924
 20
202.695938
 11
186.277924
 21
201.695938
  0
LINE
  8
0
 10
186.277924
 20
201.095947
 11
186.277924
 21
200.095947
  0
LINE
  8
0
 10
186.277924
 20
202.570938
 11
187.777924
 21
202.570938
  0
LINE
  8
0
 10
186.277924
 20
202.445938
 11
187.777924
 21
202.445938
  0
LINE
  8
0
 10
186.277924
 20
202.320938
 11
187.777924
 21
202.320938
  0
LINE
  8
0
 10
186.277924
 20
202.195938
 11
187.777924
 21
202.195938
  0
LINE
  8
0
 10
186.277924
 20
202.070938
 11
187.777924
 21
202.070938
  0
LINE
  8
0
 10
186.277924
 20
201.945938
 11
187.777924
 21
201.945938
  0
LINE
  8
0
 10
186.277924
 20
201.820938
 11
187.777924
 21
201.820938
  0
LINE
  8
0
 10
186.277924
 20
200.970947
 11
187.777924
 21
200.970947
  0
LINE
  8
0
 10
186.277924
 20
200.845947
 11
187.777924
 21
200.845947
  0
LINE
  8
0
 10
186.277924
 20
200.720947
 11
187.777924
 21
200.720947
  0
LINE
  8
0
 10
186.277924
 20
200.595947
 11
187.777924
 21
200.595947
  0
LINE
  8
0
 10
186.277924
 20
200.470947
 11
187.777924
 21
200.470947
  0
LINE
  8
0
 10
186.277924
 20
200.345947
 11
187.777924
 21
200.345947
  0
LINE
  8
0
 10
186.277924
 20
200.220947
 11
187.777924
 21
200.220947
  0
LINE
  8
0
 10
182.277924
 20
120.604057
 11
182.277924
 21
116.604057
  0
LINE
  8
0
 10
182.277924
 20
118.304062
 11
185.277924
 21
118.304062
  0
LINE
  8
0
 10
182.277924
 20
118.904053
 11
185.277924
 21
118.904053
  0
LINE
  8
0
 10
182.277924
 20
117.304062
 11
185.277924
 21
117.304062
  0
LINE
  8
0
 10
182.277924
 20
119.904053
 11
185.277924
 21
119.904053
  0
LINE
  8
0
 10
185.277924
 20
119.904053
 11
185.277924
 21
118.904053
  0
LINE
  8
0
 10
185.277924
 20
118.304062
 11
185.277924
 21
117.304062
  0
LINE
  8
0
 10
185.277924
 20
119.779053
 11
186.777924
 21
119.779053
  0
LINE
  8
0
 10
185.277924
 20
119.654053
 11
186.777924
 21
119.654053
  0
LINE
  8
0
 10
185.277924
 20
119.529053
 11
186.777924
 21
119.529053
  0
LINE
  8
0
 10
185.277924
 20
119.404053
 11
186.777924
 21
119.404053
  0
LINE
  8
0
 10
185.277924
 20
119.279053
 11
186.777924
 21
119.279053
  0
LINE
  8
0
 10
185.277924
 20
119.154053
 11
186.777924
 21
119.154053
  0
LINE
  8
0
 10
185.277924
 20
119.029053
 11
186.777924
 21
119.029053
  0
LINE
  8
0
 10
185.277924
 20
118.179062
 11
186.777924
 21
118.179062
  0
LINE
  8
0
 10
185.277924
 20
118.054062
 11
186.777924
 21
118.054062
  0
LINE
  8
0
 10
185.277924
 20
117.929062
 11
186.777924
 21
117.929062
  0
LINE
  8
0
 10
185.277924
 20
117.804062
 11
186.777924
 21
117.804062
  0
LINE
  8
0
 10
185.277924
 20
117.679062
 11
186.777924
 21
117.679062
  0
LINE
  8
0
 10
185.277924
 20
117.554062
 11
186.777924
 21
117.554062
  0
LINE
  8
0
 10
185.277924
 20
117.429062
 11
186.777924
 21
117.429062
  0
LINE
  8
0
 10
139.267029
 20
160.000000
 11
133.233093
 21
160.000000
  0
LINE
  8
0
 10
139.700012
 20
153.000000
 11
139.700012
 21
167.000000
  0
LINE
  8
0
 10
132.800049
 20
150.300003
 11
132.800049
 21
169.700012
  0
LINE
  8
0
 10
139.700073
 20
153.000000
 11
134.200073
 21
153.000000
  0
LINE
  8
0
 10
139.700073
 20
167.000000
 11
134.200073
 21
167.000000
  0
LINE
  8
0
 10
112.500000
 20
215.000000
 11
112.500000
 21
105.000000
  0
LINE
  8
0
 10
117.000000
 20
205.000000
 11
117.000000
 21
203.640991
  0
LINE
  8
0
 10
116.177338
 20
116.359001
 11
117.699989
 21
116.359001
  0
LINE
  8
0
 10
116.177429
 20
203.640991
 11
117.699989
 21
203.640991
  0
LINE
  8
0
 10
112.499878
 20
105.000046
 11
116.999878
 21
115.000046
  0
LINE
  8
0
 10
112.499878
 20
214.999954
 11
116.999878
 21
204.999954
  0
LINE
  8
0
 10
117.000000
 20
194.411758
 11
117.000000
 21
169.000000
  0
LINE
  8
0
 10
117.000000
 20
151.000000
 11
117.000000
 21
125.588242
  0
LINE
  8
0
 10
117.000000
 20
116.359001
 11
117.000000
 21
115.000000
  0
LINE
  8
0
 10
131.200012
 20
182.500000
 11
133.199997
 21
182.500000
  0
LINE
  8
0
 10
136.950012
 20
172.500000
 11
137.000000
 21
172.449997
  0
LINE
  8
0
 10
136.949997
 20
147.500015
 11
137.000000
 21
147.550018
  0
LINE
  8
0
 10
133.500000
 20
152.812439
 11
133.500000
 21
137.800003
  0
LINE
  8
0
 10
137.000000
 20
153.000000
 11
137.000000
 21
147.550003
  0
LINE
  8
0
 10
133.500000
 20
182.199997
 11
133.500000
 21
167.187576
  0
LINE
  8
0
 10
131.200012
 20
137.500000
 11
133.199997
 21
137.500000
  0
LINE
  8
0
 10
133.500000
 20
147.500000
 11
136.949997
 21
147.500000
  0
LINE
  8
0
 10
133.500000
 20
172.500000
 11
136.949997
 21
172.500000
  0
LINE
  8
0
 10
133.199982
 20
137.500015
 11
133.499985
 21
137.800018
  0
LINE
  8
0
 10
133.500061
 20
182.200027
 11
133.200043
 21
182.500031
  0
LINE
  8
0
 10
137.000000
 20
172.449997
 11
137.000000
 21
167.000000
  0
LINE
  8
0
 10
158.700012
 20
158.972504
 11
159.199997
 21
158.972504
  0
LINE
  8
0
 10
158.700012
 20
161.027496
 11
159.199997
 21
161.027496
  0
LINE
  8
0
 10
140.500015
 20
162.369492
 11
139.700012
 21
161.940063
  0
LINE
  8
0
 10
158.700012
 20
161.295822
 11
159.199951
 21
161.027466
  0
LINE
  8
0
 10
158.700012
 20
158.704102
 11
159.200027
 21
158.972504
  0
LINE
  8
0
 10
140.500015
 20
157.630539
 11
139.700012
 21
158.059967
  0
LINE
  8
0
 10
158.700012
 20
147.592484
 11
159.199997
 21
147.592484
  0
LINE
  8
0
 10
160.000000
 20
171.649994
 11
160.000000
 21
148.350006
  0
LINE
  8
0
 10
137.000000
 20
147.550003
 11
140.500015
 21
147.550003
  0
LINE
  8
0
 10
137.000000
 20
172.449997
 11
140.500015
 21
172.449997
  0
LINE
  8
0
 10
159.200043
 20
147.549957
 11
160.000046
 21
148.349960
  0
LINE
  8
0
 10
159.200027
 20
172.450027
 11
160.000031
 21
171.650024
  0
LINE
  8
0
 10
159.199997
 20
172.449997
 11
159.199997
 21
147.550003
  0
LINE
  8
0
 10
137.000031
 20
172.450027
 11
136.950043
 21
172.500031
  0
LINE
  8
0
 10
136.949997
 20
147.500015
 11
137.000000
 21
147.550018
  0
LINE
  8
0
 10
158.700012
 20
161.027496
 11
159.199997
 21
161.027496
  0
LINE
  8
0
 10
158.700012
 20
172.407532
 11
159.199997
 21
172.407532
  0
LINE
  8
0
 10
139.700012
 20
161.027496
 11
140.500015
 21
161.027496
  0
LINE
  8
0
 10
139.700012
 20
158.972504
 11
140.500015
 21
158.972504
  0
LINE
  8
0
 10
137.999893
 20
147.592484
 11
140.500015
 21
147.592484
  0
LINE
  8
0
 10
138.008621
 20
172.407532
 11
140.500015
 21
172.407532
  0
LINE
  8
0
 10
137.999893
 20
172.407532
 11
140.500015
 21
171.065475
  0
LINE
  8
0
 10
159.200027
 20
172.407547
 11
158.700012
 21
172.139145
  0
LINE
  8
0
 10
159.199997
 20
147.592499
 11
158.700012
 21
147.860901
  0
LINE
  8
0
 10
137.999893
 20
147.592407
 11
140.500015
 21
148.934464
  0
LINE
  8
0
 10
159.199997
 20
158.972488
 11
159.999985
 21
159.326859
  0
LINE
  8
0
 10
160.000092
 20
160.673264
 11
159.200104
 21
161.027634
  0
LINE
  8
0
 10
159.200012
 20
147.592484
 11
160.000015
 21
148.369461
  0
LINE
  8
0
 10
159.199890
 20
172.407425
 11
159.999878
 21
171.630432
  0
LINE
  8
0
 10
158.700012
 20
172.449997
 11
159.199997
 21
172.449997
  0
LINE
  8
0
 10
158.700012
 20
172.407532
 11
159.199997
 21
172.407532
  0
LINE
  8
0
 10
158.700012
 20
147.550003
 11
159.199997
 21
147.550003
  0
LINE
  8
0
 10
162.700027
 20
193.759186
 11
162.700027
 21
195.244110
  0
LINE
  8
0
 10
161.700043
 20
126.240807
 11
161.700043
 21
124.755890
  0
ARC
  8
0
 10
150.500031
 20
120.508224
 40
0.500000
 50
90.000000
 51
180.000000
  0
ARC
  8
0
 10
157.900040
 20
120.508224
 40
0.500000
 50
0.000000
 51
90.000000
  0
ARC
  8
0
 10
158.700027
 20
119.094009
 40
0.500000
 50
0.000000
 51
90.000000
  0
ARC
  8
0
 10
149.700043
 20
119.094009
 40
0.500000
 50
90.000000
 51
180.000000
  0
ARC
  8
0
 10
149.700043
 20
109.694519
 40
0.500000
 50
180.000000
 51
270.000000
  0
ARC
  8
0
 10
158.700027
 20
109.694519
 40
0.500000
 50
270.000000
 51
0.000000
  0
ARC
  8
0
 10
157.900040
 20
108.845978
 40
0.500000
 50
270.000000
 51
0.000000
  0
ARC
  8
0
 10
150.500031
 20
108.845978
 40
0.500000
 50
180.000000
 51
270.000000
  0
ARC
  8
0
 10
157.900040
 20
115.709961
 40
0.500000
 50
270.000000
 51
0.000000
  0
ARC
  8
0
 10
150.500031
 20
115.709961
 40
0.500000
 50
180.000000
 51
270.000000
  0
ARC
  8
0
 10
151.500015
 20
199.491776
 40
0.500000
 50
180.000000
 51
270.000000
  0
ARC
  8
0
 10
158.900024
 20
199.491776
 40
0.500000
 50
270.000000
 51
0.000000
  0
ARC
  8
0
 10
159.700012
 20
200.905991
 40
0.500000
 50
270.000000
 51
0.000000
  0
ARC
  8
0
 10
150.700027
 20
200.905991
 40
0.500000
 50
180.000000
 51
270.000000
  0
ARC
  8
0
 10
150.700027
 20
210.305481
 40
0.500000
 50
90.000000
 51
180.000000
  0
ARC
  8
0
 10
159.700012
 20
210.305481
 40
0.500000
 50
0.000000
 51
90.000000
  0
ARC
  8
0
 10
158.900024
 20
211.154022
 40
0.500000
 50
0.000000
 51
90.000000
  0
ARC
  8
0
 10
151.500015
 20
211.154022
 40
0.500000
 50
90.000000
 51
180.000000
  0
ARC
  8
0
 10
158.900024
 20
204.290039
 40
0.500000
 50
0.000000
 51
90.000000
  0
ARC
  8
0
 10
151.500015
 20
204.290039
 40
0.500000
 50
90.000000
 51
180.000000
  0
ARC
  8
0
 10
132.000000
 20
150.300003
 40
0.800003
 50
180.000000
 51
0.000000
  0
ARC
  8
0
 10
132.000000
 20
169.700012
 40
0.800003
 50
0.000000
 51
180.000000
  0
ARC
  8
0
 10
125.338440
 20
156.500015
 40
14.361616
 50
345.894684
 51
14.105282
  0
ARC
  8
0
 10
125.338440
 20
163.500015
 40
14.361616
 50
345.894684
 51
14.105267
  0
ARC
  8
0
 10
134.200012
 20
168.400009
 40
1.399994
 50
180.000000
 51
270.000000
  0
ARC
  8
0
 10
134.200012
 20
151.600006
 40
1.400009
 50
90.000000
 51
180.000000
  0
ARC
  8
0
 10
147.161621
 20
163.500000
 40
14.361609
 50
164.597031
 51
194.105270
  0
ARC
  8
0
 10
147.161621
 20
156.500000
 40
14.361616
 50
165.894669
 51
195.402908
  0
ARC
  8
0
 10
116.177429
 20
202.641586
 40
1.000000
 50
90.000000
 51
174.261353
  0
ARC
  8
0
 10
116.177338
 20
117.359375
 40
0.999999
 50
185.641571
 51
270.000000
  0
ARC
  8
0
 10
153.455719
 20
123.978065
 40
0.755692
 50
179.999420
 51
194.106384
  0
ARC
  8
0
 10
153.653275
 20
124.050491
 40
0.965201
 50
195.417969
 51
231.388992
  0
ARC
  8
0
 10
154.200027
 20
124.849297
 40
1.931886
 50
233.502457
 51
306.497528
  0
ARC
  8
0
 10
154.746780
 20
124.050491
 40
0.965195
 50
308.610992
 51
344.582031
  0
ARC
  8
0
 10
154.944336
 20
123.978065
 40
0.755698
 50
345.893616
 51
359.999420
  0
ARC
  8
0
 10
121.880280
 20
119.062920
 40
2.130286
 50
176.237442
 51
191.772644
  0
ARC
  8
0
 10
122.097855
 20
119.129387
 40
2.356933
 50
192.275314
 51
225.304779
  0
ARC
  8
0
 10
122.699997
 20
119.862480
 40
3.302728
 50
226.824173
 51
313.174347
  0
ARC
  8
0
 10
123.302132
 20
119.129372
 40
2.356929
 50
314.693512
 51
347.723145
  0
ARC
  8
0
 10
123.519699
 20
119.062904
 40
2.130288
 50
348.225708
 51
356.237427
  0
ARC
  8
0
 10
146.418716
 20
116.482742
 40
0.425080
 50
345.893921
 51
14.107077
  0
ARC
  8
0
 10
146.307587
 20
116.442009
 40
0.542930
 50
15.417746
 51
51.388477
  0
ARC
  8
0
 10
146.000046
 20
115.992676
 40
1.086690
 50
53.502678
 51
126.497559
  0
ARC
  8
0
 10
145.692505
 20
116.442001
 40
0.542927
 50
128.611526
 51
164.582260
  0
ARC
  8
0
 10
145.581375
 20
116.482742
 40
0.425080
 50
165.893921
 51
194.107071
  0
ARC
  8
0
 10
145.692505
 20
116.523476
 40
0.542930
 50
195.417740
 51
231.388474
  0
ARC
  8
0
 10
146.000046
 20
116.972809
 40
1.086690
 50
233.502686
 51
306.497559
  0
ARC
  8
0
 10
146.307587
 20
116.523483
 40
0.542927
 50
308.611511
 51
344.582245
  0
ARC
  8
0
 10
124.163773
 20
119.062904
 40
1.486211
 50
354.668945
 51
14.106224
  0
ARC
  8
0
 10
123.775246
 20
118.920471
 40
1.898237
 50
15.417706
 51
51.388062
  0
ARC
  8
0
 10
122.699982
 20
117.349533
 40
3.799345
 50
53.501778
 51
126.497650
  0
ARC
  8
0
 10
121.624733
 20
118.920486
 40
1.898229
 50
128.611435
 51
164.582016
  0
ARC
  8
0
 10
121.236206
 20
119.062920
 40
1.486209
 50
165.893417
 51
185.354126
  0
ARC
  8
0
 10
122.699944
 20
122.464424
 40
4.532875
 50
245.098221
 51
294.888397
  0
ARC
  8
0
 10
146.744339
 20
116.482742
 40
0.755698
 50
345.893616
 51
14.106391
  0
ARC
  8
0
 10
146.546783
 20
116.410316
 40
0.965201
 50
15.417976
 51
51.388996
  0
ARC
  8
0
 10
146.000031
 20
115.611519
 40
1.931880
 50
53.502323
 51
126.497673
  0
ARC
  8
0
 10
145.453278
 20
116.410316
 40
0.965195
 50
128.611008
 51
164.582031
  0
ARC
  8
0
 10
145.255722
 20
116.482742
 40
0.755698
 50
165.893616
 51
194.106384
  0
ARC
  8
0
 10
145.453278
 20
116.555168
 40
0.965201
 50
195.417969
 51
231.388992
  0
ARC
  8
0
 10
146.000031
 20
117.353966
 40
1.931880
 50
233.502319
 51
306.497681
  0
ARC
  8
0
 10
146.546783
 20
116.555168
 40
0.965195
 50
308.610992
 51
344.582031
  0
ARC
  8
0
 10
153.380341
 20
111.815826
 40
2.130295
 50
176.236832
 51
191.773209
  0
ARC
  8
0
 10
153.597900
 20
111.882294
 40
2.356930
 50
192.275894
 51
225.305573
  0
ARC
  8
0
 10
154.200043
 20
112.615395
 40
3.302724
 50
226.824829
 51
313.174988
  0
ARC
  8
0
 10
154.802185
 20
111.882294
 40
2.356934
 50
314.694183
 51
347.723724
  0
ARC
  8
0
 10
155.019745
 20
111.815826
 40
2.130298
 50
348.226379
 51
356.237244
  0
ARC
  8
0
 10
155.663834
 20
111.815834
 40
1.486211
 50
354.668640
 51
14.106581
  0
ARC
  8
0
 10
155.275299
 20
111.673401
 40
1.898239
 50
15.417928
 51
51.388382
  0
ARC
  8
0
 10
154.200043
 20
110.102455
 40
3.799348
 50
53.502098
 51
126.497902
  0
ARC
  8
0
 10
153.124786
 20
111.673401
 40
1.898234
 50
128.611618
 51
164.582291
  0
ARC
  8
0
 10
152.736252
 20
111.815834
 40
1.486207
 50
165.893707
 51
185.354416
  0
ARC
  8
0
 10
154.200012
 20
115.217346
 40
4.532875
 50
245.098007
 51
294.888367
  0
ARC
  8
0
 10
149.492081
 20
178.031219
 40
3.577663
 50
7.538964
 51
11.306099
  0
ARC
  8
0
 10
149.228760
 20
177.953979
 40
3.851083
 50
11.664907
 51
43.965679
  0
ARC
  8
0
 10
148.500031
 20
177.102219
 40
4.968077
 50
45.201584
 51
134.799667
  0
ARC
  8
0
 10
147.771286
 20
177.953964
 40
3.851100
 50
136.035599
 51
168.336075
  0
ARC
  8
0
 10
147.507950
 20
178.031189
 40
3.577659
 50
168.694672
 51
172.474579
  0
ARC
  8
0
 10
149.411270
 20
177.910492
 40
1.608668
 50
21.435976
 51
51.388657
  0
ARC
  8
0
 10
148.500015
 20
176.579163
 40
3.219804
 50
53.502151
 51
126.497849
  0
ARC
  8
0
 10
147.588760
 20
177.910492
 40
1.608662
 50
128.611343
 51
158.533554
  0
ARC
  8
0
 10
150.767532
 20
178.031204
 40
2.302213
 50
11.743009
 51
14.106610
  0
ARC
  8
0
 10
150.165680
 20
177.810562
 40
2.940464
 50
15.418099
 51
51.388714
  0
ARC
  8
0
 10
148.500015
 20
175.377014
 40
5.885464
 50
53.502392
 51
126.497696
  0
ARC
  8
0
 10
146.834351
 20
177.810562
 40
2.940448
 50
128.611465
 51
164.582184
  0
ARC
  8
0
 10
146.232498
 20
178.031204
 40
2.302210
 50
165.893753
 51
168.232559
  0
ARC
  8
0
 10
147.418701
 20
203.517258
 40
0.425082
 50
345.892914
 51
14.105082
  0
ARC
  8
0
 10
147.307571
 20
203.476517
 40
0.542928
 50
15.416969
 51
51.388477
  0
ARC
  8
0
 10
147.000031
 20
203.027191
 40
1.086684
 50
53.502438
 51
126.497559
  0
ARC
  8
0
 10
146.692490
 20
203.476517
 40
0.542927
 50
128.611526
 51
164.581482
  0
ARC
  8
0
 10
146.581360
 20
203.517258
 40
0.425082
 50
165.892929
 51
194.105087
  0
ARC
  8
0
 10
146.692490
 20
203.557999
 40
0.542928
 50
195.416962
 51
231.388474
  0
ARC
  8
0
 10
147.000031
 20
204.007324
 40
1.086684
 50
233.502441
 51
306.497559
  0
ARC
  8
0
 10
147.307571
 20
203.557999
 40
0.542927
 50
308.611511
 51
344.581482
  0
ARC
  8
0
 10
123.519699
 20
200.937103
 40
2.130286
 50
3.762357
 51
11.774097
  0
ARC
  8
0
 10
123.302132
 20
200.870621
 40
2.356933
 50
12.277027
 51
45.306488
  0
ARC
  8
0
 10
122.699997
 20
200.137527
 40
3.302720
 50
46.825485
 51
133.175827
  0
ARC
  8
0
 10
122.097855
 20
200.870605
 40
2.356945
 50
134.694962
 51
167.724503
  0
ARC
  8
0
 10
121.880280
 20
200.937073
 40
2.130284
 50
168.227142
 51
183.762360
  0
ARC
  8
0
 10
122.699944
 20
197.535583
 40
4.532882
 50
65.111549
 51
114.901741
  0
ARC
  8
0
 10
121.236206
 20
200.937088
 40
1.486212
 50
174.646194
 51
194.107147
  0
ARC
  8
0
 10
121.624733
 20
201.079514
 40
1.898234
 50
195.418213
 51
231.388702
  0
ARC
  8
0
 10
122.699982
 20
202.650467
 40
3.799351
 50
233.502426
 51
306.498230
  0
ARC
  8
0
 10
123.775246
 20
201.079529
 40
1.898233
 50
308.611938
 51
344.582306
  0
ARC
  8
0
 10
124.163773
 20
200.937088
 40
1.486213
 50
345.894073
 51
5.331355
  0
ARC
  8
0
 10
153.736252
 20
208.184174
 40
1.486205
 50
174.646164
 51
194.106583
  0
ARC
  8
0
 10
154.124786
 20
208.326599
 40
1.898237
 50
195.417709
 51
231.388245
  0
ARC
  8
0
 10
155.200043
 20
209.897552
 40
3.799348
 50
233.502106
 51
306.497894
  0
ARC
  8
0
 10
156.275299
 20
208.326599
 40
1.898228
 50
308.611755
 51
344.582306
  0
ARC
  8
0
 10
156.663834
 20
208.184174
 40
1.486209
 50
345.893433
 51
5.330769
  0
ARC
  8
0
 10
156.019745
 20
208.184174
 40
2.130294
 50
3.762753
 51
11.773612
  0
ARC
  8
0
 10
155.802185
 20
208.117706
 40
2.356934
 50
12.276262
 51
45.305832
  0
ARC
  8
0
 10
155.200043
 20
207.384613
 40
3.302730
 50
46.824921
 51
133.175262
  0
ARC
  8
0
 10
154.597900
 20
208.117706
 40
2.356923
 50
134.694427
 51
167.724106
  0
ARC
  8
0
 10
154.380341
 20
208.184174
 40
2.130295
 50
168.226791
 51
183.763168
  0
ARC
  8
0
 10
147.744339
 20
203.517258
 40
0.755700
 50
345.893036
 51
14.105829
  0
ARC
  8
0
 10
147.546783
 20
203.444839
 40
0.965197
 50
15.417103
 51
51.388714
  0
ARC
  8
0
 10
147.000031
 20
202.646027
 40
1.931886
 50
53.502457
 51
126.497543
  0
ARC
  8
0
 10
146.453278
 20
203.444839
 40
0.965189
 50
128.611282
 51
164.582031
  0
ARC
  8
0
 10
146.255722
 20
203.517258
 40
0.755700
 50
165.893051
 51
194.105835
  0
ARC
  8
0
 10
146.453278
 20
203.589676
 40
0.965197
 50
195.417099
 51
231.388718
  0
ARC
  8
0
 10
147.000031
 20
204.388489
 40
1.931886
 50
233.502457
 51
306.497528
  0
ARC
  8
0
 10
147.546783
 20
203.589676
 40
0.965189
 50
308.611298
 51
344.582031
  0
ARC
  8
0
 10
155.200012
 20
204.782654
 40
4.532865
 50
65.111557
 51
114.901993
  0
ARC
  8
0
 10
155.944321
 20
196.021942
 40
0.755692
 50
0.000000
 51
14.106952
  0
ARC
  8
0
 10
155.746765
 20
195.949524
 40
0.965201
 50
15.417976
 51
51.388714
  0
ARC
  8
0
 10
155.200012
 20
195.150711
 40
1.931886
 50
53.502457
 51
126.497543
  0
ARC
  8
0
 10
154.653259
 20
195.949524
 40
0.965189
 50
128.611282
 51
164.582901
  0
ARC
  8
0
 10
154.455704
 20
196.021942
 40
0.755696
 50
165.894165
 51
180.001160
  0
POLYLINE
  8
0
 66
     1
  0
VERTEX
  8
0
 10
115.182526
 20
202.742355
  0
VERTEX
  8
0
 10
115.168076
 20
202.490585
  0
VERTEX
  8
0
 10
115.210785
 20
202.044891
  0
VERTEX
  8
0
 10
115.295837
 20
201.295914
  0
VERTEX
  8
0
 10
115.390579
 20
200.560074
  0
VERTEX
  8
0
 10
115.495644
 20
199.889130
  0
VERTEX
  8
0
 10
115.648018
 20
199.121017
  0
VERTEX
  8
0
 10
115.843040
 20
198.292267
  0
VERTEX
  8
0
 10
116.023521
 20
197.587463
  0
VERTEX
  8
0
 10
116.215187
 20
196.886642
  0
VERTEX
  8
0
 10
116.410492
 20
196.216354
  0
VERTEX
  8
0
 10
116.694824
 20
195.310745
  0
VERTEX
  8
0
 10
117.000000
 20
194.411758
  0
SEQEND
  0
POLYLINE
  8
0
 66
     1
  0
VERTEX
  8
0
 10
117.000000
 20
125.588242
  0
VERTEX
  8
0
 10
116.699394
 20
124.704430
  0
VERTEX
  8
0
 10
116.410492
 20
123.783646
  0
VERTEX
  8
0
 10
116.205162
 20
123.076714
  0
VERTEX
  8
0
 10
116.011597
 20
122.366219
  0
VERTEX
  8
0
 10
115.843040
 20
121.707733
  0
VERTEX
  8
0
 10
115.661667
 20
120.943512
  0
VERTEX
  8
0
 10
115.495644
 20
120.110870
  0
VERTEX
  8
0
 10
115.377541
 20
119.344925
  0
VERTEX
  8
0
 10
115.280190
 20
118.572823
  0
VERTEX
  8
0
 10
115.210785
 20
117.955109
  0
VERTEX
  8
0
 10
115.178101
 20
117.608337
  0
VERTEX
  8
0
 10
115.182152
 20
117.261375
  0
SEQEND
  0
POLYLINE
  8
0
 66
     1
  0
VERTEX
  8
0
 10
117.000000
 20
169.000000
  0
VERTEX
  8
0
 10
116.882896
 20
168.164841
  0
VERTEX
  8
0
 10
116.669693
 20
167.392990
  0
VERTEX
  8
0
 10
116.422928
 20
166.835052
  0
VERTEX
  8
0
 10
116.127441
 20
166.195343
  0
VERTEX
  8
0
 10
115.897240
 20
165.557068
  0
VERTEX
  8
0
 10
115.725121
 20
164.898163
  0
VERTEX
  8
0
 10
115.585190
 20
164.199265
  0
VERTEX
  8
0
 10
115.454620
 20
163.412674
  0
VERTEX
  8
0
 10
115.348427
 20
162.624512
  0
VERTEX
  8
0
 10
115.273346
 20
161.883820
  0
VERTEX
  8
0
 10
115.217484
 20
160.943130
  0
VERTEX
  8
0
 10
115.199989
 20
160.000000
  0
VERTEX
  8
0
 10
115.215187
 20
159.084946
  0
VERTEX
  8
0
 10
115.273346
 20
158.116180
  0
VERTEX
  8
0
 10
115.352936
 20
157.332413
  0
VERTEX
  8
0
 10
115.459557
 20
156.551086
  0
VERTEX
  8
0
 10
115.585190
 20
155.800735
  0
VERTEX
  8
0
 10
115.732384
 20
155.095749
  0
VERTEX
  8
0
 10
115.917145
 20
154.401352
  0
VERTEX
  8
0
 10
116.127441
 20
153.804657
  0
VERTEX
  8
0
 10
116.397469
 20
153.227356
  0
VERTEX
  8
0
 10
116.669693
 20
152.607010
  0
VERTEX
  8
0
 10
116.890060
 20
151.816116
  0
VERTEX
  8
0
 10
117.000000
 20
151.000000
  0
SEQEND
  0
POINT
  8
0
 10
160.000000
 20
10.000000
  0
POINT
  8
0
 10
130.000000
 20
10.000000
  0
LINE
  8
0
 10
150.700027
 20
37.430611
 11
150.700027
 21
43.052063
  0
LINE
  8
0
 10
156.700027
 20
41.814671
 11
156.700027
 21
43.193504
  0
LINE
  8
0
 10
150.500031
 20
53.375835
 11
157.900024
 21
53.375835
  0
LINE
  8
0
 10
149.700043
 20
55.355740
 11
158.700012
 21
55.355740
  0
LINE
  8
0
 10
149.700043
 20
60.805485
 11
158.700012
 21
60.805485
  0
LINE
  8
0
 10
150.500031
 20
61.654018
 11
157.900024
 21
61.654018
  0
LINE
  8
0
 10
150.500031
 20
48.991779
 11
157.900024
 21
48.991779
  0
LINE
  8
0
 10
158.400024
 20
49.491779
 11
158.400024
 21
54.290043
  0
LINE
  8
0
 10
159.200012
 20
50.905987
 11
159.200012
 21
60.305485
  0
LINE
  8
0
 10
150.000031
 20
49.491779
 11
150.000031
 21
54.290043
  0
LINE
  8
0
 10
149.200043
 20
50.905991
 11
149.200043
 21
60.305485
  0
LINE
  8
0
 10
150.500031
 20
54.790043
 11
157.900024
 21
54.790043
  0
LINE
  8
0
 10
148.700012
 20
50.405991
 11
150.000031
 21
50.405991
  0
LINE
  8
0
 10
150.000031
 20
60.805485
 11
150.000031
 21
61.154018
  0
LINE
  8
0
 10
158.400024
 20
60.805485
 11
158.400024
 21
61.154018
  0
LINE
  8
0
 10
158.400024
 20
50.405991
 11
159.700043
 21
50.405991
  0
LINE
  8
0
 10
142.700012
 20
50.688835
 11
148.700012
 21
50.688835
  0
LINE
  8
0
 10
159.700043
 20
50.405991
 11
159.700043
 21
56.345688
  0
LINE
  8
0
 10
148.700012
 20
50.405991
 11
148.700012
 21
56.345692
  0
LINE
  8
0
 10
157.700043
 20
43.193501
 11
157.700043
 21
48.991779
  0
LINE
  8
0
 10
150.700043
 20
43.193504
 11
150.700043
 21
48.991779
  0
LINE
  8
0
 10
159.700043
 20
50.688835
 11
164.700043
 21
50.688835
  0
LINE
  8
0
 10
155.700073
 20
46.021927
 11
155.700073
 21
43.193504
  0
LINE
  8
0
 10
152.700012
 20
46.021935
 11
152.700012
 21
43.193504
  0
LINE
  8
0
 10
150.700043
 20
43.193504
 11
152.700012
 21
43.193504
  0
LINE
  8
0
 10
155.700043
 20
43.193504
 11
157.700043
 21
43.193504
  0
LINE
  8
0
 10
164.700043
 20
45.244110
 11
164.700043
 21
56.345688
  0
LINE
  8
0
 10
132.699982
 20
44.112717
 11
132.699982
 21
54.472630
  0
LINE
  8
0
 10
142.700012
 20
56.345692
 11
148.700012
 21
56.345692
  0
LINE
  8
0
 10
148.700012
 20
56.062847
 11
149.200043
 21
56.062847
  0
LINE
  8
0
 10
159.200012
 20
56.062847
 11
159.700043
 21
56.062847
  0
LINE
  8
0
 10
159.700043
 20
56.345692
 11
164.700043
 21
56.345692
  0
LINE
  8
0
 10
142.700012
 20
45.244110
 11
150.700043
 21
45.244110
  0
LINE
  8
0
 10
152.700012
 20
44.819847
 11
155.700012
 21
44.819847
  0
LINE
  8
0
 10
152.700012
 20
43.759193
 11
155.700043
 21
43.759193
  0
LINE
  8
0
 10
152.700012
 20
45.244110
 11
155.700012
 21
45.244110
  0
LINE
  8
0
 10
157.700043
 20
45.244110
 11
164.700043
 21
45.244110
  0
LINE
  8
0
 10
157.700043
 20
44.819847
 11
161.700043
 21
44.819847
  0
LINE
  8
0
 10
157.700043
 20
43.759193
 11
161.700043
 21
43.759193
  0
LINE
  8
0
 10
149.700043
 20
44.112709
 11
150.700043
 21
44.819805
  0
LINE
  8
0
 10
149.700027
 20
43.052063
 11
150.700012
 21
43.759163
  0
LINE
  8
0
 10
131.200012
 20
43.052063
 11
149.700043
 21
43.052063
  0
LINE
  8
0
 10
132.699982
 20
44.112717
 11
149.700043
 21
44.112717
  0
LINE
  8
0
 10
149.700043
 20
43.052063
 11
149.700043
 21
44.112717
  0
LINE
  8
0
 10
167.200012
 20
48.895939
 11
167.200012
 21
53.895939
  0
LINE
  8
0
 10
164.700043
 20
48.895943
 11
167.200012
 21
48.895943
  0
LINE
  8
0
 10
167.200012
 20
49.395943
 11
182.277924
 21
49.395943
  0
LINE
  8
0
 10
167.200012
 20
53.395943
 11
182.277924
 21
53.395943
  0
LINE
  8
0
 10
164.700043
 20
53.895943
 11
167.200012
 21
53.895943
  0
LINE
  8
0
 10
119.199989
 20
46.330059
 11
120.699989
 21
46.330059
  0
LINE
  8
0
 10
117.699989
 20
47.401554
 11
120.699989
 21
47.401554
  0
LINE
  8
0
 10
117.699989
 20
54.472630
 11
120.699989
 21
54.472630
  0
LINE
  8
0
 10
117.699989
 20
44.324860
 11
117.699989
 21
54.472630
  0
LINE
  8
0
 10
119.199989
 20
45.472145
 11
119.199989
 21
46.330059
  0
LINE
  8
0
 10
120.699989
 20
43.264198
 11
120.699989
 21
47.401554
  0
LINE
  8
0
 10
124.699989
 20
43.264198
 11
124.699989
 21
47.401554
  0
LINE
  8
0
 10
124.699989
 20
46.330059
 11
131.199982
 21
46.330059
  0
LINE
  8
0
 10
120.699989
 20
46.169243
 11
124.699989
 21
46.169243
  0
LINE
  8
0
 10
120.699989
 20
55.361633
 11
124.699989
 21
55.361633
  0
LINE
  8
0
 10
124.699989
 20
54.472630
 11
132.699982
 21
54.472630
  0
LINE
  8
0
 10
124.699989
 20
47.401554
 11
132.699982
 21
47.401554
  0
LINE
  8
0
 10
120.699989
 20
54.472630
 11
120.699989
 21
55.361633
  0
LINE
  8
0
 10
124.699989
 20
54.472630
 11
124.699989
 21
55.361633
  0
LINE
  8
0
 10
120.699989
 20
43.264198
 11
124.699989
 21
43.264198
  0
LINE
  8
0
 10
117.699989
 20
44.324856
 11
120.699989
 21
44.324856
  0
LINE
  8
0
 10
117.699989
 20
45.472145
 11
120.699989
 21
45.472145
  0
LINE
  8
0
 10
124.699989
 20
44.324856
 11
124.999977
 21
44.324856
  0
LINE
  8
0
 10
124.699989
 20
45.472145
 11
124.999977
 21
45.472145
  0
LINE
  8
0
 10
148.500000
 20
-9.445435
 11
146.184158
 21
-8.500000
  0
LINE
  8
0
 10
150.815842
 20
-8.499998
 11
148.500015
 21
-9.445429
  0
LINE
  8
0
 10
148.500015
 20
-9.445435
 11
148.500015
 21
-8.500000
  0
LINE
  8
0
 10
150.700027
 20
37.430611
 11
157.900040
 21
37.430611
  0
LINE
  8
0
 10
150.700027
 20
40.966145
 11
157.900040
 21
40.966145
  0
LINE
  8
0
 10
150.700027
 20
41.814671
 11
156.700027
 21
41.814671
  0
LINE
  8
0
 10
131.200012
 20
54.472630
 11
131.200012
 21
66.500000
  0
LINE
  8
0
 10
125.000008
 20
54.472630
 11
125.000008
 21
66.500000
  0
LINE
  8
0
 10
156.700012
 20
-8.500000
 11
156.700012
 21
37.430611
  0
LINE
  8
0
 10
157.900024
 20
-8.500000
 11
157.900024
 21
43.759193
  0
LINE
  8
0
 10
140.500015
 20
-8.500000
 11
157.900024
 21
-8.500000
  0
LINE
  8
0
 10
140.500015
 20
28.500000
 11
156.700012
 21
28.500000
  0
LINE
  8
0
 10
125.000008
 20
66.500000
 11
131.200012
 21
66.500000
  0
LINE
  8
0
 10
158.700012
 20
-4.000000
 11
158.700012
 21
24.000000
  0
LINE
  8
0
 10
157.900024
 20
24.000000
 11
158.700012
 21
24.000000
  0
LINE
  8
0
 10
157.900024
 20
-4.000000
 11
158.700012
 21
-4.000000
  0
LINE
  8
0
 10
140.500015
 20
-8.500000
 11
140.500015
 21
28.500000
  0
LINE
  8
0
 10
125.000008
 20
-46.500000
 11
131.200012
 21
-46.500000
  0
LINE
  8
0
 10
142.700012
 20
45.244110
 11
142.700012
 21
56.345692
  0
LINE
  8
0
 10
132.699982
 20
51.183796
 11
142.700012
 21
51.183796
  0
LINE
  8
0
 10
131.200012
 20
-46.500000
 11
131.200012
 21
46.330059
  0
LINE
  8
0
 10
125.000008
 20
-46.500000
 11
125.000008
 21
46.330059
  0
LINE
  8
0
 10
182.277924
 20
53.395943
 11
182.277924
 21
49.395943
  0
LINE
  8
0
 10
182.277924
 20
51.095943
 11
185.277924
 21
51.095943
  0
LINE
  8
0
 10
182.277924
 20
51.695942
 11
185.277924
 21
51.695942
  0
LINE
  8
0
 10
182.277924
 20
50.095943
 11
185.277924
 21
50.095943
  0
LINE
  8
0
 10
182.277924
 20
52.695942
 11
185.277924
 21
52.695942
  0
LINE
  8
0
 10
185.277924
 20
52.695942
 11
185.277924
 21
51.695942
  0
LINE
  8
0
 10
185.277924
 20
51.095943
 11
185.277924
 21
50.095943
  0
LINE
  8
0
 10
185.277924
 20
52.570942
 11
186.777924
 21
52.570942
  0
LINE
  8
0
 10
185.277924
 20
52.445942
 11
186.777924
 21
52.445942
  0
LINE
  8
0
 10
185.277924
 20
52.320942
 11
186.777924
 21
52.320942
  0
LINE
  8
0
 10
185.277924
 20
52.195942
 11
186.777924
 21
52.195942
  0
LINE
  8
0
 10
185.277924
 20
52.070942
 11
186.777924
 21
52.070942
  0
LINE
  8
0
 10
185.277924
 20
51.945942
 11
186.777924
 21
51.945942
  0
LINE
  8
0
 10
185.277924
 20
51.820942
 11
186.777924
 21
51.820942
  0
LINE
  8
0
 10
185.277924
 20
50.970943
 11
186.777924
 21
50.970943
  0
LINE
  8
0
 10
185.277924
 20
50.845943
 11
186.777924
 21
50.845943
  0
LINE
  8
0
 10
185.277924
 20
50.720943
 11
186.777924
 21
50.720943
  0
LINE
  8
0
 10
185.277924
 20
50.595943
 11
186.777924
 21
50.595943
  0
LINE
  8
0
 10
185.277924
 20
50.470943
 11
186.777924
 21
50.470943
  0
LINE
  8
0
 10
185.277924
 20
50.345943
 11
186.777924
 21
50.345943
  0
LINE
  8
0
 10
185.277924
 20
50.220943
 11
186.777924
 21
50.220943
  0
LINE
  8
0
 10
139.700012
 20
57.000000
 11
139.700012
 21
51.183796
  0
LINE
  8
0
 10
132.800018
 20
59.699997
 11
132.800018
 21
51.183796
  0
LINE
  8
0
 10
139.074799
 20
58.082905
 11
134.200012
 21
58.082905
  0
LINE
  8
0
 10
139.074799
 20
54.041454
 11
133.425217
 21
54.041454
  0
LINE
  8
0
 10
139.074799
 20
41.917099
 11
134.200012
 21
41.917099
  0
LINE
  8
0
 10
139.699997
 20
43.000000
 11
139.074783
 21
41.917099
  0
LINE
  8
0
 10
139.074783
 20
58.082909
 11
139.699997
 21
57.000004
  0
LINE
  8
0
 10
139.700012
 20
-23.000000
 11
139.700012
 21
-37.000000
  0
LINE
  8
0
 10
132.800018
 20
-20.300001
 11
132.800018
 21
-39.700001
  0
LINE
  8
0
 10
139.074799
 20
-21.917095
 11
134.200012
 21
-21.917095
  0
LINE
  8
0
 10
139.074799
 20
-25.958546
 11
133.425217
 21
-25.958546
  0
LINE
  8
0
 10
139.074799
 20
-34.041447
 11
133.425217
 21
-34.041447
  0
LINE
  8
0
 10
139.074799
 20
-38.082901
 11
134.200012
 21
-38.082901
  0
LINE
  8
0
 10
139.699997
 20
-36.999996
 11
139.074783
 21
-38.082897
  0
LINE
  8
0
 10
139.074783
 20
-21.917101
 11
139.699997
 21
-23.000004
  0
LINE
  8
0
 10
132.800018
 20
43.052063
 11
132.800018
 21
40.299999
  0
LINE
  8
0
 10
112.500000
 20
65.000000
 11
112.500000
 21
-45.000000
  0
LINE
  8
0
 10
115.199997
 20
-39.000000
 11
125.000008
 21
-39.000000
  0
LINE
  8
0
 10
117.000000
 20
-19.000000
 11
125.000008
 21
-19.000000
  0
LINE
  8
0
 10
117.000000
 20
39.000000
 11
125.000008
 21
39.000000
  0
LINE
  8
0
 10
115.199997
 20
59.000000
 11
125.000008
 21
59.000000
  0
LINE
  8
0
 10
112.499901
 20
-44.999954
 11
115.199905
 21
-38.999954
  0
LINE
  8
0
 10
112.499901
 20
64.999954
 11
115.199905
 21
58.999954
  0
LINE
  8
0
 10
117.000000
 20
54.299999
 11
117.000000
 21
39.000000
  0
LINE
  8
0
 10
117.000000
 20
-19.000000
 11
117.000000
 21
-34.299999
  0
LINE
  8
0
 10
117.000000
 20
25.302853
 11
117.000000
 21
-5.302854
  0
LINE
  8
0
 10
136.949997
 20
-2.499987
 11
137.000000
 21
-2.449986
  0
LINE
  8
0
 10
133.500000
 20
32.199997
 11
133.500000
 21
-12.199997
  0
LINE
  8
0
 10
131.200012
 20
-12.500000
 11
133.199997
 21
-12.500000
  0
LINE
  8
0
 10
133.500000
 20
-2.500000
 11
136.949997
 21
-2.500000
  0
LINE
  8
0
 10
133.500000
 20
22.500000
 11
136.950012
 21
22.500000
  0
LINE
  8
0
 10
131.200012
 20
32.500000
 11
133.199997
 21
32.500000
  0
LINE
  8
0
 10
133.199982
 20
-12.499979
 11
133.499985
 21
-12.199980
  0
LINE
  8
0
 10
133.200012
 20
32.499966
 11
133.500015
 21
32.199959
  0
LINE
  8
0
 10
137.000000
 20
22.450001
 11
137.000000
 21
-2.449995
  0
LINE
  8
0
 10
137.000031
 20
22.450029
 11
136.950043
 21
22.500031
  0
LINE
  8
0
 10
158.700012
 20
8.972504
 11
159.199997
 21
8.972504
  0
LINE
  8
0
 10
158.700012
 20
11.027496
 11
159.199997
 21
11.027496
  0
LINE
  8
0
 10
140.500015
 20
12.369498
 11
137.999985
 21
11.027496
  0
LINE
  8
0
 10
158.700012
 20
11.295826
 11
159.199951
 21
11.027462
  0
LINE
  8
0
 10
158.700012
 20
8.704096
 11
159.200027
 21
8.972501
  0
LINE
  8
0
 10
140.500015
 20
7.630532
 11
137.999893
 21
8.972584
  0
LINE
  8
0
 10
158.700012
 20
-2.407516
 11
159.199997
 21
-2.407516
  0
LINE
  8
0
 10
160.000000
 20
21.650002
 11
160.000000
 21
-1.649993
  0
LINE
  8
0
 10
137.000000
 20
-2.450000
 11
140.500015
 21
-2.450000
  0
LINE
  8
0
 10
137.000000
 20
22.450001
 11
140.500015
 21
22.450001
  0
LINE
  8
0
 10
159.200043
 20
-2.450044
 11
160.000046
 21
-1.650037
  0
LINE
  8
0
 10
159.200012
 20
22.450024
 11
160.000031
 21
21.650026
  0
LINE
  8
0
 10
159.199997
 20
22.449997
 11
159.199997
 21
-2.450003
  0
LINE
  8
0
 10
137.000031
 20
22.450027
 11
136.950043
 21
22.500031
  0
LINE
  8
0
 10
136.949997
 20
-2.499987
 11
137.000000
 21
-2.449986
  0
LINE
  8
0
 10
158.700012
 20
11.027496
 11
159.199997
 21
11.027496
  0
LINE
  8
0
 10
158.700012
 20
22.407532
 11
159.199997
 21
22.407532
  0
LINE
  8
0
 10
137.999893
 20
11.027496
 11
140.500015
 21
11.027496
  0
LINE
  8
0
 10
137.999893
 20
8.972504
 11
140.500015
 21
8.972504
  0
LINE
  8
0
 10
137.999893
 20
-2.407516
 11
140.500015
 21
-2.407516
  0
LINE
  8
0
 10
138.008621
 20
22.407532
 11
140.500015
 21
22.407532
  0
LINE
  8
0
 10
137.999893
 20
22.407532
 11
140.500015
 21
21.065479
  0
LINE
  8
0
 10
159.200027
 20
22.407551
 11
158.700012
 21
22.139149
  0
LINE
  8
0
 10
159.199997
 20
-2.407495
 11
158.700012
 21
-2.139106
  0
LINE
  8
0
 10
137.999893
 20
-2.407594
 11
140.500015
 21
-1.065542
  0
LINE
  8
0
 10
159.199997
 20
8.972483
 11
159.999985
 21
9.326859
  0
LINE
  8
0
 10
160.000092
 20
10.673258
 11
159.200104
 21
11.027630
  0
LINE
  8
0
 10
159.200012
 20
-2.407523
 11
160.000015
 21
-1.630537
  0
LINE
  8
0
 10
159.199875
 20
22.407417
 11
159.999878
 21
21.630428
  0
LINE
  8
0
 10
158.700012
 20
22.450001
 11
159.199997
 21
22.450001
  0
LINE
  8
0
 10
158.700012
 20
22.407532
 11
159.199997
 21
22.407532
  0
LINE
  8
0
 10
158.700012
 20
-2.450000
 11
159.199997
 21
-2.450000
  0
LINE
  8
0
 10
161.700043
 20
43.759193
 11
161.700043
 21
45.244110
  0
ARC
  8
0
 10
150.500031
 20
49.491779
 40
0.500000
 50
180.000000
 51
270.000000
  0
ARC
  8
0
 10
157.900024
 20
49.491779
 40
0.500000
 50
270.000000
 51
0.000000
  0
ARC
  8
0
 10
158.700012
 20
50.905987
 40
0.500000
 50
270.000000
 51
0.000000
  0
ARC
  8
0
 10
149.700043
 20
50.905991
 40
0.500000
 50
180.000000
 51
270.000000
  0
ARC
  8
0
 10
149.700043
 20
60.305485
 40
0.500000
 50
90.000000
 51
180.000000
  0
ARC
  8
0
 10
158.700012
 20
60.305485
 40
0.500000
 50
0.000000
 51
90.000000
  0
ARC
  8
0
 10
157.900024
 20
61.154018
 40
0.500000
 50
0.000000
 51
90.000000
  0
ARC
  8
0
 10
150.500031
 20
61.154018
 40
0.500000
 50
90.000000
 51
180.000000
  0
ARC
  8
0
 10
157.900024
 20
54.290043
 40
0.500000
 50
0.000000
 51
90.000000
  0
ARC
  8
0
 10
150.500031
 20
54.290043
 40
0.500000
 50
90.000000
 51
180.000000
  0
ARC
  8
0
 10
132.000000
 20
59.700001
 40
0.800003
 50
0.000000
 51
180.000000
  0
ARC
  8
0
 10
132.000000
 20
40.300003
 40
0.799988
 50
180.000000
 51
0.000000
  0
ARC
  8
0
 10
126.325211
 20
50.000000
 40
13.374803
 50
5.077860
 51
17.587940
  0
ARC
  8
0
 10
133.202286
 20
56.827789
 40
6.500007
 50
334.617004
 51
1.518201
  0
ARC
  8
0
 10
134.200012
 20
59.482903
 40
1.399994
 50
180.000000
 51
270.000000
  0
ARC
  8
0
 10
134.200012
 20
40.517097
 40
1.400002
 50
90.000000
 51
180.000000
  0
ARC
  8
0
 10
139.297729
 20
56.827789
 40
6.499993
 50
178.481766
 51
205.382935
  0
ARC
  8
0
 10
146.174805
 20
50.000004
 40
13.374793
 50
162.411972
 51
174.922165
  0
ARC
  8
0
 10
139.297729
 20
-36.827789
 40
6.499998
 50
154.616852
 51
181.518097
  0
ARC
  8
0
 10
132.000000
 20
-20.299999
 40
0.800003
 50
0.000000
 51
180.000000
  0
ARC
  8
0
 10
132.000000
 20
-39.699997
 40
0.799988
 50
180.000000
 51
0.000000
  0
ARC
  8
0
 10
126.325211
 20
-30.000000
 40
13.374802
 50
342.412079
 51
17.587940
  0
ARC
  8
0
 10
133.202286
 20
-23.172211
 40
6.500007
 50
334.617004
 51
1.518201
  0
ARC
  8
0
 10
133.202286
 20
-36.827789
 40
6.500008
 50
358.481842
 51
25.383085
  0
ARC
  8
0
 10
134.200012
 20
-20.517097
 40
1.399994
 50
180.000000
 51
270.000000
  0
ARC
  8
0
 10
134.200012
 20
-39.482903
 40
1.400002
 50
90.000000
 51
180.000000
  0
ARC
  8
0
 10
139.297729
 20
-23.172211
 40
6.499993
 50
178.481766
 51
205.382935
  0
ARC
  8
0
 10
146.174805
 20
-29.999996
 40
13.374793
 50
162.411972
 51
197.587860
  0
ARC
  8
0
 10
154.944336
 20
46.021935
 40
0.755692
 50
0.000289
 51
14.106671
  0
ARC
  8
0
 10
154.746780
 20
45.949512
 40
0.965201
 50
15.417976
 51
51.388855
  0
ARC
  8
0
 10
154.200027
 20
45.150707
 40
1.931883
 50
53.502392
 51
126.497612
  0
ARC
  8
0
 10
153.653275
 20
45.949509
 40
0.965195
 50
128.611008
 51
164.582031
  0
ARC
  8
0
 10
153.455719
 20
46.021935
 40
0.755698
 50
165.893616
 51
180.000290
  0
ARC
  8
0
 10
123.519699
 20
50.937103
 40
2.130286
 50
3.762459
 51
11.774199
  0
ARC
  8
0
 10
123.302132
 20
50.870632
 40
2.356931
 50
12.276846
 51
45.306488
  0
ARC
  8
0
 10
122.699997
 20
50.137524
 40
3.302731
 50
46.825668
 51
133.175827
  0
ARC
  8
0
 10
122.097855
 20
50.870617
 40
2.356934
 50
134.695221
 51
167.724686
  0
ARC
  8
0
 10
121.880280
 20
50.937080
 40
2.130284
 50
168.227249
 51
183.762665
  0
ARC
  8
0
 10
146.418701
 20
53.517258
 40
0.425081
 50
345.893433
 51
14.106079
  0
ARC
  8
0
 10
146.307571
 20
53.476521
 40
0.542929
 50
15.417357
 51
51.388226
  0
ARC
  8
0
 10
146.000031
 20
53.027199
 40
1.086678
 50
53.502201
 51
126.497444
  0
ARC
  8
0
 10
145.692490
 20
53.476524
 40
0.542930
 50
128.611267
 51
164.581863
  0
ARC
  8
0
 10
145.581360
 20
53.517265
 40
0.425081
 50
165.893417
 51
194.106079
  0
ARC
  8
0
 10
145.692490
 20
53.558002
 40
0.542929
 50
195.417358
 51
231.388229
  0
ARC
  8
0
 10
146.000031
 20
54.007324
 40
1.086678
 50
233.502197
 51
306.497437
  0
ARC
  8
0
 10
146.307571
 20
53.557999
 40
0.542930
 50
308.611267
 51
344.581879
  0
ARC
  8
0
 10
121.236206
 20
50.937080
 40
1.486214
 50
174.645615
 51
194.106720
  0
ARC
  8
0
 10
121.624733
 20
51.079514
 40
1.898232
 50
195.418106
 51
231.388641
  0
ARC
  8
0
 10
122.699982
 20
52.650467
 40
3.799348
 50
233.502380
 51
306.498199
  0
ARC
  8
0
 10
123.775246
 20
51.079525
 40
1.898233
 50
308.611938
 51
344.582520
  0
ARC
  8
0
 10
124.163773
 20
50.937096
 40
1.486214
 50
345.893921
 51
5.331062
  0
ARC
  8
0
 10
122.699944
 20
47.535580
 40
4.532875
 50
65.111511
 51
114.901779
  0
ARC
  8
0
 10
146.744339
 20
53.517262
 40
0.755698
 50
345.893616
 51
14.106391
  0
ARC
  8
0
 10
146.546783
 20
53.444836
 40
0.965201
 50
15.417976
 51
51.388996
  0
ARC
  8
0
 10
146.000031
 20
52.646038
 40
1.931880
 50
53.502323
 51
126.497673
  0
ARC
  8
0
 10
145.453278
 20
53.444839
 40
0.965192
 50
128.611145
 51
164.582245
  0
ARC
  8
0
 10
145.255722
 20
53.517262
 40
0.755698
 50
165.893616
 51
194.106384
  0
ARC
  8
0
 10
145.453278
 20
53.589687
 40
0.965201
 50
195.417969
 51
231.388992
  0
ARC
  8
0
 10
146.000031
 20
54.388485
 40
1.931880
 50
233.502319
 51
306.497681
  0
ARC
  8
0
 10
146.546783
 20
53.589684
 40
0.965192
 50
308.611145
 51
344.582245
  0
ARC
  8
0
 10
155.019745
 20
58.184170
 40
2.130294
 50
3.762855
 51
11.773512
  0
ARC
  8
0
 10
154.802185
 20
58.117702
 40
2.356933
 50
12.276172
 51
45.305767
  0
ARC
  8
0
 10
154.200043
 20
57.384602
 40
3.302732
 50
46.824963
 51
133.175125
  0
ARC
  8
0
 10
153.597900
 20
58.117702
 40
2.356926
 50
134.694366
 51
167.724014
  0
ARC
  8
0
 10
153.380341
 20
58.184170
 40
2.130296
 50
168.226685
 51
183.762955
  0
ARC
  8
0
 10
152.736252
 20
58.184166
 40
1.486205
 50
174.645874
 51
194.106445
  0
ARC
  8
0
 10
153.124786
 20
58.326599
 40
1.898238
 50
195.417816
 51
231.388382
  0
ARC
  8
0
 10
154.200043
 20
59.897545
 40
3.799348
 50
233.502106
 51
306.497894
  0
ARC
  8
0
 10
155.275299
 20
58.326599
 40
1.898234
 50
308.611603
 51
344.582184
  0
ARC
  8
0
 10
155.663834
 20
58.184166
 40
1.486208
 50
345.893555
 51
5.331208
  0
ARC
  8
0
 10
154.200012
 20
54.782658
 40
4.532868
 50
65.111580
 51
114.902039
  0
ARC
  8
0
 10
147.507950
 20
-8.031199
 40
3.577659
 50
187.525436
 51
191.305222
  0
ARC
  8
0
 10
147.771286
 20
-7.953972
 40
3.851099
 50
191.663864
 51
223.964432
  0
ARC
  8
0
 10
148.500031
 20
-7.102225
 40
4.968081
 50
225.200378
 51
314.798492
  0
ARC
  8
0
 10
149.228760
 20
-7.953985
 40
3.851094
 50
316.034393
 51
348.335022
  0
ARC
  8
0
 10
149.492081
 20
-8.031217
 40
3.577656
 50
348.693695
 51
352.460754
  0
ARC
  8
0
 10
147.588760
 20
-7.910501
 40
1.608654
 50
201.465942
 51
231.388702
  0
ARC
  8
0
 10
148.500015
 20
-6.579167
 40
3.219808
 50
233.502213
 51
306.497772
  0
ARC
  8
0
 10
149.411270
 20
-7.910501
 40
1.608664
 50
308.611298
 51
338.564148
  0
ARC
  8
0
 10
146.232498
 20
-8.031201
 40
2.302214
 50
191.767349
 51
194.106293
  0
ARC
  8
0
 10
146.834351
 20
-7.810559
 40
2.940460
 50
195.417862
 51
231.388611
  0
ARC
  8
0
 10
148.500015
 20
-5.377024
 40
5.885447
 50
233.502274
 51
306.497620
  0
ARC
  8
0
 10
150.165680
 20
-7.810568
 40
2.940462
 50
308.611267
 51
344.581848
  0
ARC
  8
0
 10
150.767532
 20
-8.031215
 40
2.302214
 50
345.893402
 51
348.257324
  0
POLYLINE
  8
0
 66
     1
  0
VERTEX
  8
0
 10
115.199997
 20
59.000000
  0
VERTEX
  8
0
 10
115.301788
 20
58.720554
  0
VERTEX
  8
0
 10
115.429504
 20
58.374657
  0
VERTEX
  8
0
 10
115.642761
 20
57.806187
  0
VERTEX
  8
0
 10
115.865997
 20
57.217632
  0
VERTEX
  8
0
 10
116.110291
 20
56.573605
  0
VERTEX
  8
0
 10
116.369995
 20
55.895317
  0
VERTEX
  8
0
 10
116.682167
 20
55.096542
  0
VERTEX
  8
0
 10
117.000000
 20
54.299999
  0
SEQEND
  0
POLYLINE
  8
0
 66
     1
  0
VERTEX
  8
0
 10
115.199997
 20
-39.000000
  0
VERTEX
  8
0
 10
115.301788
 20
-38.720554
  0
VERTEX
  8
0
 10
115.429504
 20
-38.374657
  0
VERTEX
  8
0
 10
115.642761
 20
-37.806187
  0
VERTEX
  8
0
 10
115.865997
 20
-37.217632
  0
VERTEX
  8
0
 10
116.110291
 20
-36.573605
  0
VERTEX
  8
0
 10
116.369995
 20
-35.895317
  0
VERTEX
  8
0
 10
116.682167
 20
-35.096542
  0
VERTEX
  8
0
 10
117.000000
 20
-34.299999
  0
SEQEND
  0
POLYLINE
  8
0
 66
     1
  0
VERTEX
  8
0
 10
117.000000
 20
-5.302854
  0
VERTEX
  8
0
 10
116.748276
 20
-5.971635
  0
VERTEX
  8
0
 10
116.513321
 20
-6.646605
  0
VERTEX
  8
0
 10
116.275497
 20
-7.382919
  0
VERTEX
  8
0
 10
116.015953
 20
-8.249454
  0
VERTEX
  8
0
 10
115.785843
 20
-9.123968
  0
VERTEX
  8
0
 10
115.591492
 20
-10.027548
  0
VERTEX
  8
0
 10
115.437599
 20
-10.997130
  0
VERTEX
  8
0
 10
115.330650
 20
-11.973124
  0
VERTEX
  8
0
 10
115.263000
 20
-12.920111
  0
VERTEX
  8
0
 10
115.227821
 20
-13.816030
  0
VERTEX
  8
0
 10
115.218727
 20
-14.715286
  0
VERTEX
  8
0
 10
115.236000
 20
-15.564739
  0
VERTEX
  8
0
 10
115.284676
 20
-16.286821
  0
VERTEX
  8
0
 10
115.405289
 20
-16.991222
  0
VERTEX
  8
0
 10
115.640999
 20
-17.630854
  0
VERTEX
  8
0
 10
116.225037
 20
-18.401867
  0
VERTEX
  8
0
 10
117.000000
 20
-19.000000
  0
SEQEND
  0
POLYLINE
  8
0
 66
     1
  0
VERTEX
  8
0
 10
117.000000
 20
39.000000
  0
VERTEX
  8
0
 10
116.230080
 20
38.411560
  0
VERTEX
  8
0
 10
115.640999
 20
37.630852
  0
VERTEX
  8
0
 10
115.400085
 20
37.000088
  0
VERTEX
  8
0
 10
115.283226
 20
36.321789
  0
VERTEX
  8
0
 10
115.236000
 20
35.564739
  0
VERTEX
  8
0
 10
115.216644
 20
34.684383
  0
VERTEX
  8
0
 10
115.225975
 20
33.815292
  0
VERTEX
  8
0
 10
115.263000
 20
32.920113
  0
VERTEX
  8
0
 10
115.332954
 20
31.946964
  0
VERTEX
  8
0
 10
115.440605
 20
30.974241
  0
VERTEX
  8
0
 10
115.591492
 20
30.027548
  0
VERTEX
  8
0
 10
115.789230
 20
29.118336
  0
VERTEX
  8
0
 10
116.026428
 20
28.218571
  0
VERTEX
  8
0
 10
116.275497
 20
27.382919
  0
VERTEX
  8
0
 10
116.501610
 20
26.684029
  0
VERTEX
  8
0
 10
116.742416
 20
25.990347
  0
VERTEX
  8
0
 10
117.000000
 20
25.302853
  0
SEQEND
  0
POINT
  8
0
 10
280.000000
 20
160.000000
  0
POINT
  8
0
 10
350.750000
 20
160.000000
  0
LINE
  8
0
 10
249.205505
 20
120.083832
 11
240.083832
 21
129.205505
  0
LINE
  8
0
 10
252.741058
 20
123.619370
 11
251.892532
 21
124.467911
  0
LINE
  8
0
 10
252.741013
 20
123.619385
 11
249.205490
 21
120.083847
  0
LINE
  8
0
 10
243.619354
 20
132.741043
 11
240.083817
 21
129.205505
  0
LINE
  8
0
 10
251.185379
 20
123.760796
 11
249.064056
 21
121.639481
  0
LINE
  8
0
 10
243.760773
 20
131.185410
 11
241.639450
 21
129.064087
  0
LINE
  8
0
 10
253.837021
 20
131.008652
 11
249.594391
 21
126.766006
  0
LINE
  8
0
 10
251.008606
 20
133.837067
 11
246.765961
 21
129.594421
  0
LINE
  8
0
 10
253.837036
 20
131.008621
 11
251.008606
 21
133.837051
  0
LINE
  8
0
 10
250.442917
 20
127.614510
 11
247.614502
 21
130.442932
  0
LINE
  8
0
 10
244.467896
 20
131.892532
 11
243.619385
 21
132.741058
  0
LINE
  8
0
 10
248.887329
 20
127.473114
 11
247.473114
 21
128.887329
  0
LINE
  8
0
 10
296.616974
 20
169.545914
 11
289.545898
 21
176.616989
  0
LINE
  8
0
 10
298.971771
 20
172.848022
 11
292.848022
 21
178.971756
  0
LINE
  8
0
 10
299.171967
 20
172.100922
 11
296.617004
 21
169.545959
  0
LINE
  8
0
 10
292.100891
 20
179.171997
 11
289.545929
 21
176.617035
  0
LINE
  8
0
 10
297.203979
 20
173.668488
 11
294.849243
 21
171.313736
  0
LINE
  8
0
 10
293.668457
 20
177.204010
 11
291.313721
 21
174.849258
  0
LINE
  8
0
 10
298.971710
 20
172.848038
 11
299.171906
 21
172.100891
  0
LINE
  8
0
 10
292.848022
 20
178.971664
 11
292.100891
 21
179.171875
  0
LINE
  8
0
 10
301.124817
 20
174.937607
 11
294.937622
 21
181.124786
  0
LINE
  8
0
 10
296.263458
 20
179.799026
 11
294.142120
 21
177.677689
  0
LINE
  8
0
 10
299.799011
 20
176.263474
 11
297.677673
 21
174.142151
  0
LINE
  8
0
 10
299.445465
 20
176.617020
 11
297.324127
 21
174.495697
  0
LINE
  8
0
 10
296.617035
 20
179.445435
 11
294.495728
 21
177.324112
  0
LINE
  8
0
  6
CENTER
 10
241.432541
 20
204.224365
 11
235.775681
 21
198.567505
  0
LINE
  8
0
 10
245.180206
 20
200.476715
 11
239.523331
 21
194.819855
  0
LINE
  8
0
 10
229.341003
 20
205.002197
 11
240.584000
 21
193.759186
  0
LINE
  8
0
 10
234.997864
 20
210.659027
 11
246.240845
 21
199.416031
  0
LINE
  8
0
 10
239.311218
 20
206.345657
 11
233.654358
 21
200.688812
  0
LINE
  8
0
 10
246.240891
 20
199.416016
 11
240.584030
 21
193.759155
  0
LINE
  8
0
 10
246.806564
 20
199.416046
 11
240.584015
 21
193.193512
  0
LINE
  8
0
 10
233.654343
 20
200.123169
 11
240.583984
 21
193.193512
  0
LINE
  8
0
 10
239.876892
 20
206.345688
 11
246.806534
 21
199.416046
  0
LINE
  8
0
 10
244.755951
 20
200.900970
 11
239.099075
 21
195.244110
  0
LINE
  8
0
 10
241.008270
 20
207.477051
 11
239.594055
 21
206.062836
  0
LINE
  8
0
 10
234.290756
 20
210.659027
 11
229.341003
 21
205.709290
  0
LINE
  8
0
 10
236.270660
 20
211.507584
 11
235.209991
 21
210.446915
  0
LINE
  8
0
 10
233.937195
 20
200.405975
 11
232.522980
 21
198.991760
  0
LINE
  8
0
 10
228.492477
 20
203.022278
 11
232.522980
 21
198.991791
  0
LINE
  8
0
 10
236.977737
 20
211.507584
 11
241.008240
 21
207.477081
  0
LINE
  8
0
 10
229.553116
 20
204.790070
 11
228.492462
 21
203.729416
  0
LINE
  8
0
 10
244.826706
 20
200.123138
 11
244.826706
 21
200.830246
  0
LINE
  8
0
 10
239.876892
 20
195.173370
 11
239.169785
 21
195.173370
  0
LINE
  8
0
  6
CENTER
 10
241.432465
 20
115.775627
 11
235.775620
 21
121.432480
  0
LINE
  8
0
 10
245.887299
 20
201.183807
 11
245.463043
 21
200.759552
  0
LINE
  8
0
 10
229.340942
 20
114.997818
 11
240.583954
 21
126.240814
  0
LINE
  8
0
 10
234.997787
 20
109.340950
 11
246.240784
 21
120.583954
  0
LINE
  8
0
 10
239.311142
 20
113.654320
 11
233.654297
 21
119.311172
  0
LINE
  8
0
 10
246.947998
 20
200.123123
 11
246.523743
 21
199.698868
  0
LINE
  8
0
 10
246.806488
 20
120.583969
 11
240.583954
 21
126.806503
  0
LINE
  8
0
 10
233.654297
 20
119.876846
 11
240.583954
 21
126.806496
  0
LINE
  8
0
 10
239.876831
 20
113.654312
 11
246.806488
 21
120.583954
  0
LINE
  8
0
 10
244.755875
 20
119.099030
 11
239.099030
 21
124.755890
  0
LINE
  8
0
 10
241.008209
 20
112.522926
 11
239.593994
 21
113.937141
  0
LINE
  8
0
 10
236.270584
 20
108.492462
 11
235.209930
 21
109.553116
  0
LINE
  8
0
 10
233.937134
 20
119.593994
 11
232.522919
 21
121.008209
  0
LINE
  8
0
 10
228.492416
 20
116.977715
 11
232.522919
 21
121.008224
  0
LINE
  8
0
 10
236.977692
 20
108.492439
 11
241.008194
 21
112.522949
  0
LINE
  8
0
 10
229.553070
 20
115.209976
 11
228.492401
 21
116.270630
  0
LINE
  8
0
 10
244.826645
 20
119.876862
 11
244.826645
 21
119.169754
  0
LINE
  8
0
 10
239.876862
 20
124.826614
 11
239.169739
 21
124.826614
  0
LINE
  8
0
 10
242.598480
 20
204.472626
 11
246.947968
 21
200.123154
  0
LINE
  8
0
 10
235.527420
 20
197.401550
 11
239.876892
 21
193.052078
  0
LINE
  8
0
 10
246.240784
 20
120.583969
 11
240.583939
 21
126.240814
  0
LINE
  8
0
 10
245.180130
 20
119.523308
 11
239.523285
 21
125.180161
  0
LINE
  8
0
 10
239.240509
 20
194.537003
 11
238.816223
 21
194.112747
  0
LINE
  8
0
 10
240.301178
 20
193.476334
 11
239.876907
 21
193.052063
  0
LINE
  8
0
 10
243.830780
 20
205.361649
 11
244.909943
 21
204.282471
  0
LINE
  8
0
 10
234.638397
 20
196.169220
 11
235.717575
 21
195.090057
  0
LINE
  8
0
 10
237.755630
 20
196.587585
 11
243.412476
 21
202.244415
  0
LINE
  8
0
 10
234.638367
 20
123.830757
 11
235.717529
 21
124.909927
  0
LINE
  8
0
 10
235.527344
 20
122.598450
 11
239.876831
 21
126.947922
  0
LINE
  8
0
 10
239.240433
 20
125.462997
 11
238.816177
 21
125.887268
  0
LINE
  8
0
 10
240.301086
 20
126.523666
 11
239.876831
 21
126.947929
  0
LINE
  8
0
 10
246.947891
 20
119.876862
 11
246.523621
 21
120.301117
  0
LINE
  8
0
 10
242.598419
 20
115.527382
 11
246.947906
 21
119.876862
  0
LINE
  8
0
 10
245.887238
 20
118.816193
 11
245.462982
 21
119.240463
  0
LINE
  8
0
 10
243.830750
 20
114.638367
 11
244.909912
 21
115.717545
  0
LINE
  8
0
 10
229.340927
 20
114.290710
 11
234.290680
 21
109.340965
  0
LINE
  8
0
 10
237.755539
 20
123.412399
 11
243.412384
 21
117.755547
  0
LINE
  8
0
 10
244.467865
 20
131.892517
 11
258.801208
 21
152.362640
  0
LINE
  8
0
 10
251.892487
 20
124.467918
 11
272.362610
 21
138.801239
  0
LINE
  8
0
 10
328.082916
 20
160.000000
 11
324.041473
 21
167.000000
  0
LINE
  8
0
 10
324.041443
 20
167.000000
 11
315.958557
 21
167.000000
  0
LINE
  8
0
 10
311.917084
 20
160.000015
 11
315.958557
 21
167.000000
  0
LINE
  8
0
 10
315.958557
 20
153.000015
 11
311.917114
 21
160.000015
  0
LINE
  8
0
 10
324.041443
 20
153.000000
 11
315.958557
 21
153.000000
  0
LINE
  8
0
 10
328.082916
 20
160.000000
 11
324.041443
 21
153.000000
  0
LINE
  8
0
 10
248.082916
 20
160.000000
 11
244.041473
 21
167.000000
  0
LINE
  8
0
 10
244.041443
 20
167.000000
 11
235.958557
 21
167.000000
  0
LINE
  8
0
 10
231.917084
 20
160.000015
 11
235.958542
 21
167.000015
  0
LINE
  8
0
 10
235.958557
 20
153.000000
 11
231.917114
 21
160.000000
  0
LINE
  8
0
 10
244.041443
 20
153.000000
 11
235.958557
 21
153.000000
  0
LINE
  8
0
 10
248.082916
 20
160.000000
 11
244.041458
 21
153.000000
  0
LINE
  8
0
 10
272.755554
 20
224.441132
 11
272.036163
 21
221.756317
  0
LINE
  8
0
 10
287.244446
 20
224.441162
 11
287.963837
 21
221.756332
  0
LINE
  8
0
 10
272.755554
 20
95.558868
 11
272.036163
 21
98.243683
  0
LINE
  8
0
 10
287.244415
 20
95.558868
 11
287.963806
 21
98.243683
  0
LINE
  8
0
 10
329.500610
 20
122.224945
 11
332.185425
 21
121.505547
  0
LINE
  8
0
 10
337.464478
 20
136.018707
 11
339.429871
 21
134.053299
  0
LINE
  8
0
 10
337.464478
 20
183.981232
 11
339.429932
 21
185.946671
  0
LINE
  8
0
 10
329.500671
 20
197.775055
 11
332.185455
 21
198.494431
  0
LINE
  8
0
 10
336.000000
 20
139.554230
 11
336.000000
 21
152.500000
  0
LINE
  8
0
 10
325.706604
 20
198.274597
 11
314.494812
 21
204.747711
  0
LINE
  8
0
 10
269.706512
 20
101.279648
 11
258.494781
 21
107.752747
  0
LINE
  8
0
 10
290.293457
 20
101.279709
 11
301.504730
 21
107.752541
  0
LINE
  8
0
 10
244.832932
 20
204.359497
 11
245.504684
 21
204.747330
  0
LINE
  8
0
 10
218.348267
 20
199.000000
 11
234.210236
 21
199.000000
  0
LINE
  8
0
 10
218.348206
 20
121.000000
 11
234.210251
 21
121.000000
  0
LINE
  8
0
 10
214.000000
 20
125.999985
 11
214.000000
 21
193.999985
  0
LINE
  8
0
 10
292.407532
 20
161.027512
 11
281.027496
 21
172.407532
  0
LINE
  8
0
 10
278.972504
 20
147.592468
 11
267.592468
 21
158.972488
  0
LINE
  8
0
 10
267.592468
 20
161.027496
 11
278.972504
 21
172.407532
  0
LINE
  8
0
 10
281.027496
 20
147.592468
 11
292.407532
 21
158.972504
  0
LINE
  8
0
 10
279.326874
 20
148.369461
 11
268.369476
 21
159.326874
  0
LINE
  8
0
 10
280.673126
 20
148.369461
 11
291.630554
 21
159.326874
  0
LINE
  8
0
 10
268.369476
 20
160.673111
 11
279.326874
 21
171.630539
  0
LINE
  8
0
 10
291.630524
 20
160.673126
 11
280.673126
 21
171.630539
  0
LINE
  8
0
 10
280.673096
 20
171.630539
 11
281.027496
 21
172.407532
  0
LINE
  8
0
 10
279.326874
 20
171.630539
 11
278.972504
 21
172.407532
  0
LINE
  8
0
 10
267.592468
 20
161.027496
 11
268.369446
 21
160.673111
  0
LINE
  8
0
 10
267.592468
 20
158.972488
 11
268.369476
 21
159.326874
  0
LINE
  8
0
 10
278.972504
 20
147.592468
 11
279.326904
 21
148.369461
  0
LINE
  8
0
 10
281.027496
 20
147.592468
 11
280.673126
 21
148.369461
  0
LINE
  8
0
 10
292.407532
 20
158.972504
 11
291.630554
 21
159.326874
  0
LINE
  8
0
 10
291.630524
 20
160.673126
 11
292.407532
 21
161.027512
  0
LINE
  8
0
 10
258.495300
 20
212.247467
 11
269.706543
 21
218.720276
  0
LINE
  8
0
 10
301.505219
 20
212.247253
 11
290.293488
 21
218.720367
  0
LINE
  8
0
 10
336.000000
 20
167.500000
 11
336.000000
 21
180.445709
  0
LINE
  8
0
 10
314.495300
 20
115.252655
 11
325.706512
 21
121.725456
  0
ARC
  8
0
 10
292.374390
 20
172.374374
 40
4.999992
 50
15.000055
 51
74.999992
  0
ARC
  8
0
 10
297.500061
 20
172.196747
 40
1.501192
 50
348.626099
 51
101.373779
  0
ARC
  8
0
 10
292.196747
 20
177.500046
 40
1.501189
 50
348.626678
 51
101.373779
  0
ARC
  8
0
 10
297.098053
 20
177.098053
 40
4.569707
 50
331.785828
 51
118.214020
  0
ARC
  8
0
 10
234.644302
 20
210.305496
 40
0.500001
 50
44.998764
 51
135.001236
  0
ARC
  8
0
 10
229.694550
 20
205.355743
 40
0.499990
 50
135.000000
 51
225.001236
  0
ARC
  8
0
 10
228.846039
 20
203.375839
 40
0.500011
 50
135.000000
 51
224.998764
  0
ARC
  8
0
 10
236.624207
 20
211.154007
 40
0.500001
 50
45.001236
 51
134.998764
  0
ARC
  8
0
 10
233.698578
 20
206.301468
 40
3.519527
 50
94.156708
 51
175.843307
  0
CIRCLE
  8
0
 10
238.604095
 20
201.395935
 40
2.500000
  0
CIRCLE
  8
0
 10
238.604095
 20
201.395935
 40
2.000000
  0
CIRCLE
  8
0
 10
238.604034
 20
118.604065
 40
2.500000
  0
CIRCLE
  8
0
 10
238.604034
 20
118.604065
 40
2.000000
  0
ARC
  8
0
 10
234.644241
 20
109.694519
 40
0.500011
 50
225.000000
 51
315.000000
  0
ARC
  8
0
 10
229.694489
 20
114.644264
 40
0.499995
 50
134.999374
 51
225.000626
  0
ARC
  8
0
 10
228.845963
 20
116.624161
 40
0.500011
 50
135.000000
 51
224.998764
  0
ARC
  8
0
 10
236.624146
 20
108.845985
 40
0.499995
 50
225.000626
 51
314.999390
  0
ARC
  8
0
 10
233.698502
 20
113.698524
 40
3.519527
 50
184.156586
 51
265.843292
  0
ARC
  8
0
 10
264.272064
 20
175.727951
 40
36.000004
 50
142.020325
 51
145.402100
  0
ARC
  8
0
 10
264.272064
 20
175.727951
 40
36.000000
 50
124.597832
 51
127.979584
  0
ARC
  8
0
 10
264.272034
 20
144.272034
 40
36.000015
 50
214.597824
 51
217.979599
  0
ARC
  8
0
 10
264.272034
 20
144.272034
 40
36.000004
 50
232.020325
 51
235.402054
  0
ARC
  8
0
 10
280.000061
 20
159.999969
 40
56.500008
 50
230.077042
 51
129.922882
  0
ARC
  8
0
 10
280.000061
 20
159.999969
 40
56.500015
 50
140.077026
 51
219.922897
  0
CIRCLE
  8
0
 10
300.000000
 20
194.641022
 40
5.500000
  0
CIRCLE
  8
0
 10
280.000000
 20
160.000000
 40
14.000000
  0
ARC
  8
0
 10
280.000000
 20
160.000000
 40
18.500006
 50
271.652832
 51
178.347122
  0
ARC
  8
0
 10
246.513947
 20
160.966278
 40
15.000013
 50
325.000000
 51
358.347107
  0
ARC
  8
0
 10
280.966248
 20
126.513939
 40
14.999992
 50
91.652824
 51
124.999962
  0
CIRCLE
  8
0
 10
280.000000
 20
160.000000
 40
12.650000
  0
CIRCLE
  8
0
 10
320.000000
 20
160.000000
 40
10.500000
  0
CIRCLE
  8
0
 10
320.000000
 20
160.000000
 40
7.000000
  0
CIRCLE
  8
0
 10
320.000000
 20
160.000000
 40
5.000000
  0
CIRCLE
  8
0
 10
240.000000
 20
160.000000
 40
5.000000
  0
CIRCLE
  8
0
 10
240.000000
 20
160.000000
 40
10.500000
  0
CIRCLE
  8
0
 10
240.000000
 20
160.000000
 40
7.000000
  0
CIRCLE
  8
0
 10
300.000031
 20
194.640991
 40
5.000000
  0
CIRCLE
  8
0
 10
300.000031
 20
194.640991
 40
4.250000
  0
ARC
  8
0
 10
280.000000
 20
222.500000
 40
7.499974
 50
15.000086
 51
164.999969
  0
ARC
  8
0
 10
280.000000
 20
97.500000
 40
7.500003
 50
195.000031
 51
344.999969
  0
ARC
  8
0
 10
334.126587
 20
128.750000
 40
7.500007
 50
255.000107
 51
44.999836
  0
ARC
  8
0
 10
334.126587
 20
191.249985
 40
7.500008
 50
315.000092
 51
104.999916
  0
ARC
  8
0
 10
267.206512
 20
223.050415
 40
4.999997
 50
300.000031
 51
344.999939
  0
ARC
  8
0
 10
267.206543
 20
96.949585
 40
4.999990
 50
14.999971
 51
59.999981
  0
ARC
  8
0
 10
292.793457
 20
96.949570
 40
4.999989
 50
119.999672
 51
164.999939
  0
ARC
  8
0
 10
328.206512
 20
117.395325
 40
4.999992
 50
74.999947
 51
120.000015
  0
ARC
  8
0
 10
341.000000
 20
139.554230
 40
5.000000
 50
180.000000
 51
225.000000
  0
ARC
  8
0
 10
341.000000
 20
180.445709
 40
4.999984
 50
135.000000
 51
180.000000
  0
ARC
  8
0
 10
328.206573
 20
202.604675
 40
5.000010
 50
240.000076
 51
284.999664
  0
ARC
  8
0
 10
292.793457
 20
223.050415
 40
4.999992
 50
195.000061
 51
239.999985
  0
ARC
  8
0
 10
234.210236
 20
203.999985
 40
5.000000
 50
270.000000
 51
276.179565
  0
ARC
  8
0
 10
234.210251
 20
115.999985
 40
5.000000
 50
83.821320
 51
90.000000
  0
ARC
  8
0
 10
219.000015
 20
125.999985
 40
5.000000
 50
180.000000
 51
256.516968
  0
ARC
  8
0
 10
218.999985
 20
193.999985
 40
4.999999
 50
103.482849
 51
179.999832
  0
ARC
  8
0
 10
280.000000
 20
160.000000
 40
70.749992
 50
216.991135
 51
143.008896
  0
CIRCLE
  8
0
 10
280.000000
 20
160.000000
 40
12.450000
  0
ARC
  8
0
 10
280.000000
 20
160.000000
 40
11.649986
 50
176.687653
 51
183.312347
  0
ARC
  8
0
 10
280.000000
 20
160.000000
 40
11.650002
 50
266.687653
 51
273.312347
  0
ARC
  8
0
 10
280.000000
 20
160.000000
 40
11.649986
 50
356.687653
 51
3.312271
  0
ARC
  8
0
 10
280.000000
 20
160.000000
 40
11.650002
 50
86.687660
 51
93.312340
  0
ARC
  8
0
 10
215.502655
 20
208.586578
 40
10.000002
 50
283.482941
 51
323.008911
  0
ARC
  8
0
 10
215.502686
 20
111.413391
 40
9.999995
 50
36.991211
 51
76.517151
  0
ENDSEC
  0
EOF
