  0
SECTION
  2
HEADER
  0
ENDSEC
  0
SECTION
  2
TABLES
  0
TABLE
  2
LTYPE
 70
     4
  0
LTYPE
  2
CONTINUOUS
 70
    64
  3
Solid line
 72
    65
 73
     0
 40
0.000000
  0
LTYPE
  2
DASHED
 70
    64
  3
__ __ __ __ __ __ __ __ __ __ __ __ __ __ __
 72
    65
 73
     2
 40
3.500000
 49
2.000000
 49
-1.500000
  0
LTYPE
  2
CENTER
 70
    64
  3
____ _ ____ _ ____ _ ____ _ ____ _ ____ _ ____
 72
    65
 73
     4
 40
17.500000
 49
13.000000
 49
-1.500000
 49
1.500000
 49
-1.500000
  0
LTYPE
  2
PHANTOM
 70
    64
  3
_____ _ _ _____ _ _ _____ _ _ _____ _ _ ____  
 72
    65
 73
     6
 40
15.500000
 49
8.000000
 49
-1.500000
 49
1.500000
 49
-1.500000
 49
1.500000
 49
-1.500000
  0
LTYPE
  2
DASHED1
 70
    64
  3
__ __ __ __ __ __ __ __ __ __ __ __ __ __ __
 72
    65
 73
     2
 40
1.500000
 49
1.000000
 49
-0.500000
  0
LTYPE
  2
DASHED2
 70
    64
  3
__ __ __ __ __ __ __ __ __ __ __ __ __ __ __
 72
    65
 73
     2
 40
3.500000
 49
2.500000
 49
-1.000000
  0
LTYPE
  2
DASHED3
 70
    64
  3
__ __ __ __ __ __ __ __ __ __ __ __ __ __ __
 72
    65
 73
     2
 40
6.000000
 49
4.000000
 49
-2.000000
  0
LTYPE
  2
DASHED4
 70
    64
  3
__ __ __ __ __ __ __ __ __ __ __ __ __ __ __
 72
    65
 73
     2
 40
12.000000
 49
10.000000
 49
-2.000000
  0
LTYPE
  2
DASHED5
 70
    64
  3
__ __ __ __ __ __ __ __ __ __ __ __ __ __ __
 72
    65
 73
     2
 40
17.000000
 49
15.000000
 49
-2.000000
  0
LTYPE
  2
DASHED6
 70
    64
  3
__ __ __ __ __ __ __ __ __ __ __ __ __ __ __
 72
    65
 73
     2
 40
29.000000
 49
27.000000
 49
-2.000000
  0
LTYPE
  2
PHANTOM1
 70
    64
  3
_____ _ _ _____ _ _ _____ _ _ _____ _ _ ____  
 72
    65
 73
     6
 40
31.000000
 49
25.000000
 49
-1.500000
 49
1.000000
 49
-1.000000
 49
1.000000
 49
-1.500000
  0
LTYPE
  2
PHANTOM2
 70
    64
  3
_____ _ _ _____ _ _ _____ _ _ _____ _ _ ____  
 72
    65
 73
     6
 40
36.000000
 49
27.000000
 49
-1.500000
 49
2.500000
 49
-1.000000
 49
2.500000
 49
-1.500000
  0
LTYPE
  2
PHANTOM3
 70
    64
  3
_____ _ _ _____ _ _ _____ _ _ _____ _ _ ____  
 72
    65
 73
     6
 40
78.000000
 49
64.000000
 49
-2.000000
 49
4.000000
 49
-2.000000
 49
4.000000
 49
-2.000000
  0
LTYPE
  2
CENTER1
 70
    64
  3
____ _ ____ _ ____ _ ____ _ ____ _ ____ _ ____
 72
    65
 73
     4
 40
19.000000
 49
14.000000
 49
-1.000000
 49
3.000000
 49
-1.000000
  0
LTYPE
  2
CENTER2
 70
    64
  3
____ _ ____ _ ____ _ ____ _ ____ _ ____ _ ____
 72
    65
 73
     4
 40
28.500000
 49
25.000000
 49
-1.000000
 49
1.500000
 49
-1.000000
  0
LTYPE
  2
CENTER3
 70
    64
  3
____ _ ____ _ ____ _ ____ _ ____ _ ____ _ ____
 72
    65
 73
     4
 40
31.500000
 49
27.000000
 49
-1.000000
 49
2.500000
 49
-1.000000
  0
LTYPE
  2
CENTER4
 70
    64
  3
____ _ ____ _ ____ _ ____ _ ____ _ ____ _ ____
 72
    65
 73
     4
 40
50.000000
 49
45.000000
 49
-1.000000
 49
3.000000
 49
-1.000000
  0
LTYPE
  2
CENTER5
 70
    64
  3
____ _ ____ _ ____ _ ____ _ ____ _ ____ _ ____
 72
    65
 73
     4
 40
100.000000
 49
92.000000
 49
-2.000000
 49
4.000000
 49
-2.000000
  0
LTYPE
  2
SBK1
 70
    64
  3
______ _ _ _ ______ _ _ _ ______ _ _ _ _____  
 72
    65
 73
     8
 40
60.500000
 49
45.000000
 49
-2.000000
 49
2.500000
 49
-2.000000
 49
2.500000
 49
-2.000000
 49
2.500000
 49
-2.000000
  0
LTYPE
  2
SBK2
 70
    64
  3
______ _ _ _ ______ _ _ _ ______ _ _ _ _____  
 72
    65
 73
     8
 40
84.000000
 49
64.000000
 49
-2.000000
 49
4.000000
 49
-2.000000
 49
4.000000
 49
-2.000000
 49
4.000000
 49
-2.000000
  0
LTYPE
  2
STCH
 70
    64
  3
__ __ __ __ __ __ __ __ __ __ __ __ __ __ __
 72
    65
 73
     2
 40
3.000000
 49
1.000000
 49
-2.000000
  0
LTYPE
  2
MTCH
 70
    64
  3
_____ _ _ _____ _ _ _____ _ _ _____ _ _ ____  
 72
    65
 73
     6
 40
80.000000
 49
66.000000
 49
-2.000000
 49
4.000000
 49
-2.000000
 49
4.000000
 49
-2.000000
  0
ENDTAB
  0
TABLE
  2
LAYER
 70
     1
  0
LAYER
  2
0
 70
     0
 62
     7
  6
CONTINUOUS
  0
ENDTAB
  0
TABLE
  2
STYLE
 70
     1
  0
STYLE
  2
STANDARD
 70
     0
 40
0.000000
 41
1.000000
 50
0.000000
 71
     0
 42
0.200000
  3
txt
  4
BIGFONT
  0
ENDTAB
  0
TABLE
  2
VIEW
 70
     0
  0
ENDTAB
  0
ENDSEC
  0
SECTION
  2
BLOCKS
  0
ENDSEC
  0
SECTION
  2
ENTITIES
  0
LINE
  8
0
 10
-420.500000
 20
297.000000
 11
420.500000
 21
297.000000
  0
LINE
  8
0
 10
-420.500000
 20
-297.000000
 11
420.500000
 21
-297.000000
  0
LINE
  8
0
 10
420.500000
 20
297.000000
 11
420.500000
 21
-297.000000
  0
LINE
  8
0
 10
-420.500000
 20
297.000000
 11
-420.500000
 21
-297.000000
  0
LINE
  8
0
 10
399.799988
 20
276.250000
 11
399.799988
 21
-276.750000
  0
LINE
  8
0
 10
-399.250000
 20
276.250000
 11
-399.250000
 21
-276.750000
  0
LINE
  8
0
 10
-399.250000
 20
276.250000
 11
399.799988
 21
276.250000
  0
LINE
  8
0
 10
-399.250000
 20
-276.750000
 11
399.799988
 21
-276.750000
  0
LINE
  8
0
 10
-80.000000
 20
80.000000
 11
-80.000000
 21
-276.750000
  0
LINE
  8
0
 10
-399.250000
 20
80.000000
 11
-80.000000
 21
80.000000
  0
LINE
  8
0
 10
-399.250000
 20
-261.750000
 11
-80.000000
 21
-261.750000
  0
LINE
  8
0
 10
-399.250000
 20
261.250000
 11
-299.250000
 21
261.250000
  0
LINE
  8
0
 10
-299.250000
 20
276.250000
 11
-299.250000
 21
261.250000
  0
LINE
  8
0
 10
299.799988
 20
-261.750000
 11
299.799988
 21
-276.750000
  0
LINE
  8
0
 10
299.799988
 20
-261.750000
 11
399.799988
 21
-261.750000
  0
LINE
  8
0
 10
299.799988
 20
261.250000
 11
399.799988
 21
261.250000
  0
LINE
  8
0
 10
299.799988
 20
276.250000
 11
299.799988
 21
261.250000
  0
TEXT
  8
0
 10
-397.856873
 20
264.350006
 40
6.000000
  1
ROTARY ACTUATOER
 50
0.000000
 41
1.052632
 51
0.000000
  7
STANDARD
  0
TEXT
  8
0
 10
310.193115
 20
-273.649994
 40
6.000000
  1
KOGANEI CORP.
 50
0.000000
 41
1.052632
 51
10.000000
  7
STANDARD
  0
TEXT
  8
0
 10
-270.231873
 20
-273.649994
 40
6.000000
  1
FOOT (-1A)
 50
0.000000
 41
1.052632
 51
0.000000
  7
STANDARD
  0
TEXT
  8
0
 10
29.916115
 20
-151.615433
 40
8.000000
  1
MODEL : RAK300
 50
0.000000
 41
1.052632
 51
0.000000
  7
STANDARD
  0
TEXT
  8
0
 10
304.193115
 20
264.350006
 40
6.000000
  1
DATE: MAY ,1992
 50
0.000000
 41
1.052632
 51
0.000000
  7
STANDARD
  0
POINT
  8
0
 10
0.000000
 20
180.000000
  0
POINT
  8
0
 10
155.000000
 20
180.000000
  0
LINE
  8
0
 10
61.500000
 20
250.750000
 11
61.500000
 21
109.250000
  0
LINE
  8
0
 10
-64.199997
 20
192.500000
 11
-3.500000
 21
192.500000
  0
LINE
  8
0
 10
-64.199997
 20
167.500000
 11
-3.500000
 21
167.500000
  0
LINE
  8
0
 10
-3.199997
 20
202.500000
 11
-0.400002
 21
202.500000
  0
LINE
  8
0
 10
-3.200012
 20
157.500000
 11
-0.400002
 21
157.500000
  0
LINE
  8
0
 10
3.000000
 20
223.640991
 11
13.822571
 21
223.640991
  0
LINE
  8
0
 10
3.000000
 20
136.359009
 11
13.822662
 21
136.359009
  0
LINE
  8
0
 10
17.500000
 20
235.000000
 11
27.099998
 21
235.000000
  0
LINE
  8
0
 10
17.500000
 20
125.000000
 11
27.099998
 21
125.000000
  0
LINE
  8
0
 10
30.000000
 20
250.750000
 11
95.000000
 21
250.750000
  0
LINE
  8
0
 10
30.000000
 20
109.250000
 11
95.000000
 21
109.250000
  0
LINE
  8
0
 10
28.500000
 20
219.000000
 11
96.500000
 21
219.000000
  0
LINE
  8
0
 10
28.500000
 20
141.000000
 11
96.500000
 21
141.000000
  0
LINE
  8
0
 10
0.000000
 20
189.000000
 11
13.000000
 21
189.000000
  0
LINE
  8
0
 10
0.000000
 20
171.000000
 11
13.000000
 21
171.000000
  0
LINE
  8
0
 10
27.500000
 20
248.250000
 11
27.500000
 21
111.750000
  0
LINE
  8
0
 10
0.000000
 20
220.640991
 11
0.000000
 21
139.359009
  0
LINE
  8
0
 10
-3.500000
 20
202.199997
 11
-3.500000
 21
157.800003
  0
LINE
  8
0
 10
-65.000000
 20
191.699997
 11
-65.000000
 21
168.300003
  0
LINE
  8
0
 10
97.500000
 20
248.250000
 11
97.500000
 21
111.750000
  0
LINE
  8
0
 10
125.000000
 20
220.640991
 11
125.000000
 21
139.359009
  0
LINE
  8
0
 10
128.500000
 20
202.199997
 11
128.500000
 21
157.800003
  0
LINE
  8
0
 10
155.000000
 20
191.649994
 11
155.000000
 21
168.350006
  0
LINE
  8
0
 10
56.500000
 20
250.750000
 11
56.500000
 21
219.000000
  0
LINE
  8
0
 10
17.500000
 20
235.000000
 11
17.500000
 21
125.000000
  0
LINE
  8
0
 10
13.000000
 20
225.000000
 11
13.000000
 21
223.640991
  0
LINE
  8
0
 10
68.500000
 20
250.750000
 11
68.500000
 21
219.000000
  0
LINE
  8
0
 10
107.500000
 20
235.000000
 11
107.500000
 21
125.000000
  0
LINE
  8
0
 10
112.000000
 20
225.000000
 11
112.000000
 21
223.640991
  0
LINE
  8
0
 10
47.984089
 20
236.000000
 11
56.500008
 21
250.750000
  0
LINE
  8
0
 10
68.500008
 20
109.249992
 11
77.015930
 21
124.000008
  0
LINE
  8
0
 10
47.984089
 20
124.000000
 11
56.500008
 21
109.250000
  0
LINE
  8
0
 10
68.500008
 20
250.750000
 11
77.015930
 21
236.000000
  0
LINE
  8
0
 10
97.900002
 20
125.000000
 11
107.500000
 21
125.000000
  0
LINE
  8
0
 10
111.177338
 20
136.359009
 11
122.000000
 21
136.359009
  0
LINE
  8
0
 10
125.400002
 20
157.500000
 11
128.199997
 21
157.500000
  0
LINE
  8
0
 10
128.500000
 20
167.500000
 11
131.949997
 21
167.500000
  0
LINE
  8
0
 10
112.000000
 20
171.000000
 11
125.000000
 21
171.000000
  0
LINE
  8
0
 10
112.000000
 20
189.000000
 11
125.000000
 21
189.000000
  0
LINE
  8
0
 10
128.500000
 20
192.500000
 11
131.949997
 21
192.500000
  0
LINE
  8
0
 10
125.400002
 20
202.500000
 11
128.199997
 21
202.500000
  0
LINE
  8
0
 10
111.177429
 20
223.640991
 11
122.000000
 21
223.640991
  0
LINE
  8
0
 10
97.900002
 20
235.000000
 11
107.500000
 21
235.000000
  0
LINE
  8
0
 10
-3.200014
 20
202.500031
 11
-3.500020
 21
202.200012
  0
LINE
  8
0
 10
-3.500022
 20
157.799988
 11
-3.200031
 21
157.499985
  0
LINE
  8
0
 10
128.199982
 20
157.500015
 11
128.499985
 21
157.800018
  0
LINE
  8
0
 10
128.500061
 20
202.200027
 11
128.200058
 21
202.500031
  0
LINE
  8
0
 10
17.500057
 20
234.999985
 11
13.000057
 21
224.999985
  0
LINE
  8
0
 10
13.000057
 20
135.000015
 11
17.500057
 21
125.000015
  0
LINE
  8
0
 10
107.499878
 20
125.000053
 11
111.999878
 21
135.000046
  0
LINE
  8
0
 10
107.499878
 20
234.999939
 11
111.999878
 21
224.999954
  0
LINE
  8
0
 10
132.000000
 20
192.449997
 11
132.000000
 21
167.550003
  0
LINE
  8
0
 10
132.000000
 20
167.550003
 11
154.199997
 21
167.550003
  0
LINE
  8
0
 10
132.000000
 20
192.449997
 11
154.199997
 21
192.449997
  0
LINE
  8
0
 10
-64.200050
 20
192.500076
 11
-65.000053
 21
191.700073
  0
LINE
  8
0
 10
-65.000000
 20
168.300003
 11
-64.199997
 21
167.500000
  0
LINE
  8
0
 10
154.200043
 20
167.549957
 11
155.000046
 21
168.349976
  0
LINE
  8
0
 10
154.200027
 20
192.450012
 11
155.000015
 21
191.650024
  0
LINE
  8
0
 10
-64.200012
 20
192.500000
 11
-64.200012
 21
167.500000
  0
LINE
  8
0
 10
154.199997
 20
192.449997
 11
154.199997
 21
167.550003
  0
LINE
  8
0
 10
131.950012
 20
192.500000
 11
132.000015
 21
192.449997
  0
LINE
  8
0
 10
131.949997
 20
167.500015
 11
132.000000
 21
167.550018
  0
LINE
  8
0
  6
CENTER
 10
31.525002
 20
196.000000
 11
51.474998
 21
196.000000
  0
LINE
  8
0
  6
CENTER
 10
73.525002
 20
164.000000
 11
93.474998
 21
164.000000
  0
LINE
  8
0
  6
CENTER
 10
41.500000
 20
205.975006
 11
41.500000
 21
186.024994
  0
LINE
  8
0
  6
CENTER
 10
83.500000
 20
173.975006
 11
83.500000
 21
154.024994
  0
LINE
  8
0
  6
DASHED
 10
-20.000000
 20
173.991074
 11
-20.000000
 21
171.161163
  0
LINE
  8
0
 10
133.000000
 20
181.027496
 11
154.199997
 21
181.027496
  0
LINE
  8
0
 10
133.000000
 20
192.407532
 11
154.199997
 21
192.407532
  0
LINE
  8
0
 10
133.000000
 20
181.027496
 11
154.199997
 21
181.027496
  0
LINE
  8
0
 10
133.000000
 20
178.972504
 11
154.199997
 21
178.972504
  0
LINE
  8
0
 10
133.000000
 20
167.592484
 11
154.199997
 21
167.592484
  0
LINE
  8
0
 10
133.000000
 20
192.407532
 11
133.000000
 21
167.592484
  0
LINE
  8
0
 10
133.000000
 20
192.407532
 11
154.199997
 21
192.407532
  0
LINE
  8
0
 10
132.999985
 20
192.407532
 11
154.199966
 21
181.027496
  0
LINE
  8
0
 10
154.199982
 20
192.407532
 11
132.999985
 21
181.027512
  0
LINE
  8
0
 10
154.199997
 20
167.592499
 11
133.000000
 21
178.972519
  0
LINE
  8
0
 10
133.000015
 20
167.592484
 11
154.200012
 21
178.972504
  0
LINE
  8
0
 10
154.200012
 20
178.972488
 11
155.000000
 21
179.326859
  0
LINE
  8
0
 10
155.000061
 20
180.673203
 11
154.200058
 21
181.027588
  0
LINE
  8
0
 10
154.200012
 20
167.592468
 11
155.000015
 21
168.369461
  0
LINE
  8
0
 10
154.199905
 20
192.407440
 11
154.999908
 21
191.630447
  0
LINE
  8
0
 10
-56.500000
 20
173.989594
 11
-23.500000
 21
173.989594
  0
LINE
  8
0
 10
-56.500000
 20
169.039841
 11
-23.500000
 21
169.039841
  0
LINE
  8
0
 10
-56.535965
 20
171.514725
 11
-23.464020
 21
171.514725
  0
LINE
  8
0
  6
DASHED
 10
-56.500000
 20
176.464478
 11
-23.465225
 21
176.464478
  0
LINE
  8
0
  6
DASHED
 10
-60.000000
 20
171.161163
 11
-60.000000
 21
173.994934
  0
LINE
  8
0
 10
56.500000
 20
141.000000
 11
56.500000
 21
109.250000
  0
LINE
  8
0
 10
68.500000
 20
141.000000
 11
68.500000
 21
109.250000
  0
LINE
  8
0
  6
CENTER
 10
-75.000000
 20
180.000000
 11
165.000000
 21
180.000000
  0
LINE
  8
0
 10
13.000000
 20
136.359009
 11
13.000000
 21
135.000000
  0
LINE
  8
0
 10
13.000000
 20
171.000000
 11
13.000000
 21
145.588242
  0
LINE
  8
0
 10
13.000000
 20
214.411758
 11
13.000000
 21
189.000000
  0
LINE
  8
0
 10
112.000000
 20
214.411758
 11
112.000000
 21
189.000000
  0
LINE
  8
0
 10
112.000000
 20
171.000000
 11
112.000000
 21
145.588242
  0
LINE
  8
0
 10
112.000000
 20
136.359009
 11
112.000000
 21
135.000000
  0
LINE
  8
0
 10
47.984085
 20
236.000000
 11
47.984085
 21
219.000000
  0
LINE
  8
0
 10
77.015923
 20
236.000000
 11
77.015923
 21
219.000000
  0
LINE
  8
0
 10
47.984085
 20
141.000000
 11
47.984085
 21
124.000000
  0
LINE
  8
0
 10
77.015923
 20
141.000000
 11
77.015923
 21
124.000000
  0
LINE
  8
0
 10
19.500000
 20
248.766846
 11
19.500000
 21
236.233154
  0
LINE
  8
0
 10
20.000000
 20
249.000000
 11
20.000000
 21
236.000000
  0
LINE
  8
0
 10
20.000000
 20
249.000000
 11
27.500000
 21
249.000000
  0
LINE
  8
0
 10
20.000000
 20
236.000000
 11
27.500000
 21
236.000000
  0
LINE
  8
0
 10
19.499981
 20
248.766861
 11
19.999981
 21
249.000015
  0
LINE
  8
0
 10
19.500006
 20
236.233154
 11
20.000006
 21
236.000000
  0
LINE
  8
0
 10
20.000000
 20
247.000000
 11
24.470299
 21
247.000000
  0
LINE
  8
0
 10
20.000000
 20
245.000000
 11
23.315598
 21
245.000000
  0
LINE
  8
0
 10
20.000000
 20
243.000000
 11
22.160896
 21
243.000000
  0
LINE
  8
0
 10
20.000000
 20
241.000000
 11
21.006195
 21
241.000000
  0
LINE
  8
0
 10
19.500000
 20
217.516846
 11
19.500000
 21
204.983154
  0
LINE
  8
0
 10
20.000000
 20
217.750000
 11
20.000000
 21
204.750000
  0
LINE
  8
0
 10
20.000000
 20
217.750000
 11
27.500000
 21
217.750000
  0
LINE
  8
0
 10
20.000000
 20
204.750000
 11
27.500000
 21
204.750000
  0
LINE
  8
0
 10
19.499990
 20
217.516846
 11
19.999998
 21
217.750000
  0
LINE
  8
0
 10
19.500002
 20
204.983154
 11
20.000008
 21
204.750000
  0
LINE
  8
0
 10
20.000000
 20
215.750000
 11
24.470299
 21
215.750000
  0
LINE
  8
0
 10
20.000000
 20
213.750000
 11
23.315598
 21
213.750000
  0
LINE
  8
0
 10
20.000000
 20
211.750000
 11
22.160896
 21
211.750000
  0
LINE
  8
0
 10
20.000000
 20
209.750000
 11
21.006195
 21
209.750000
  0
LINE
  8
0
 10
19.500000
 20
155.016846
 11
19.500000
 21
142.483154
  0
LINE
  8
0
 10
20.000000
 20
155.250000
 11
20.000000
 21
142.250000
  0
LINE
  8
0
 10
20.000000
 20
155.250000
 11
27.500000
 21
155.250000
  0
LINE
  8
0
 10
20.000000
 20
142.250000
 11
27.500000
 21
142.250000
  0
LINE
  8
0
 10
19.500002
 20
155.016830
 11
20.000002
 21
155.249985
  0
LINE
  8
0
 10
19.500008
 20
142.483124
 11
20.000008
 21
142.249969
  0
LINE
  8
0
 10
20.000000
 20
153.250000
 11
24.470299
 21
153.250000
  0
LINE
  8
0
 10
20.000000
 20
151.250000
 11
23.315598
 21
151.250000
  0
LINE
  8
0
 10
20.000000
 20
149.250000
 11
22.160896
 21
149.250000
  0
LINE
  8
0
 10
20.000000
 20
147.250000
 11
21.006195
 21
147.250000
  0
LINE
  8
0
 10
19.500000
 20
123.766846
 11
19.500000
 21
111.233154
  0
LINE
  8
0
 10
20.000000
 20
124.000000
 11
20.000000
 21
111.000000
  0
LINE
  8
0
 10
20.000000
 20
124.000000
 11
27.500000
 21
124.000000
  0
LINE
  8
0
 10
20.000000
 20
111.000000
 11
27.500000
 21
111.000000
  0
LINE
  8
0
 10
19.499992
 20
123.766846
 11
19.999992
 21
124.000000
  0
LINE
  8
0
 10
19.499981
 20
111.233139
 11
19.999981
 21
110.999985
  0
LINE
  8
0
 10
20.000000
 20
122.000000
 11
24.470299
 21
122.000000
  0
LINE
  8
0
 10
20.000000
 20
120.000000
 11
23.315598
 21
120.000000
  0
LINE
  8
0
 10
20.000000
 20
118.000000
 11
22.160896
 21
118.000000
  0
LINE
  8
0
 10
20.000000
 20
116.000000
 11
21.006195
 21
116.000000
  0
ARC
  8
0
 10
28.500000
 20
218.000000
 40
1.000000
 50
90.000000
 51
180.000000
  0
ARC
  8
0
 10
28.500000
 20
142.000000
 40
1.000000
 50
180.000000
 51
270.000000
  0
ARC
  8
0
 10
96.500000
 20
142.000000
 40
1.000000
 50
270.000000
 51
0.000000
  0
ARC
  8
0
 10
96.500000
 20
218.000000
 40
1.000000
 50
0.000000
 51
90.000000
  0
ARC
  8
0
 10
30.000000
 20
248.250000
 40
2.500000
 50
90.000000
 51
180.000000
  0
ARC
  8
0
 10
30.000000
 20
111.750000
 40
2.500000
 50
180.000000
 51
270.000000
  0
ARC
  8
0
 10
95.000000
 20
111.750000
 40
2.500000
 50
270.000000
 51
0.000000
  0
ARC
  8
0
 10
95.000000
 20
248.250000
 40
2.500000
 50
0.000000
 51
90.000000
  0
ARC
  8
0
 10
27.099998
 20
235.399994
 40
0.399994
 50
270.000000
 51
0.000000
  0
ARC
  8
0
 10
27.099998
 20
124.599998
 40
0.400000
 50
0.000000
 51
90.000000
  0
ARC
  8
0
 10
97.900002
 20
124.599998
 40
0.400002
 50
90.000000
 51
180.000000
  0
ARC
  8
0
 10
97.900002
 20
235.399994
 40
0.400002
 50
180.000000
 51
270.000000
  0
ARC
  8
0
 10
3.000000
 20
220.640991
 40
3.000000
 50
89.999985
 51
180.000000
  0
ARC
  8
0
 10
3.000000
 20
139.359009
 40
3.000000
 50
180.000000
 51
270.000031
  0
ARC
  8
0
 10
122.000000
 20
139.359009
 40
3.000000
 50
270.000000
 51
0.000000
  0
ARC
  8
0
 10
122.000000
 20
220.640991
 40
3.000000
 50
0.000000
 51
90.000000
  0
ARC
  8
0
 10
-0.400002
 20
202.899994
 40
0.399994
 50
270.000031
 51
0.000000
  0
ARC
  8
0
 10
-0.400002
 20
157.100006
 40
0.400000
 50
0.000000
 51
89.999985
  0
ARC
  8
0
 10
125.400002
 20
202.899994
 40
0.400002
 50
180.000000
 51
270.000000
  0
ARC
  8
0
 10
125.400002
 20
157.100006
 40
0.399994
 50
90.000000
 51
180.000000
  0
CIRCLE
  8
0
 10
41.500000
 20
196.000000
 40
8.330000
  0
CIRCLE
  8
0
 10
83.500000
 20
164.000000
 40
8.330000
  0
CIRCLE
  8
0
 10
41.500000
 20
196.000000
 40
7.475000
  0
CIRCLE
  8
0
 10
83.500000
 20
164.000000
 40
7.475000
  0
ARC
  8
0
 10
13.822571
 20
222.641586
 40
0.999999
 50
5.738648
 51
90.000000
  0
ARC
  8
0
 10
111.177429
 20
222.641586
 40
1.000000
 50
90.000000
 51
174.261353
  0
ARC
  8
0
 10
111.177338
 20
137.359375
 40
0.999998
 50
185.641129
 51
270.000000
  0
ARC
  8
0
 10
13.822662
 20
137.359375
 40
1.000000
 50
270.000000
 51
354.358887
  0
POLYLINE
  8
0
 66
     1
  0
VERTEX
  8
0
 10
-56.500000
 20
173.989594
  0
VERTEX
  8
0
 10
-57.158508
 20
173.932632
  0
VERTEX
  8
0
 10
-57.717987
 20
173.812820
  0
VERTEX
  8
0
 10
-57.947430
 20
173.737335
  0
VERTEX
  8
0
 10
-58.194443
 20
173.636047
  0
VERTEX
  8
0
 10
-58.498322
 20
173.485474
  0
VERTEX
  8
0
 10
-58.815033
 20
173.282486
  0
VERTEX
  8
0
 10
-59.210621
 20
172.947525
  0
VERTEX
  8
0
 10
-59.531082
 20
172.575378
  0
VERTEX
  8
0
 10
-59.737835
 20
172.230972
  0
VERTEX
  8
0
 10
-59.888855
 20
171.868271
  0
VERTEX
  8
0
 10
-59.975243
 20
171.508148
  0
VERTEX
  8
0
 10
-60.000000
 20
171.161163
  0
VERTEX
  8
0
 10
-59.970402
 20
170.896347
  0
VERTEX
  8
0
 10
-59.888855
 20
170.630829
  0
VERTEX
  8
0
 10
-59.745949
 20
170.361328
  0
VERTEX
  8
0
 10
-59.531082
 20
170.100510
  0
VERTEX
  8
0
 10
-59.182117
 20
169.800446
  0
VERTEX
  8
0
 10
-58.815033
 20
169.570175
  0
VERTEX
  8
0
 10
-58.499462
 20
169.420975
  0
VERTEX
  8
0
 10
-58.194443
 20
169.305008
  0
VERTEX
  8
0
 10
-57.949440
 20
169.230713
  0
VERTEX
  8
0
 10
-57.717987
 20
169.172424
  0
VERTEX
  8
0
 10
-57.575451
 20
169.141312
  0
VERTEX
  8
0
 10
-57.368164
 20
169.106140
  0
VERTEX
  8
0
 10
-56.935310
 20
169.056046
  0
VERTEX
  8
0
 10
-56.500000
 20
169.039841
  0
SEQEND
  0
POLYLINE
  8
0
 66
     1
  0
VERTEX
  8
0
 10
-23.500000
 20
173.989594
  0
VERTEX
  8
0
 10
-22.841492
 20
173.932632
  0
VERTEX
  8
0
 10
-22.282013
 20
173.812820
  0
VERTEX
  8
0
 10
-22.052570
 20
173.737335
  0
VERTEX
  8
0
 10
-21.805557
 20
173.636047
  0
VERTEX
  8
0
 10
-21.501678
 20
173.485474
  0
VERTEX
  8
0
 10
-21.184967
 20
173.282486
  0
VERTEX
  8
0
 10
-20.789381
 20
172.947525
  0
VERTEX
  8
0
 10
-20.468918
 20
172.575378
  0
VERTEX
  8
0
 10
-20.262165
 20
172.230972
  0
VERTEX
  8
0
 10
-20.111145
 20
171.868271
  0
VERTEX
  8
0
 10
-20.024759
 20
171.508148
  0
VERTEX
  8
0
 10
-20.000000
 20
171.161163
  0
VERTEX
  8
0
 10
-20.029600
 20
170.896347
  0
VERTEX
  8
0
 10
-20.111145
 20
170.630829
  0
VERTEX
  8
0
 10
-20.254051
 20
170.361328
  0
VERTEX
  8
0
 10
-20.468918
 20
170.100510
  0
VERTEX
  8
0
 10
-20.817881
 20
169.800446
  0
VERTEX
  8
0
 10
-21.184967
 20
169.570175
  0
VERTEX
  8
0
 10
-21.500538
 20
169.420975
  0
VERTEX
  8
0
 10
-21.805557
 20
169.305008
  0
VERTEX
  8
0
 10
-22.050558
 20
169.230713
  0
VERTEX
  8
0
 10
-22.282013
 20
169.172424
  0
VERTEX
  8
0
 10
-22.424547
 20
169.141312
  0
VERTEX
  8
0
 10
-22.631836
 20
169.106140
  0
VERTEX
  8
0
 10
-23.064690
 20
169.056046
  0
VERTEX
  8
0
 10
-23.500000
 20
169.039841
  0
SEQEND
  0
ARC
  8
0
  6
DASHED
 10
-56.500000
 20
171.957062
 40
4.507524
 50
89.549728
 51
126.499596
  0
ARC
  8
0
  6
DASHED
 10
-57.775608
 20
173.820633
 40
2.252257
 50
128.613373
 51
164.583160
  0
ARC
  8
0
  6
DASHED
 10
-58.236530
 20
173.989594
 40
1.763469
 50
165.894257
 51
194.105743
  0
ARC
  8
0
  6
DASHED
 10
-57.775608
 20
174.158554
 40
2.252261
 50
195.416840
 51
221.449600
  0
ARC
  8
0
 10
-57.775608
 20
174.158554
 40
2.252256
 50
221.449600
 51
231.386627
  0
ARC
  8
0
 10
-56.500000
 20
176.022125
 40
4.507531
 50
233.500412
 51
270.469818
  0
ARC
  8
0
  6
DASHED
 10
-22.224390
 20
174.158554
 40
2.252254
 50
319.606567
 51
344.583160
  0
ARC
  8
0
  6
DASHED
 10
-21.763470
 20
173.989594
 40
1.763469
 50
345.894257
 51
14.105742
  0
ARC
  8
0
  6
DASHED
 10
-22.224390
 20
173.820633
 40
2.252259
 50
15.416845
 51
51.386665
  0
ARC
  8
0
  6
DASHED
 10
-23.500000
 20
171.957062
 40
4.507531
 50
53.500408
 51
90.440384
  0
ARC
  8
0
 10
-23.500000
 20
176.022125
 40
4.507524
 50
269.549744
 51
306.499603
  0
ARC
  8
0
 10
-22.224390
 20
174.158554
 40
2.252256
 50
308.613342
 51
318.536316
  0
POLYLINE
  8
0
 66
     1
  0
VERTEX
  8
0
 10
14.817477
 20
222.742355
  0
VERTEX
  8
0
 10
14.831927
 20
222.490585
  0
VERTEX
  8
0
 10
14.789215
 20
222.044891
  0
VERTEX
  8
0
 10
14.704162
 20
221.295914
  0
VERTEX
  8
0
 10
14.609418
 20
220.560074
  0
VERTEX
  8
0
 10
14.504356
 20
219.889130
  0
VERTEX
  8
0
 10
14.351986
 20
219.121017
  0
VERTEX
  8
0
 10
14.156960
 20
218.292267
  0
VERTEX
  8
0
 10
13.976479
 20
217.587463
  0
VERTEX
  8
0
 10
13.784816
 20
216.886642
  0
VERTEX
  8
0
 10
13.589508
 20
216.216354
  0
VERTEX
  8
0
 10
13.305177
 20
215.310745
  0
VERTEX
  8
0
 10
13.000000
 20
214.411758
  0
SEQEND
  0
POLYLINE
  8
0
 66
     1
  0
VERTEX
  8
0
 10
110.182526
 20
222.742355
  0
VERTEX
  8
0
 10
110.168076
 20
222.490585
  0
VERTEX
  8
0
 10
110.210785
 20
222.044891
  0
VERTEX
  8
0
 10
110.295837
 20
221.295914
  0
VERTEX
  8
0
 10
110.390579
 20
220.560074
  0
VERTEX
  8
0
 10
110.495644
 20
219.889130
  0
VERTEX
  8
0
 10
110.648018
 20
219.121017
  0
VERTEX
  8
0
 10
110.843040
 20
218.292267
  0
VERTEX
  8
0
 10
111.023521
 20
217.587463
  0
VERTEX
  8
0
 10
111.215187
 20
216.886642
  0
VERTEX
  8
0
 10
111.410492
 20
216.216354
  0
VERTEX
  8
0
 10
111.694824
 20
215.310745
  0
VERTEX
  8
0
 10
112.000000
 20
214.411758
  0
SEQEND
  0
POLYLINE
  8
0
 66
     1
  0
VERTEX
  8
0
 10
112.000000
 20
145.588242
  0
VERTEX
  8
0
 10
111.699394
 20
144.704422
  0
VERTEX
  8
0
 10
111.410492
 20
143.783646
  0
VERTEX
  8
0
 10
111.205162
 20
143.076721
  0
VERTEX
  8
0
 10
111.011597
 20
142.366226
  0
VERTEX
  8
0
 10
110.843040
 20
141.707733
  0
VERTEX
  8
0
 10
110.661667
 20
140.943512
  0
VERTEX
  8
0
 10
110.495644
 20
140.110870
  0
VERTEX
  8
0
 10
110.377541
 20
139.344925
  0
VERTEX
  8
0
 10
110.280190
 20
138.572830
  0
VERTEX
  8
0
 10
110.210785
 20
137.955109
  0
VERTEX
  8
0
 10
110.178101
 20
137.608337
  0
VERTEX
  8
0
 10
110.182152
 20
137.261368
  0
SEQEND
  0
POLYLINE
  8
0
 66
     1
  0
VERTEX
  8
0
 10
13.000000
 20
189.000000
  0
VERTEX
  8
0
 10
13.117103
 20
188.164841
  0
VERTEX
  8
0
 10
13.330307
 20
187.392990
  0
VERTEX
  8
0
 10
13.577069
 20
186.835052
  0
VERTEX
  8
0
 10
13.872559
 20
186.195343
  0
VERTEX
  8
0
 10
14.102760
 20
185.557068
  0
VERTEX
  8
0
 10
14.274879
 20
184.898163
  0
VERTEX
  8
0
 10
14.414810
 20
184.199265
  0
VERTEX
  8
0
 10
14.545383
 20
183.412674
  0
VERTEX
  8
0
 10
14.651572
 20
182.624512
  0
VERTEX
  8
0
 10
14.726654
 20
181.883820
  0
VERTEX
  8
0
 10
14.782519
 20
180.943130
  0
VERTEX
  8
0
 10
14.800011
 20
180.000000
  0
VERTEX
  8
0
 10
14.784815
 20
179.084946
  0
VERTEX
  8
0
 10
14.726654
 20
178.116180
  0
VERTEX
  8
0
 10
14.647061
 20
177.332413
  0
VERTEX
  8
0
 10
14.540442
 20
176.551086
  0
VERTEX
  8
0
 10
14.414810
 20
175.800735
  0
VERTEX
  8
0
 10
14.267615
 20
175.095749
  0
VERTEX
  8
0
 10
14.082859
 20
174.401352
  0
VERTEX
  8
0
 10
13.872559
 20
173.804657
  0
VERTEX
  8
0
 10
13.602534
 20
173.227356
  0
VERTEX
  8
0
 10
13.330307
 20
172.607010
  0
VERTEX
  8
0
 10
13.109940
 20
171.816116
  0
VERTEX
  8
0
 10
13.000000
 20
171.000000
  0
SEQEND
  0
POLYLINE
  8
0
 66
     1
  0
VERTEX
  8
0
 10
112.000000
 20
189.000000
  0
VERTEX
  8
0
 10
111.882896
 20
188.164841
  0
VERTEX
  8
0
 10
111.669693
 20
187.392990
  0
VERTEX
  8
0
 10
111.422928
 20
186.835052
  0
VERTEX
  8
0
 10
111.127441
 20
186.195343
  0
VERTEX
  8
0
 10
110.897240
 20
185.557068
  0
VERTEX
  8
0
 10
110.725121
 20
184.898163
  0
VERTEX
  8
0
 10
110.585190
 20
184.199265
  0
VERTEX
  8
0
 10
110.454620
 20
183.412674
  0
VERTEX
  8
0
 10
110.348427
 20
182.624512
  0
VERTEX
  8
0
 10
110.273346
 20
181.883820
  0
VERTEX
  8
0
 10
110.217484
 20
180.943130
  0
VERTEX
  8
0
 10
110.199989
 20
180.000000
  0
VERTEX
  8
0
 10
110.215187
 20
179.084946
  0
VERTEX
  8
0
 10
110.273346
 20
178.116180
  0
VERTEX
  8
0
 10
110.352936
 20
177.332413
  0
VERTEX
  8
0
 10
110.459557
 20
176.551086
  0
VERTEX
  8
0
 10
110.585190
 20
175.800735
  0
VERTEX
  8
0
 10
110.732384
 20
175.095749
  0
VERTEX
  8
0
 10
110.917145
 20
174.401352
  0
VERTEX
  8
0
 10
111.127441
 20
173.804657
  0
VERTEX
  8
0
 10
111.397469
 20
173.227356
  0
VERTEX
  8
0
 10
111.669693
 20
172.607010
  0
VERTEX
  8
0
 10
111.890060
 20
171.816116
  0
VERTEX
  8
0
 10
112.000000
 20
171.000000
  0
SEQEND
  0
POLYLINE
  8
0
 66
     1
  0
VERTEX
  8
0
 10
13.000000
 20
145.588242
  0
VERTEX
  8
0
 10
13.300607
 20
144.704422
  0
VERTEX
  8
0
 10
13.589508
 20
143.783646
  0
VERTEX
  8
0
 10
13.794841
 20
143.076721
  0
VERTEX
  8
0
 10
13.988404
 20
142.366226
  0
VERTEX
  8
0
 10
14.156960
 20
141.707733
  0
VERTEX
  8
0
 10
14.338334
 20
140.943512
  0
VERTEX
  8
0
 10
14.504356
 20
140.110870
  0
VERTEX
  8
0
 10
14.622462
 20
139.344925
  0
VERTEX
  8
0
 10
14.719808
 20
138.572830
  0
VERTEX
  8
0
 10
14.789215
 20
137.955109
  0
VERTEX
  8
0
 10
14.821899
 20
137.608337
  0
VERTEX
  8
0
 10
14.817849
 20
137.261368
  0
SEQEND
  0
POINT
  8
0
 10
155.000000
 20
-10.000000
  0
POINT
  8
0
 10
0.000000
 20
-10.000000
  0
LINE
  8
0
 10
61.500000
 20
56.000000
 11
61.500000
 21
-80.750000
  0
LINE
  8
0
 10
-64.199997
 20
2.500000
 11
-3.500000
 21
2.500000
  0
LINE
  8
0
 10
-64.199997
 20
-22.500000
 11
-3.500000
 21
-22.500000
  0
LINE
  8
0
 10
-3.199997
 20
12.500000
 11
-0.400002
 21
12.500000
  0
LINE
  8
0
 10
-3.199997
 20
-32.500000
 11
-0.400002
 21
-32.500000
  0
LINE
  8
0
 10
17.500000
 20
45.000000
 11
19.500000
 21
45.000000
  0
LINE
  8
0
 10
17.500000
 20
-65.000000
 11
19.500000
 21
-65.000000
  0
LINE
  8
0
 10
3.000000
 20
39.000000
 11
14.800003
 21
39.000000
  0
LINE
  8
0
 10
3.000000
 20
-59.000000
 11
14.800003
 21
-59.000000
  0
LINE
  8
0
 10
0.000000
 20
19.000000
 11
13.000000
 21
19.000000
  0
LINE
  8
0
 10
0.000000
 20
-39.000000
 11
13.000000
 21
-39.000000
  0
LINE
  8
0
 10
56.500000
 20
-80.750000
 11
68.500000
 21
-80.750000
  0
LINE
  8
0
 10
30.000000
 20
56.000000
 11
95.000000
 21
56.000000
  0
LINE
  8
0
 10
27.500000
 20
53.500000
 11
27.500000
 21
-70.626602
  0
LINE
  8
0
 10
0.000000
 20
36.000000
 11
0.000000
 21
-56.000000
  0
LINE
  8
0
 10
-3.500000
 20
12.199999
 11
-3.500000
 21
-32.199997
  0
LINE
  8
0
 10
-65.000000
 20
1.700000
 11
-65.000000
 21
-21.699997
  0
LINE
  8
0
 10
97.500000
 20
53.500000
 11
97.500000
 21
-69.126602
  0
LINE
  8
0
 10
125.000000
 20
36.000000
 11
125.000000
 21
-56.000000
  0
LINE
  8
0
 10
128.500000
 20
12.199995
 11
128.500000
 21
-32.199997
  0
LINE
  8
0
 10
155.000000
 20
1.650002
 11
155.000000
 21
-21.649994
  0
LINE
  8
0
 10
56.500000
 20
52.140362
 11
56.500000
 21
-80.750000
  0
LINE
  8
0
 10
17.500000
 20
45.000000
 11
17.500000
 21
-65.000000
  0
LINE
  8
0
 10
68.500000
 20
52.140362
 11
68.500000
 21
-80.750000
  0
LINE
  8
0
 10
107.500000
 20
45.000000
 11
107.500000
 21
-65.000000
  0
LINE
  8
0
 10
51.261471
 20
-71.626602
 11
56.500000
 21
-80.750008
  0
LINE
  8
0
 10
68.500046
 20
-80.750023
 11
73.738579
 21
-71.626617
  0
LINE
  8
0
 10
30.000000
 20
-71.626602
 11
51.261475
 21
-71.626602
  0
LINE
  8
0
 10
97.900002
 20
-65.000000
 11
107.500000
 21
-65.000000
  0
LINE
  8
0
 10
110.199997
 20
-59.000000
 11
122.000000
 21
-59.000000
  0
LINE
  8
0
 10
112.000000
 20
-39.000000
 11
125.000000
 21
-39.000000
  0
LINE
  8
0
 10
125.400002
 20
-32.500000
 11
128.199997
 21
-32.500000
  0
LINE
  8
0
 10
128.500000
 20
-22.500000
 11
131.949997
 21
-22.500000
  0
LINE
  8
0
 10
128.500000
 20
2.500000
 11
131.950012
 21
2.500000
  0
LINE
  8
0
 10
125.400002
 20
12.500000
 11
128.199997
 21
12.500000
  0
LINE
  8
0
 10
112.000000
 20
19.000000
 11
125.000000
 21
19.000000
  0
LINE
  8
0
 10
110.199997
 20
39.000000
 11
122.000000
 21
39.000000
  0
LINE
  8
0
 10
97.900002
 20
45.000000
 11
107.500000
 21
45.000000
  0
LINE
  8
0
 10
-3.200001
 20
12.500011
 11
-3.500006
 21
12.200006
  0
LINE
  8
0
 10
-3.199988
 20
-32.499992
 11
-3.499993
 21
-32.199989
  0
LINE
  8
0
 10
128.199982
 20
-32.499981
 11
128.499985
 21
-32.199982
  0
LINE
  8
0
 10
128.200027
 20
12.499958
 11
128.500031
 21
12.199953
  0
LINE
  8
0
 10
132.000000
 20
2.450000
 11
132.000000
 21
-22.449995
  0
LINE
  8
0
 10
132.000000
 20
-22.450001
 11
154.199997
 21
-22.450001
  0
LINE
  8
0
 10
132.000000
 20
2.450000
 11
154.199997
 21
2.450000
  0
LINE
  8
0
 10
-65.000000
 20
1.699999
 11
-64.199997
 21
2.500003
  0
LINE
  8
0
 10
-64.199989
 20
-22.499987
 11
-64.999992
 21
-21.699982
  0
LINE
  8
0
 10
154.200043
 20
-22.450043
 11
155.000046
 21
-21.650036
  0
LINE
  8
0
 10
154.200012
 20
2.450018
 11
155.000015
 21
1.650021
  0
LINE
  8
0
 10
-64.199982
 20
2.500004
 11
-64.199982
 21
-22.500000
  0
LINE
  8
0
 10
154.199997
 20
2.449998
 11
154.199997
 21
-22.450003
  0
LINE
  8
0
 10
132.000031
 20
2.450024
 11
131.950043
 21
2.500025
  0
LINE
  8
0
 10
131.949997
 20
-22.499987
 11
132.000000
 21
-22.449986
  0
LINE
  8
0
 10
17.500040
 20
44.999981
 11
14.800039
 21
38.999981
  0
LINE
  8
0
 10
17.500040
 20
-64.999985
 11
14.800039
 21
-58.999981
  0
LINE
  8
0
 10
107.499901
 20
-64.999954
 11
110.199905
 21
-58.999950
  0
LINE
  8
0
 10
107.499901
 20
44.999950
 11
110.199905
 21
38.999950
  0
LINE
  8
0
 10
27.500000
 20
0.293468
 11
48.012955
 21
0.293468
  0
LINE
  8
0
 10
27.500000
 20
-20.293468
 11
48.012955
 21
-20.293468
  0
LINE
  8
0
 10
73.738533
 20
-71.626602
 11
95.000000
 21
-71.626602
  0
LINE
  8
0
 10
76.987053
 20
0.293468
 11
97.500000
 21
0.293468
  0
LINE
  8
0
 10
76.987053
 20
-20.293468
 11
97.500000
 21
-20.293468
  0
LINE
  8
0
 10
56.500000
 20
52.140362
 11
68.500000
 21
52.140362
  0
LINE
  8
0
 10
48.012955
 20
35.789757
 11
48.012955
 21
0.293468
  0
LINE
  8
0
 10
76.987053
 20
35.789761
 11
76.987053
 21
0.293468
  0
LINE
  8
0
 10
56.500011
 20
52.140369
 11
48.012959
 21
35.789764
  0
LINE
  8
0
 10
68.500046
 20
52.140388
 11
76.987099
 21
35.789783
  0
LINE
  8
0
 10
27.500000
 20
35.789761
 11
48.012955
 21
35.789761
  0
LINE
  8
0
 10
76.987053
 20
35.789761
 11
97.500000
 21
35.789761
  0
LINE
  8
0
 10
48.012955
 20
-20.293468
 11
48.012955
 21
-55.706573
  0
LINE
  8
0
 10
76.987053
 20
-20.293468
 11
76.987053
 21
-55.706573
  0
LINE
  8
0
 10
112.000000
 20
34.299999
 11
112.000000
 21
19.000000
  0
LINE
  8
0
 10
13.000000
 20
34.299999
 11
13.000000
 21
19.000000
  0
LINE
  8
0
 10
13.000000
 20
5.302854
 11
13.000000
 21
-25.302853
  0
LINE
  8
0
 10
13.000000
 20
-39.000000
 11
13.000000
 21
-54.299999
  0
LINE
  8
0
 10
112.000000
 20
-39.000000
 11
112.000000
 21
-54.299999
  0
LINE
  8
0
 10
112.000000
 20
5.302854
 11
112.000000
 21
-25.302853
  0
LINE
  8
0
 10
133.000000
 20
-8.972504
 11
154.199997
 21
-8.972504
  0
LINE
  8
0
 10
133.000000
 20
2.407532
 11
154.199997
 21
2.407532
  0
LINE
  8
0
 10
133.000000
 20
-8.972504
 11
154.199997
 21
-8.972504
  0
LINE
  8
0
 10
133.000000
 20
-11.027496
 11
154.199997
 21
-11.027496
  0
LINE
  8
0
 10
133.000000
 20
-22.407516
 11
154.199997
 21
-22.407516
  0
LINE
  8
0
 10
133.000000
 20
2.407532
 11
133.000000
 21
-8.972504
  0
LINE
  8
0
 10
133.000000
 20
2.407532
 11
154.199997
 21
2.407532
  0
LINE
  8
0
 10
132.999954
 20
2.407497
 11
154.199951
 21
-8.972538
  0
LINE
  8
0
 10
154.200012
 20
2.407551
 11
133.000000
 21
-8.972487
  0
LINE
  8
0
 10
154.199997
 20
-22.407494
 11
133.000000
 21
-11.027479
  0
LINE
  8
0
 10
133.000015
 20
-22.407518
 11
154.200027
 21
-11.027496
  0
LINE
  8
0
 10
154.200012
 20
-11.027519
 11
155.000000
 21
-10.673143
  0
LINE
  8
0
 10
155.000092
 20
-9.326743
 11
154.200089
 21
-8.972370
  0
LINE
  8
0
 10
154.200012
 20
-22.407524
 11
155.000015
 21
-21.630539
  0
LINE
  8
0
 10
154.199890
 20
2.407415
 11
154.999893
 21
1.630427
  0
LINE
  8
0
  6
DASHED
 10
-20.000000
 20
-3.991074
 11
-20.000000
 21
-1.161163
  0
LINE
  8
0
 10
-56.500000
 20
-3.989594
 11
-23.500000
 21
-3.989594
  0
LINE
  8
0
 10
-56.500000
 20
0.960159
 11
-23.500000
 21
0.960159
  0
LINE
  8
0
 10
-56.535965
 20
-1.514725
 11
-23.464020
 21
-1.514725
  0
LINE
  8
0
  6
DASHED
 10
-56.500000
 20
-6.464478
 11
-23.465225
 21
-6.464478
  0
LINE
  8
0
  6
DASHED
 10
-60.000000
 20
-1.161163
 11
-60.000000
 21
-3.994934
  0
LINE
  8
0
 10
133.000000
 20
-11.027496
 11
133.000000
 21
-22.407516
  0
LINE
  8
0
 10
19.500000
 20
50.393429
 11
19.500000
 21
37.859737
  0
LINE
  8
0
 10
20.000000
 20
50.626583
 11
20.000000
 21
37.626583
  0
LINE
  8
0
 10
20.000000
 20
50.626583
 11
27.500000
 21
50.626583
  0
LINE
  8
0
 10
20.000000
 20
37.626583
 11
27.500000
 21
37.626583
  0
LINE
  8
0
 10
19.499996
 20
50.393436
 11
19.999996
 21
50.626591
  0
LINE
  8
0
 10
19.499994
 20
37.859734
 11
19.999994
 21
37.626579
  0
LINE
  8
0
 10
20.000000
 20
48.626583
 11
24.470299
 21
48.626583
  0
LINE
  8
0
 10
20.000000
 20
46.626583
 11
23.315598
 21
46.626583
  0
LINE
  8
0
 10
20.000000
 20
44.626583
 11
22.160896
 21
44.626583
  0
LINE
  8
0
 10
20.000000
 20
42.626583
 11
21.006195
 21
42.626583
  0
LINE
  8
0
 10
19.500000
 20
-3.733154
 11
19.500000
 21
-16.266846
  0
LINE
  8
0
 10
20.000000
 20
-3.500000
 11
20.000000
 21
-16.500000
  0
LINE
  8
0
 10
20.000000
 20
-3.500000
 11
27.500000
 21
-3.500000
  0
LINE
  8
0
 10
20.000000
 20
-16.500000
 11
27.500000
 21
-16.500000
  0
LINE
  8
0
 10
19.499994
 20
-3.733155
 11
20.000002
 21
-3.499998
  0
LINE
  8
0
 10
19.499990
 20
-16.266853
 11
19.999983
 21
-16.500006
  0
LINE
  8
0
 10
20.000000
 20
-5.500000
 11
24.470299
 21
-5.500000
  0
LINE
  8
0
 10
20.000000
 20
-7.500000
 11
23.315598
 21
-7.500000
  0
LINE
  8
0
 10
20.000000
 20
-9.500000
 11
22.160896
 21
-9.500000
  0
LINE
  8
0
 10
20.000000
 20
-11.500000
 11
21.006195
 21
-11.500000
  0
LINE
  8
0
 10
19.500000
 20
-57.859760
 11
19.500000
 21
-70.393448
  0
LINE
  8
0
 10
20.000000
 20
-57.626606
 11
20.000000
 21
-70.626602
  0
LINE
  8
0
 10
20.000000
 20
-57.626606
 11
27.500000
 21
-57.626606
  0
LINE
  8
0
 10
20.000000
 20
-70.626602
 11
27.500000
 21
-70.626602
  0
LINE
  8
0
 10
19.500010
 20
-57.859760
 11
20.000010
 21
-57.626606
  0
LINE
  8
0
 10
19.499987
 20
-70.393478
 11
19.999994
 21
-70.626633
  0
LINE
  8
0
 10
20.000000
 20
-59.626606
 11
24.470299
 21
-59.626606
  0
LINE
  8
0
 10
20.000000
 20
-61.626606
 11
23.315598
 21
-61.626606
  0
LINE
  8
0
 10
20.000000
 20
-63.626606
 11
22.160896
 21
-63.626606
  0
LINE
  8
0
 10
20.000000
 20
-65.626602
 11
21.006195
 21
-65.626602
  0
LINE
  8
0
  6
CENTER
 10
-75.000000
 20
-10.000000
 11
165.000000
 21
-10.000000
  0
ARC
  8
0
 10
30.000000
 20
53.500000
 40
2.500000
 50
90.000000
 51
180.000000
  0
ARC
  8
0
 10
30.000000
 20
-69.126602
 40
2.500000
 50
180.000000
 51
270.000000
  0
ARC
  8
0
 10
95.000000
 20
-69.126602
 40
2.500000
 50
270.000000
 51
0.000000
  0
ARC
  8
0
 10
95.000000
 20
53.500000
 40
2.500000
 50
0.000000
 51
90.000000
  0
ARC
  8
0
 10
97.900002
 20
-65.400002
 40
0.400002
 50
90.000000
 51
180.000000
  0
ARC
  8
0
 10
97.900002
 20
45.400002
 40
0.400002
 50
180.000000
 51
270.000000
  0
ARC
  8
0
 10
3.000000
 20
36.000000
 40
3.000000
 50
89.999985
 51
180.000000
  0
ARC
  8
0
 10
3.000000
 20
-56.000000
 40
3.000000
 50
180.000000
 51
270.000031
  0
ARC
  8
0
 10
122.000000
 20
-56.000000
 40
3.000000
 50
270.000000
 51
0.000000
  0
ARC
  8
0
 10
122.000000
 20
36.000000
 40
3.000000
 50
0.000000
 51
90.000000
  0
ARC
  8
0
 10
-0.400002
 20
-32.900002
 40
0.400000
 50
0.000000
 51
89.999985
  0
ARC
  8
0
 10
125.400002
 20
-32.900002
 40
0.400002
 50
90.000000
 51
180.000000
  0
ARC
  8
0
 10
125.400002
 20
12.900000
 40
0.400002
 50
180.000000
 51
270.000000
  0
ARC
  8
0
 10
-0.400002
 20
12.900000
 40
0.400000
 50
270.000031
 51
0.000000
  0
POLYLINE
  8
0
 66
     1
  0
VERTEX
  8
0
 10
-56.500000
 20
-3.989594
  0
VERTEX
  8
0
 10
-57.158508
 20
-3.932631
  0
VERTEX
  8
0
 10
-57.717987
 20
-3.812820
  0
VERTEX
  8
0
 10
-57.947430
 20
-3.737341
  0
VERTEX
  8
0
 10
-58.194443
 20
-3.636047
  0
VERTEX
  8
0
 10
-58.498322
 20
-3.485480
  0
VERTEX
  8
0
 10
-58.815033
 20
-3.282486
  0
VERTEX
  8
0
 10
-59.210621
 20
-2.947519
  0
VERTEX
  8
0
 10
-59.531082
 20
-2.575378
  0
VERTEX
  8
0
 10
-59.737835
 20
-2.230968
  0
VERTEX
  8
0
 10
-59.888855
 20
-1.868271
  0
VERTEX
  8
0
 10
-59.975243
 20
-1.508147
  0
VERTEX
  8
0
 10
-60.000000
 20
-1.161163
  0
VERTEX
  8
0
 10
-59.970402
 20
-0.896349
  0
VERTEX
  8
0
 10
-59.888855
 20
-0.630829
  0
VERTEX
  8
0
 10
-59.745949
 20
-0.361323
  0
VERTEX
  8
0
 10
-59.531082
 20
-0.100510
  0
VERTEX
  8
0
 10
-59.182117
 20
0.199557
  0
VERTEX
  8
0
 10
-58.815033
 20
0.429825
  0
VERTEX
  8
0
 10
-58.499462
 20
0.579032
  0
VERTEX
  8
0
 10
-58.194443
 20
0.694992
  0
VERTEX
  8
0
 10
-57.949440
 20
0.769281
  0
VERTEX
  8
0
 10
-57.717987
 20
0.827576
  0
VERTEX
  8
0
 10
-57.575451
 20
0.858693
  0
VERTEX
  8
0
 10
-57.368164
 20
0.893860
  0
VERTEX
  8
0
 10
-56.935310
 20
0.943959
  0
VERTEX
  8
0
 10
-56.500000
 20
0.960159
  0
SEQEND
  0
POLYLINE
  8
0
 66
     1
  0
VERTEX
  8
0
 10
14.800003
 20
39.000000
  0
VERTEX
  8
0
 10
14.698209
 20
38.720554
  0
VERTEX
  8
0
 10
14.570496
 20
38.374657
  0
VERTEX
  8
0
 10
14.357241
 20
37.806187
  0
VERTEX
  8
0
 10
14.134003
 20
37.217632
  0
VERTEX
  8
0
 10
13.889710
 20
36.573605
  0
VERTEX
  8
0
 10
13.630005
 20
35.895317
  0
VERTEX
  8
0
 10
13.317833
 20
35.096542
  0
VERTEX
  8
0
 10
13.000000
 20
34.299999
  0
SEQEND
  0
POLYLINE
  8
0
 66
     1
  0
VERTEX
  8
0
 10
14.800003
 20
-59.000000
  0
VERTEX
  8
0
 10
14.698209
 20
-58.720554
  0
VERTEX
  8
0
 10
14.570496
 20
-58.374657
  0
VERTEX
  8
0
 10
14.357241
 20
-57.806187
  0
VERTEX
  8
0
 10
14.134003
 20
-57.217632
  0
VERTEX
  8
0
 10
13.889710
 20
-56.573605
  0
VERTEX
  8
0
 10
13.630005
 20
-55.895317
  0
VERTEX
  8
0
 10
13.317833
 20
-55.096542
  0
VERTEX
  8
0
 10
13.000000
 20
-54.299999
  0
SEQEND
  0
POLYLINE
  8
0
 66
     1
  0
VERTEX
  8
0
 10
110.199997
 20
39.000000
  0
VERTEX
  8
0
 10
110.301788
 20
38.720554
  0
VERTEX
  8
0
 10
110.429504
 20
38.374657
  0
VERTEX
  8
0
 10
110.642761
 20
37.806187
  0
VERTEX
  8
0
 10
110.865997
 20
37.217632
  0
VERTEX
  8
0
 10
111.110291
 20
36.573605
  0
VERTEX
  8
0
 10
111.369995
 20
35.895317
  0
VERTEX
  8
0
 10
111.682167
 20
35.096542
  0
VERTEX
  8
0
 10
112.000000
 20
34.299999
  0
SEQEND
  0
POLYLINE
  8
0
 66
     1
  0
VERTEX
  8
0
 10
110.199997
 20
-59.000000
  0
VERTEX
  8
0
 10
110.301788
 20
-58.720554
  0
VERTEX
  8
0
 10
110.429504
 20
-58.374657
  0
VERTEX
  8
0
 10
110.642761
 20
-57.806187
  0
VERTEX
  8
0
 10
110.865997
 20
-57.217632
  0
VERTEX
  8
0
 10
111.110291
 20
-56.573605
  0
VERTEX
  8
0
 10
111.369995
 20
-55.895317
  0
VERTEX
  8
0
 10
111.682167
 20
-55.096542
  0
VERTEX
  8
0
 10
112.000000
 20
-54.299999
  0
SEQEND
  0
POLYLINE
  8
0
 66
     1
  0
VERTEX
  8
0
 10
48.012955
 20
0.293468
  0
VERTEX
  8
0
 10
48.892128
 20
-0.107117
  0
VERTEX
  8
0
 10
49.753769
 20
-0.545058
  0
VERTEX
  8
0
 10
50.607559
 20
-1.026945
  0
VERTEX
  8
0
 10
51.267742
 20
-1.436208
  0
VERTEX
  8
0
 10
51.922733
 20
-1.873969
  0
VERTEX
  8
0
 10
52.548443
 20
-2.320371
  0
VERTEX
  8
0
 10
53.120773
 20
-2.755557
  0
VERTEX
  8
0
 10
53.730373
 20
-3.255089
  0
VERTEX
  8
0
 10
54.294613
 20
-3.797129
  0
VERTEX
  8
0
 10
54.793930
 20
-4.423779
  0
VERTEX
  8
0
 10
55.216312
 20
-5.206147
  0
VERTEX
  8
0
 10
55.526333
 20
-6.052928
  0
VERTEX
  8
0
 10
55.741364
 20
-6.869499
  0
VERTEX
  8
0
 10
55.877945
 20
-7.542517
  0
VERTEX
  8
0
 10
55.982471
 20
-8.216599
  0
VERTEX
  8
0
 10
56.054863
 20
-8.907600
  0
VERTEX
  8
0
 10
56.093113
 20
-9.639691
  0
VERTEX
  8
0
 10
56.092751
 20
-10.373886
  0
VERTEX
  8
0
 10
56.054863
 20
-11.092400
  0
VERTEX
  8
0
 10
55.987808
 20
-11.753871
  0
VERTEX
  8
0
 10
55.887527
 20
-12.412001
  0
VERTEX
  8
0
 10
55.741364
 20
-13.130501
  0
VERTEX
  8
0
 10
55.511776
 20
-13.995947
  0
VERTEX
  8
0
 10
55.201031
 20
-14.830168
  0
VERTEX
  8
0
 10
54.793930
 20
-15.576221
  0
VERTEX
  8
0
 10
54.325520
 20
-16.171116
  0
VERTEX
  8
0
 10
53.776176
 20
-16.705156
  0
VERTEX
  8
0
 10
53.120773
 20
-17.244442
  0
VERTEX
  8
0
 10
52.507233
 20
-17.711508
  0
VERTEX
  8
0
 10
51.881130
 20
-18.157318
  0
VERTEX
  8
0
 10
51.246544
 20
-18.578844
  0
VERTEX
  8
0
 10
50.607559
 20
-18.973055
  0
VERTEX
  8
0
 10
49.762608
 20
-19.449697
  0
VERTEX
  8
0
 10
48.896549
 20
-19.890261
  0
VERTEX
  8
0
 10
48.012955
 20
-20.293468
  0
SEQEND
  0
POLYLINE
  8
0
 66
     1
  0
VERTEX
  8
0
 10
76.987053
 20
0.293468
  0
VERTEX
  8
0
 10
76.107872
 20
-0.107117
  0
VERTEX
  8
0
 10
75.246231
 20
-0.545058
  0
VERTEX
  8
0
 10
74.392441
 20
-1.026945
  0
VERTEX
  8
0
 10
73.732269
 20
-1.436206
  0
VERTEX
  8
0
 10
73.077293
 20
-1.873965
  0
VERTEX
  8
0
 10
72.451584
 20
-2.320367
  0
VERTEX
  8
0
 10
71.879227
 20
-2.755557
  0
VERTEX
  8
0
 10
71.269577
 20
-3.255098
  0
VERTEX
  8
0
 10
70.705315
 20
-3.797143
  0
VERTEX
  8
0
 10
70.206070
 20
-4.423779
  0
VERTEX
  8
0
 10
69.783875
 20
-5.206111
  0
VERTEX
  8
0
 10
69.473938
 20
-6.052876
  0
VERTEX
  8
0
 10
69.258636
 20
-6.869499
  0
VERTEX
  8
0
 10
69.118355
 20
-7.582864
  0
VERTEX
  8
0
 10
69.010445
 20
-8.297234
  0
VERTEX
  8
0
 10
68.945137
 20
-8.907600
  0
VERTEX
  8
0
 10
68.914093
 20
-9.452966
  0
VERTEX
  8
0
 10
68.904144
 20
-10.000000
  0
VERTEX
  8
0
 10
68.909416
 20
-10.486766
  0
VERTEX
  8
0
 10
68.945137
 20
-11.092400
  0
VERTEX
  8
0
 10
69.011360
 20
-11.753714
  0
VERTEX
  8
0
 10
69.111877
 20
-12.411887
  0
VERTEX
  8
0
 10
69.258636
 20
-13.130501
  0
VERTEX
  8
0
 10
69.488525
 20
-13.996004
  0
VERTEX
  8
0
 10
69.799171
 20
-14.830206
  0
VERTEX
  8
0
 10
70.206070
 20
-15.576221
  0
VERTEX
  8
0
 10
70.674408
 20
-16.171103
  0
VERTEX
  8
0
 10
71.223770
 20
-16.705145
  0
VERTEX
  8
0
 10
71.879227
 20
-17.244442
  0
VERTEX
  8
0
 10
72.492790
 20
-17.711514
  0
VERTEX
  8
0
 10
73.118896
 20
-18.157322
  0
VERTEX
  8
0
 10
73.753471
 20
-18.578846
  0
VERTEX
  8
0
 10
74.392441
 20
-18.973055
  0
VERTEX
  8
0
 10
75.237389
 20
-19.449697
  0
VERTEX
  8
0
 10
76.103455
 20
-19.890261
  0
VERTEX
  8
0
 10
76.987053
 20
-20.293468
  0
SEQEND
  0
POLYLINE
  8
0
 66
     1
  0
VERTEX
  8
0
 10
76.987053
 20
-55.706573
  0
VERTEX
  8
0
 10
76.290436
 20
-56.276531
  0
VERTEX
  8
0
 10
75.602089
 20
-56.905773
  0
VERTEX
  8
0
 10
74.943855
 20
-57.568554
  0
VERTEX
  8
0
 10
74.337570
 20
-58.239128
  0
VERTEX
  8
0
 10
73.805077
 20
-58.891747
  0
VERTEX
  8
0
 10
73.368217
 20
-59.500664
  0
VERTEX
  8
0
 10
72.964165
 20
-60.150581
  0
VERTEX
  8
0
 10
72.589607
 20
-60.816608
  0
VERTEX
  8
0
 10
72.232117
 20
-61.495865
  0
VERTEX
  8
0
 10
71.879227
 20
-62.185463
  0
VERTEX
  8
0
 10
71.505363
 20
-62.919132
  0
VERTEX
  8
0
 10
71.125824
 20
-63.674202
  0
VERTEX
  8
0
 10
70.773544
 20
-64.394363
  0
VERTEX
  8
0
 10
70.481468
 20
-65.023300
  0
VERTEX
  8
0
 10
70.151505
 20
-65.797478
  0
VERTEX
  8
0
 10
69.832527
 20
-66.653786
  0
VERTEX
  8
0
 10
69.578178
 20
-67.442238
  0
VERTEX
  8
0
 10
69.341759
 20
-68.244804
  0
VERTEX
  8
0
 10
69.134506
 20
-68.963631
  0
VERTEX
  8
0
 10
68.917244
 20
-69.474686
  0
VERTEX
  8
0
 10
68.904144
 20
-70.322365
  0
VERTEX
  8
0
 10
69.221352
 20
-70.937515
  0
VERTEX
  8
0
 10
69.885635
 20
-71.360756
  0
VERTEX
  8
0
 10
70.783241
 20
-71.616684
  0
VERTEX
  8
0
 10
71.800423
 20
-71.729904
  0
VERTEX
  8
0
 10
72.823441
 20
-71.725014
  0
VERTEX
  8
0
 10
73.738533
 20
-71.626602
  0
SEQEND
  0
POLYLINE
  8
0
 66
     1
  0
VERTEX
  8
0
 10
48.012955
 20
-55.706573
  0
VERTEX
  8
0
 10
48.709568
 20
-56.276531
  0
VERTEX
  8
0
 10
49.397915
 20
-56.905773
  0
VERTEX
  8
0
 10
50.056149
 20
-57.568554
  0
VERTEX
  8
0
 10
50.662430
 20
-58.239128
  0
VERTEX
  8
0
 10
51.194920
 20
-58.891747
  0
VERTEX
  8
0
 10
51.631783
 20
-59.500664
  0
VERTEX
  8
0
 10
52.035839
 20
-60.150581
  0
VERTEX
  8
0
 10
52.410389
 20
-60.816608
  0
VERTEX
  8
0
 10
52.767887
 20
-61.495865
  0
VERTEX
  8
0
 10
53.120773
 20
-62.185463
  0
VERTEX
  8
0
 10
53.494637
 20
-62.919132
  0
VERTEX
  8
0
 10
53.874180
 20
-63.674202
  0
VERTEX
  8
0
 10
54.226460
 20
-64.394363
  0
VERTEX
  8
0
 10
54.518532
 20
-65.023300
  0
VERTEX
  8
0
 10
54.848499
 20
-65.797478
  0
VERTEX
  8
0
 10
55.167480
 20
-66.653786
  0
VERTEX
  8
0
 10
55.421825
 20
-67.442238
  0
VERTEX
  8
0
 10
55.658241
 20
-68.244804
  0
VERTEX
  8
0
 10
55.865494
 20
-68.963631
  0
VERTEX
  8
0
 10
56.082756
 20
-69.474686
  0
VERTEX
  8
0
 10
56.095856
 20
-70.322365
  0
VERTEX
  8
0
 10
55.778648
 20
-70.937515
  0
VERTEX
  8
0
 10
55.114368
 20
-71.360756
  0
VERTEX
  8
0
 10
54.216763
 20
-71.616684
  0
VERTEX
  8
0
 10
53.199581
 20
-71.729904
  0
VERTEX
  8
0
 10
52.176571
 20
-71.725014
  0
VERTEX
  8
0
 10
51.261475
 20
-71.626602
  0
SEQEND
  0
POLYLINE
  8
0
 66
     1
  0
VERTEX
  8
0
 10
13.000000
 20
19.000000
  0
VERTEX
  8
0
 10
13.769921
 20
18.411562
  0
VERTEX
  8
0
 10
14.359001
 20
17.630854
  0
VERTEX
  8
0
 10
14.599916
 20
17.000088
  0
VERTEX
  8
0
 10
14.716772
 20
16.321791
  0
VERTEX
  8
0
 10
14.764000
 20
15.564739
  0
VERTEX
  8
0
 10
14.783353
 20
14.684381
  0
VERTEX
  8
0
 10
14.774023
 20
13.815291
  0
VERTEX
  8
0
 10
14.737000
 20
12.920111
  0
VERTEX
  8
0
 10
14.667044
 20
11.946964
  0
VERTEX
  8
0
 10
14.559398
 20
10.974240
  0
VERTEX
  8
0
 10
14.408508
 20
10.027548
  0
VERTEX
  8
0
 10
14.210768
 20
9.118337
  0
VERTEX
  8
0
 10
13.973569
 20
8.218572
  0
VERTEX
  8
0
 10
13.724503
 20
7.382919
  0
VERTEX
  8
0
 10
13.498392
 20
6.684028
  0
VERTEX
  8
0
 10
13.257582
 20
5.990347
  0
VERTEX
  8
0
 10
13.000000
 20
5.302854
  0
SEQEND
  0
POLYLINE
  8
0
 66
     1
  0
VERTEX
  8
0
 10
13.000000
 20
-39.000000
  0
VERTEX
  8
0
 10
13.769921
 20
-38.411560
  0
VERTEX
  8
0
 10
14.359001
 20
-37.630852
  0
VERTEX
  8
0
 10
14.599916
 20
-37.000088
  0
VERTEX
  8
0
 10
14.716772
 20
-36.321789
  0
VERTEX
  8
0
 10
14.764000
 20
-35.564739
  0
VERTEX
  8
0
 10
14.783353
 20
-34.684383
  0
VERTEX
  8
0
 10
14.774023
 20
-33.815292
  0
VERTEX
  8
0
 10
14.737000
 20
-32.920113
  0
VERTEX
  8
0
 10
14.667044
 20
-31.946964
  0
VERTEX
  8
0
 10
14.559398
 20
-30.974241
  0
VERTEX
  8
0
 10
14.408508
 20
-30.027548
  0
VERTEX
  8
0
 10
14.210768
 20
-29.118336
  0
VERTEX
  8
0
 10
13.973569
 20
-28.218571
  0
VERTEX
  8
0
 10
13.724503
 20
-27.382919
  0
VERTEX
  8
0
 10
13.498392
 20
-26.684029
  0
VERTEX
  8
0
 10
13.257582
 20
-25.990347
  0
VERTEX
  8
0
 10
13.000000
 20
-25.302853
  0
SEQEND
  0
POLYLINE
  8
0
 66
     1
  0
VERTEX
  8
0
 10
112.000000
 20
-25.302853
  0
VERTEX
  8
0
 10
111.748276
 20
-25.971634
  0
VERTEX
  8
0
 10
111.513321
 20
-26.646605
  0
VERTEX
  8
0
 10
111.275497
 20
-27.382919
  0
VERTEX
  8
0
 10
111.015953
 20
-28.249454
  0
VERTEX
  8
0
 10
110.785843
 20
-29.123968
  0
VERTEX
  8
0
 10
110.591492
 20
-30.027548
  0
VERTEX
  8
0
 10
110.437599
 20
-30.997131
  0
VERTEX
  8
0
 10
110.330650
 20
-31.973125
  0
VERTEX
  8
0
 10
110.263000
 20
-32.920113
  0
VERTEX
  8
0
 10
110.227821
 20
-33.816032
  0
VERTEX
  8
0
 10
110.218727
 20
-34.715286
  0
VERTEX
  8
0
 10
110.236000
 20
-35.564739
  0
VERTEX
  8
0
 10
110.284676
 20
-36.286823
  0
VERTEX
  8
0
 10
110.405289
 20
-36.991219
  0
VERTEX
  8
0
 10
110.640999
 20
-37.630852
  0
VERTEX
  8
0
 10
111.225037
 20
-38.401867
  0
VERTEX
  8
0
 10
112.000000
 20
-39.000000
  0
SEQEND
  0
POLYLINE
  8
0
 66
     1
  0
VERTEX
  8
0
 10
112.000000
 20
19.000000
  0
VERTEX
  8
0
 10
111.230080
 20
18.411562
  0
VERTEX
  8
0
 10
110.640999
 20
17.630854
  0
VERTEX
  8
0
 10
110.400085
 20
17.000088
  0
VERTEX
  8
0
 10
110.283226
 20
16.321791
  0
VERTEX
  8
0
 10
110.236000
 20
15.564739
  0
VERTEX
  8
0
 10
110.216644
 20
14.684381
  0
VERTEX
  8
0
 10
110.225975
 20
13.815291
  0
VERTEX
  8
0
 10
110.263000
 20
12.920111
  0
VERTEX
  8
0
 10
110.332954
 20
11.946964
  0
VERTEX
  8
0
 10
110.440605
 20
10.974240
  0
VERTEX
  8
0
 10
110.591492
 20
10.027548
  0
VERTEX
  8
0
 10
110.789230
 20
9.118337
  0
VERTEX
  8
0
 10
111.026428
 20
8.218572
  0
VERTEX
  8
0
 10
111.275497
 20
7.382919
  0
VERTEX
  8
0
 10
111.501610
 20
6.684028
  0
VERTEX
  8
0
 10
111.742416
 20
5.990347
  0
VERTEX
  8
0
 10
112.000000
 20
5.302854
  0
SEQEND
  0
ARC
  8
0
  6
DASHED
 10
-23.500000
 20
-1.957058
 40
4.507535
 50
269.559631
 51
306.499542
  0
ARC
  8
0
  6
DASHED
 10
-22.224390
 20
-3.820629
 40
2.252261
 50
308.613220
 51
344.583069
  0
ARC
  8
0
  6
DASHED
 10
-21.763470
 20
-3.989594
 40
1.763469
 50
345.894257
 51
14.105750
  0
ARC
  8
0
  6
DASHED
 10
-22.224390
 20
-4.158558
 40
2.252260
 50
15.416945
 51
40.393539
  0
POLYLINE
  8
0
 66
     1
  0
VERTEX
  8
0
 10
-23.500000
 20
-3.989594
  0
VERTEX
  8
0
 10
-22.841492
 20
-3.932631
  0
VERTEX
  8
0
 10
-22.282013
 20
-3.812820
  0
VERTEX
  8
0
 10
-22.052570
 20
-3.737341
  0
VERTEX
  8
0
 10
-21.805557
 20
-3.636047
  0
VERTEX
  8
0
 10
-21.501678
 20
-3.485480
  0
VERTEX
  8
0
 10
-21.184967
 20
-3.282486
  0
VERTEX
  8
0
 10
-20.789381
 20
-2.947519
  0
VERTEX
  8
0
 10
-20.468918
 20
-2.575378
  0
VERTEX
  8
0
 10
-20.262165
 20
-2.230968
  0
VERTEX
  8
0
 10
-20.111145
 20
-1.868271
  0
VERTEX
  8
0
 10
-20.024759
 20
-1.508147
  0
VERTEX
  8
0
 10
-20.000000
 20
-1.161163
  0
VERTEX
  8
0
 10
-20.029600
 20
-0.896349
  0
VERTEX
  8
0
 10
-20.111145
 20
-0.630829
  0
VERTEX
  8
0
 10
-20.254051
 20
-0.361323
  0
VERTEX
  8
0
 10
-20.468918
 20
-0.100510
  0
VERTEX
  8
0
 10
-20.817881
 20
0.199557
  0
VERTEX
  8
0
 10
-21.184967
 20
0.429825
  0
VERTEX
  8
0
 10
-21.500538
 20
0.579032
  0
VERTEX
  8
0
 10
-21.805557
 20
0.694992
  0
VERTEX
  8
0
 10
-22.050558
 20
0.769281
  0
VERTEX
  8
0
 10
-22.282013
 20
0.827576
  0
VERTEX
  8
0
 10
-22.424547
 20
0.858693
  0
VERTEX
  8
0
 10
-22.631836
 20
0.893860
  0
VERTEX
  8
0
 10
-23.064690
 20
0.943959
  0
VERTEX
  8
0
 10
-23.500000
 20
0.960159
  0
SEQEND
  0
ARC
  8
0
 10
-56.500000
 20
-6.022129
 40
4.507535
 50
89.530182
 51
126.499550
  0
ARC
  8
0
 10
-57.775608
 20
-4.158558
 40
2.252262
 50
128.613266
 51
138.550262
  0
ARC
  8
0
  6
DASHED
 10
-57.775608
 20
-4.158558
 40
2.252261
 50
138.550262
 51
164.583069
  0
ARC
  8
0
  6
DASHED
 10
-58.236530
 20
-3.989594
 40
1.763470
 50
165.894257
 51
194.105743
  0
ARC
  8
0
  6
DASHED
 10
-57.775608
 20
-3.820629
 40
2.252262
 50
195.416931
 51
231.386734
  0
ARC
  8
0
  6
DASHED
 10
-56.500000
 20
-1.957058
 40
4.507535
 50
233.500458
 51
270.450287
  0
ARC
  8
0
 10
-22.224390
 20
-4.158558
 40
2.252260
 50
41.463932
 51
51.386772
  0
ARC
  8
0
 10
-23.500000
 20
-6.022129
 40
4.507535
 50
53.500454
 51
90.450249
  0
POINT
  8
0
 10
-200.000000
 20
180.000000
  0
POINT
  8
0
 10
-134.000000
 20
180.000000
  0
LINE
  8
0
 10
-192.755554
 20
115.558853
 11
-192.036163
 21
118.243675
  0
LINE
  8
0
 10
-207.244446
 20
115.558853
 11
-207.963837
 21
118.243668
  0
LINE
  8
0
 10
-192.755554
 20
244.441132
 11
-192.036163
 21
241.756317
  0
LINE
  8
0
 10
-207.244431
 20
244.441132
 11
-207.963821
 21
241.756332
  0
LINE
  8
0
 10
-249.500595
 20
217.775055
 11
-252.185440
 21
218.494461
  0
LINE
  8
0
 10
-257.464478
 20
203.981308
 11
-259.429871
 21
205.946716
  0
LINE
  8
0
 10
-257.464478
 20
156.018768
 11
-259.429901
 21
154.053329
  0
LINE
  8
0
 10
-249.500671
 20
142.224976
 11
-252.185455
 21
141.505585
  0
LINE
  8
0
 10
-190.907852
 20
151.294098
 11
-188.693375
 21
143.029587
  0
LINE
  8
0
 10
-179.686081
 20
157.772919
 11
-173.636078
 21
151.722916
  0
LINE
  8
0
 10
-170.593857
 20
173.521133
 11
-162.329376
 21
171.306671
  0
LINE
  8
0
 10
-170.593857
 20
186.478867
 11
-162.329376
 21
188.693329
  0
LINE
  8
0
 10
-173.636017
 20
208.277054
 11
-179.686050
 21
202.227020
  0
LINE
  8
0
 10
-188.693314
 20
216.970383
 11
-190.907776
 21
208.705902
  0
LINE
  8
0
 10
-211.306641
 20
216.970398
 11
-209.092178
 21
208.705902
  0
LINE
  8
0
 10
-226.363937
 20
208.277069
 11
-220.313934
 21
202.227051
  0
LINE
  8
0
 10
-237.670624
 20
188.693375
 11
-229.406128
 21
186.478897
  0
LINE
  8
0
 10
-237.670639
 20
171.306702
 11
-229.406158
 21
173.521164
  0
LINE
  8
0
 10
-220.313965
 20
157.773010
 11
-226.363998
 21
151.722961
  0
LINE
  8
0
 10
-209.092255
 20
151.294098
 11
-211.306702
 21
143.029633
  0
LINE
  8
0
 10
-195.737473
 20
155.000000
 11
-204.262619
 21
155.000000
  0
LINE
  8
0
 10
-195.737396
 20
205.000000
 11
-204.262543
 21
205.000000
  0
LINE
  8
0
 10
-219.519348
 20
196.191528
 11
-223.781906
 21
188.808533
  0
LINE
  8
0
 10
-176.218079
 20
171.191498
 11
-180.480682
 21
163.808441
  0
LINE
  8
0
 10
-180.480637
 20
196.191483
 11
-176.218079
 21
188.808502
  0
LINE
  8
0
 10
-223.781952
 20
171.191528
 11
-219.519379
 21
163.808533
  0
LINE
  8
0
 10
-256.000000
 20
200.445770
 11
-256.000000
 21
159.554306
  0
LINE
  8
0
 10
-245.706573
 20
141.725464
 11
-210.293472
 21
121.279694
  0
LINE
  8
0
 10
-189.706528
 20
238.720306
 11
-156.710236
 21
219.669891
  0
LINE
  8
0
 10
-210.293472
 20
238.720291
 11
-245.706512
 21
218.274567
  0
LINE
  8
0
 10
-156.710236
 20
140.330139
 11
-189.706512
 21
121.279709
  0
LINE
  8
0
 10
-138.348236
 20
141.000000
 11
-154.210236
 21
141.000000
  0
LINE
  8
0
 10
-138.348221
 20
219.000000
 11
-154.210236
 21
219.000000
  0
LINE
  8
0
 10
-134.000000
 20
214.000000
 11
-134.000000
 21
146.000000
  0
LINE
  8
0
  6
CENTER
 10
-200.000000
 20
260.700012
 11
-200.000000
 21
99.300003
  0
LINE
  8
0
  6
CENTER
 10
-119.300003
 20
180.000000
 11
-280.700012
 21
180.000000
  0
LINE
  8
0
 10
-203.005005
 20
244.234940
 11
-203.005005
 21
240.765060
  0
LINE
  8
0
 10
-196.995010
 20
244.234940
 11
-196.995010
 21
240.765060
  0
LINE
  8
0
 10
-203.005005
 20
244.234955
 11
-200.000015
 21
245.969879
  0
LINE
  8
0
 10
-200.000015
 20
239.030136
 11
-196.995010
 21
240.765076
  0
LINE
  8
0
 10
-200.000000
 20
245.969879
 11
-196.994995
 21
244.234955
  0
LINE
  8
0
 10
-203.005005
 20
240.765076
 11
-200.000015
 21
239.030136
  0
LINE
  8
0
 10
-257.131592
 20
212.984924
 11
-257.131592
 21
209.515060
  0
LINE
  8
0
 10
-251.121597
 20
212.984924
 11
-251.121597
 21
209.515060
  0
LINE
  8
0
 10
-257.131592
 20
212.984955
 11
-254.126602
 21
214.719879
  0
LINE
  8
0
 10
-254.126602
 20
207.780136
 11
-251.121597
 21
209.515076
  0
LINE
  8
0
 10
-254.126587
 20
214.719879
 11
-251.121597
 21
212.984940
  0
LINE
  8
0
 10
-257.131592
 20
209.515060
 11
-254.126602
 21
207.780121
  0
LINE
  8
0
 10
-257.131592
 20
150.484970
 11
-257.131592
 21
147.015091
  0
LINE
  8
0
 10
-251.121613
 20
150.484970
 11
-251.121613
 21
147.015091
  0
LINE
  8
0
 10
-257.131592
 20
150.484970
 11
-254.126602
 21
152.219910
  0
LINE
  8
0
 10
-254.126602
 20
145.280151
 11
-251.121613
 21
147.015091
  0
LINE
  8
0
 10
-254.126617
 20
152.219894
 11
-251.121613
 21
150.484955
  0
LINE
  8
0
 10
-257.131622
 20
147.015091
 11
-254.126617
 21
145.280151
  0
LINE
  8
0
 10
-203.004990
 20
119.234940
 11
-203.004990
 21
115.765060
  0
LINE
  8
0
 10
-196.994995
 20
119.234940
 11
-196.994995
 21
115.765060
  0
LINE
  8
0
 10
-203.004990
 20
119.234924
 11
-199.999985
 21
120.969864
  0
LINE
  8
0
 10
-200.000000
 20
114.030113
 11
-196.994995
 21
115.765053
  0
LINE
  8
0
 10
-200.000000
 20
120.969864
 11
-196.994995
 21
119.234924
  0
LINE
  8
0
 10
-203.005005
 20
115.765053
 11
-200.000015
 21
114.030113
  0
LINE
  8
0
 10
-148.878418
 20
150.484940
 11
-148.878418
 21
147.015060
  0
LINE
  8
0
 10
-142.868408
 20
150.484940
 11
-142.868408
 21
147.015060
  0
LINE
  8
0
 10
-148.878418
 20
150.484924
 11
-145.873413
 21
152.219864
  0
LINE
  8
0
 10
-145.873413
 20
145.280106
 11
-142.868408
 21
147.015045
  0
LINE
  8
0
 10
-145.873413
 20
152.219864
 11
-142.868408
 21
150.484924
  0
LINE
  8
0
 10
-148.878418
 20
147.015060
 11
-145.873428
 21
145.280121
  0
LINE
  8
0
 10
-148.878403
 20
212.984924
 11
-148.878403
 21
209.515060
  0
LINE
  8
0
 10
-142.868408
 20
212.984924
 11
-142.868408
 21
209.515060
  0
LINE
  8
0
 10
-148.878418
 20
212.984940
 11
-145.873413
 21
214.719879
  0
LINE
  8
0
 10
-145.873413
 20
207.780121
 11
-142.868408
 21
209.515060
  0
LINE
  8
0
 10
-145.873413
 20
214.719879
 11
-142.868408
 21
212.984940
  0
LINE
  8
0
 10
-148.878418
 20
209.515060
 11
-145.873413
 21
207.780121
  0
CIRCLE
  8
0
 10
-200.000000
 20
180.000000
 40
12.500000
  0
CIRCLE
  8
0
 10
-200.000000
 20
180.000000
 40
11.700000
  0
CIRCLE
  8
0
 10
-200.000000
 20
180.000000
 40
22.500000
  0
ARC
  8
0
 10
-200.000000
 20
180.000000
 40
44.999996
 50
250.119110
 51
289.880737
  0
CIRCLE
  8
0
 10
-200.000000
 20
180.000000
 40
55.000000
  0
CIRCLE
  8
0
 10
-180.000046
 20
145.358948
 40
5.000000
  0
CIRCLE
  8
0
 10
-160.000000
 20
180.000000
 40
5.000000
  0
CIRCLE
  8
0
 10
-179.999985
 20
214.641006
 40
5.000000
  0
CIRCLE
  8
0
 10
-219.999969
 20
214.641022
 40
5.000000
  0
CIRCLE
  8
0
 10
-240.000000
 20
180.000031
 40
5.000000
  0
CIRCLE
  8
0
 10
-220.000031
 20
145.359009
 40
5.000000
  0
CIRCLE
  8
0
 10
-180.000046
 20
145.358948
 40
4.250000
  0
CIRCLE
  8
0
 10
-160.000000
 20
180.000000
 40
4.250000
  0
CIRCLE
  8
0
 10
-179.999985
 20
214.641006
 40
4.250000
  0
CIRCLE
  8
0
 10
-219.999969
 20
214.641022
 40
4.250000
  0
CIRCLE
  8
0
 10
-240.000000
 20
180.000031
 40
4.250000
  0
CIRCLE
  8
0
 10
-220.000031
 20
145.359009
 40
4.250000
  0
ARC
  8
0
 10
-180.000046
 20
145.358948
 40
8.999994
 50
194.999939
 51
45.000069
  0
ARC
  8
0
 10
-160.000000
 20
180.000000
 40
8.999998
 50
254.999969
 51
104.999916
  0
ARC
  8
0
 10
-179.999985
 20
214.641006
 40
9.000010
 50
315.000000
 51
164.999969
  0
ARC
  8
0
 10
-219.999969
 20
214.641022
 40
8.999998
 50
15.000035
 51
224.999924
  0
ARC
  8
0
 10
-240.000000
 20
180.000031
 40
9.000012
 50
74.999992
 51
285.000031
  0
ARC
  8
0
 10
-220.000031
 20
145.359009
 40
8.999999
 50
135.000076
 51
344.999969
  0
ARC
  8
0
 10
-200.000000
 20
117.500000
 40
7.500003
 50
195.000031
 51
344.999969
  0
ARC
  8
0
 10
-200.000000
 20
242.500000
 40
7.499999
 50
14.999913
 51
164.999969
  0
ARC
  8
0
 10
-254.126587
 20
211.250015
 40
7.500003
 50
74.999977
 51
225.000076
  0
ARC
  8
0
 10
-254.126602
 20
148.750031
 40
7.499997
 50
135.000000
 51
285.000031
  0
ARC
  8
0
 10
-176.150558
 20
161.308456
 40
4.999997
 50
149.999985
 51
225.000000
  0
ARC
  8
0
 10
-171.887955
 20
168.691498
 40
5.000007
 50
74.999992
 51
149.999985
  0
ARC
  8
0
 10
-171.887955
 20
191.308502
 40
4.999997
 50
210.000015
 51
285.000000
  0
ARC
  8
0
 10
-176.150513
 20
198.691483
 40
5.000005
 50
135.000000
 51
209.999924
  0
ARC
  8
0
 10
-195.737396
 20
210.000000
 40
5.000000
 50
270.000000
 51
344.999939
  0
ARC
  8
0
 10
-204.262558
 20
210.000000
 40
4.999992
 50
195.000061
 51
270.000183
  0
ARC
  8
0
 10
-223.849457
 20
198.691528
 40
4.999997
 50
329.999969
 51
45.000000
  0
ARC
  8
0
 10
-228.112030
 20
191.308533
 40
5.000007
 50
254.999985
 51
329.999969
  0
ARC
  8
0
 10
-228.112061
 20
168.691528
 40
4.999997
 50
30.000017
 51
105.000008
  0
ARC
  8
0
 10
-223.849487
 20
161.308533
 40
4.999984
 50
315.000000
 51
30.000017
  0
ARC
  8
0
 10
-204.262619
 20
150.000000
 40
5.000000
 50
90.000000
 51
164.999985
  0
ARC
  8
0
 10
-195.737473
 20
150.000000
 40
4.999992
 50
15.000055
 51
90.000000
  0
ARC
  8
0
 10
-200.000000
 20
180.000000
 40
45.000008
 50
310.119110
 51
349.880829
  0
ARC
  8
0
 10
-200.000000
 20
180.000000
 40
44.999992
 50
10.119193
 51
49.880817
  0
ARC
  8
0
 10
-200.000000
 20
180.000000
 40
44.999996
 50
70.119171
 51
109.880737
  0
ARC
  8
0
 10
-200.000000
 20
180.000000
 40
45.000008
 50
130.119095
 51
169.880737
  0
ARC
  8
0
 10
-200.000000
 20
180.000000
 40
44.999996
 50
190.119125
 51
229.880753
  0
ARC
  8
0
 10
-187.206528
 20
116.949585
 40
4.999997
 50
120.000015
 51
164.999985
  0
ARC
  8
0
 10
-187.206528
 20
243.050415
 40
5.000007
 50
195.000015
 51
239.999985
  0
ARC
  8
0
 10
-212.793457
 20
243.050430
 40
4.999997
 50
300.000031
 51
344.999939
  0
ARC
  8
0
 10
-248.206512
 20
222.604691
 40
5.000003
 50
255.000153
 51
300.000183
  0
ARC
  8
0
 10
-261.000000
 20
200.445770
 40
5.000000
 50
0.000000
 51
45.000122
  0
ARC
  8
0
 10
-261.000000
 20
159.554306
 40
4.999995
 50
314.999878
 51
0.000000
  0
ARC
  8
0
 10
-248.206573
 20
137.395340
 40
4.999997
 50
59.999981
 51
104.999840
  0
ARC
  8
0
 10
-212.793457
 20
116.949585
 40
4.999992
 50
15.000055
 51
59.999981
  0
ARC
  8
0
 10
-154.210236
 20
136.000000
 40
5.000000
 50
90.000000
 51
119.999931
  0
ARC
  8
0
 10
-154.210236
 20
224.000000
 40
4.999997
 50
239.999985
 51
270.000000
  0
ARC
  8
0
 10
-139.000000
 20
214.000000
 40
5.000000
 50
0.000000
 51
76.517151
  0
ARC
  8
0
 10
-139.000000
 20
146.000000
 40
4.999999
 50
283.482849
 51
0.000000
  0
ARC
  8
0
 10
-200.000000
 20
180.000000
 40
70.749992
 50
36.991142
 51
323.008850
  0
ARC
  8
0
 10
-135.502670
 20
228.586594
 40
9.999998
 50
216.991089
 51
256.517059
  0
ARC
  8
0
 10
-135.502670
 20
131.413406
 40
10.000002
 50
103.482941
 51
143.008835
  0
CIRCLE
  8
0
 10
-200.000000
 20
117.500000
 40
6.500000
  0
CIRCLE
  8
0
 10
-145.873413
 20
148.750000
 40
6.500000
  0
CIRCLE
  8
0
 10
-145.873413
 20
211.250000
 40
6.500000
  0
CIRCLE
  8
0
 10
-200.000000
 20
242.500000
 40
6.500000
  0
CIRCLE
  8
0
 10
-254.126587
 20
211.250015
 40
6.500000
  0
CIRCLE
  8
0
 10
-254.126602
 20
148.750031
 40
6.500000
  0
CIRCLE
  8
0
 10
-254.126602
 20
148.750031
 40
5.700000
  0
CIRCLE
  8
0
 10
-200.000000
 20
117.500000
 40
5.700000
  0
CIRCLE
  8
0
 10
-145.873413
 20
148.750000
 40
5.700000
  0
CIRCLE
  8
0
 10
-145.873413
 20
211.250000
 40
5.700000
  0
CIRCLE
  8
0
 10
-200.000000
 20
242.500000
 40
5.700000
  0
CIRCLE
  8
0
 10
-254.126587
 20
211.250015
 40
5.700000
  0
POINT
  8
0
 10
280.000000
 20
180.000000
  0
POINT
  8
0
 10
350.750000
 20
180.000000
  0
LINE
  8
0
 10
272.755554
 20
244.441132
 11
272.036163
 21
241.756317
  0
LINE
  8
0
 10
287.244446
 20
244.441162
 11
287.963837
 21
241.756332
  0
LINE
  8
0
 10
272.755554
 20
115.558868
 11
272.036163
 21
118.243683
  0
LINE
  8
0
 10
287.244415
 20
115.558868
 11
287.963806
 21
118.243683
  0
LINE
  8
0
 10
329.500610
 20
142.224945
 11
332.185425
 21
141.505554
  0
LINE
  8
0
 10
337.464478
 20
156.018707
 11
339.429871
 21
154.053299
  0
LINE
  8
0
 10
337.464478
 20
203.981232
 11
339.429932
 21
205.946671
  0
LINE
  8
0
 10
329.500671
 20
217.775055
 11
332.185455
 21
218.494431
  0
LINE
  8
0
 10
270.907837
 20
208.705902
 11
268.693359
 21
216.970413
  0
LINE
  8
0
 10
259.686066
 20
202.227081
 11
253.636078
 21
208.277069
  0
LINE
  8
0
 10
250.593857
 20
186.478867
 11
242.329376
 21
188.693329
  0
LINE
  8
0
 10
250.593857
 20
173.521118
 11
242.329376
 21
171.306656
  0
LINE
  8
0
 10
253.636017
 20
151.722946
 11
259.686066
 21
157.772980
  0
LINE
  8
0
 10
268.693329
 20
143.029617
 11
270.907776
 21
151.294098
  0
LINE
  8
0
 10
291.306641
 20
143.029602
 11
289.092194
 21
151.294098
  0
LINE
  8
0
 10
306.363953
 20
151.722931
 11
300.313934
 21
157.772949
  0
LINE
  8
0
 10
317.670624
 20
171.306641
 11
309.406128
 21
173.521103
  0
LINE
  8
0
 10
317.670624
 20
188.693298
 11
309.406158
 21
186.478836
  0
LINE
  8
0
 10
300.313965
 20
202.227005
 11
306.363983
 21
208.277039
  0
LINE
  8
0
 10
289.092255
 20
208.705902
 11
291.306702
 21
216.970367
  0
LINE
  8
0
 10
275.737488
 20
205.000000
 11
284.262604
 21
205.000000
  0
LINE
  8
0
 10
275.737396
 20
155.000000
 11
284.262543
 21
155.000000
  0
LINE
  8
0
 10
299.519348
 20
163.808472
 11
303.781921
 21
171.191452
  0
LINE
  8
0
 10
256.218048
 20
188.808517
 11
260.480652
 21
196.191559
  0
LINE
  8
0
 10
260.480652
 20
163.808517
 11
256.218079
 21
171.191498
  0
LINE
  8
0
 10
303.781921
 20
188.808472
 11
299.519348
 21
196.191467
  0
LINE
  8
0
 10
336.000000
 20
159.554230
 11
336.000000
 21
200.445709
  0
LINE
  8
0
 10
325.706604
 20
218.274597
 11
290.293488
 21
238.720367
  0
LINE
  8
0
 10
269.706512
 20
121.279648
 11
236.710220
 21
140.330048
  0
LINE
  8
0
 10
290.293457
 20
121.279709
 11
325.706512
 21
141.725464
  0
LINE
  8
0
 10
236.710236
 20
219.669846
 11
269.706543
 21
238.720276
  0
LINE
  8
0
 10
218.348267
 20
219.000000
 11
234.210236
 21
219.000000
  0
LINE
  8
0
 10
218.348206
 20
141.000000
 11
234.210251
 21
141.000000
  0
LINE
  8
0
 10
214.000000
 20
145.999985
 11
214.000000
 21
213.999985
  0
LINE
  8
0
  6
CENTER
 10
199.300003
 20
180.000000
 11
360.700012
 21
180.000000
  0
LINE
  8
0
  6
CENTER
 10
280.000000
 20
99.300003
 11
280.000000
 21
260.700012
  0
LINE
  8
0
 10
292.407532
 20
181.027512
 11
281.027496
 21
192.407532
  0
LINE
  8
0
 10
278.972504
 20
167.592468
 11
267.592468
 21
178.972488
  0
LINE
  8
0
 10
267.592468
 20
181.027496
 11
278.972504
 21
192.407532
  0
LINE
  8
0
 10
281.027496
 20
167.592468
 11
292.407532
 21
178.972504
  0
LINE
  8
0
 10
279.326874
 20
168.369461
 11
268.369476
 21
179.326874
  0
LINE
  8
0
 10
280.673126
 20
168.369461
 11
291.630554
 21
179.326874
  0
LINE
  8
0
 10
268.369476
 20
180.673111
 11
279.326874
 21
191.630539
  0
LINE
  8
0
 10
291.630524
 20
180.673126
 11
280.673126
 21
191.630539
  0
LINE
  8
0
 10
280.673096
 20
191.630539
 11
281.027496
 21
192.407532
  0
LINE
  8
0
 10
279.326874
 20
191.630539
 11
278.972504
 21
192.407532
  0
LINE
  8
0
 10
267.592468
 20
181.027496
 11
268.369446
 21
180.673111
  0
LINE
  8
0
 10
267.592468
 20
178.972488
 11
268.369476
 21
179.326874
  0
LINE
  8
0
 10
278.972504
 20
167.592468
 11
279.326904
 21
168.369461
  0
LINE
  8
0
 10
281.027496
 20
167.592468
 11
280.673126
 21
168.369461
  0
LINE
  8
0
 10
292.407532
 20
178.972504
 11
291.630554
 21
179.326874
  0
LINE
  8
0
 10
291.630524
 20
180.673126
 11
292.407532
 21
181.027512
  0
CIRCLE
  8
0
 10
280.000000
 20
180.000000
 40
12.500000
  0
CIRCLE
  8
0
 10
280.000000
 20
180.000000
 40
22.500000
  0
ARC
  8
0
 10
280.000000
 20
180.000000
 40
45.000000
 50
70.119095
 51
109.880737
  0
CIRCLE
  8
0
 10
280.000000
 20
180.000000
 40
55.000000
  0
CIRCLE
  8
0
 10
260.000031
 20
214.641052
 40
5.000000
  0
CIRCLE
  8
0
 10
240.000000
 20
179.999985
 40
5.000000
  0
CIRCLE
  8
0
 10
260.000000
 20
145.358994
 40
5.000000
  0
CIRCLE
  8
0
 10
299.999969
 20
145.358978
 40
5.000000
  0
CIRCLE
  8
0
 10
320.000000
 20
179.999969
 40
5.000000
  0
CIRCLE
  8
0
 10
300.000031
 20
214.640991
 40
5.000000
  0
CIRCLE
  8
0
 10
260.000031
 20
214.641052
 40
4.250000
  0
CIRCLE
  8
0
 10
240.000000
 20
179.999985
 40
4.250000
  0
CIRCLE
  8
0
 10
260.000000
 20
145.358994
 40
4.250000
  0
CIRCLE
  8
0
 10
299.999969
 20
145.358978
 40
4.250000
  0
CIRCLE
  8
0
 10
320.000000
 20
179.999969
 40
4.250000
  0
CIRCLE
  8
0
 10
300.000031
 20
214.640991
 40
4.250000
  0
ARC
  8
0
 10
260.000031
 20
214.641052
 40
8.999994
 50
14.999942
 51
225.000076
  0
ARC
  8
0
 10
240.000000
 20
179.999985
 40
9.000012
 50
74.999992
 51
285.000031
  0
ARC
  8
0
 10
260.000000
 20
145.358994
 40
9.000010
 50
135.000000
 51
344.999969
  0
ARC
  8
0
 10
299.999969
 20
145.358978
 40
8.999998
 50
195.000031
 51
44.999863
  0
ARC
  8
0
 10
320.000000
 20
179.999969
 40
8.999998
 50
254.999969
 51
105.000038
  0
ARC
  8
0
 10
300.000031
 20
214.640991
 40
8.999989
 50
315.000000
 51
164.999969
  0
ARC
  8
0
 10
280.000000
 20
242.500000
 40
7.499974
 50
15.000086
 51
164.999969
  0
ARC
  8
0
 10
280.000000
 20
117.500000
 40
7.500003
 50
195.000031
 51
344.999969
  0
ARC
  8
0
 10
334.126587
 20
148.750000
 40
7.499999
 50
255.000092
 51
44.999836
  0
ARC
  8
0
 10
334.126587
 20
211.249985
 40
7.500008
 50
315.000092
 51
104.999916
  0
ARC
  8
0
 10
256.150543
 20
198.691544
 40
5.000010
 50
330.000061
 51
44.999878
  0
ARC
  8
0
 10
251.887955
 20
191.308487
 40
4.999992
 50
254.999939
 51
329.999969
  0
ARC
  8
0
 10
251.887955
 20
168.691498
 40
4.999997
 50
30.000017
 51
105.000053
  0
ARC
  8
0
 10
256.150513
 20
161.308517
 40
5.000016
 50
315.000122
 51
29.999931
  0
ARC
  8
0
 10
275.737396
 20
150.000000
 40
5.000000
 50
90.000000
 51
164.999939
  0
ARC
  8
0
 10
284.262543
 20
150.000000
 40
5.000022
 50
14.999965
 51
90.000000
  0
ARC
  8
0
 10
303.849457
 20
161.308487
 40
4.999984
 50
149.999893
 51
225.000122
  0
ARC
  8
0
 10
308.112030
 20
168.691467
 40
5.000007
 50
74.999992
 51
150.000076
  0
ARC
  8
0
 10
308.112061
 20
191.308472
 40
4.999984
 50
210.000107
 51
285.000061
  0
ARC
  8
0
 10
303.849487
 20
198.691467
 40
4.999995
 50
134.999878
 51
209.999924
  0
ARC
  8
0
 10
284.262604
 20
210.000000
 40
5.000000
 50
270.000000
 51
345.000031
  0
ARC
  8
0
 10
275.737457
 20
210.000000
 40
4.999992
 50
195.000061
 51
270.000000
  0
ARC
  8
0
 10
280.000000
 20
180.000000
 40
45.000008
 50
130.119095
 51
169.880829
  0
ARC
  8
0
 10
280.000000
 20
180.000000
 40
44.999992
 50
190.119217
 51
229.880814
  0
ARC
  8
0
 10
280.000000
 20
180.000000
 40
44.999996
 50
250.119171
 51
289.880737
  0
ARC
  8
0
 10
280.000000
 20
180.000000
 40
45.000008
 50
310.119110
 51
349.880737
  0
ARC
  8
0
 10
280.000000
 20
180.000000
 40
45.000011
 50
10.119110
 51
49.880749
  0
ARC
  8
0
 10
267.206512
 20
243.050415
 40
4.999997
 50
300.000031
 51
344.999939
  0
ARC
  8
0
 10
267.206543
 20
116.949585
 40
4.999990
 50
14.999971
 51
59.999981
  0
ARC
  8
0
 10
292.793457
 20
116.949570
 40
4.999989
 50
119.999672
 51
164.999939
  0
ARC
  8
0
 10
328.206512
 20
137.395325
 40
4.999992
 50
74.999947
 51
120.000015
  0
ARC
  8
0
 10
341.000000
 20
159.554230
 40
5.000000
 50
180.000000
 51
225.000000
  0
ARC
  8
0
 10
341.000000
 20
200.445709
 40
4.999984
 50
135.000000
 51
180.000000
  0
ARC
  8
0
 10
328.206573
 20
222.604675
 40
5.000010
 50
240.000076
 51
284.999664
  0
ARC
  8
0
 10
292.793457
 20
243.050415
 40
4.999992
 50
195.000061
 51
239.999985
  0
ARC
  8
0
 10
234.210236
 20
223.999985
 40
5.000000
 50
270.000000
 51
300.000031
  0
ARC
  8
0
 10
234.210251
 20
135.999985
 40
4.999997
 50
59.999981
 51
90.000000
  0
ARC
  8
0
 10
219.000015
 20
145.999985
 40
5.000000
 50
180.000000
 51
256.516968
  0
ARC
  8
0
 10
218.999985
 20
213.999985
 40
4.999999
 50
103.482849
 51
179.999832
  0
ARC
  8
0
 10
280.000000
 20
180.000000
 40
70.749992
 50
216.991135
 51
143.008896
  0
CIRCLE
  8
0
 10
280.000000
 20
180.000000
 40
12.450000
  0
ARC
  8
0
 10
280.000000
 20
180.000000
 40
11.649986
 50
176.687653
 51
183.312347
  0
ARC
  8
0
 10
280.000000
 20
180.000000
 40
11.650002
 50
266.687653
 51
273.312347
  0
ARC
  8
0
 10
280.000000
 20
180.000000
 40
11.649986
 50
356.687653
 51
3.312271
  0
ARC
  8
0
 10
280.000000
 20
180.000000
 40
11.650002
 50
86.687660
 51
93.312340
  0
ARC
  8
0
 10
215.502655
 20
228.586578
 40
10.000002
 50
283.482941
 51
323.008911
  0
ARC
  8
0
 10
215.502686
 20
131.413391
 40
9.999995
 50
36.991211
 51
76.517151
  0
POINT
  8
0
 10
-150.000000
 20
-20.000000
  0
POINT
  8
0
 10
-130.000000
 20
-20.000000
  0
LINE
  8
0
 10
-150.000000
 20
50.000000
 11
-150.000000
 21
-90.000000
  0
LINE
  8
0
 10
-150.000000
 20
50.000000
 11
-195.000000
 21
50.000000
  0
LINE
  8
0
 10
-150.000000
 20
-90.000000
 11
-195.000000
 21
-90.000000
  0
LINE
  8
0
 10
-195.000000
 20
50.000000
 11
-195.000000
 21
-90.000000
  0
LINE
  8
0
 10
-162.000000
 20
50.000000
 11
-162.000000
 21
-90.000000
  0
LINE
  8
0
  6
CENTER
 10
-171.750000
 20
30.000000
 11
-192.250000
 21
30.000000
  0
LINE
  8
0
  6
CENTER
 10
-171.750000
 20
-70.000000
 11
-192.250000
 21
-70.000000
  0
LINE
  8
0
  6
CENTER
 10
-182.000000
 20
40.249996
 11
-182.000000
 21
19.749996
  0
LINE
  8
0
  6
CENTER
 10
-182.000000
 20
-59.750004
 11
-182.000000
 21
-80.250000
  0
LINE
  8
0
 10
-150.000000
 20
20.000000
 11
-162.000000
 21
20.000000
  0
LINE
  8
0
 10
-150.000000
 20
-60.000000
 11
-162.000000
 21
-60.000000
  0
LINE
  8
0
 10
-164.500000
 20
23.841007
 11
-164.500000
 21
5.441006
  0
LINE
  8
0
 10
-174.500000
 20
21.641006
 11
-174.500000
 21
7.641006
  0
LINE
  8
0
 10
-173.500000
 20
22.641006
 11
-173.500000
 21
6.641006
  0
LINE
  8
0
 10
-173.500000
 20
-46.641045
 11
-164.500000
 21
-46.641045
  0
LINE
  8
0
 10
-173.500000
 20
-62.641045
 11
-164.500000
 21
-62.641045
  0
LINE
  8
0
 10
-173.500000
 20
-28.000000
 11
-164.500000
 21
-28.000000
  0
LINE
  8
0
 10
-173.500000
 20
-12.000000
 11
-164.500000
 21
-12.000000
  0
LINE
  8
0
 10
-173.500000
 20
6.641006
 11
-164.500000
 21
6.641006
  0
LINE
  8
0
 10
-173.500000
 20
22.641006
 11
-164.500000
 21
22.641006
  0
LINE
  8
0
 10
-164.500000
 20
23.841007
 11
-162.000000
 21
23.841007
  0
LINE
  8
0
 10
-164.500000
 20
5.441006
 11
-162.000000
 21
5.441006
  0
LINE
  8
0
 10
-164.500000
 20
-10.800000
 11
-162.000000
 21
-10.800000
  0
LINE
  8
0
 10
-164.500000
 20
-29.200001
 11
-162.000000
 21
-29.200001
  0
LINE
  8
0
 10
-164.500000
 20
-63.841045
 11
-162.000000
 21
-63.841045
  0
LINE
  8
0
 10
-164.500000
 20
-45.441044
 11
-162.000000
 21
-45.441044
  0
LINE
  8
0
 10
-174.500000
 20
-47.641045
 11
-174.500000
 21
-61.641048
  0
LINE
  8
0
 10
-173.500000
 20
-46.641045
 11
-173.500000
 21
-62.641045
  0
LINE
  8
0
 10
-164.500000
 20
-45.441044
 11
-164.500000
 21
-63.841045
  0
LINE
  8
0
 10
-174.500000
 20
-13.000000
 11
-174.500000
 21
-27.000000
  0
LINE
  8
0
 10
-173.500000
 20
-12.000000
 11
-173.500000
 21
-28.000000
  0
LINE
  8
0
 10
-164.500000
 20
-10.800000
 11
-164.500000
 21
-29.200001
  0
LINE
  8
0
 10
-173.500000
 20
-62.641045
 11
-174.500000
 21
-61.641048
  0
LINE
  8
0
 10
-174.500000
 20
-47.641045
 11
-173.500000
 21
-46.641045
  0
LINE
  8
0
 10
-174.500000
 20
-26.999998
 11
-173.500000
 21
-27.999998
  0
LINE
  8
0
 10
-173.500000
 20
-12.000000
 11
-174.500000
 21
-13.000000
  0
LINE
  8
0
 10
-174.500000
 20
7.641005
 11
-173.500000
 21
6.641005
  0
LINE
  8
0
 10
-173.500000
 20
22.641006
 11
-174.500000
 21
21.641006
  0
LINE
  8
0
 10
-164.500000
 20
-56.084423
 11
-162.000000
 21
-54.641045
  0
LINE
  8
0
 10
-164.500000
 20
-21.443375
 11
-162.000000
 21
-20.000000
  0
LINE
  8
0
 10
-164.500000
 20
13.197636
 11
-162.000000
 21
14.641010
  0
LINE
  8
0
 10
-164.500000
 20
-54.929722
 11
-162.000000
 21
-53.486343
  0
LINE
  8
0
 10
-164.500000
 20
-20.288675
 11
-162.000000
 21
-18.845299
  0
LINE
  8
0
 10
-164.500000
 20
14.352333
 11
-162.000000
 21
15.795708
  0
CIRCLE
  8
0
 10
-182.000000
 20
29.999996
 40
7.500000
  0
CIRCLE
  8
0
 10
-182.000000
 20
-70.000000
 40
7.500000
  0
POINT
  8
0
 10
-150.000000
 20
-170.000000
  0
POINT
  8
0
 10
-130.000000
 20
-170.000000
  0
LINE
  8
0
 10
-150.000000
 20
-115.000000
 11
-150.000000
 21
-250.000000
  0
LINE
  8
0
 10
-162.000000
 20
-115.000000
 11
-162.000000
 21
-238.000000
  0
LINE
  8
0
 10
-195.000000
 20
-238.000000
 11
-195.000000
 21
-250.000000
  0
LINE
  8
0
 10
-195.000000
 20
-250.000000
 11
-150.000000
 21
-250.000000
  0
LINE
  8
0
 10
-162.000000
 20
-115.000000
 11
-150.000000
 21
-115.000000
  0
LINE
  8
0
 10
-195.000000
 20
-238.000000
 11
-162.000000
 21
-238.000000
  0
LINE
  8
0
 10
-164.500000
 20
-120.800003
 11
-164.500000
 21
-139.199997
  0
LINE
  8
0
 10
-174.500000
 20
-123.000000
 11
-174.500000
 21
-137.000000
  0
LINE
  8
0
 10
-173.500000
 20
-122.000000
 11
-173.500000
 21
-138.000000
  0
LINE
  8
0
 10
-173.500000
 20
-218.000000
 11
-164.500000
 21
-218.000000
  0
LINE
  8
0
 10
-173.500000
 20
-202.000000
 11
-164.500000
 21
-202.000000
  0
LINE
  8
0
 10
-173.500000
 20
-182.000046
 11
-164.500000
 21
-182.000046
  0
LINE
  8
0
 10
-173.500000
 20
-198.000046
 11
-164.500000
 21
-198.000046
  0
LINE
  8
0
 10
-173.500000
 20
-158.000046
 11
-164.500000
 21
-158.000046
  0
LINE
  8
0
 10
-173.500000
 20
-142.000046
 11
-164.500000
 21
-142.000046
  0
LINE
  8
0
 10
-173.500000
 20
-122.000000
 11
-164.500000
 21
-122.000000
  0
LINE
  8
0
 10
-173.500000
 20
-138.000000
 11
-164.500000
 21
-138.000000
  0
LINE
  8
0
 10
-174.500000
 20
-203.000000
 11
-174.500000
 21
-217.000000
  0
LINE
  8
0
 10
-173.500000
 20
-202.000000
 11
-173.500000
 21
-218.000000
  0
LINE
  8
0
 10
-164.500000
 20
-200.800003
 11
-164.500000
 21
-219.199997
  0
LINE
  8
0
 10
-174.500000
 20
-183.000046
 11
-174.500000
 21
-197.000046
  0
LINE
  8
0
 10
-173.500000
 20
-182.000046
 11
-173.500000
 21
-198.000046
  0
LINE
  8
0
 10
-164.500000
 20
-180.800049
 11
-164.500000
 21
-199.200043
  0
LINE
  8
0
 10
-174.500000
 20
-143.000046
 11
-174.500000
 21
-157.000046
  0
LINE
  8
0
 10
-173.500000
 20
-142.000046
 11
-173.500000
 21
-158.000046
  0
LINE
  8
0
 10
-164.500000
 20
-140.800049
 11
-164.500000
 21
-159.200043
  0
LINE
  8
0
 10
-173.500000
 20
-218.000000
 11
-174.500000
 21
-217.000000
  0
LINE
  8
0
 10
-174.500000
 20
-203.000000
 11
-173.500000
 21
-202.000000
  0
LINE
  8
0
 10
-173.500000
 20
-198.000046
 11
-174.500000
 21
-197.000046
  0
LINE
  8
0
 10
-173.500000
 20
-182.000046
 11
-174.500000
 21
-183.000046
  0
LINE
  8
0
 10
-173.500000
 20
-158.000046
 11
-174.500000
 21
-157.000046
  0
LINE
  8
0
 10
-173.500000
 20
-142.000046
 11
-174.500000
 21
-143.000046
  0
LINE
  8
0
 10
-173.500000
 20
-138.000000
 11
-174.500000
 21
-137.000000
  0
LINE
  8
0
 10
-173.500000
 20
-122.000000
 11
-174.500000
 21
-123.000000
  0
LINE
  8
0
 10
-164.500000
 20
-200.800003
 11
-162.000000
 21
-200.800003
  0
LINE
  8
0
 10
-164.500000
 20
-219.199997
 11
-162.000000
 21
-219.199997
  0
LINE
  8
0
 10
-164.500000
 20
-180.800049
 11
-162.000000
 21
-180.800049
  0
LINE
  8
0
 10
-164.500000
 20
-199.200043
 11
-162.000000
 21
-199.200043
  0
LINE
  8
0
 10
-164.500000
 20
-159.200043
 11
-162.000000
 21
-159.200043
  0
LINE
  8
0
 10
-164.500000
 20
-140.800049
 11
-162.000000
 21
-140.800049
  0
LINE
  8
0
 10
-164.500000
 20
-120.800003
 11
-162.000000
 21
-120.800003
  0
LINE
  8
0
 10
-164.500000
 20
-139.199997
 11
-162.000000
 21
-139.199997
  0
LINE
  8
0
 10
-164.500000
 20
-211.443375
 11
-162.000000
 21
-210.000000
  0
LINE
  8
0
 10
-164.500000
 20
-191.443420
 11
-162.000000
 21
-190.000046
  0
LINE
  8
0
 10
-164.500000
 20
-151.443420
 11
-162.000000
 21
-150.000046
  0
LINE
  8
0
 10
-164.500000
 20
-131.443375
 11
-162.000000
 21
-130.000000
  0
LINE
  8
0
 10
-164.500000
 20
-210.288681
 11
-162.000000
 21
-208.845306
  0
LINE
  8
0
 10
-164.500000
 20
-190.288727
 11
-162.000000
 21
-188.845337
  0
LINE
  8
0
 10
-164.500000
 20
-150.288712
 11
-162.000000
 21
-148.845337
  0
LINE
  8
0
 10
-164.500000
 20
-130.288666
 11
-162.000000
 21
-128.845306
  0
POINT
  8
0
 10
-310.000000
 20
-20.000000
  0
POINT
  8
0
 10
-255.000000
 20
-20.000000
  0
LINE
  8
0
 10
-310.000000
 20
-90.000000
 11
-390.000000
 21
-90.000000
  0
LINE
  8
0
 10
-310.000000
 20
50.000000
 11
-390.000000
 21
50.000000
  0
LINE
  8
0
 10
-390.000000
 20
49.999992
 11
-390.000000
 21
-90.000008
  0
LINE
  8
0
 10
-378.000000
 20
49.999992
 11
-378.000000
 21
-90.000008
  0
LINE
  8
0
 10
-255.000000
 20
20.000000
 11
-255.000000
 21
-59.999992
  0
LINE
  8
0
 10
-255.000015
 20
19.999977
 11
-310.000031
 21
49.999969
  0
LINE
  8
0
 10
-255.000015
 20
-59.999962
 11
-310.000000
 21
-89.999969
  0
LINE
  8
0
 10
-285.381256
 20
-54.641045
 11
-287.690643
 21
-50.641045
  0
LINE
  8
0
 10
-287.690643
 20
-50.641045
 11
-292.309448
 21
-50.641045
  0
LINE
  8
0
 10
-294.618835
 20
-54.641045
 11
-292.309448
 21
-50.641045
  0
LINE
  8
0
 10
-292.309448
 20
-58.641045
 11
-294.618835
 21
-54.641045
  0
LINE
  8
0
 10
-287.690643
 20
-58.641045
 11
-292.309448
 21
-58.641045
  0
LINE
  8
0
 10
-285.381256
 20
-54.641041
 11
-287.690643
 21
-58.641041
  0
LINE
  8
0
 10
-265.381195
 20
-19.999996
 11
-267.690613
 21
-15.999997
  0
LINE
  8
0
 10
-267.690613
 20
-15.999992
 11
-272.309387
 21
-15.999992
  0
LINE
  8
0
 10
-274.618805
 20
-19.999998
 11
-272.309387
 21
-15.999998
  0
LINE
  8
0
 10
-272.309387
 20
-23.999996
 11
-274.618805
 21
-19.999996
  0
LINE
  8
0
 10
-267.690613
 20
-23.999989
 11
-272.309387
 21
-23.999989
  0
LINE
  8
0
 10
-265.381195
 20
-19.999998
 11
-267.690613
 21
-24.000000
  0
LINE
  8
0
 10
-285.381195
 20
14.641003
 11
-287.690582
 21
18.641003
  0
LINE
  8
0
 10
-287.690582
 20
18.641006
 11
-292.309387
 21
18.641006
  0
LINE
  8
0
 10
-294.618774
 20
14.641006
 11
-292.309387
 21
18.641006
  0
LINE
  8
0
 10
-292.309387
 20
10.641006
 11
-294.618774
 21
14.641006
  0
LINE
  8
0
 10
-287.690582
 20
10.641006
 11
-292.309387
 21
10.641006
  0
LINE
  8
0
 10
-285.381165
 20
14.641006
 11
-287.690582
 21
10.641005
  0
LINE
  8
0
 10
-325.381165
 20
14.641029
 11
-327.690582
 21
18.641029
  0
LINE
  8
0
 10
-327.690582
 20
18.641029
 11
-332.309387
 21
18.641029
  0
LINE
  8
0
 10
-334.618774
 20
14.641029
 11
-332.309387
 21
18.641029
  0
LINE
  8
0
 10
-332.309387
 20
10.641029
 11
-334.618774
 21
14.641029
  0
LINE
  8
0
 10
-327.690582
 20
10.641029
 11
-332.309387
 21
10.641029
  0
LINE
  8
0
 10
-325.381165
 20
14.641029
 11
-327.690582
 21
10.641029
  0
LINE
  8
0
 10
-345.381195
 20
-19.999966
 11
-347.690613
 21
-15.999966
  0
LINE
  8
0
 10
-347.690613
 20
-15.999969
 11
-352.309387
 21
-15.999969
  0
LINE
  8
0
 10
-354.618805
 20
-19.999966
 11
-352.309387
 21
-15.999966
  0
LINE
  8
0
 10
-352.309387
 20
-23.999966
 11
-354.618805
 21
-19.999964
  0
LINE
  8
0
 10
-347.690613
 20
-23.999975
 11
-352.309387
 21
-23.999975
  0
LINE
  8
0
 10
-345.381195
 20
-19.999966
 11
-347.690613
 21
-23.999966
  0
LINE
  8
0
 10
-325.381226
 20
-54.640995
 11
-327.690643
 21
-50.640991
  0
LINE
  8
0
 10
-327.690643
 20
-50.640995
 11
-332.309448
 21
-50.640995
  0
LINE
  8
0
 10
-334.618835
 20
-54.640995
 11
-332.309448
 21
-50.640991
  0
LINE
  8
0
 10
-332.309448
 20
-58.640995
 11
-334.618835
 21
-54.640995
  0
LINE
  8
0
 10
-327.690643
 20
-58.640995
 11
-332.309448
 21
-58.640995
  0
LINE
  8
0
 10
-325.381226
 20
-54.640995
 11
-327.690643
 21
-58.640995
  0
LINE
  8
0
 10
-335.026245
 20
-62.346657
 11
-334.425232
 21
-61.305653
  0
LINE
  8
0
 10
-334.160217
 20
-62.846657
 11
-333.559204
 21
-61.805653
  0
LINE
  8
0
 10
-286.440887
 20
-61.805706
 11
-285.839844
 21
-62.846703
  0
LINE
  8
0
 10
-285.574860
 20
-61.305706
 11
-284.973816
 21
-62.346703
  0
LINE
  8
0
 10
-260.813599
 20
-20.500000
 11
-262.015625
 21
-20.500000
  0
LINE
  8
0
 10
-260.813599
 20
-19.500000
 11
-262.015625
 21
-19.500000
  0
LINE
  8
0
 10
-285.574799
 20
21.305664
 11
-284.973755
 21
22.346668
  0
LINE
  8
0
 10
-286.440826
 20
21.805664
 11
-285.839783
 21
22.846668
  0
LINE
  8
0
 10
-335.026184
 20
22.346691
 11
-334.425171
 21
21.305687
  0
LINE
  8
0
 10
-334.160156
 20
22.846691
 11
-333.559143
 21
21.805687
  0
LINE
  8
0
 10
-357.984344
 20
-20.500000
 11
-359.186401
 21
-20.500000
  0
LINE
  8
0
 10
-357.984375
 20
-19.500000
 11
-359.186401
 21
-19.500000
  0
CIRCLE
  8
0
 10
-310.000000
 20
-20.000000
 40
25.000000
  0
ARC
  8
0
 10
-330.000031
 20
-54.640995
 40
9.199999
 50
243.115448
 51
236.884552
  0
ARC
  8
0
 10
-290.000061
 20
-54.641045
 40
9.200017
 50
303.115601
 51
296.884735
  0
ARC
  8
0
 10
-270.000000
 20
-19.999996
 40
9.199998
 50
3.115413
 51
356.884491
  0
ARC
  8
0
 10
-289.999969
 20
14.641006
 40
9.199999
 50
63.115448
 51
56.884548
  0
ARC
  8
0
 10
-329.999969
 20
14.641029
 40
9.200000
 50
123.115440
 51
116.884552
  0
ARC
  8
0
 10
-350.000000
 20
-19.999966
 40
9.200000
 50
183.115631
 51
176.884796
  0
CIRCLE
  8
0
 10
-350.000000
 20
-19.999966
 40
8.000000
  0
CIRCLE
  8
0
 10
-330.000031
 20
-54.640995
 40
8.000000
  0
CIRCLE
  8
0
 10
-290.000061
 20
-54.641045
 40
8.000000
  0
CIRCLE
  8
0
 10
-270.000000
 20
-19.999996
 40
8.000000
  0
CIRCLE
  8
0
 10
-289.999969
 20
14.641006
 40
8.000000
  0
CIRCLE
  8
0
 10
-329.999969
 20
14.641029
 40
8.000000
  0
CIRCLE
  8
0
 10
-329.999969
 20
14.641029
 40
7.000000
  0
CIRCLE
  8
0
 10
-350.000000
 20
-19.999966
 40
7.000000
  0
CIRCLE
  8
0
 10
-330.000031
 20
-54.640995
 40
7.000000
  0
CIRCLE
  8
0
 10
-290.000061
 20
-54.641045
 40
7.000000
  0
CIRCLE
  8
0
 10
-270.000000
 20
-19.999996
 40
7.000000
  0
CIRCLE
  8
0
 10
-289.999969
 20
14.641006
 40
7.000000
  0
ENDSEC
  0
EOF
