  0
SECTION
  2
HEADER
  0
ENDSEC
  0
SECTION
  2
TABLES
  0
TABLE
  2
LTYPE
 70
     4
  0
LTYPE
  2
CONTINUOUS
 70
    64
  3
Solid line
 72
    65
 73
     0
 40
0.000000
  0
LTYPE
  2
DASHED
 70
    64
  3
__ __ __ __ __ __ __ __ __ __ __ __ __ __ __
 72
    65
 73
     2
 40
3.500000
 49
2.000000
 49
-1.500000
  0
LTYPE
  2
CENTER
 70
    64
  3
____ _ ____ _ ____ _ ____ _ ____ _ ____ _ ____
 72
    65
 73
     4
 40
17.500000
 49
13.000000
 49
-1.500000
 49
1.500000
 49
-1.500000
  0
LTYPE
  2
PHANTOM
 70
    64
  3
_____ _ _ _____ _ _ _____ _ _ _____ _ _ ____  
 72
    65
 73
     6
 40
15.500000
 49
8.000000
 49
-1.500000
 49
1.500000
 49
-1.500000
 49
1.500000
 49
-1.500000
  0
LTYPE
  2
DASHED1
 70
    64
  3
__ __ __ __ __ __ __ __ __ __ __ __ __ __ __
 72
    65
 73
     2
 40
1.500000
 49
1.000000
 49
-0.500000
  0
LTYPE
  2
DASHED2
 70
    64
  3
__ __ __ __ __ __ __ __ __ __ __ __ __ __ __
 72
    65
 73
     2
 40
3.500000
 49
2.500000
 49
-1.000000
  0
LTYPE
  2
DASHED3
 70
    64
  3
__ __ __ __ __ __ __ __ __ __ __ __ __ __ __
 72
    65
 73
     2
 40
6.000000
 49
4.000000
 49
-2.000000
  0
LTYPE
  2
DASHED4
 70
    64
  3
__ __ __ __ __ __ __ __ __ __ __ __ __ __ __
 72
    65
 73
     2
 40
12.000000
 49
10.000000
 49
-2.000000
  0
LTYPE
  2
DASHED5
 70
    64
  3
__ __ __ __ __ __ __ __ __ __ __ __ __ __ __
 72
    65
 73
     2
 40
17.000000
 49
15.000000
 49
-2.000000
  0
LTYPE
  2
DASHED6
 70
    64
  3
__ __ __ __ __ __ __ __ __ __ __ __ __ __ __
 72
    65
 73
     2
 40
29.000000
 49
27.000000
 49
-2.000000
  0
LTYPE
  2
PHANTOM1
 70
    64
  3
_____ _ _ _____ _ _ _____ _ _ _____ _ _ ____  
 72
    65
 73
     6
 40
31.000000
 49
25.000000
 49
-1.500000
 49
1.000000
 49
-1.000000
 49
1.000000
 49
-1.500000
  0
LTYPE
  2
PHANTOM2
 70
    64
  3
_____ _ _ _____ _ _ _____ _ _ _____ _ _ ____  
 72
    65
 73
     6
 40
36.000000
 49
27.000000
 49
-1.500000
 49
2.500000
 49
-1.000000
 49
2.500000
 49
-1.500000
  0
LTYPE
  2
PHANTOM3
 70
    64
  3
_____ _ _ _____ _ _ _____ _ _ _____ _ _ ____  
 72
    65
 73
     6
 40
78.000000
 49
64.000000
 49
-2.000000
 49
4.000000
 49
-2.000000
 49
4.000000
 49
-2.000000
  0
LTYPE
  2
CENTER1
 70
    64
  3
____ _ ____ _ ____ _ ____ _ ____ _ ____ _ ____
 72
    65
 73
     4
 40
19.000000
 49
14.000000
 49
-1.000000
 49
3.000000
 49
-1.000000
  0
LTYPE
  2
CENTER2
 70
    64
  3
____ _ ____ _ ____ _ ____ _ ____ _ ____ _ ____
 72
    65
 73
     4
 40
28.500000
 49
25.000000
 49
-1.000000
 49
1.500000
 49
-1.000000
  0
LTYPE
  2
CENTER3
 70
    64
  3
____ _ ____ _ ____ _ ____ _ ____ _ ____ _ ____
 72
    65
 73
     4
 40
31.500000
 49
27.000000
 49
-1.000000
 49
2.500000
 49
-1.000000
  0
LTYPE
  2
CENTER4
 70
    64
  3
____ _ ____ _ ____ _ ____ _ ____ _ ____ _ ____
 72
    65
 73
     4
 40
50.000000
 49
45.000000
 49
-1.000000
 49
3.000000
 49
-1.000000
  0
LTYPE
  2
CENTER5
 70
    64
  3
____ _ ____ _ ____ _ ____ _ ____ _ ____ _ ____
 72
    65
 73
     4
 40
100.000000
 49
92.000000
 49
-2.000000
 49
4.000000
 49
-2.000000
  0
LTYPE
  2
SBK1
 70
    64
  3
______ _ _ _ ______ _ _ _ ______ _ _ _ _____  
 72
    65
 73
     8
 40
60.500000
 49
45.000000
 49
-2.000000
 49
2.500000
 49
-2.000000
 49
2.500000
 49
-2.000000
 49
2.500000
 49
-2.000000
  0
LTYPE
  2
SBK2
 70
    64
  3
______ _ _ _ ______ _ _ _ ______ _ _ _ _____  
 72
    65
 73
     8
 40
84.000000
 49
64.000000
 49
-2.000000
 49
4.000000
 49
-2.000000
 49
4.000000
 49
-2.000000
 49
4.000000
 49
-2.000000
  0
LTYPE
  2
STCH
 70
    64
  3
__ __ __ __ __ __ __ __ __ __ __ __ __ __ __
 72
    65
 73
     2
 40
3.000000
 49
1.000000
 49
-2.000000
  0
LTYPE
  2
MTCH
 70
    64
  3
_____ _ _ _____ _ _ _____ _ _ _____ _ _ ____  
 72
    65
 73
     6
 40
80.000000
 49
66.000000
 49
-2.000000
 49
4.000000
 49
-2.000000
 49
4.000000
 49
-2.000000
  0
ENDTAB
  0
TABLE
  2
LAYER
 70
     1
  0
LAYER
  2
0
 70
     0
 62
     7
  6
CONTINUOUS
  0
ENDTAB
  0
TABLE
  2
STYLE
 70
     1
  0
STYLE
  2
STANDARD
 70
     0
 40
0.000000
 41
1.000000
 50
0.000000
 71
     0
 42
0.200000
  3
txt
  4
BIGFONT
  0
ENDTAB
  0
TABLE
  2
VIEW
 70
     0
  0
ENDTAB
  0
ENDSEC
  0
SECTION
  2
BLOCKS
  0
ENDSEC
  0
SECTION
  2
ENTITIES
  0
LINE
  8
0
 10
297.000000
 20
210.000000
 11
297.000000
 21
-210.000000
  0
LINE
  8
0
 10
297.000000
 20
210.000000
 11
-297.000000
 21
210.000000
  0
LINE
  8
0
 10
-297.000000
 20
-210.000000
 11
-297.000000
 21
210.000000
  0
LINE
  8
0
 10
282.100098
 20
195.500000
 11
-281.250000
 21
195.500000
  0
LINE
  8
0
 10
-281.250000
 20
195.500000
 11
-281.250000
 21
-195.000000
  0
LINE
  8
0
 10
282.100098
 20
-195.000000
 11
282.100098
 21
195.500000
  0
LINE
  8
0
 10
-281.250000
 20
-195.000000
 11
282.100098
 21
-195.000000
  0
LINE
  8
0
 10
-281.250000
 20
10.000000
 11
282.100098
 21
10.000000
  0
LINE
  8
0
 10
0.000000
 20
10.000000
 11
0.000000
 21
-195.000000
  0
LINE
  8
0
 10
182.100098
 20
-180.000000
 11
282.100098
 21
-180.000000
  0
LINE
  8
0
 10
182.100098
 20
-195.000000
 11
182.100098
 21
-180.000000
  0
LINE
  8
0
 10
-181.250000
 20
180.500000
 11
-281.250000
 21
180.500000
  0
LINE
  8
0
 10
-181.250000
 20
195.500000
 11
-181.250000
 21
180.500000
  0
LINE
  8
0
 10
-281.250000
 20
-185.000000
 11
182.100098
 21
-185.000000
  0
LINE
  8
0
 10
-297.000000
 20
-210.000000
 11
297.000000
 21
-210.000000
  0
TEXT
  8
0
 10
192.693863
 20
-191.899994
 40
6.000000
  1
KOGANEI CORP.
 50
0.000000
 41
1.052631
 51
10.000000
  7
STANDARD
  0
TEXT
  8
0
 10
-271.726990
 20
156.651810
 40
6.000000
  1
MODEL : RAK 50
 50
0.000000
 41
1.052632
 51
0.000000
  7
STANDARD
  0
TEXT
  8
0
 10
-181.089066
 20
-193.500000
 40
5.000000
  1
FOOT MOUNT (-1A)
 50
0.000000
 41
1.052632
 51
0.000000
  7
STANDARD
  0
TEXT
  8
0
 10
60.585987
 20
-193.500000
 40
5.000000
  1
FLANGE (-3A)
 50
0.000000
 41
1.052632
 51
0.000000
  7
STANDARD
  0
TEXT
  8
0
 10
-273.856873
 20
183.600006
 40
6.000000
  1
ROTRY ACTUATER
 50
0.000000
 41
1.052632
 51
0.000000
  7
STANDARD
  0
POINT
  8
0
 10
5.000000
 20
55.000000
  0
POINT
  8
0
 10
91.000000
 20
55.000000
  0
POINT
  8
0
 10
5.000000
 20
55.000000
  0
POINT
  8
0
 10
91.000000
 20
55.000000
  0
LINE
  8
0
 10
47.199982
 20
91.000000
 11
47.199982
 21
15.500000
  0
LINE
  8
0
 10
-34.000000
 20
61.000000
 11
2.500000
 21
61.000000
  0
LINE
  8
0
 10
-34.000000
 20
49.000000
 11
2.500000
 21
49.000000
  0
LINE
  8
0
 10
2.800003
 20
67.500000
 11
4.600006
 21
67.500000
  0
LINE
  8
0
 10
2.800003
 20
42.500000
 11
4.600006
 21
42.500000
  0
LINE
  8
0
 10
19.000000
 20
84.000000
 11
20.000000
 21
84.000000
  0
LINE
  8
0
 10
19.000000
 20
26.000000
 11
20.000000
 21
26.000000
  0
LINE
  8
0
 10
6.500000
 20
83.250000
 11
18.437500
 21
83.250000
  0
LINE
  8
0
 10
6.500000
 20
26.750000
 11
18.437500
 21
26.750000
  0
LINE
  8
0
 10
5.000000
 20
72.000000
 11
16.000015
 21
72.000000
  0
LINE
  8
0
 10
5.000000
 20
38.000000
 11
16.000015
 21
38.000000
  0
LINE
  8
0
 10
26.500000
 20
20.555023
 11
41.081482
 21
20.555023
  0
LINE
  8
0
 10
44.000000
 20
15.500000
 11
52.000000
 21
15.500000
  0
LINE
  8
0
 10
25.000000
 20
91.000000
 11
71.000000
 21
91.000000
  0
LINE
  8
0
 10
26.500000
 20
90.500000
 11
69.500000
 21
90.500000
  0
LINE
  8
0
 10
25.000000
 20
91.000000
 11
25.000000
 21
21.305145
  0
LINE
  8
0
 10
5.000000
 20
81.750000
 11
5.000000
 21
28.250000
  0
LINE
  8
0
 10
2.500000
 20
67.199997
 11
2.500000
 21
42.800003
  0
LINE
  8
0
 10
-34.500000
 20
60.500000
 11
-34.500000
 21
49.500000
  0
LINE
  8
0
 10
71.000000
 20
91.000000
 11
71.000000
 21
22.055023
  0
LINE
  8
0
 10
91.000000
 20
81.750000
 11
91.000000
 21
28.250000
  0
LINE
  8
0
 10
93.500000
 20
67.199997
 11
93.500000
 21
42.800003
  0
LINE
  8
0
 10
44.000000
 20
88.866226
 11
44.000000
 21
15.500000
  0
LINE
  8
0
 10
19.000000
 20
84.000000
 11
19.000000
 21
26.000000
  0
LINE
  8
0
 10
52.000000
 20
88.866226
 11
52.000000
 21
15.500000
  0
LINE
  8
0
 10
77.000000
 20
84.000000
 11
77.000000
 21
26.000000
  0
LINE
  8
0
 10
41.081497
 20
20.554989
 11
44.000000
 21
15.499992
  0
LINE
  8
0
 10
52.000019
 20
15.499996
 11
54.918526
 21
20.555000
  0
LINE
  8
0
 10
54.918488
 20
20.555023
 11
69.500000
 21
20.555023
  0
LINE
  8
0
 10
71.399994
 20
26.000000
 11
77.000000
 21
26.000000
  0
LINE
  8
0
 10
77.562500
 20
26.750000
 11
89.500000
 21
26.750000
  0
LINE
  8
0
 10
80.000000
 20
38.000000
 11
91.000000
 21
38.000000
  0
LINE
  8
0
 10
91.399994
 20
42.500000
 11
93.199982
 21
42.500000
  0
LINE
  8
0
 10
91.399994
 20
67.500000
 11
93.199982
 21
67.500000
  0
LINE
  8
0
 10
80.000000
 20
72.000000
 11
91.000000
 21
72.000000
  0
LINE
  8
0
 10
77.562500
 20
83.250000
 11
89.500000
 21
83.250000
  0
LINE
  8
0
 10
71.399994
 20
84.000000
 11
77.000000
 21
84.000000
  0
LINE
  8
0
 10
2.800001
 20
67.499985
 11
2.500000
 21
67.199982
  0
LINE
  8
0
 10
2.800015
 20
42.500015
 11
2.500011
 21
42.800018
  0
LINE
  8
0
 10
93.200027
 20
42.499985
 11
93.500023
 21
42.799980
  0
LINE
  8
0
 10
93.200005
 20
67.500015
 11
93.500000
 21
67.200020
  0
LINE
  8
0
 10
-34.499977
 20
60.499985
 11
-33.999977
 21
60.999985
  0
LINE
  8
0
 10
-33.999981
 20
49.000015
 11
-34.499981
 21
49.500015
  0
LINE
  8
0
 10
-33.999985
 20
61.000000
 11
-33.999985
 21
49.000000
  0
LINE
  8
0
 10
18.999998
 20
84.000008
 11
15.999998
 21
80.000008
  0
LINE
  8
0
 10
18.999973
 20
26.000010
 11
15.999974
 21
30.000010
  0
LINE
  8
0
 10
76.999947
 20
26.000032
 11
79.999939
 21
30.000032
  0
LINE
  8
0
 10
76.999969
 20
83.999985
 11
79.999969
 21
79.999985
  0
LINE
  8
0
 10
-39.500000
 20
55.000000
 11
115.500000
 21
55.000000
  0
LINE
  8
0
 10
-27.566650
 20
60.414215
 11
-11.433334
 21
60.414215
  0
LINE
  8
0
 10
-27.566650
 20
58.889084
 11
-11.433350
 21
58.889084
  0
LINE
  8
0
 10
-27.566650
 20
57.585785
 11
-11.433350
 21
57.585785
  0
LINE
  8
0
  6
DASHED
 10
-27.566650
 20
56.060661
 11
-11.433350
 21
56.060661
  0
LINE
  8
0
  6
DASHED
 10
-29.500000
 20
57.474182
 11
-29.500000
 21
59.000694
  0
LINE
  8
0
  6
DASHED
 10
-9.500000
 20
57.474182
 11
-9.500000
 21
59.000687
  0
LINE
  8
0
 10
16.000015
 20
30.000000
 11
16.000015
 21
38.000000
  0
LINE
  8
0
 10
80.000000
 20
30.000031
 11
80.000000
 21
38.000000
  0
LINE
  8
0
 10
16.000015
 20
72.000000
 11
16.000015
 21
80.000000
  0
LINE
  8
0
 10
16.000015
 20
47.496582
 11
16.000015
 21
62.503410
  0
LINE
  8
0
 10
80.000000
 20
72.000015
 11
80.000000
 21
80.000015
  0
LINE
  8
0
 10
80.000000
 20
47.496582
 11
80.000000
 21
62.503418
  0
LINE
  8
0
 10
25.000000
 20
47.644592
 11
38.000000
 21
47.644592
  0
LINE
  8
0
 10
25.000000
 20
62.355408
 11
38.000000
 21
62.355408
  0
LINE
  8
0
 10
57.799988
 20
62.355408
 11
71.000000
 21
62.355408
  0
LINE
  8
0
 10
57.799988
 20
47.644592
 11
71.000000
 21
47.644592
  0
LINE
  8
0
 10
44.000000
 20
88.866226
 11
52.000000
 21
88.866226
  0
LINE
  8
0
 10
38.000000
 20
77.966675
 11
38.000000
 21
62.355408
  0
LINE
  8
0
 10
57.799988
 20
77.966675
 11
57.799988
 21
62.355408
  0
LINE
  8
0
 10
38.000000
 20
47.644592
 11
38.000000
 21
32.355408
  0
LINE
  8
0
 10
57.799988
 20
47.644592
 11
57.799988
 21
32.355408
  0
LINE
  8
0
 10
43.999981
 20
88.866226
 11
37.999985
 21
77.966682
  0
LINE
  8
0
 10
51.999996
 20
88.866234
 11
57.799995
 21
77.966682
  0
LINE
  8
0
 10
25.000000
 20
77.966675
 11
38.000000
 21
77.966675
  0
LINE
  8
0
 10
57.799988
 20
77.966675
 11
71.000000
 21
77.966675
  0
LINE
  8
0
 10
20.000000
 20
59.110107
 11
20.000000
 21
50.889893
  0
LINE
  8
0
 10
20.299988
 20
59.250000
 11
20.299988
 21
50.750000
  0
LINE
  8
0
 10
20.299988
 20
59.250000
 11
25.000000
 21
59.250000
  0
LINE
  8
0
 10
20.299988
 20
50.750000
 11
25.000000
 21
50.750000
  0
LINE
  8
0
 10
19.999996
 20
59.110115
 11
20.299994
 21
59.250004
  0
LINE
  8
0
 10
19.999994
 20
50.889885
 11
20.299976
 21
50.750004
  0
LINE
  8
0
 10
20.299988
 20
57.250000
 11
22.670288
 21
57.250000
  0
LINE
  8
0
 10
20.299988
 20
55.250000
 11
21.515594
 21
55.250000
  0
LINE
  8
0
 10
20.000000
 20
88.554977
 11
20.000000
 21
80.334763
  0
LINE
  8
0
 10
20.299988
 20
88.694870
 11
20.299988
 21
80.194870
  0
LINE
  8
0
 10
20.299988
 20
88.694870
 11
25.000000
 21
88.694870
  0
LINE
  8
0
 10
20.299988
 20
80.194870
 11
25.000000
 21
80.194870
  0
LINE
  8
0
 10
19.999968
 20
88.554962
 11
20.299976
 21
88.694862
  0
LINE
  8
0
 10
20.000000
 20
80.334763
 11
20.300011
 21
80.194870
  0
LINE
  8
0
 10
20.299988
 20
86.694855
 11
22.670288
 21
86.694855
  0
LINE
  8
0
 10
20.299988
 20
84.694855
 11
21.515594
 21
84.694855
  0
LINE
  8
0
 10
20.000000
 20
29.665253
 11
20.000000
 21
21.445038
  0
LINE
  8
0
 10
20.299988
 20
29.805145
 11
20.299988
 21
21.305145
  0
LINE
  8
0
 10
20.299988
 20
29.805145
 11
25.000000
 21
29.805145
  0
LINE
  8
0
 10
20.299988
 20
21.305145
 11
25.000000
 21
21.305145
  0
LINE
  8
0
 10
19.999994
 20
29.665249
 11
20.299992
 21
29.805140
  0
LINE
  8
0
 10
19.999996
 20
21.445019
 11
20.299976
 21
21.305138
  0
LINE
  8
0
 10
20.299988
 20
27.805145
 11
22.670288
 21
27.805145
  0
LINE
  8
0
 10
20.299988
 20
25.805145
 11
21.515594
 21
25.805145
  0
LINE
  8
0
 10
110.500000
 20
60.450001
 11
110.500000
 21
49.550003
  0
LINE
  8
0
 10
93.500000
 20
49.000000
 11
96.949982
 21
49.000000
  0
LINE
  8
0
 10
93.500000
 20
61.000000
 11
96.949982
 21
61.000000
  0
LINE
  8
0
 10
97.000000
 20
60.950001
 11
97.000000
 21
49.049995
  0
LINE
  8
0
 10
97.000000
 20
49.050003
 11
110.000000
 21
49.050003
  0
LINE
  8
0
 10
97.000000
 20
60.950001
 11
110.000000
 21
60.950001
  0
LINE
  8
0
 10
109.999969
 20
49.050014
 11
110.499977
 21
49.550026
  0
LINE
  8
0
 10
109.999931
 20
60.949970
 11
110.499947
 21
60.449959
  0
LINE
  8
0
 10
110.000000
 20
60.950001
 11
110.000000
 21
49.050003
  0
LINE
  8
0
 10
96.950005
 20
61.000023
 11
97.000000
 21
60.950024
  0
LINE
  8
0
 10
96.949944
 20
48.999989
 11
96.999939
 21
49.049988
  0
LINE
  8
0
 10
97.500000
 20
53.745094
 11
97.500000
 21
49.183838
  0
LINE
  8
0
 10
97.500000
 20
53.745094
 11
109.999969
 21
53.745094
  0
LINE
  8
0
 10
97.500000
 20
49.183838
 11
110.000000
 21
49.183838
  0
LINE
  8
0
 10
97.499939
 20
49.183891
 11
109.999947
 21
53.745148
  0
LINE
  8
0
 10
110.000000
 20
53.745083
 11
110.500000
 21
53.992001
  0
LINE
  8
0
 10
109.999916
 20
49.183891
 11
110.499931
 21
49.644096
  0
LINE
  8
0
 10
109.999992
 20
49.183800
 11
97.499977
 21
53.745056
  0
LINE
  8
0
 10
97.500000
 20
56.254906
 11
109.999969
 21
56.254906
  0
LINE
  8
0
 10
109.999954
 20
60.816154
 11
97.499977
 21
56.254906
  0
LINE
  8
0
 10
97.500000
 20
56.254906
 11
97.500000
 21
60.816162
  0
LINE
  8
0
 10
97.499992
 20
60.816124
 11
109.999977
 21
56.254875
  0
LINE
  8
0
 10
110.000008
 20
56.254940
 11
110.500015
 21
56.008018
  0
LINE
  8
0
 10
97.500000
 20
60.816162
 11
110.000000
 21
60.816162
  0
LINE
  8
0
 10
109.999992
 20
60.816151
 11
110.499992
 21
60.355968
  0
ARC
  8
0
 10
26.500000
 20
89.000000
 40
1.500000
 50
90.000000
 51
180.000000
  0
ARC
  8
0
 10
26.500000
 20
22.055023
 40
1.500000
 50
180.000000
 51
270.000000
  0
ARC
  8
0
 10
69.500000
 20
22.055023
 40
1.500000
 50
270.000000
 51
0.000000
  0
ARC
  8
0
 10
69.500000
 20
89.000000
 40
1.500000
 50
0.000000
 51
90.000000
  0
ARC
  8
0
 10
71.399994
 20
25.600006
 40
0.400000
 50
90.000000
 51
180.000000
  0
ARC
  8
0
 10
71.399994
 20
84.399994
 40
0.400002
 50
180.000000
 51
270.000000
  0
ARC
  8
0
 10
6.500000
 20
81.750000
 40
1.500000
 50
89.999985
 51
180.000000
  0
ARC
  8
0
 10
6.500000
 20
28.250000
 40
1.500000
 50
180.000000
 51
270.000000
  0
ARC
  8
0
 10
89.500000
 20
28.250000
 40
1.500000
 50
270.000000
 51
0.000000
  0
ARC
  8
0
 10
89.500000
 20
81.750000
 40
1.500000
 50
0.000000
 51
90.000000
  0
ARC
  8
0
 10
4.600006
 20
42.099991
 40
0.400000
 50
0.000000
 51
90.000000
  0
ARC
  8
0
 10
91.399994
 20
42.099991
 40
0.400002
 50
90.000000
 51
180.000000
  0
ARC
  8
0
 10
91.399994
 20
67.900002
 40
0.400002
 50
180.000000
 51
270.000000
  0
ARC
  8
0
 10
4.600006
 20
67.900002
 40
0.400002
 50
270.000000
 51
0.000000
  0
ARC
  8
0
 10
-27.500000
 20
57.840309
 40
2.574689
 50
88.496376
 51
126.516716
  0
ARC
  8
0
 10
-28.228186
 20
58.903595
 40
1.287710
 50
128.630020
 51
164.592682
  0
ARC
  8
0
 10
-28.491301
 20
59.000000
 40
1.008700
 50
165.901291
 51
194.098709
  0
ARC
  8
0
 10
-28.228186
 20
59.096405
 40
1.287709
 50
195.407318
 51
217.369888
  0
ARC
  8
0
 10
-10.508698
 20
59.000000
 40
1.008698
 50
0.000000
 51
14.098716
  0
ARC
  8
0
 10
-10.771814
 20
58.903595
 40
1.287709
 50
15.407311
 51
51.369865
  0
ARC
  8
0
 10
-11.500000
 20
57.840309
 40
2.574689
 50
53.483231
 51
91.488548
  0
ARC
  8
0
 10
-11.500000
 20
60.159691
 40
2.574689
 50
268.496368
 51
306.516724
  0
ARC
  8
0
 10
-10.771814
 20
59.096405
 40
1.287710
 50
308.630035
 51
315.243805
  0
ARC
  8
0
 10
-27.500000
 20
56.315186
 40
2.574687
 50
91.488510
 51
126.516716
  0
ARC
  8
0
 10
-28.228186
 20
57.378471
 40
1.287710
 50
128.630020
 51
136.849213
  0
ARC
  8
0
  6
DASHED
 10
-10.508698
 20
57.474876
 40
1.008698
 50
0.000000
 51
14.098716
  0
ARC
  8
0
  6
DASHED
 10
-10.771814
 20
57.378471
 40
1.287709
 50
15.407311
 51
37.796101
  0
ARC
  8
0
  6
DASHED
 10
-11.500000
 20
58.634567
 40
2.574689
 50
268.496368
 51
306.516724
  0
ARC
  8
0
  6
DASHED
 10
-10.771814
 20
57.571281
 40
1.287710
 50
308.630035
 51
344.592682
  0
ARC
  8
0
  6
DASHED
 10
-10.508698
 20
57.474876
 40
1.008699
 50
345.901276
 51
0.000000
  0
ARC
  8
0
 10
-28.228186
 20
59.096405
 40
1.287708
 50
220.859467
 51
231.369873
  0
ARC
  8
0
 10
-27.500000
 20
60.159691
 40
2.574689
 50
233.483231
 51
271.488495
  0
ARC
  8
0
  6
DASHED
 10
-28.228186
 20
57.378471
 40
1.287710
 50
140.299545
 51
164.592682
  0
ARC
  8
0
  6
DASHED
 10
-28.491301
 20
57.474876
 40
1.008700
 50
165.901291
 51
194.098709
  0
ARC
  8
0
  6
DASHED
 10
-28.228186
 20
57.571281
 40
1.287709
 50
195.407318
 51
231.369873
  0
ARC
  8
0
  6
DASHED
 10
-27.500000
 20
58.634567
 40
2.574689
 50
233.483231
 51
268.496460
  0
ARC
  8
0
 10
-10.771814
 20
59.096405
 40
1.287711
 50
318.699982
 51
344.592682
  0
ARC
  8
0
 10
-10.508698
 20
59.000000
 40
1.008699
 50
345.901276
 51
0.000000
  0
ARC
  8
0
 10
-10.771814
 20
57.378471
 40
1.287708
 50
41.283192
 51
51.369865
  0
ARC
  8
0
 10
-11.500000
 20
56.315186
 40
2.574689
 50
53.483231
 51
91.488548
  0
POLYLINE
  8
0
 66
     1
  0
VERTEX
  8
0
 10
16.000031
 20
38.000000
  0
VERTEX
  8
0
 10
16.884153
 20
38.156757
  0
VERTEX
  8
0
 10
17.679993
 20
38.645706
  0
VERTEX
  8
0
 10
18.071947
 20
39.328770
  0
VERTEX
  8
0
 10
18.196800
 20
40.183487
  0
VERTEX
  8
0
 10
18.166656
 20
41.146530
  0
VERTEX
  8
0
 10
18.099958
 20
41.915245
  0
VERTEX
  8
0
 10
18.003071
 20
42.634521
  0
VERTEX
  8
0
 10
17.859644
 20
43.350334
  0
VERTEX
  8
0
 10
17.653320
 20
44.108658
  0
VERTEX
  8
0
 10
17.343206
 20
44.990147
  0
VERTEX
  8
0
 10
16.959204
 20
45.857151
  0
VERTEX
  8
0
 10
16.508936
 20
46.696888
  0
VERTEX
  8
0
 10
16.000031
 20
47.496582
  0
SEQEND
  0
POLYLINE
  8
0
 66
     1
  0
VERTEX
  8
0
 10
16.000015
 20
62.503410
  0
VERTEX
  8
0
 10
16.514063
 20
63.319897
  0
VERTEX
  8
0
 10
16.972898
 20
64.187622
  0
VERTEX
  8
0
 10
17.358620
 20
65.060219
  0
VERTEX
  8
0
 10
17.653320
 20
65.891327
  0
VERTEX
  8
0
 10
17.845043
 20
66.610832
  0
VERTEX
  8
0
 10
17.991545
 20
67.351524
  0
VERTEX
  8
0
 10
18.097267
 20
68.102646
  0
VERTEX
  8
0
 10
18.166656
 20
68.853462
  0
VERTEX
  8
0
 10
18.175861
 20
69.798744
  0
VERTEX
  8
0
 10
18.033937
 20
70.690521
  0
VERTEX
  8
0
 10
17.679993
 20
71.354279
  0
VERTEX
  8
0
 10
16.915127
 20
71.811523
  0
VERTEX
  8
0
 10
16.000015
 20
72.000000
  0
SEQEND
  0
POLYLINE
  8
0
 66
     1
  0
VERTEX
  8
0
 10
80.000000
 20
38.000000
  0
VERTEX
  8
0
 10
79.115395
 20
38.156658
  0
VERTEX
  8
0
 10
78.320007
 20
38.645721
  0
VERTEX
  8
0
 10
77.930344
 20
39.328777
  0
VERTEX
  8
0
 10
77.808220
 20
40.183479
  0
VERTEX
  8
0
 10
77.839996
 20
41.146530
  0
VERTEX
  8
0
 10
77.906281
 20
41.915260
  0
VERTEX
  8
0
 10
78.001442
 20
42.634495
  0
VERTEX
  8
0
 10
78.142555
 20
43.350285
  0
VERTEX
  8
0
 10
78.346680
 20
44.108673
  0
VERTEX
  8
0
 10
78.655479
 20
44.990437
  0
VERTEX
  8
0
 10
79.039352
 20
45.857597
  0
VERTEX
  8
0
 10
79.490227
 20
46.697277
  0
VERTEX
  8
0
 10
80.000000
 20
47.496582
  0
SEQEND
  0
POLYLINE
  8
0
 66
     1
  0
VERTEX
  8
0
 10
80.000000
 20
62.503418
  0
VERTEX
  8
0
 10
79.485115
 20
63.319550
  0
VERTEX
  8
0
 10
79.025719
 20
64.187271
  0
VERTEX
  8
0
 10
78.640129
 20
65.060043
  0
VERTEX
  8
0
 10
78.346649
 20
65.891335
  0
VERTEX
  8
0
 10
78.157021
 20
66.610817
  0
VERTEX
  8
0
 10
78.012848
 20
67.351509
  0
VERTEX
  8
0
 10
77.908913
 20
68.102638
  0
VERTEX
  8
0
 10
77.839996
 20
68.853470
  0
VERTEX
  8
0
 10
77.829102
 20
69.798714
  0
VERTEX
  8
0
 10
77.968216
 20
70.690483
  0
VERTEX
  8
0
 10
78.320007
 20
71.354294
  0
VERTEX
  8
0
 10
79.084534
 20
71.811684
  0
VERTEX
  8
0
 10
80.000000
 20
72.000015
  0
SEQEND
  0
POLYLINE
  8
0
 66
     1
  0
VERTEX
  8
0
 10
38.000000
 20
32.355408
  0
VERTEX
  8
0
 10
38.705425
 20
31.604376
  0
VERTEX
  8
0
 10
39.388893
 20
30.776581
  0
VERTEX
  8
0
 10
39.979992
 20
29.979380
  0
VERTEX
  8
0
 10
40.408295
 20
29.320129
  0
VERTEX
  8
0
 10
40.705601
 20
28.786480
  0
VERTEX
  8
0
 10
41.011627
 20
28.214874
  0
VERTEX
  8
0
 10
41.364105
 20
27.575134
  0
VERTEX
  8
0
 10
41.761597
 20
26.849243
  0
VERTEX
  8
0
 10
42.130077
 20
26.134123
  0
VERTEX
  8
0
 10
42.477650
 20
25.407631
  0
VERTEX
  8
0
 10
42.773132
 20
24.737244
  0
VERTEX
  8
0
 10
43.086590
 20
23.930054
  0
VERTEX
  8
0
 10
43.335449
 20
23.175873
  0
VERTEX
  8
0
 10
43.485802
 20
22.608887
  0
VERTEX
  8
0
 10
43.621826
 20
22.040344
  0
VERTEX
  8
0
 10
43.751320
 20
21.623905
  0
VERTEX
  8
0
 10
43.706696
 20
21.082214
  0
VERTEX
  8
0
 10
43.119480
 20
20.575790
  0
VERTEX
  8
0
 10
42.099270
 20
20.442524
  0
VERTEX
  8
0
 10
41.081482
 20
20.555023
  0
SEQEND
  0
POLYLINE
  8
0
 66
     1
  0
VERTEX
  8
0
 10
57.799988
 20
32.355408
  0
VERTEX
  8
0
 10
57.163548
 20
31.587830
  0
VERTEX
  8
0
 10
56.540825
 20
30.758207
  0
VERTEX
  8
0
 10
55.995602
 20
29.968365
  0
VERTEX
  8
0
 10
55.591675
 20
29.320129
  0
VERTEX
  8
0
 10
55.295639
 20
28.785786
  0
VERTEX
  8
0
 10
54.988342
 20
28.214874
  0
VERTEX
  8
0
 10
54.635376
 20
27.575401
  0
VERTEX
  8
0
 10
54.238373
 20
26.849243
  0
VERTEX
  8
0
 10
53.870117
 20
26.134005
  0
VERTEX
  8
0
 10
53.522476
 20
25.407555
  0
VERTEX
  8
0
 10
53.226868
 20
24.737244
  0
VERTEX
  8
0
 10
52.913364
 20
23.930071
  0
VERTEX
  8
0
 10
52.664520
 20
23.175873
  0
VERTEX
  8
0
 10
52.514175
 20
22.608883
  0
VERTEX
  8
0
 10
52.378143
 20
22.040344
  0
VERTEX
  8
0
 10
52.248646
 20
21.623905
  0
VERTEX
  8
0
 10
52.293274
 20
21.082214
  0
VERTEX
  8
0
 10
52.880489
 20
20.575790
  0
VERTEX
  8
0
 10
53.900700
 20
20.442524
  0
VERTEX
  8
0
 10
54.918488
 20
20.555023
  0
SEQEND
  0
POLYLINE
  8
0
 66
     1
  0
VERTEX
  8
0
 10
38.000000
 20
62.355408
  0
VERTEX
  8
0
 10
38.598236
 20
61.908806
  0
VERTEX
  8
0
 10
39.203331
 20
61.471336
  0
VERTEX
  8
0
 10
39.765137
 20
61.062157
  0
VERTEX
  8
0
 10
40.515759
 20
60.524483
  0
VERTEX
  8
0
 10
41.184265
 20
60.111042
  0
VERTEX
  8
0
 10
41.454361
 20
59.984615
  0
VERTEX
  8
0
 10
41.761597
 20
59.829628
  0
VERTEX
  8
0
 10
42.175255
 20
59.548584
  0
VERTEX
  8
0
 10
42.537567
 20
59.189941
  0
VERTEX
  8
0
 10
42.847416
 20
58.748718
  0
VERTEX
  8
0
 10
43.093536
 20
58.261887
  0
VERTEX
  8
0
 10
43.298717
 20
57.726456
  0
VERTEX
  8
0
 10
43.452667
 20
57.201256
  0
VERTEX
  8
0
 10
43.547855
 20
56.776787
  0
VERTEX
  8
0
 10
43.624695
 20
56.299717
  0
VERTEX
  8
0
 10
43.689960
 20
55.651375
  0
VERTEX
  8
0
 10
43.711304
 20
55.000000
  0
VERTEX
  8
0
 10
43.686714
 20
54.324780
  0
VERTEX
  8
0
 10
43.624695
 20
53.700283
  0
VERTEX
  8
0
 10
43.554169
 20
53.259304
  0
VERTEX
  8
0
 10
43.452667
 20
52.798744
  0
VERTEX
  8
0
 10
43.294693
 20
52.259121
  0
VERTEX
  8
0
 10
43.093536
 20
51.738113
  0
VERTEX
  8
0
 10
42.845291
 20
51.249805
  0
VERTEX
  8
0
 10
42.537567
 20
50.810059
  0
VERTEX
  8
0
 10
42.158451
 20
50.444004
  0
VERTEX
  8
0
 10
41.761597
 20
50.170372
  0
VERTEX
  8
0
 10
41.533688
 20
50.056232
  0
VERTEX
  8
0
 10
41.184265
 20
49.888954
  0
VERTEX
  8
0
 10
40.480492
 20
49.463673
  0
VERTEX
  8
0
 10
39.765137
 20
48.937836
  0
VERTEX
  8
0
 10
39.174683
 20
48.507389
  0
VERTEX
  8
0
 10
38.583912
 20
48.080559
  0
VERTEX
  8
0
 10
38.000000
 20
47.644592
  0
SEQEND
  0
POLYLINE
  8
0
 66
     1
  0
VERTEX
  8
0
 10
57.799988
 20
62.355408
  0
VERTEX
  8
0
 10
57.283028
 20
61.901371
  0
VERTEX
  8
0
 10
56.750027
 20
61.465714
  0
VERTEX
  8
0
 10
56.234863
 20
61.062157
  0
VERTEX
  8
0
 10
55.487000
 20
60.520676
  0
VERTEX
  8
0
 10
54.815735
 20
60.111042
  0
VERTEX
  8
0
 10
54.545418
 20
59.984898
  0
VERTEX
  8
0
 10
54.238373
 20
59.829628
  0
VERTEX
  8
0
 10
53.824825
 20
59.548454
  0
VERTEX
  8
0
 10
53.462433
 20
59.189941
  0
VERTEX
  8
0
 10
53.152538
 20
58.748756
  0
VERTEX
  8
0
 10
52.906433
 20
58.261887
  0
VERTEX
  8
0
 10
52.701275
 20
57.726444
  0
VERTEX
  8
0
 10
52.547333
 20
57.201256
  0
VERTEX
  8
0
 10
52.452126
 20
56.776791
  0
VERTEX
  8
0
 10
52.375275
 20
56.299717
  0
VERTEX
  8
0
 10
52.310009
 20
55.651371
  0
VERTEX
  8
0
 10
52.288666
 20
55.000000
  0
VERTEX
  8
0
 10
52.313255
 20
54.324780
  0
VERTEX
  8
0
 10
52.375275
 20
53.700283
  0
VERTEX
  8
0
 10
52.445816
 20
53.259304
  0
VERTEX
  8
0
 10
52.547333
 20
52.798744
  0
VERTEX
  8
0
 10
52.705299
 20
52.259129
  0
VERTEX
  8
0
 10
52.906433
 20
51.738113
  0
VERTEX
  8
0
 10
53.154663
 20
51.249771
  0
VERTEX
  8
0
 10
53.462433
 20
50.810059
  0
VERTEX
  8
0
 10
53.841618
 20
50.444115
  0
VERTEX
  8
0
 10
54.238373
 20
50.170372
  0
VERTEX
  8
0
 10
54.465984
 20
50.055801
  0
VERTEX
  8
0
 10
54.815735
 20
49.888954
  0
VERTEX
  8
0
 10
55.530579
 20
49.462063
  0
VERTEX
  8
0
 10
56.234863
 20
48.937836
  0
VERTEX
  8
0
 10
56.768970
 20
48.519623
  0
VERTEX
  8
0
 10
57.292500
 20
48.091297
  0
VERTEX
  8
0
 10
57.799988
 20
47.644592
  0
SEQEND
  0
POINT
  8
0
 10
5.000000
 20
145.000000
  0
POINT
  8
0
 10
91.000000
 20
145.000000
  0
LINE
  8
0
 10
47.199982
 20
184.500000
 11
47.199982
 21
105.500000
  0
LINE
  8
0
 10
-34.000000
 20
151.000000
 11
2.500000
 21
151.000000
  0
LINE
  8
0
 10
-34.000000
 20
139.000000
 11
2.500000
 21
139.000000
  0
LINE
  8
0
 10
2.800003
 20
157.500000
 11
4.600006
 21
157.500000
  0
LINE
  8
0
 10
2.800003
 20
132.500000
 11
4.600006
 21
132.500000
  0
LINE
  8
0
 10
6.500000
 20
170.235504
 11
16.176620
 21
170.235504
  0
LINE
  8
0
 10
6.500000
 20
119.764496
 11
16.176620
 21
119.764496
  0
LINE
  8
0
 10
19.000000
 20
174.000000
 11
24.599976
 21
174.000000
  0
LINE
  8
0
 10
19.000000
 20
116.000000
 11
24.599976
 21
116.000000
  0
LINE
  8
0
 10
26.500000
 20
184.500000
 11
69.500000
 21
184.500000
  0
LINE
  8
0
 10
26.500000
 20
105.500000
 11
69.500000
 21
105.500000
  0
LINE
  8
0
 10
26.000000
 20
163.000000
 11
70.000000
 21
163.000000
  0
LINE
  8
0
 10
26.000000
 20
127.000000
 11
70.000000
 21
127.000000
  0
LINE
  8
0
 10
26.000000
 20
167.000000
 11
70.000000
 21
167.000000
  0
LINE
  8
0
 10
26.000000
 20
123.000000
 11
70.000000
 21
123.000000
  0
LINE
  8
0
 10
25.000000
 20
183.000000
 11
25.000000
 21
107.000000
  0
LINE
  8
0
 10
5.000000
 20
168.735504
 11
5.000000
 21
121.264496
  0
LINE
  8
0
 10
2.500000
 20
157.199982
 11
2.500000
 21
132.799988
  0
LINE
  8
0
 10
-34.500000
 20
150.500000
 11
-34.500000
 21
139.500000
  0
LINE
  8
0
 10
71.000000
 20
183.000000
 11
71.000000
 21
107.000000
  0
LINE
  8
0
 10
91.000000
 20
168.735504
 11
91.000000
 21
121.264496
  0
LINE
  8
0
 10
93.500000
 20
157.199982
 11
93.500000
 21
132.799988
  0
LINE
  8
0
 10
110.500000
 20
150.449982
 11
110.500000
 21
139.549988
  0
LINE
  8
0
 10
44.000000
 20
184.500000
 11
44.000000
 21
167.000000
  0
LINE
  8
0
 10
19.000000
 20
174.000000
 11
19.000000
 21
116.000000
  0
LINE
  8
0
 10
52.000000
 20
184.500000
 11
52.000000
 21
167.000000
  0
LINE
  8
0
 10
77.000000
 20
174.000000
 11
77.000000
 21
116.000000
  0
LINE
  8
0
 10
38.515171
 20
174.999969
 11
44.000004
 21
184.499985
  0
LINE
  8
0
 10
52.000004
 20
105.499969
 11
57.484837
 21
114.999985
  0
LINE
  8
0
 10
38.515198
 20
115.000000
 11
44.000015
 21
105.500023
  0
LINE
  8
0
 10
52.000038
 20
184.500031
 11
57.484886
 21
174.999985
  0
LINE
  8
0
 10
71.399902
 20
116.000000
 11
77.000000
 21
116.000000
  0
LINE
  8
0
 10
79.823486
 20
119.764496
 11
89.500000
 21
119.764496
  0
LINE
  8
0
 10
91.399902
 20
132.500000
 11
93.199951
 21
132.500000
  0
LINE
  8
0
 10
93.500000
 20
139.000000
 11
96.949951
 21
139.000000
  0
LINE
  8
0
 10
93.500000
 20
151.000000
 11
96.949951
 21
151.000000
  0
LINE
  8
0
 10
91.399902
 20
157.500000
 11
93.199951
 21
157.500000
  0
LINE
  8
0
 10
79.823486
 20
170.235504
 11
89.500000
 21
170.235504
  0
LINE
  8
0
 10
71.399902
 20
174.000000
 11
77.000000
 21
174.000000
  0
LINE
  8
0
 10
2.800009
 20
157.499939
 11
2.500015
 21
157.199951
  0
LINE
  8
0
 10
2.500017
 20
132.799973
 11
2.800010
 21
132.499985
  0
LINE
  8
0
 10
93.200005
 20
132.500000
 11
93.500000
 21
132.800003
  0
LINE
  8
0
 10
93.500046
 20
157.200027
 11
93.200050
 21
157.500015
  0
LINE
  8
0
 10
18.999992
 20
174.000015
 11
15.999992
 21
170.000015
  0
LINE
  8
0
 10
15.999992
 20
119.999985
 11
18.999992
 21
115.999985
  0
LINE
  8
0
 10
76.999947
 20
116.000046
 11
79.999947
 21
120.000046
  0
LINE
  8
0
 10
76.999992
 20
173.999954
 11
79.999992
 21
169.999954
  0
LINE
  8
0
 10
97.000000
 20
150.949982
 11
97.000000
 21
139.049988
  0
LINE
  8
0
 10
97.000000
 20
139.049988
 11
110.000000
 21
139.049988
  0
LINE
  8
0
 10
97.000000
 20
150.949982
 11
110.000000
 21
150.949982
  0
LINE
  8
0
 10
-33.999992
 20
150.999954
 11
-34.499985
 21
150.499969
  0
LINE
  8
0
 10
-34.499985
 20
139.499985
 11
-33.999996
 21
139.000000
  0
LINE
  8
0
 10
109.999985
 20
139.049988
 11
110.499977
 21
139.549988
  0
LINE
  8
0
 10
109.999931
 20
150.949966
 11
110.499931
 21
150.449966
  0
LINE
  8
0
 10
-34.000000
 20
151.000000
 11
-34.000000
 21
139.000000
  0
LINE
  8
0
 10
110.000000
 20
150.949982
 11
110.000000
 21
139.049988
  0
LINE
  8
0
 10
96.950058
 20
151.000046
 11
97.000061
 21
150.950043
  0
LINE
  8
0
 10
96.949982
 20
138.999969
 11
96.999977
 21
139.049973
  0
LINE
  8
0
 10
27.214996
 20
153.000000
 11
40.784973
 21
153.000000
  0
LINE
  8
0
 10
55.214996
 20
137.000000
 11
68.784912
 21
137.000000
  0
LINE
  8
0
 10
34.000000
 20
159.785004
 11
34.000000
 21
146.214996
  0
LINE
  8
0
 10
62.000000
 20
143.785004
 11
62.000000
 21
130.214996
  0
LINE
  8
0
  6
DASHED
 10
-29.500000
 20
142.525818
 11
-29.500000
 21
140.757355
  0
LINE
  8
0
  6
DASHED
 10
-9.500000
 20
142.525818
 11
-9.500000
 21
140.757355
  0
LINE
  8
0
 10
97.500000
 20
143.745087
 11
97.500000
 21
139.183838
  0
LINE
  8
0
 10
-39.500000
 20
145.000000
 11
115.500000
 21
145.000000
  0
LINE
  8
0
 10
97.500000
 20
143.745087
 11
110.000000
 21
143.745087
  0
LINE
  8
0
 10
97.500000
 20
139.183838
 11
110.000000
 21
139.183838
  0
LINE
  8
0
 10
97.500046
 20
139.183853
 11
110.000000
 21
143.745087
  0
LINE
  8
0
 10
110.000076
 20
143.745071
 11
110.500046
 21
143.991974
  0
LINE
  8
0
 10
109.999954
 20
139.183884
 11
110.499954
 21
139.644073
  0
LINE
  8
0
 10
109.999901
 20
139.183838
 11
97.499954
 21
143.745071
  0
LINE
  8
0
 10
97.500000
 20
146.254883
 11
110.000000
 21
146.254883
  0
LINE
  8
0
 10
109.999908
 20
150.816132
 11
97.499962
 21
146.254898
  0
LINE
  8
0
 10
97.500000
 20
146.254883
 11
97.500000
 21
150.816162
  0
LINE
  8
0
 10
97.500031
 20
150.816086
 11
109.999977
 21
146.254852
  0
LINE
  8
0
 10
110.000031
 20
146.254990
 11
110.500008
 21
146.008072
  0
LINE
  8
0
 10
97.500000
 20
150.816162
 11
110.000000
 21
150.816162
  0
LINE
  8
0
 10
109.999985
 20
150.816162
 11
110.499992
 21
150.355972
  0
LINE
  8
0
 10
-27.500000
 20
142.414215
 11
-11.500000
 21
142.414215
  0
LINE
  8
0
 10
-27.500000
 20
139.585785
 11
-11.500000
 21
139.585785
  0
LINE
  8
0
  6
DASHED
 10
-27.500000
 20
143.939331
 11
-11.500000
 21
143.939331
  0
LINE
  8
0
 10
-27.500000
 20
141.110901
 11
-11.500000
 21
141.110901
  0
LINE
  8
0
 10
16.000000
 20
163.421844
 11
16.000000
 21
151.750000
  0
LINE
  8
0
 10
80.000000
 20
163.421844
 11
80.000000
 21
151.750000
  0
LINE
  8
0
 10
16.000000
 20
138.250000
 11
16.000000
 21
126.578156
  0
LINE
  8
0
 10
80.000000
 20
138.250000
 11
80.000000
 21
126.578156
  0
LINE
  8
0
 10
5.000000
 20
150.750000
 11
15.000000
 21
150.750000
  0
LINE
  8
0
 10
5.000000
 20
139.250000
 11
15.000000
 21
139.250000
  0
LINE
  8
0
 10
81.000000
 20
150.750000
 11
91.000000
 21
150.750000
  0
LINE
  8
0
 10
81.000000
 20
139.250000
 11
91.000000
 21
139.250000
  0
LINE
  8
0
 10
52.000000
 20
123.000000
 11
52.000000
 21
105.500000
  0
LINE
  8
0
 10
44.000000
 20
123.000000
 11
44.000000
 21
105.500000
  0
LINE
  8
0
 10
38.515167
 20
175.000000
 11
38.515167
 21
167.000000
  0
LINE
  8
0
 10
57.484833
 20
174.999969
 11
57.484833
 21
167.000000
  0
LINE
  8
0
 10
38.515167
 20
123.000000
 11
38.515167
 21
115.000000
  0
LINE
  8
0
 10
57.484833
 20
123.000000
 11
57.484833
 21
115.000000
  0
LINE
  8
0
 10
20.000000
 20
183.110107
 11
20.000000
 21
174.889893
  0
LINE
  8
0
 10
20.299988
 20
183.250000
 11
20.299988
 21
174.750000
  0
LINE
  8
0
 10
20.299988
 20
183.250000
 11
25.000000
 21
183.250000
  0
LINE
  8
0
 10
20.299988
 20
174.750000
 11
25.000000
 21
174.750000
  0
LINE
  8
0
 10
19.999950
 20
183.110138
 11
20.299961
 21
183.250031
  0
LINE
  8
0
 10
20.000017
 20
174.889923
 11
20.300026
 21
174.750031
  0
LINE
  8
0
 10
20.299988
 20
181.250000
 11
22.670288
 21
181.250000
  0
LINE
  8
0
 10
20.299988
 20
179.250000
 11
21.515594
 21
179.250000
  0
LINE
  8
0
 10
20.299988
 20
177.250000
 11
20.360901
 21
177.250000
  0
LINE
  8
0
 10
20.000000
 20
166.110107
 11
20.000000
 21
157.889893
  0
LINE
  8
0
 10
20.299988
 20
166.250000
 11
20.299988
 21
157.750000
  0
LINE
  8
0
 10
20.299988
 20
166.250000
 11
25.000000
 21
166.250000
  0
LINE
  8
0
 10
20.299988
 20
157.750000
 11
25.000000
 21
157.750000
  0
LINE
  8
0
 10
19.999992
 20
166.110107
 11
20.299974
 21
166.250000
  0
LINE
  8
0
 10
20.000004
 20
157.889908
 11
20.300014
 21
157.750015
  0
LINE
  8
0
 10
20.299988
 20
164.250000
 11
22.670288
 21
164.250000
  0
LINE
  8
0
 10
20.299988
 20
162.250000
 11
21.515594
 21
162.250000
  0
LINE
  8
0
 10
20.299988
 20
160.250000
 11
20.360901
 21
160.250000
  0
LINE
  8
0
 10
20.000000
 20
132.110107
 11
20.000000
 21
123.889893
  0
LINE
  8
0
 10
20.299988
 20
132.250000
 11
20.299988
 21
123.750000
  0
LINE
  8
0
 10
20.299988
 20
132.250000
 11
25.000000
 21
132.250000
  0
LINE
  8
0
 10
20.299988
 20
123.750000
 11
25.000000
 21
123.750000
  0
LINE
  8
0
 10
20.000004
 20
132.110092
 11
20.299988
 21
132.249969
  0
LINE
  8
0
 10
19.999973
 20
123.889877
 11
20.299969
 21
123.749985
  0
LINE
  8
0
 10
20.299988
 20
130.250000
 11
22.670288
 21
130.250000
  0
LINE
  8
0
 10
20.299988
 20
128.250000
 11
21.515594
 21
128.250000
  0
LINE
  8
0
 10
20.299988
 20
126.250000
 11
20.360901
 21
126.250000
  0
LINE
  8
0
 10
20.000000
 20
115.110107
 11
20.000000
 21
106.889893
  0
LINE
  8
0
 10
20.299988
 20
115.250000
 11
20.299988
 21
106.750000
  0
LINE
  8
0
 10
20.299988
 20
115.250000
 11
25.000000
 21
115.250000
  0
LINE
  8
0
 10
20.299988
 20
106.750000
 11
25.000000
 21
106.750000
  0
LINE
  8
0
 10
19.999975
 20
115.110085
 11
20.299984
 21
115.249985
  0
LINE
  8
0
 10
20.000004
 20
106.889908
 11
20.300014
 21
106.750015
  0
LINE
  8
0
 10
20.299988
 20
113.250000
 11
22.670288
 21
113.250000
  0
LINE
  8
0
 10
20.299988
 20
111.250000
 11
21.515594
 21
111.250000
  0
LINE
  8
0
 10
20.299988
 20
109.250000
 11
20.360901
 21
109.250000
  0
ARC
  8
0
 10
26.000000
 20
162.000000
 40
1.000000
 50
90.000000
 51
180.000000
  0
ARC
  8
0
 10
26.000000
 20
128.000000
 40
1.000000
 50
180.000000
 51
270.000000
  0
ARC
  8
0
 10
70.000000
 20
128.000000
 40
1.000000
 50
270.000000
 51
0.000000
  0
ARC
  8
0
 10
70.000000
 20
162.000000
 40
1.000000
 50
0.000000
 51
90.000000
  0
ARC
  8
0
 10
26.000000
 20
166.000000
 40
1.000000
 50
90.000000
 51
180.000000
  0
ARC
  8
0
 10
26.000000
 20
124.000000
 40
1.000000
 50
180.000000
 51
270.000000
  0
ARC
  8
0
 10
70.000000
 20
124.000000
 40
1.000000
 50
270.000000
 51
0.000000
  0
ARC
  8
0
 10
70.000000
 20
166.000000
 40
1.000000
 50
0.000000
 51
90.000000
  0
ARC
  8
0
 10
26.500000
 20
183.000000
 40
1.500000
 50
90.000000
 51
180.000000
  0
ARC
  8
0
 10
26.500000
 20
107.000000
 40
1.500000
 50
180.000000
 51
270.000000
  0
ARC
  8
0
 10
69.500000
 20
107.000000
 40
1.500000
 50
270.000000
 51
0.000000
  0
ARC
  8
0
 10
69.500000
 20
183.000000
 40
1.500000
 50
0.000000
 51
90.000000
  0
ARC
  8
0
 10
24.599976
 20
174.399994
 40
0.399994
 50
270.000000
 51
0.000000
  0
ARC
  8
0
 10
24.599976
 20
115.600006
 40
0.400000
 50
0.000000
 51
90.000000
  0
ARC
  8
0
 10
71.399902
 20
115.600006
 40
0.400002
 50
90.000000
 51
180.000000
  0
ARC
  8
0
 10
71.399902
 20
174.399994
 40
0.400002
 50
180.000000
 51
270.000000
  0
ARC
  8
0
 10
6.500000
 20
168.735504
 40
1.500000
 50
89.999985
 51
180.000000
  0
ARC
  8
0
 10
6.500000
 20
121.264496
 40
1.500000
 50
180.000000
 51
270.000000
  0
ARC
  8
0
 10
89.500000
 20
121.264496
 40
1.500000
 50
270.000000
 51
0.000000
  0
ARC
  8
0
 10
89.500000
 20
168.735504
 40
1.500000
 50
0.000000
 51
90.000000
  0
ARC
  8
0
 10
4.600006
 20
157.899994
 40
0.399994
 50
270.000000
 51
0.000000
  0
ARC
  8
0
 10
4.600006
 20
132.100006
 40
0.400000
 50
0.000000
 51
90.000000
  0
ARC
  8
0
 10
91.399902
 20
157.899994
 40
0.400002
 50
180.000000
 51
270.000000
  0
ARC
  8
0
 10
91.399902
 20
132.100006
 40
0.399994
 50
90.000000
 51
180.000000
  0
CIRCLE
  8
0
 10
34.000000
 20
153.000000
 40
4.865000
  0
CIRCLE
  8
0
 10
62.000000
 20
137.000000
 40
4.865000
  0
CIRCLE
  8
0
 10
34.000000
 20
153.000000
 40
4.285000
  0
CIRCLE
  8
0
 10
62.000000
 20
137.000000
 40
4.285000
  0
ARC
  8
0
 10
15.000000
 20
151.750000
 40
1.000000
 50
270.000000
 51
0.000000
  0
ARC
  8
0
 10
15.000000
 20
138.250000
 40
1.000000
 50
0.000000
 51
90.000000
  0
ARC
  8
0
 10
81.000000
 20
151.750000
 40
1.000000
 50
180.000000
 51
270.000000
  0
ARC
  8
0
 10
81.000000
 20
138.250000
 40
1.000000
 50
90.000000
 51
180.000000
  0
POLYLINE
  8
0
 66
     1
  0
VERTEX
  8
0
 10
-27.500000
 20
142.414215
  0
VERTEX
  8
0
 10
-27.876919
 20
142.374695
  0
VERTEX
  8
0
 10
-28.195984
 20
142.295654
  0
VERTEX
  8
0
 10
-28.327263
 20
142.245728
  0
VERTEX
  8
0
 10
-28.468246
 20
142.179260
  0
VERTEX
  8
0
 10
-28.642405
 20
142.081238
  0
VERTEX
  8
0
 10
-28.822876
 20
141.952728
  0
VERTEX
  8
0
 10
-29.048586
 20
141.745926
  0
VERTEX
  8
0
 10
-29.232056
 20
141.523804
  0
VERTEX
  8
0
 10
-29.349989
 20
141.327545
  0
VERTEX
  8
0
 10
-29.436493
 20
141.125671
  0
VERTEX
  8
0
 10
-29.483276
 20
140.942200
  0
VERTEX
  8
0
 10
-29.500000
 20
140.757355
  0
VERTEX
  8
0
 10
-29.484827
 20
140.586334
  0
VERTEX
  8
0
 10
-29.436493
 20
140.418549
  0
VERTEX
  8
0
 10
-29.355032
 20
140.259766
  0
VERTEX
  8
0
 10
-29.232056
 20
140.109589
  0
VERTEX
  8
0
 10
-29.033684
 20
139.948990
  0
VERTEX
  8
0
 10
-28.822876
 20
139.831421
  0
VERTEX
  8
0
 10
-28.642160
 20
139.758789
  0
VERTEX
  8
0
 10
-28.468246
 20
139.704376
  0
VERTEX
  8
0
 10
-28.328075
 20
139.670258
  0
VERTEX
  8
0
 10
-28.195984
 20
139.644012
  0
VERTEX
  8
0
 10
-28.114571
 20
139.630157
  0
VERTEX
  8
0
 10
-27.996124
 20
139.614624
  0
VERTEX
  8
0
 10
-27.748484
 20
139.592545
  0
VERTEX
  8
0
 10
-27.500000
 20
139.585785
  0
SEQEND
  0
POLYLINE
  8
0
 66
     1
  0
VERTEX
  8
0
 10
-11.500000
 20
142.414215
  0
VERTEX
  8
0
 10
-11.123073
 20
142.374680
  0
VERTEX
  8
0
 10
-10.804001
 20
142.295654
  0
VERTEX
  8
0
 10
-10.672733
 20
142.245728
  0
VERTEX
  8
0
 10
-10.531754
 20
142.179260
  0
VERTEX
  8
0
 10
-10.357584
 20
142.081238
  0
VERTEX
  8
0
 10
-10.177109
 20
141.952728
  0
VERTEX
  8
0
 10
-9.951401
 20
141.745926
  0
VERTEX
  8
0
 10
-9.767929
 20
141.523804
  0
VERTEX
  8
0
 10
-9.650004
 20
141.327545
  0
VERTEX
  8
0
 10
-9.563507
 20
141.125671
  0
VERTEX
  8
0
 10
-9.516724
 20
140.942200
  0
VERTEX
  8
0
 10
-9.500000
 20
140.757355
  0
VERTEX
  8
0
 10
-9.515172
 20
140.586334
  0
VERTEX
  8
0
 10
-9.563507
 20
140.418549
  0
VERTEX
  8
0
 10
-9.644959
 20
140.259766
  0
VERTEX
  8
0
 10
-9.767929
 20
140.109589
  0
VERTEX
  8
0
 10
-9.966302
 20
139.948990
  0
VERTEX
  8
0
 10
-10.177109
 20
139.831421
  0
VERTEX
  8
0
 10
-10.357836
 20
139.758789
  0
VERTEX
  8
0
 10
-10.531754
 20
139.704376
  0
VERTEX
  8
0
 10
-10.671912
 20
139.670258
  0
VERTEX
  8
0
 10
-10.804001
 20
139.644012
  0
VERTEX
  8
0
 10
-10.885415
 20
139.630157
  0
VERTEX
  8
0
 10
-11.003860
 20
139.614624
  0
VERTEX
  8
0
 10
-11.251511
 20
139.592545
  0
VERTEX
  8
0
 10
-11.500000
 20
139.585785
  0
SEQEND
  0
ARC
  8
0
  6
DASHED
 10
-27.500000
 20
141.362961
 40
2.576157
 50
90.000000
 51
126.492584
  0
ARC
  8
0
  6
DASHED
 10
-28.229214
 20
142.428513
 40
1.286723
 50
128.606567
 51
164.579224
  0
ARC
  8
0
  6
DASHED
 10
-28.492704
 20
142.525116
 40
1.007298
 50
165.891113
 51
194.108887
  0
ARC
  8
0
  6
DASHED
 10
-28.229214
 20
142.621719
 40
1.286726
 50
195.420776
 51
226.935410
  0
ARC
  8
0
  6
DASHED
 10
-10.770785
 20
142.621719
 40
1.286722
 50
313.119019
 51
344.579193
  0
ARC
  8
0
  6
DASHED
 10
-10.507297
 20
142.525116
 40
1.007298
 50
345.891113
 51
14.108880
  0
ARC
  8
0
  6
DASHED
 10
-10.770785
 20
142.428513
 40
1.286725
 50
15.420794
 51
51.393467
  0
ARC
  8
0
  6
DASHED
 10
-11.500000
 20
141.362961
 40
2.576158
 50
53.507416
 51
90.000000
  0
ARC
  8
0
 10
-28.229214
 20
142.621719
 40
1.286728
 50
226.935410
 51
231.393433
  0
ARC
  8
0
 10
-27.500000
 20
143.687271
 40
2.576158
 50
233.507416
 51
270.000000
  0
ARC
  8
0
 10
-11.500000
 20
143.687271
 40
2.576157
 50
269.999969
 51
306.492584
  0
ARC
  8
0
 10
-10.770785
 20
142.621719
 40
1.286723
 50
308.606537
 51
313.119019
  0
POLYLINE
  8
0
 66
     1
  0
VERTEX
  8
0
 10
16.000000
 20
138.250000
  0
VERTEX
  8
0
 10
15.951982
 20
138.750061
  0
VERTEX
  8
0
 10
16.000000
 20
139.250000
  0
VERTEX
  8
0
 10
16.134497
 20
139.706696
  0
VERTEX
  8
0
 10
16.387604
 20
140.151520
  0
VERTEX
  8
0
 10
16.848497
 20
140.667679
  0
VERTEX
  8
0
 10
17.268616
 20
141.112183
  0
VERTEX
  8
0
 10
17.415722
 20
141.309509
  0
VERTEX
  8
0
 10
17.613342
 20
141.666656
  0
VERTEX
  8
0
 10
18.010641
 20
142.579514
  0
VERTEX
  8
0
 10
18.272186
 20
143.484833
  0
VERTEX
  8
0
 10
18.388199
 20
144.238007
  0
VERTEX
  8
0
 10
18.425415
 20
145.000000
  0
VERTEX
  8
0
 10
18.393517
 20
145.736816
  0
VERTEX
  8
0
 10
18.272186
 20
146.515137
  0
VERTEX
  8
0
 10
17.968035
 20
147.516953
  0
VERTEX
  8
0
 10
17.613342
 20
148.333313
  0
VERTEX
  8
0
 10
17.477947
 20
148.587189
  0
VERTEX
  8
0
 10
17.268616
 20
148.887787
  0
VERTEX
  8
0
 10
16.811775
 20
149.380554
  0
VERTEX
  8
0
 10
16.387604
 20
149.848480
  0
VERTEX
  8
0
 10
16.146515
 20
150.275833
  0
VERTEX
  8
0
 10
16.000000
 20
150.750000
  0
VERTEX
  8
0
 10
15.951752
 20
151.251099
  0
VERTEX
  8
0
 10
16.000000
 20
151.750000
  0
SEQEND
  0
POLYLINE
  8
0
 66
     1
  0
VERTEX
  8
0
 10
80.000000
 20
138.250000
  0
VERTEX
  8
0
 10
80.049866
 20
138.749786
  0
VERTEX
  8
0
 10
80.000000
 20
139.250000
  0
VERTEX
  8
0
 10
79.858025
 20
139.708038
  0
VERTEX
  8
0
 10
79.594482
 20
140.151520
  0
VERTEX
  8
0
 10
79.126030
 20
140.665482
  0
VERTEX
  8
0
 10
78.709717
 20
141.112183
  0
VERTEX
  8
0
 10
78.572388
 20
141.307983
  0
VERTEX
  8
0
 10
78.386719
 20
141.666656
  0
VERTEX
  8
0
 10
77.995247
 20
142.583206
  0
VERTEX
  8
0
 10
77.727783
 20
143.484833
  0
VERTEX
  8
0
 10
77.610870
 20
144.237091
  0
VERTEX
  8
0
 10
77.574463
 20
145.000000
  0
VERTEX
  8
0
 10
77.605446
 20
145.737808
  0
VERTEX
  8
0
 10
77.727783
 20
146.515137
  0
VERTEX
  8
0
 10
78.036652
 20
147.514801
  0
VERTEX
  8
0
 10
78.386719
 20
148.333313
  0
VERTEX
  8
0
 10
78.511803
 20
148.585892
  0
VERTEX
  8
0
 10
78.709717
 20
148.887787
  0
VERTEX
  8
0
 10
79.162582
 20
149.383530
  0
VERTEX
  8
0
 10
79.594482
 20
149.848480
  0
VERTEX
  8
0
 10
79.845940
 20
150.275345
  0
VERTEX
  8
0
 10
80.000000
 20
150.750000
  0
VERTEX
  8
0
 10
80.050018
 20
151.250916
  0
VERTEX
  8
0
 10
80.000000
 20
151.750000
  0
SEQEND
  0
POLYLINE
  8
0
 66
     1
  0
VERTEX
  8
0
 10
16.203751
 20
170.491211
  0
VERTEX
  8
0
 10
17.048941
 20
170.257568
  0
VERTEX
  8
0
 10
17.834612
 20
169.871872
  0
VERTEX
  8
0
 10
18.417755
 20
169.230042
  0
VERTEX
  8
0
 10
18.526222
 20
168.389450
  0
VERTEX
  8
0
 10
18.216574
 20
167.410843
  0
VERTEX
  8
0
 10
17.704903
 20
166.443436
  0
VERTEX
  8
0
 10
17.207306
 20
165.636414
  0
VERTEX
  8
0
 10
16.814039
 20
164.972717
  0
VERTEX
  8
0
 10
16.459208
 20
164.333664
  0
VERTEX
  8
0
 10
16.203751
 20
163.843903
  0
VERTEX
  8
0
 10
16.100910
 20
163.633865
  0
VERTEX
  8
0
 10
16.000000
 20
163.421844
  0
SEQEND
  0
POLYLINE
  8
0
 66
     1
  0
VERTEX
  8
0
 10
16.203751
 20
119.508759
  0
VERTEX
  8
0
 10
17.048943
 20
119.742416
  0
VERTEX
  8
0
 10
17.834614
 20
120.128113
  0
VERTEX
  8
0
 10
18.417755
 20
120.769958
  0
VERTEX
  8
0
 10
18.526220
 20
121.610550
  0
VERTEX
  8
0
 10
18.216572
 20
122.589149
  0
VERTEX
  8
0
 10
17.704905
 20
123.556557
  0
VERTEX
  8
0
 10
17.207306
 20
124.363586
  0
VERTEX
  8
0
 10
16.814035
 20
125.027290
  0
VERTEX
  8
0
 10
16.459206
 20
125.666344
  0
VERTEX
  8
0
 10
16.203751
 20
126.156097
  0
VERTEX
  8
0
 10
16.100910
 20
126.366127
  0
VERTEX
  8
0
 10
16.000000
 20
126.578156
  0
SEQEND
  0
POLYLINE
  8
0
 66
     1
  0
VERTEX
  8
0
 10
79.796387
 20
170.491211
  0
VERTEX
  8
0
 10
78.951172
 20
170.257568
  0
VERTEX
  8
0
 10
78.165451
 20
169.871887
  0
VERTEX
  8
0
 10
77.582275
 20
169.230042
  0
VERTEX
  8
0
 10
77.473808
 20
168.389450
  0
VERTEX
  8
0
 10
77.783463
 20
167.410843
  0
VERTEX
  8
0
 10
78.295128
 20
166.443436
  0
VERTEX
  8
0
 10
78.792725
 20
165.636414
  0
VERTEX
  8
0
 10
79.186020
 20
164.972733
  0
VERTEX
  8
0
 10
79.540894
 20
164.333679
  0
VERTEX
  8
0
 10
79.796387
 20
163.843903
  0
VERTEX
  8
0
 10
79.899162
 20
163.633865
  0
VERTEX
  8
0
 10
80.000000
 20
163.421844
  0
SEQEND
  0
POLYLINE
  8
0
 66
     1
  0
VERTEX
  8
0
 10
80.000000
 20
126.578156
  0
VERTEX
  8
0
 10
79.942863
 20
126.454170
  0
VERTEX
  8
0
 10
79.796387
 20
126.156097
  0
VERTEX
  8
0
 10
79.525955
 20
125.621620
  0
VERTEX
  8
0
 10
79.233833
 20
125.094376
  0
VERTEX
  8
0
 10
78.792725
 20
124.363586
  0
VERTEX
  8
0
 10
78.237137
 20
123.421158
  0
VERTEX
  8
0
 10
77.753212
 20
122.429321
  0
VERTEX
  8
0
 10
77.486427
 20
121.506210
  0
VERTEX
  8
0
 10
77.582275
 20
120.769958
  0
VERTEX
  8
0
 10
78.127579
 20
120.198280
  0
VERTEX
  8
0
 10
78.932236
 20
119.777496
  0
VERTEX
  8
0
 10
79.796387
 20
119.508759
  0
SEQEND
  0
POINT
  8
0
 10
-115.000000
 20
145.000000
  0
POINT
  8
0
 10
-79.000000
 20
145.000000
  0
LINE
  8
0
 10
-110.170357
 20
109.705872
 11
-109.508286
 21
112.176788
  0
LINE
  8
0
 10
-119.829643
 20
109.705902
 11
-120.491714
 21
112.176781
  0
LINE
  8
0
 10
-110.170372
 20
180.294113
 11
-109.508293
 21
177.823196
  0
LINE
  8
0
 10
-119.829697
 20
180.294083
 11
-120.491776
 21
177.823166
  0
LINE
  8
0
 10
-140.679871
 20
166.167542
 11
-143.150681
 21
166.829590
  0
LINE
  8
0
 10
-146.171539
 20
156.655640
 11
-147.980392
 21
158.464493
  0
LINE
  8
0
 10
-146.171692
 20
133.344421
 11
-147.980515
 21
131.535583
  0
LINE
  8
0
 10
-140.679840
 20
123.832428
 11
-143.150757
 21
123.170349
  0
LINE
  8
0
 10
-110.576874
 20
128.776428
 11
-109.304054
 21
124.026215
  0
LINE
  8
0
 10
-103.161530
 20
133.057617
 11
-99.684128
 21
129.580231
  0
LINE
  8
0
 10
-98.738441
 20
140.718719
 11
-93.988228
 21
139.445908
  0
LINE
  8
0
 10
-98.738510
 20
149.281311
 11
-93.988266
 21
150.554138
  0
LINE
  8
0
 10
-99.684189
 20
160.419769
 11
-103.161606
 21
156.942352
  0
LINE
  8
0
 10
-109.304131
 20
165.973755
 11
-110.576950
 21
161.223511
  0
LINE
  8
0
 10
-120.695847
 20
165.973816
 11
-119.423019
 21
161.223541
  0
LINE
  8
0
 10
-130.315887
 20
160.419678
 11
-126.838531
 21
156.942322
  0
LINE
  8
0
 10
-136.011810
 20
150.554077
 11
-131.261536
 21
149.281250
  0
LINE
  8
0
 10
-136.011765
 20
139.445999
 11
-131.261551
 21
140.718811
  0
LINE
  8
0
 10
-126.838547
 20
133.057800
 11
-130.315964
 21
129.580383
  0
LINE
  8
0
 10
-119.423164
 20
128.776459
 11
-120.695984
 21
124.026245
  0
LINE
  8
0
 10
-113.474701
 20
131.000000
 11
-116.525330
 21
131.000000
  0
LINE
  8
0
 10
-113.474670
 20
159.000000
 11
-116.525330
 21
159.000000
  0
LINE
  8
0
 10
-126.361572
 20
153.320892
 11
-127.886902
 21
150.678955
  0
LINE
  8
0
 10
-102.112885
 20
139.320923
 11
-103.638229
 21
136.678940
  0
LINE
  8
0
 10
-103.638298
 20
153.320923
 11
-102.112984
 21
150.679001
  0
LINE
  8
0
 10
-127.887039
 20
139.320969
 11
-126.361710
 21
136.679031
  0
LINE
  8
0
 10
-145.000000
 20
153.827209
 11
-145.000000
 21
136.172791
  0
LINE
  8
0
 10
-137.644577
 20
123.432808
 11
-122.355423
 21
114.605621
  0
LINE
  8
0
 10
-107.644569
 20
175.394363
 11
-94.033287
 21
167.535889
  0
LINE
  8
0
 10
-122.355370
 20
175.394257
 11
-137.644516
 21
166.567062
  0
LINE
  8
0
 10
-94.033279
 20
122.464111
 11
-107.644554
 21
114.605637
  0
LINE
  8
0
 10
-79.000000
 20
127.000000
 11
-79.500000
 21
127.000000
  0
LINE
  8
0
 10
-79.000000
 20
163.000000
 11
-79.500000
 21
163.000000
  0
LINE
  8
0
 10
-83.500000
 20
123.000000
 11
-92.033325
 21
123.000000
  0
LINE
  8
0
 10
-83.500000
 20
167.000000
 11
-92.033325
 21
167.000000
  0
LINE
  8
0
 10
-79.000000
 20
163.000000
 11
-79.000000
 21
127.000000
  0
LINE
  8
0
 10
-79.500000
 20
163.000000
 11
-79.500000
 21
127.000000
  0
LINE
  8
0
 10
-115.000000
 20
189.399994
 11
-115.000000
 21
100.600006
  0
LINE
  8
0
 10
-70.599976
 20
145.000000
 11
-159.400024
 21
145.000000
  0
LINE
  8
0
 10
-114.999947
 20
113.309410
 11
-116.999931
 21
112.154724
  0
LINE
  8
0
 10
-117.000000
 20
112.154694
 11
-117.000000
 21
109.845306
  0
LINE
  8
0
 10
-114.999969
 20
108.690598
 11
-116.999969
 21
109.845291
  0
LINE
  8
0
 10
-112.999969
 20
109.845230
 11
-114.999954
 21
108.690536
  0
LINE
  8
0
 10
-113.000000
 20
112.154694
 11
-113.000000
 21
109.845306
  0
LINE
  8
0
 10
-114.999969
 20
113.309395
 11
-112.999969
 21
112.154694
  0
LINE
  8
0
 10
-85.555107
 20
130.309402
 11
-87.555099
 21
129.154709
  0
LINE
  8
0
 10
-87.555115
 20
129.154694
 11
-87.555115
 21
126.845306
  0
LINE
  8
0
 10
-85.555161
 20
125.690575
 11
-87.555145
 21
126.845268
  0
LINE
  8
0
 10
-83.555077
 20
126.845245
 11
-85.555099
 21
125.690536
  0
LINE
  8
0
 10
-83.555115
 20
129.154694
 11
-83.555115
 21
126.845306
  0
LINE
  8
0
 10
-85.555130
 20
130.309387
 11
-83.555145
 21
129.154694
  0
LINE
  8
0
 10
-85.555069
 20
164.309326
 11
-87.555054
 21
163.154633
  0
LINE
  8
0
 10
-87.555145
 20
163.154694
 11
-87.555145
 21
160.845306
  0
LINE
  8
0
 10
-85.555138
 20
159.690552
 11
-87.555130
 21
160.845245
  0
LINE
  8
0
 10
-83.555099
 20
160.845276
 11
-85.555084
 21
159.690582
  0
LINE
  8
0
 10
-83.555145
 20
163.154694
 11
-83.555145
 21
160.845306
  0
LINE
  8
0
 10
-85.555145
 20
164.309387
 11
-83.555145
 21
163.154694
  0
LINE
  8
0
 10
-115.000061
 20
181.309494
 11
-117.000061
 21
180.154785
  0
LINE
  8
0
 10
-117.000000
 20
180.154694
 11
-117.000000
 21
177.845306
  0
LINE
  8
0
 10
-115.000031
 20
176.690567
 11
-116.999962
 21
177.845230
  0
LINE
  8
0
 10
-112.999939
 20
177.845184
 11
-114.999939
 21
176.690475
  0
LINE
  8
0
 10
-113.000000
 20
180.154694
 11
-113.000000
 21
177.845306
  0
LINE
  8
0
 10
-114.999947
 20
181.309357
 11
-113.000015
 21
180.154694
  0
LINE
  8
0
 10
-144.444931
 20
164.309479
 11
-146.444916
 21
163.154800
  0
LINE
  8
0
 10
-146.444885
 20
163.154694
 11
-146.444885
 21
160.845276
  0
LINE
  8
0
 10
-144.444885
 20
159.690567
 11
-146.444824
 21
160.845230
  0
LINE
  8
0
 10
-142.444809
 20
160.845169
 11
-144.444824
 21
159.690460
  0
LINE
  8
0
 10
-142.444885
 20
163.154694
 11
-142.444885
 21
160.845276
  0
LINE
  8
0
 10
-144.444824
 20
164.309326
 11
-142.444885
 21
163.154663
  0
LINE
  8
0
 10
-144.444824
 20
130.309311
 11
-146.444809
 21
129.154617
  0
LINE
  8
0
 10
-146.444885
 20
129.154694
 11
-146.444885
 21
126.845306
  0
LINE
  8
0
 10
-144.444870
 20
125.690613
 11
-146.444794
 21
126.845268
  0
LINE
  8
0
 10
-142.444824
 20
126.845276
 11
-144.444809
 21
125.690582
  0
LINE
  8
0
 10
-142.444885
 20
129.154694
 11
-142.444885
 21
126.845306
  0
LINE
  8
0
 10
-144.444794
 20
130.309372
 11
-142.444870
 21
129.154709
  0
CIRCLE
  8
0
 10
-115.000000
 20
145.000000
 40
6.000000
  0
CIRCLE
  8
0
 10
-115.000000
 20
145.000000
 40
5.500000
  0
CIRCLE
  8
0
 10
-115.000000
 20
145.000000
 40
12.500000
  0
ARC
  8
0
 10
-115.000000
 20
145.000000
 40
25.000000
 50
252.534134
 51
287.465729
  0
CIRCLE
  8
0
 10
-115.000000
 20
145.000000
 40
29.000000
  0
CIRCLE
  8
0
 10
-103.750031
 20
125.514404
 40
3.000000
  0
CIRCLE
  8
0
 10
-92.500000
 20
145.000000
 40
3.000000
  0
CIRCLE
  8
0
 10
-126.250000
 20
164.485565
 40
3.000000
  0
CIRCLE
  8
0
 10
-137.500000
 20
145.000000
 40
3.000000
  0
CIRCLE
  8
0
 10
-126.250000
 20
125.514435
 40
3.000000
  0
CIRCLE
  8
0
 10
-103.750031
 20
125.514404
 40
2.500000
  0
CIRCLE
  8
0
 10
-92.500000
 20
145.000000
 40
2.500000
  0
CIRCLE
  8
0
 10
-103.750000
 20
164.485565
 40
2.500000
  0
CIRCLE
  8
0
 10
-126.250000
 20
164.485565
 40
2.500000
  0
CIRCLE
  8
0
 10
-137.500000
 20
145.000000
 40
2.500000
  0
CIRCLE
  8
0
 10
-126.250000
 20
125.514435
 40
2.500000
  0
ARC
  8
0
 10
-103.750031
 20
125.514404
 40
5.749995
 50
194.999969
 51
44.999947
  0
ARC
  8
0
 10
-92.500000
 20
145.000000
 40
5.750002
 50
255.000046
 51
104.999947
  0
ARC
  8
0
 10
-103.750000
 20
164.485565
 40
5.749995
 50
315.000061
 51
164.999908
  0
ARC
  8
0
 10
-126.250000
 20
164.485565
 40
5.749995
 50
14.999967
 51
224.999893
  0
ARC
  8
0
 10
-137.500000
 20
145.000000
 40
5.750002
 50
75.000053
 51
284.999939
  0
ARC
  8
0
 10
-126.250000
 20
125.514435
 40
5.750001
 50
134.999893
 51
344.999969
  0
ARC
  8
0
 10
-115.000000
 20
111.000000
 40
5.000000
 50
195.000031
 51
345.000000
  0
ARC
  8
0
 10
-115.000000
 20
179.000000
 40
5.000000
 50
15.000033
 51
164.999969
  0
ARC
  8
0
 10
-144.444885
 20
162.000000
 40
4.999992
 50
74.999947
 51
225.000000
  0
ARC
  8
0
 10
-144.444885
 20
128.000000
 40
4.999995
 50
134.999878
 51
285.000000
  0
ARC
  8
0
 10
-101.040253
 20
135.178986
 40
3.000000
 50
150.000000
 51
225.000000
  0
ARC
  8
0
 10
-99.514893
 20
137.820984
 40
3.000004
 50
74.999992
 51
150.000000
  0
ARC
  8
0
 10
-99.514893
 20
152.179016
 40
3.000000
 50
210.000000
 51
285.000000
  0
ARC
  8
0
 10
-101.040222
 20
154.820953
 40
3.000003
 50
135.000000
 51
210.000000
  0
ARC
  8
0
 10
-113.474670
 20
162.000000
 40
3.000000
 50
270.000000
 51
344.999939
  0
ARC
  8
0
 10
-116.525330
 20
162.000000
 40
3.000004
 50
195.000015
 51
270.000000
  0
ARC
  8
0
 10
-128.959778
 20
154.820984
 40
3.000000
 50
330.000000
 51
45.000000
  0
ARC
  8
0
 10
-130.485107
 20
152.179047
 40
3.000004
 50
254.999985
 51
330.000000
  0
ARC
  8
0
 10
-130.485107
 20
137.820984
 40
3.000000
 50
30.000004
 51
105.000008
  0
ARC
  8
0
 10
-128.959778
 20
135.179047
 40
3.000003
 50
315.000000
 51
30.000004
  0
ARC
  8
0
 10
-116.525330
 20
128.000000
 40
3.000000
 50
90.000000
 51
164.999954
  0
ARC
  8
0
 10
-113.474701
 20
128.000000
 40
3.000004
 50
15.000010
 51
89.999855
  0
ARC
  8
0
 10
-115.000000
 20
145.000000
 40
25.000000
 50
312.534119
 51
347.465820
  0
ARC
  8
0
 10
-115.000000
 20
145.000000
 40
25.000000
 50
12.534186
 51
47.465801
  0
ARC
  8
0
 10
-115.000000
 20
145.000000
 40
25.000000
 50
72.534126
 51
107.465691
  0
ARC
  8
0
 10
-115.000000
 20
145.000000
 40
25.000002
 50
132.534058
 51
167.465668
  0
ARC
  8
0
 10
-115.000000
 20
145.000000
 40
25.000000
 50
192.534119
 51
227.465759
  0
ARC
  8
0
 10
-105.644592
 20
111.141510
 40
3.999998
 50
119.999893
 51
164.999954
  0
ARC
  8
0
 10
-105.644592
 20
178.858459
 40
4.000006
 50
195.000015
 51
239.999954
  0
ARC
  8
0
 10
-124.355408
 20
178.858459
 40
3.999995
 50
300.000031
 51
344.999969
  0
ARC
  8
0
 10
-139.644592
 20
170.031250
 40
4.000006
 50
254.999985
 51
299.999939
  0
ARC
  8
0
 10
-149.000000
 20
153.827209
 40
4.000000
 50
0.000000
 51
45.000000
  0
ARC
  8
0
 10
-149.000000
 20
136.172791
 40
4.000004
 50
315.000000
 51
0.000000
  0
ARC
  8
0
 10
-139.644592
 20
119.968750
 40
3.999995
 50
59.999962
 51
105.000038
  0
ARC
  8
0
 10
-124.355408
 20
111.141510
 40
4.000006
 50
15.000010
 51
59.999866
  0
ARC
  8
0
 10
-92.033325
 20
119.000000
 40
4.000000
 50
90.000000
 51
119.999985
  0
ARC
  8
0
 10
-92.033325
 20
171.000000
 40
3.999995
 50
239.999954
 51
270.000000
  0
ARC
  8
0
 10
-83.500000
 20
163.000000
 40
4.000000
 50
0.000000
 51
90.000000
  0
ARC
  8
0
 10
-83.500000
 20
127.000000
 40
4.000000
 50
270.000000
 51
0.000000
  0
ARC
  8
0
 10
-115.000000
 20
145.000000
 40
39.500004
 50
35.978409
 51
324.021545
  0
ARC
  8
0
 10
-74.942688
 20
174.080261
 40
10.000005
 50
215.978378
 51
232.321060
  0
ARC
  8
0
 10
-74.942688
 20
115.919708
 40
10.000002
 50
127.678963
 51
144.021545
  0
CIRCLE
  8
0
 10
-85.555115
 20
128.000000
 40
4.250000
  0
CIRCLE
  8
0
 10
-85.555145
 20
162.000000
 40
4.250000
  0
CIRCLE
  8
0
 10
-115.000000
 20
179.000000
 40
4.250000
  0
CIRCLE
  8
0
 10
-144.444885
 20
162.000000
 40
4.250000
  0
CIRCLE
  8
0
 10
-144.444885
 20
128.000000
 40
4.250000
  0
CIRCLE
  8
0
 10
-115.000000
 20
111.000000
 40
4.250000
  0
CIRCLE
  8
0
 10
-115.000000
 20
111.000000
 40
3.750000
  0
CIRCLE
  8
0
 10
-85.555115
 20
128.000000
 40
3.750000
  0
CIRCLE
  8
0
 10
-85.555145
 20
162.000000
 40
3.750000
  0
CIRCLE
  8
0
 10
-115.000000
 20
179.000000
 40
3.750000
  0
CIRCLE
  8
0
 10
-144.444885
 20
162.000000
 40
3.750000
  0
CIRCLE
  8
0
 10
-144.444885
 20
128.000000
 40
3.750000
  0
CIRCLE
  8
0
 10
-103.750000
 20
164.485565
 40
3.000000
  0
POINT
  8
0
 10
195.000000
 20
145.000000
  0
POINT
  8
0
 10
234.500000
 20
145.000000
  0
LINE
  8
0
 10
190.170395
 20
180.294067
 11
189.508331
 21
177.823212
  0
LINE
  8
0
 10
199.829758
 20
180.294113
 11
200.491837
 21
177.823196
  0
LINE
  8
0
 10
190.170578
 20
109.705948
 11
189.508499
 21
112.176857
  0
LINE
  8
0
 10
199.829605
 20
109.705887
 11
200.491684
 21
112.176788
  0
LINE
  8
0
 10
220.679886
 20
123.832481
 11
223.150757
 21
123.170410
  0
LINE
  8
0
 10
226.171524
 20
133.344330
 11
227.980331
 21
131.535522
  0
LINE
  8
0
 10
226.171585
 20
156.655655
 11
227.980438
 21
158.464508
  0
LINE
  8
0
 10
220.679840
 20
166.167480
 11
223.150787
 21
166.829575
  0
LINE
  8
0
 10
190.577011
 20
161.223572
 11
189.304184
 21
165.973816
  0
LINE
  8
0
 10
183.161575
 20
156.942322
 11
179.684158
 21
160.419739
  0
LINE
  8
0
 10
178.738434
 20
149.281296
 11
173.988190
 21
150.554123
  0
LINE
  8
0
 10
178.738480
 20
140.718735
 11
173.988327
 21
139.445938
  0
LINE
  8
0
 10
179.684082
 20
129.580231
 11
183.161606
 21
133.057770
  0
LINE
  8
0
 10
189.304047
 20
124.026237
 11
190.576874
 21
128.776489
  0
LINE
  8
0
 10
200.695908
 20
124.026176
 11
199.423080
 21
128.776459
  0
LINE
  8
0
 10
210.315964
 20
129.580414
 11
206.838562
 21
133.057816
  0
LINE
  8
0
 10
216.011795
 20
139.445923
 11
211.261551
 21
140.718750
  0
LINE
  8
0
 10
216.011810
 20
150.554047
 11
211.261642
 21
149.281250
  0
LINE
  8
0
 10
206.838394
 20
156.942184
 11
210.315933
 21
160.419724
  0
LINE
  8
0
 10
199.423096
 20
161.223526
 11
200.695908
 21
165.973740
  0
LINE
  8
0
 10
193.474609
 20
159.000000
 11
196.525391
 21
159.000000
  0
LINE
  8
0
 10
193.474609
 20
131.000000
 11
196.525391
 21
131.000000
  0
LINE
  8
0
 10
206.361725
 20
136.679092
 11
207.886993
 21
139.320923
  0
LINE
  8
0
 10
182.113037
 20
150.679077
 11
183.638306
 21
153.320923
  0
LINE
  8
0
 10
183.638336
 20
136.679077
 11
182.113022
 21
139.320999
  0
LINE
  8
0
 10
207.887070
 20
150.679047
 11
206.361740
 21
153.320984
  0
LINE
  8
0
 10
225.000000
 20
136.172791
 11
225.000000
 21
153.827209
  0
LINE
  8
0
 10
217.644547
 20
166.567032
 11
202.355377
 21
175.394241
  0
LINE
  8
0
 10
187.644562
 20
114.605614
 11
174.033310
 21
122.464081
  0
LINE
  8
0
 10
202.355515
 20
114.605652
 11
217.644592
 21
123.432800
  0
LINE
  8
0
 10
174.033447
 20
167.535934
 11
187.644592
 21
175.394333
  0
LINE
  8
0
 10
159.000000
 20
163.000000
 11
159.500000
 21
163.000000
  0
LINE
  8
0
 10
159.000000
 20
127.000000
 11
159.500000
 21
127.000000
  0
LINE
  8
0
 10
163.500000
 20
167.000000
 11
172.033325
 21
167.000000
  0
LINE
  8
0
 10
163.500000
 20
123.000000
 11
172.033325
 21
123.000000
  0
LINE
  8
0
 10
159.000000
 20
127.000000
 11
159.000000
 21
163.000000
  0
LINE
  8
0
 10
159.500000
 20
127.000000
 11
159.500000
 21
163.000000
  0
LINE
  8
0
 10
195.000000
 20
100.599976
 11
195.000000
 21
189.399994
  0
LINE
  8
0
 10
150.599976
 20
145.000000
 11
239.400146
 21
145.000000
  0
LINE
  8
0
 10
193.745239
 20
139.184006
 11
189.183975
 21
143.745270
  0
LINE
  8
0
 10
200.880890
 20
146.190491
 11
196.255066
 21
150.816315
  0
LINE
  8
0
 10
189.183792
 20
146.254852
 11
193.745102
 21
150.816177
  0
LINE
  8
0
 10
196.255020
 20
139.183960
 11
200.816177
 21
143.745102
  0
LINE
  8
0
 10
193.991989
 20
139.644012
 11
189.644012
 21
143.992004
  0
LINE
  8
0
 10
189.644028
 20
146.007996
 11
193.991974
 21
150.355942
  0
LINE
  8
0
 10
196.008011
 20
139.644012
 11
200.355957
 21
143.991959
  0
LINE
  8
0
 10
200.356110
 20
146.008163
 11
196.008118
 21
150.356155
  0
LINE
  8
0
 10
196.008026
 20
150.356033
 11
196.254929
 21
150.816193
  0
LINE
  8
0
 10
193.745193
 20
150.816208
 11
193.992126
 21
150.356018
  0
LINE
  8
0
 10
189.183838
 20
146.254883
 11
189.644028
 21
146.007950
  0
LINE
  8
0
 10
189.644043
 20
143.992035
 11
189.183884
 21
143.745117
  0
LINE
  8
0
 10
193.992004
 20
139.643967
 11
193.745087
 21
139.183807
  0
LINE
  8
0
 10
196.008087
 20
139.644073
 11
196.255005
 21
139.183899
  0
LINE
  8
0
 10
200.355942
 20
143.991989
 11
200.816132
 21
143.745071
  0
LINE
  8
0
 10
200.355957
 20
146.007980
 11
200.880844
 21
146.190353
  0
CIRCLE
  8
0
 10
195.000000
 20
145.000000
 40
6.000000
  0
CIRCLE
  8
0
 10
195.000000
 20
145.000000
 40
12.500000
  0
ARC
  8
0
 10
195.000000
 20
145.000000
 40
25.000002
 50
72.534111
 51
107.465714
  0
CIRCLE
  8
0
 10
195.000000
 20
145.000000
 40
29.000000
  0
CIRCLE
  8
0
 10
183.750000
 20
164.485565
 40
3.000000
  0
CIRCLE
  8
0
 10
172.500000
 20
145.000000
 40
3.000000
  0
CIRCLE
  8
0
 10
183.750000
 20
125.514435
 40
3.000000
  0
CIRCLE
  8
0
 10
206.250000
 20
125.514404
 40
3.000000
  0
CIRCLE
  8
0
 10
217.500000
 20
144.999969
 40
3.000000
  0
CIRCLE
  8
0
 10
206.250000
 20
164.485565
 40
3.000000
  0
CIRCLE
  8
0
 10
183.750000
 20
164.485565
 40
2.500000
  0
CIRCLE
  8
0
 10
172.500000
 20
145.000000
 40
2.500000
  0
CIRCLE
  8
0
 10
183.750000
 20
125.514435
 40
2.500000
  0
CIRCLE
  8
0
 10
206.250000
 20
125.514404
 40
2.500000
  0
CIRCLE
  8
0
 10
217.500000
 20
144.999969
 40
2.500000
  0
CIRCLE
  8
0
 10
206.250000
 20
164.485565
 40
2.500000
  0
ARC
  8
0
 10
183.750000
 20
164.485565
 40
5.750002
 50
14.999947
 51
225.000000
  0
ARC
  8
0
 10
172.500000
 20
145.000000
 40
5.750006
 50
74.999908
 51
284.999939
  0
ARC
  8
0
 10
183.750000
 20
125.514435
 40
5.750001
 50
135.000107
 51
344.999969
  0
ARC
  8
0
 10
206.250000
 20
125.514404
 40
5.750006
 50
195.000092
 51
45.000000
  0
ARC
  8
0
 10
217.500000
 20
144.999969
 40
5.750002
 50
255.000046
 51
104.999947
  0
ARC
  8
0
 10
206.250000
 20
164.485565
 40
5.750001
 50
315.000122
 51
165.000046
  0
ARC
  8
0
 10
195.000000
 20
179.000000
 40
5.000007
 50
15.000010
 51
164.999939
  0
ARC
  8
0
 10
195.000000
 20
111.000000
 40
5.000007
 50
195.000015
 51
344.999939
  0
ARC
  8
0
 10
224.444824
 20
128.000000
 40
5.000007
 50
254.999985
 51
45.000122
  0
ARC
  8
0
 10
224.444824
 20
162.000000
 40
5.000005
 50
315.000000
 51
104.999886
  0
ARC
  8
0
 10
181.040283
 20
154.820984
 40
3.000006
 50
330.000061
 51
45.000000
  0
ARC
  8
0
 10
179.514893
 20
152.179016
 40
3.000004
 50
254.999985
 51
330.000061
  0
ARC
  8
0
 10
179.514893
 20
137.820953
 40
2.999993
 50
30.000076
 51
105.000008
  0
ARC
  8
0
 10
181.040283
 20
135.179047
 40
3.000003
 50
315.000000
 51
30.000076
  0
ARC
  8
0
 10
193.474609
 20
128.000000
 40
3.000000
 50
90.000000
 51
164.999985
  0
ARC
  8
0
 10
196.525391
 20
128.000000
 40
3.000004
 50
15.000010
 51
90.000000
  0
ARC
  8
0
 10
208.959717
 20
135.179016
 40
3.000006
 50
150.000076
 51
225.000000
  0
ARC
  8
0
 10
210.485107
 20
137.820953
 40
3.000004
 50
74.999992
 51
150.000076
  0
ARC
  8
0
 10
210.485107
 20
152.179016
 40
2.999993
 50
210.000076
 51
285.000000
  0
ARC
  8
0
 10
208.959717
 20
154.820953
 40
3.000003
 50
135.000000
 51
210.000076
  0
ARC
  8
0
 10
196.525391
 20
162.000000
 40
3.000000
 50
270.000000
 51
345.000000
  0
ARC
  8
0
 10
193.474609
 20
162.000000
 40
3.000004
 50
195.000015
 51
270.000000
  0
ARC
  8
0
 10
195.000000
 20
145.000000
 40
24.999990
 50
132.534088
 51
167.465820
  0
ARC
  8
0
 10
195.000000
 20
145.000000
 40
25.000000
 50
192.534256
 51
227.465820
  0
ARC
  8
0
 10
195.000000
 20
145.000000
 40
25.000000
 50
252.534180
 51
287.465729
  0
ARC
  8
0
 10
195.000000
 20
145.000000
 40
24.999994
 50
312.534119
 51
347.465729
  0
ARC
  8
0
 10
195.000000
 20
145.000000
 40
25.000000
 50
12.534114
 51
47.465740
  0
ARC
  8
0
 10
185.644531
 20
178.858459
 40
3.999995
 50
300.000031
 51
345.000000
  0
ARC
  8
0
 10
185.644531
 20
111.141510
 40
4.000006
 50
15.000010
 51
60.000015
  0
ARC
  8
0
 10
204.355469
 20
111.141510
 40
4.000002
 50
119.999985
 51
164.999985
  0
ARC
  8
0
 10
219.644531
 20
119.968750
 40
3.999998
 50
74.999962
 51
120.000038
  0
ARC
  8
0
 10
229.000000
 20
136.172791
 40
4.000000
 50
180.000000
 51
225.000000
  0
ARC
  8
0
 10
229.000000
 20
153.827209
 40
4.000004
 50
135.000000
 51
180.000000
  0
ARC
  8
0
 10
219.644531
 20
170.031250
 40
4.000009
 50
240.000076
 51
285.000000
  0
ARC
  8
0
 10
204.355469
 20
178.858459
 40
3.999991
 50
195.000061
 51
239.999954
  0
ARC
  8
0
 10
172.033325
 20
171.000000
 40
4.000000
 50
270.000000
 51
300.000031
  0
ARC
  8
0
 10
172.033325
 20
119.000000
 40
4.000002
 50
60.000015
 51
90.000000
  0
ARC
  8
0
 10
163.500000
 20
127.000000
 40
4.000000
 50
180.000000
 51
270.000000
  0
ARC
  8
0
 10
163.500000
 20
163.000000
 40
4.000000
 50
90.000000
 51
180.000000
  0
ARC
  8
0
 10
195.000000
 20
145.000000
 40
39.499996
 50
215.978424
 51
144.021591
  0
CIRCLE
  8
0
 10
195.000000
 20
145.000000
 40
5.949999
  0
ARC
  8
0
 10
195.000000
 20
145.000000
 40
5.449999
 50
169.341583
 51
190.658249
  0
ARC
  8
0
 10
195.000000
 20
145.000000
 40
5.449996
 50
259.341736
 51
280.658417
  0
ARC
  8
0
 10
195.000000
 20
145.000000
 40
5.449999
 50
349.341583
 51
10.658255
  0
ARC
  8
0
 10
195.000000
 20
145.000000
 40
5.449999
 50
79.341591
 51
100.658257
  0
ARC
  8
0
 10
154.942688
 20
174.080261
 40
10.000009
 50
307.678925
 51
324.021637
  0
ARC
  8
0
 10
154.942688
 20
115.919708
 40
9.999992
 50
35.978428
 51
52.321041
  0
CIRCLE
  8
0
 10
195.000000
 20
179.000000
 40
2.099998
  0
CIRCLE
  8
0
 10
165.555145
 20
162.000000
 40
2.099998
  0
CIRCLE
  8
0
 10
165.555115
 20
128.000000
 40
2.099998
  0
CIRCLE
  8
0
 10
195.000000
 20
111.000000
 40
2.099998
  0
CIRCLE
  8
0
 10
224.444824
 20
128.000000
 40
2.099998
  0
CIRCLE
  8
0
 10
224.444824
 20
162.000000
 40
2.099998
  0
POINT
  8
0
 10
-70.000000
 20
-40.000000
  0
POINT
  8
0
 10
-60.000000
 20
-40.000000
  0
LINE
  8
0
 10
-74.500000
 20
-2.500000
 11
-74.500000
 21
-77.500000
  0
LINE
  8
0
 10
-70.000000
 20
-2.500000
 11
-70.000000
 21
-77.500000
  0
LINE
  8
0
 10
-96.000000
 20
-77.500000
 11
-70.000015
 21
-77.500000
  0
LINE
  8
0
 10
-96.000000
 20
-2.500000
 11
-69.999985
 21
-2.500000
  0
LINE
  8
0
 10
-105.000000
 20
-11.500000
 11
-105.000000
 21
-68.500000
  0
LINE
  8
0
 10
-76.499985
 20
-13.000000
 11
-74.499985
 21
-13.000000
  0
LINE
  8
0
 10
-76.500000
 20
-27.000015
 11
-74.500000
 21
-27.000015
  0
LINE
  8
0
 10
-76.500000
 20
-53.000015
 11
-74.500000
 21
-53.000015
  0
LINE
  8
0
 10
-76.500000
 20
-67.000000
 11
-74.500000
 21
-67.000000
  0
LINE
  8
0
  6
CENTER
 10
-95.000000
 20
-59.500000
 11
-95.000000
 21
-75.500000
  0
LINE
  8
0
  6
CENTER
 10
-94.999985
 20
-4.500000
 11
-94.999985
 21
-20.500000
  0
LINE
  8
0
  6
CENTER
 10
-103.499985
 20
-12.500000
 11
-86.499985
 21
-12.500000
  0
LINE
  8
0
  6
CENTER
 10
-103.500000
 20
-67.500000
 11
-86.500000
 21
-67.500000
  0
LINE
  8
0
 10
-76.000000
 20
-14.414429
 11
-76.000000
 21
-26.614441
  0
LINE
  8
0
 10
-82.000000
 20
-16.114441
 11
-82.000000
 21
-24.914429
  0
LINE
  8
0
 10
-81.399994
 20
-54.485580
 11
-76.000000
 21
-54.485580
  0
LINE
  8
0
 10
-81.399994
 20
-64.485580
 11
-76.000000
 21
-64.485580
  0
LINE
  8
0
 10
-81.399994
 20
-45.000000
 11
-76.000000
 21
-45.000000
  0
LINE
  8
0
 10
-81.399994
 20
-35.000000
 11
-76.000000
 21
-35.000000
  0
LINE
  8
0
 10
-81.399994
 20
-25.514435
 11
-76.000000
 21
-25.514435
  0
LINE
  8
0
 10
-81.399994
 20
-15.514435
 11
-76.000000
 21
-15.514435
  0
LINE
  8
0
 10
-76.000000
 20
-53.385574
 11
-74.500000
 21
-53.385574
  0
LINE
  8
0
 10
-76.000000
 20
-65.585571
 11
-74.500000
 21
-65.585571
  0
LINE
  8
0
 10
-76.000000
 20
-46.100006
 11
-74.500000
 21
-46.100006
  0
LINE
  8
0
 10
-76.000000
 20
-33.900009
 11
-74.500000
 21
-33.900009
  0
LINE
  8
0
 10
-76.000000
 20
-14.414429
 11
-74.500000
 21
-14.414429
  0
LINE
  8
0
 10
-76.000000
 20
-26.614441
 11
-74.500000
 21
-26.614441
  0
LINE
  8
0
 10
-81.399994
 20
-15.514435
 11
-81.399994
 21
-25.514435
  0
LINE
  8
0
 10
-82.000000
 20
-35.600006
 11
-82.000000
 21
-44.400009
  0
LINE
  8
0
 10
-82.000000
 20
-55.085571
 11
-82.000000
 21
-63.885574
  0
LINE
  8
0
 10
-81.399994
 20
-54.485580
 11
-81.399994
 21
-64.485580
  0
LINE
  8
0
 10
-81.399994
 20
-35.000000
 11
-81.399994
 21
-45.000000
  0
LINE
  8
0
 10
-76.000000
 20
-33.900009
 11
-76.000000
 21
-46.100006
  0
LINE
  8
0
 10
-76.000000
 20
-53.385574
 11
-76.000000
 21
-65.585571
  0
LINE
  8
0
 10
-81.399994
 20
-64.485573
 11
-81.999992
 21
-63.885574
  0
LINE
  8
0
 10
-82.000000
 20
-55.085567
 11
-81.400009
 21
-54.485569
  0
LINE
  8
0
 10
-81.400002
 20
-45.000000
 11
-82.000000
 21
-44.400002
  0
LINE
  8
0
 10
-82.000000
 20
-35.599987
 11
-81.400002
 21
-34.999989
  0
LINE
  8
0
 10
-81.400002
 20
-25.514427
 11
-82.000000
 21
-24.914429
  0
LINE
  8
0
 10
-82.000008
 20
-16.114422
 11
-81.400009
 21
-15.514423
  0
LINE
  8
0
 10
-76.000000
 20
-60.351601
 11
-74.499992
 21
-59.485573
  0
LINE
  8
0
 10
-76.000000
 20
-40.866032
 11
-74.499992
 21
-40.000004
  0
LINE
  8
0
 10
-76.000008
 20
-21.380457
 11
-74.500000
 21
-20.514429
  0
LINE
  8
0
 10
-75.999992
 20
-59.774250
 11
-74.500000
 21
-58.908230
  0
LINE
  8
0
 10
-76.000000
 20
-40.288677
 11
-74.500008
 21
-39.422657
  0
LINE
  8
0
 10
-75.999992
 20
-20.803114
 11
-74.499985
 21
-19.937086
  0
CIRCLE
  8
0
 10
-94.999985
 20
-12.500000
 40
5.500000
  0
CIRCLE
  8
0
 10
-95.000000
 20
-67.500000
 40
5.500000
  0
ARC
  8
0
 10
-76.500000
 20
-60.000015
 40
7.000000
 50
90.000000
 51
128.021881
  0
ARC
  8
0
 10
-76.499985
 20
-20.000000
 40
7.000000
 50
90.000000
 51
218.213135
  0
ARC
  8
0
 10
-96.000000
 20
-11.500000
 40
9.000000
 50
90.000000
 51
179.999969
  0
ARC
  8
0
 10
-96.000000
 20
-68.500000
 40
9.000000
 50
180.000046
 51
270.000000
  0
ARC
  8
0
 10
-76.500000
 20
-60.000015
 40
7.000003
 50
141.786758
 51
270.000000
  0
ARC
  8
0
 10
-76.499985
 20
-20.000000
 40
6.999999
 50
231.978104
 51
270.000000
  0
POINT
  8
0
 10
-70.000000
 20
-130.000000
  0
POINT
  8
0
 10
-60.000000
 20
-130.000000
  0
POINT
  8
0
 10
-70.000000
 20
-130.000000
  0
POINT
  8
0
 10
-60.000000
 20
-130.000000
  0
LINE
  8
0
 10
-70.000000
 20
-92.500000
 11
-70.000000
 21
-166.499985
  0
LINE
  8
0
 10
-74.500000
 20
-92.500000
 11
-74.500000
 21
-166.499985
  0
LINE
  8
0
 10
-70.000000
 20
-92.500000
 11
-74.500000
 21
-92.500000
  0
LINE
  8
0
 10
-74.499985
 20
-161.500000
 11
-83.499992
 21
-170.500015
  0
LINE
  8
0
 10
-78.499985
 20
-170.499985
 11
-104.999985
 21
-170.499985
  0
LINE
  8
0
  6
DASHED
 10
-89.500000
 20
-170.499985
 11
-89.500000
 21
-174.999985
  0
LINE
  8
0
  6
DASHED
 10
-100.500000
 20
-170.500000
 11
-100.500000
 21
-175.000000
  0
LINE
  8
0
 10
-105.000000
 20
-170.500000
 11
-105.000000
 21
-175.000000
  0
LINE
  8
0
 10
-78.500000
 20
-174.999985
 11
-104.999985
 21
-174.999985
  0
LINE
  8
0
  6
DASHED
 10
-74.500000
 20
-115.000000
 11
-70.000000
 21
-115.000000
  0
LINE
  8
0
  6
CENTER
 10
-95.000000
 20
-167.999985
 11
-95.000000
 21
-177.499985
  0
LINE
  8
0
 10
-76.000000
 20
-101.399994
 11
-76.000000
 21
-124.850006
  0
LINE
  8
0
 10
-82.000000
 20
-103.099991
 11
-82.000000
 21
-111.899994
  0
LINE
  8
0
 10
-81.399994
 20
-102.500000
 11
-81.399994
 21
-112.500000
  0
LINE
  8
0
 10
-81.399994
 20
-157.499985
 11
-76.000000
 21
-157.499985
  0
LINE
  8
0
 10
-81.399994
 20
-147.500000
 11
-76.000000
 21
-147.500000
  0
LINE
  8
0
 10
-81.399994
 20
-136.250000
 11
-76.000000
 21
-136.250000
  0
LINE
  8
0
 10
-81.399994
 20
-146.250000
 11
-76.000000
 21
-146.250000
  0
LINE
  8
0
 10
-81.399994
 20
-113.750000
 11
-76.000000
 21
-113.750000
  0
LINE
  8
0
 10
-81.399994
 20
-123.750000
 11
-76.000000
 21
-123.750000
  0
LINE
  8
0
 10
-81.399994
 20
-102.500000
 11
-76.000000
 21
-102.500000
  0
LINE
  8
0
 10
-81.399994
 20
-112.500000
 11
-76.000000
 21
-112.500000
  0
LINE
  8
0
 10
-76.000000
 20
-158.599991
 11
-74.500000
 21
-158.599991
  0
LINE
  8
0
 10
-76.000000
 20
-135.149994
 11
-74.500000
 21
-135.149994
  0
LINE
  8
0
 10
-76.000000
 20
-147.349991
 11
-74.500000
 21
-147.349991
  0
LINE
  8
0
 10
-76.000000
 20
-112.649994
 11
-74.500000
 21
-112.649994
  0
LINE
  8
0
 10
-76.000000
 20
-124.850006
 11
-74.500000
 21
-124.850006
  0
LINE
  8
0
 10
-76.000000
 20
-101.399994
 11
-74.500000
 21
-101.399994
  0
LINE
  8
0
 10
-82.000000
 20
-136.849991
 11
-82.000000
 21
-145.649994
  0
LINE
  8
0
 10
-81.399994
 20
-136.250000
 11
-81.399994
 21
-146.250000
  0
LINE
  8
0
 10
-76.000000
 20
-135.149994
 11
-76.000000
 21
-158.599991
  0
LINE
  8
0
 10
-82.000000
 20
-148.099991
 11
-82.000000
 21
-156.899994
  0
LINE
  8
0
 10
-81.399994
 20
-147.500000
 11
-81.399994
 21
-157.499985
  0
LINE
  8
0
 10
-82.000008
 20
-156.899994
 11
-81.400009
 21
-157.500000
  0
LINE
  8
0
 10
-81.999992
 20
-148.100006
 11
-81.399994
 21
-147.500000
  0
LINE
  8
0
 10
-82.000008
 20
-145.649994
 11
-81.399994
 21
-146.250000
  0
LINE
  8
0
 10
-82.000000
 20
-136.850006
 11
-81.400002
 21
-136.250000
  0
LINE
  8
0
 10
-76.000008
 20
-153.366013
 11
-74.500000
 21
-152.499969
  0
LINE
  8
0
 10
-76.000000
 20
-142.116013
 11
-74.499992
 21
-141.249985
  0
LINE
  8
0
 10
-76.000015
 20
-152.788666
 11
-74.500008
 21
-151.922638
  0
LINE
  8
0
 10
-76.000008
 20
-141.538666
 11
-74.500000
 21
-140.672638
  0
LINE
  8
0
 10
-81.399994
 20
-113.750000
 11
-81.399994
 21
-123.750000
  0
LINE
  8
0
 10
-82.000000
 20
-114.350006
 11
-82.000000
 21
-123.149994
  0
LINE
  8
0
 10
-81.400002
 20
-123.750000
 11
-82.000008
 21
-123.149986
  0
LINE
  8
0
 10
-82.000015
 20
-114.349991
 11
-81.400002
 21
-113.749985
  0
LINE
  8
0
 10
-82.000000
 20
-111.899986
 11
-81.400002
 21
-112.499985
  0
LINE
  8
0
 10
-82.000008
 20
-103.099991
 11
-81.400002
 21
-102.499977
  0
LINE
  8
0
 10
-76.000000
 20
-119.616020
 11
-74.499992
 21
-118.749992
  0
LINE
  8
0
 10
-75.999992
 20
-108.366028
 11
-74.499985
 21
-107.500000
  0
LINE
  8
0
 10
-75.999992
 20
-119.038666
 11
-74.500000
 21
-118.172646
  0
LINE
  8
0
 10
-75.999985
 20
-107.788673
 11
-74.499992
 21
-106.922653
  0
ARC
  8
0
 10
-78.499985
 20
-166.499985
 40
4.000000
 50
270.000000
 51
0.000000
  0
ARC
  8
0
 10
-78.500000
 20
-166.499985
 40
8.500000
 50
270.000000
 51
0.000000
  0
POINT
  8
0
 10
-205.000000
 20
-40.000000
  0
POINT
  8
0
 10
-167.500000
 20
-40.000000
  0
LINE
  8
0
 10
-250.000000
 20
-2.500000
 11
-205.000000
 21
-2.500000
  0
LINE
  8
0
 10
-250.000000
 20
-77.500000
 11
-205.000000
 21
-77.500000
  0
LINE
  8
0
 10
-250.000000
 20
-2.500004
 11
-250.000000
 21
-77.500000
  0
LINE
  8
0
 10
-245.500000
 20
-2.500004
 11
-245.500000
 21
-77.500000
  0
LINE
  8
0
 10
-245.500000
 20
-53.000000
 11
-243.500000
 21
-53.000000
  0
LINE
  8
0
 10
-245.500000
 20
-67.000000
 11
-243.500000
 21
-67.000000
  0
LINE
  8
0
 10
-245.500000
 20
-27.000000
 11
-243.500000
 21
-27.000000
  0
LINE
  8
0
 10
-245.500000
 20
-13.000000
 11
-243.500000
 21
-13.000000
  0
LINE
  8
0
 10
-190.863251
 20
-59.485573
 11
-192.306641
 21
-56.985558
  0
LINE
  8
0
 10
-192.306625
 20
-56.985565
 11
-195.193375
 21
-56.985565
  0
LINE
  8
0
 10
-196.636749
 20
-59.485573
 11
-195.193375
 21
-56.985573
  0
LINE
  8
0
 10
-195.193359
 20
-61.985565
 11
-196.636734
 21
-59.485565
  0
LINE
  8
0
 10
-192.306625
 20
-61.985565
 11
-195.193375
 21
-61.985565
  0
LINE
  8
0
 10
-190.863251
 20
-59.485573
 11
-192.306625
 21
-61.985569
  0
LINE
  8
0
 10
-179.613251
 20
-40.000008
 11
-181.056625
 21
-37.500008
  0
LINE
  8
0
 10
-181.056625
 20
-37.500000
 11
-183.943375
 21
-37.500000
  0
LINE
  8
0
 10
-185.386749
 20
-39.999996
 11
-183.943375
 21
-37.500000
  0
LINE
  8
0
 10
-183.943375
 20
-42.500008
 11
-185.386749
 21
-40.000011
  0
LINE
  8
0
 10
-181.056625
 20
-42.500000
 11
-183.943375
 21
-42.500000
  0
LINE
  8
0
 10
-179.613251
 20
-40.000011
 11
-181.056625
 21
-42.500011
  0
LINE
  8
0
 10
-190.863266
 20
-20.514423
 11
-192.306641
 21
-18.014425
  0
LINE
  8
0
 10
-192.306641
 20
-18.014420
 11
-195.193390
 21
-18.014420
  0
LINE
  8
0
 10
-196.636765
 20
-20.514437
 11
-195.193390
 21
-18.014439
  0
LINE
  8
0
 10
-195.193375
 20
-23.014437
 11
-196.636765
 21
-20.514425
  0
LINE
  8
0
 10
-192.306641
 20
-23.014420
 11
-195.193390
 21
-23.014420
  0
LINE
  8
0
 10
-190.863251
 20
-20.514427
 11
-192.306641
 21
-23.014439
  0
LINE
  8
0
 10
-213.363266
 20
-20.514416
 11
-214.806641
 21
-18.014418
  0
LINE
  8
0
 10
-214.806625
 20
-18.014420
 11
-217.693375
 21
-18.014420
  0
LINE
  8
0
 10
-219.136749
 20
-20.514423
 11
-217.693375
 21
-18.014425
  0
LINE
  8
0
 10
-217.693375
 20
-23.014429
 11
-219.136749
 21
-20.514431
  0
LINE
  8
0
 10
-214.806625
 20
-23.014420
 11
-217.693375
 21
-23.014420
  0
LINE
  8
0
 10
-213.363251
 20
-20.514439
 11
-214.806641
 21
-23.014437
  0
LINE
  8
0
 10
-224.613235
 20
-40.000000
 11
-226.056610
 21
-37.500004
  0
LINE
  8
0
 10
-226.056625
 20
-37.500000
 11
-228.943375
 21
-37.500000
  0
LINE
  8
0
 10
-230.386749
 20
-39.999996
 11
-228.943375
 21
-37.500000
  0
LINE
  8
0
 10
-228.943359
 20
-42.500004
 11
-230.386749
 21
-40.000004
  0
LINE
  8
0
 10
-226.056625
 20
-42.500000
 11
-228.943375
 21
-42.500000
  0
LINE
  8
0
 10
-224.613251
 20
-39.999996
 11
-226.056625
 21
-42.499996
  0
LINE
  8
0
 10
-213.363235
 20
-59.485573
 11
-214.806610
 21
-56.985573
  0
LINE
  8
0
 10
-214.806625
 20
-56.985565
 11
-217.693375
 21
-56.985565
  0
LINE
  8
0
 10
-219.136749
 20
-59.485573
 11
-217.693375
 21
-56.985573
  0
LINE
  8
0
 10
-217.693359
 20
-61.985573
 11
-219.136734
 21
-59.485577
  0
LINE
  8
0
 10
-214.806625
 20
-61.985565
 11
-217.693375
 21
-61.985565
  0
LINE
  8
0
 10
-213.363251
 20
-59.485573
 11
-214.806625
 21
-61.985573
  0
LINE
  8
0
 10
-191.469635
 20
-63.935280
 11
-190.919083
 21
-64.888878
  0
LINE
  8
0
 10
-191.036606
 20
-63.685272
 11
-190.486053
 21
-64.638870
  0
LINE
  8
0
 10
-219.513931
 20
-64.638878
 11
-218.963379
 21
-63.685280
  0
LINE
  8
0
 10
-219.080917
 20
-64.888885
 11
-218.530365
 21
-63.935284
  0
LINE
  8
0
 10
-176.405121
 20
-40.250000
 11
-177.506256
 21
-40.250000
  0
LINE
  8
0
 10
-176.405121
 20
-39.750000
 11
-177.506256
 21
-39.750000
  0
LINE
  8
0
 10
-191.469635
 20
-16.064716
 11
-190.919067
 21
-15.111105
  0
LINE
  8
0
 10
-191.036621
 20
-16.314718
 11
-190.486053
 21
-15.361107
  0
LINE
  8
0
 10
-219.080933
 20
-15.111111
 11
-218.530380
 21
-16.064709
  0
LINE
  8
0
 10
-219.513947
 20
-15.361111
 11
-218.963379
 21
-16.314722
  0
LINE
  8
0
 10
-232.493744
 20
-40.250000
 11
-233.594879
 21
-40.250000
  0
LINE
  8
0
 10
-232.493744
 20
-39.750000
 11
-233.594879
 21
-39.750000
  0
LINE
  8
0
 10
-203.474701
 20
-54.000000
 11
-206.525330
 21
-54.000000
  0
LINE
  8
0
 10
-203.474670
 20
-26.000000
 11
-206.525330
 21
-26.000000
  0
LINE
  8
0
 10
-216.361572
 20
-31.679104
 11
-217.886902
 21
-34.321053
  0
LINE
  8
0
 10
-192.112885
 20
-45.679085
 11
-193.638229
 21
-48.321060
  0
LINE
  8
0
 10
-193.638306
 20
-31.679075
 11
-192.112991
 21
-34.320995
  0
LINE
  8
0
 10
-217.887039
 20
-45.679024
 11
-216.361710
 21
-48.320972
  0
LINE
  8
0
 10
-169.000000
 20
-58.000000
 11
-169.500000
 21
-58.000000
  0
LINE
  8
0
 10
-169.000000
 20
-22.000000
 11
-169.500000
 21
-22.000000
  0
LINE
  8
0
 10
-173.500000
 20
-62.000000
 11
-174.631424
 21
-62.000000
  0
LINE
  8
0
 10
-169.000000
 20
-21.999998
 11
-169.000000
 21
-29.499996
  0
LINE
  8
0
 10
-169.500000
 20
-21.999998
 11
-169.500000
 21
-27.916950
  0
LINE
  8
0
 10
-173.500000
 20
-18.000000
 11
-174.631424
 21
-18.000000
  0
LINE
  8
0
 10
-169.500000
 20
-52.083042
 11
-169.500000
 21
-58.000000
  0
LINE
  8
0
 10
-169.000000
 20
-50.499996
 11
-169.000000
 21
-58.000000
  0
ARC
  8
0
 10
-205.000000
 20
-40.000000
 40
37.500000
 50
360.000000
 51
89.999977
  0
CIRCLE
  8
0
 10
-205.000000
 20
-40.000000
 40
15.000000
  0
ARC
  8
0
 10
-243.500000
 20
-20.000004
 40
7.000000
 50
270.000000
 51
90.000000
  0
ARC
  8
0
 10
-243.500000
 20
-60.000004
 40
6.999996
 50
270.000000
 51
90.000000
  0
ARC
  8
0
 10
-205.000000
 20
-40.000000
 40
37.500000
 50
270.000031
 51
360.000000
  0
CIRCLE
  8
0
 10
-216.250000
 20
-20.514420
 40
5.000000
  0
CIRCLE
  8
0
 10
-193.750015
 20
-20.514420
 40
5.000000
  0
CIRCLE
  8
0
 10
-182.500000
 20
-40.000000
 40
5.000000
  0
CIRCLE
  8
0
 10
-193.750000
 20
-59.485565
 40
5.000000
  0
CIRCLE
  8
0
 10
-216.250000
 20
-59.485565
 40
5.000000
  0
CIRCLE
  8
0
 10
-227.500000
 20
-40.000000
 40
5.000000
  0
ARC
  8
0
 10
-227.500000
 20
-40.000000
 40
6.100004
 50
182.348846
 51
177.651154
  0
ARC
  8
0
 10
-216.250000
 20
-20.514420
 40
6.100001
 50
122.348869
 51
117.651169
  0
ARC
  8
0
 10
-193.750015
 20
-20.514420
 40
6.100004
 50
62.348690
 51
57.651134
  0
ARC
  8
0
 10
-182.500000
 20
-40.000000
 40
6.100004
 50
2.348808
 51
357.651184
  0
ARC
  8
0
 10
-193.750000
 20
-59.485565
 40
6.099997
 50
302.348724
 51
297.651184
  0
ARC
  8
0
 10
-216.250000
 20
-59.485565
 40
6.100004
 50
242.348846
 51
237.651154
  0
CIRCLE
  8
0
 10
-216.250000
 20
-59.485565
 40
4.400000
  0
CIRCLE
  8
0
 10
-227.500000
 20
-40.000000
 40
4.400000
  0
CIRCLE
  8
0
 10
-216.250000
 20
-20.514420
 40
4.400000
  0
CIRCLE
  8
0
 10
-193.750015
 20
-20.514420
 40
4.400000
  0
CIRCLE
  8
0
 10
-182.500000
 20
-40.000000
 40
4.400000
  0
CIRCLE
  8
0
 10
-193.750000
 20
-59.485565
 40
4.400000
  0
CIRCLE
  8
0
 10
-205.000000
 20
-40.000000
 40
6.000000
  0
CIRCLE
  8
0
 10
-205.000000
 20
-40.000000
 40
5.500000
  0
CIRCLE
  8
0
 10
-205.000000
 20
-40.000000
 40
12.500000
  0
ARC
  8
0
 10
-205.000000
 20
-74.000000
 40
4.999997
 50
224.427048
 51
318.509216
  0
ARC
  8
0
 10
-205.000000
 20
-6.000000
 40
4.999993
 50
41.490887
 51
135.573074
  0
ARC
  8
0
 10
-191.040253
 20
-49.821014
 40
2.999997
 50
149.999802
 51
187.519485
  0
ARC
  8
0
 10
-189.514893
 20
-47.179016
 40
3.000000
 50
112.480255
 51
149.999863
  0
ARC
  8
0
 10
-189.514893
 20
-32.820984
 40
3.000006
 50
209.999924
 51
247.519745
  0
ARC
  8
0
 10
-191.040222
 20
-30.179047
 40
3.000000
 50
172.479935
 51
209.999863
  0
ARC
  8
0
 10
-203.474670
 20
-23.000000
 40
3.000000
 50
270.000000
 51
307.519775
  0
ARC
  8
0
 10
-206.525330
 20
-23.000000
 40
2.999996
 50
232.480240
 51
270.000000
  0
ARC
  8
0
 10
-218.959778
 20
-30.179016
 40
2.999993
 50
329.999939
 51
7.519485
  0
ARC
  8
0
 10
-220.485107
 20
-32.820953
 40
3.000002
 50
292.480560
 51
329.999939
  0
ARC
  8
0
 10
-220.485107
 20
-47.179016
 40
3.000006
 50
29.999931
 51
67.519745
  0
ARC
  8
0
 10
-218.959778
 20
-49.820953
 40
3.000000
 50
352.480011
 51
29.999931
  0
ARC
  8
0
 10
-206.525330
 20
-57.000000
 40
3.000000
 50
90.000000
 51
127.519737
  0
ARC
  8
0
 10
-203.474701
 20
-57.000000
 40
3.000001
 50
52.479942
 51
90.000000
  0
ARC
  8
0
 10
-173.500000
 20
-21.999998
 40
4.000000
 50
359.999969
 51
90.000000
  0
ARC
  8
0
 10
-173.500000
 20
-58.000000
 40
4.000000
 50
270.000000
 51
0.000000
  0
ARC
  8
0
 10
-205.000000
 20
-40.000000
 40
39.500004
 50
35.978413
 51
108.310669
  0
ARC
  8
0
 10
-164.942688
 20
-10.919735
 40
10.000007
 50
215.978378
 51
232.321060
  0
ARC
  8
0
 10
-164.942688
 20
-69.080292
 40
10.000002
 50
127.678963
 51
144.021545
  0
ARC
  8
0
 10
-175.555115
 20
-57.000000
 40
4.249996
 50
293.457245
 51
6.542803
  0
ARC
  8
0
 10
-205.000000
 20
-6.000000
 40
4.249996
 50
53.457676
 51
124.560394
  0
ARC
  8
0
 10
-205.000000
 20
-74.000000
 40
4.249995
 50
235.439774
 51
306.542328
  0
ARC
  8
0
 10
-175.555115
 20
-22.999998
 40
4.250000
 50
353.457214
 51
66.542786
  0
ARC
  8
0
 10
-205.000000
 20
-40.000000
 40
39.500000
 50
251.689362
 51
324.021545
  0
POINT
  8
0
 10
200.000000
 20
-40.000000
  0
POINT
  8
0
 10
210.000000
 20
-40.000000
  0
LINE
  8
0
 10
195.500000
 20
0.000000
 11
200.000000
 21
0.000000
  0
LINE
  8
0
 10
195.500000
 20
-80.000000
 11
200.000000
 21
-80.000000
  0
LINE
  8
0
 10
195.500000
 20
0.000000
 11
195.500000
 21
-80.000000
  0
LINE
  8
0
 10
200.000000
 20
0.000000
 11
200.000000
 21
-80.000000
  0
LINE
  8
0
  6
DASHED
 10
195.500000
 20
-55.000000
 11
200.000000
 21
-55.000000
  0
LINE
  8
0
  6
DASHED
 10
195.500000
 20
-25.000000
 11
200.000000
 21
-25.000000
  0
LINE
  8
0
  6
CENTER
 10
193.000000
 20
-8.000000
 11
202.500000
 21
-8.000000
  0
LINE
  8
0
  6
CENTER
 10
193.000000
 20
-72.000000
 11
202.500000
 21
-72.000000
  0
LINE
  8
0
  6
DASHED
 10
195.500000
 20
-75.500000
 11
200.000000
 21
-75.500000
  0
LINE
  8
0
  6
DASHED
 10
195.500000
 20
-68.500000
 11
200.000000
 21
-68.500000
  0
LINE
  8
0
  6
DASHED
 10
195.500000
 20
-4.500000
 11
200.000000
 21
-4.500000
  0
LINE
  8
0
  6
DASHED
 10
195.500000
 20
-11.500000
 11
200.000000
 21
-11.500000
  0
POINT
  8
0
  6
DASHED
 10
100.000000
 20
-40.000000
  0
POINT
  8
0
  6
DASHED
 10
140.000000
 20
-40.000000
  0
LINE
  8
0
 10
65.000000
 20
0.000000
 11
135.000000
 21
0.000000
  0
LINE
  8
0
 10
65.000000
 20
-80.000000
 11
135.000000
 21
-80.000000
  0
LINE
  8
0
 10
60.000000
 20
-74.999985
 11
60.000000
 21
-5.000000
  0
LINE
  8
0
 10
140.000000
 20
-75.000000
 11
140.000000
 21
-5.000015
  0
LINE
  8
0
  6
CENTER
 10
68.000000
 20
-77.999985
 11
68.000000
 21
-65.999985
  0
LINE
  8
0
  6
CENTER
 10
132.000000
 20
-78.000000
 11
132.000000
 21
-66.000000
  0
LINE
  8
0
  6
CENTER
 10
132.000000
 20
-14.000015
 11
132.000000
 21
-2.000015
  0
LINE
  8
0
  6
CENTER
 10
68.000000
 20
-14.000000
 11
68.000000
 21
-2.000000
  0
LINE
  8
0
  6
CENTER
 10
62.000000
 20
-72.000000
 11
74.000000
 21
-72.000000
  0
LINE
  8
0
  6
CENTER
 10
126.000000
 20
-72.000000
 11
138.000000
 21
-72.000000
  0
LINE
  8
0
  6
CENTER
 10
62.000000
 20
-8.000000
 11
74.000000
 21
-8.000000
  0
LINE
  8
0
  6
CENTER
 10
126.000000
 20
-8.000000
 11
138.000000
 21
-8.000000
  0
LINE
  8
0
 10
124.809402
 20
-40.000019
 11
123.654709
 21
-38.000023
  0
LINE
  8
0
 10
123.654709
 20
-38.000023
 11
121.345306
 21
-38.000023
  0
LINE
  8
0
 10
120.190598
 20
-40.000023
 11
121.345299
 21
-38.000023
  0
LINE
  8
0
 10
121.345306
 20
-42.000019
 11
120.190605
 21
-40.000019
  0
LINE
  8
0
 10
123.654709
 20
-42.000023
 11
121.345306
 21
-42.000023
  0
LINE
  8
0
 10
124.809402
 20
-40.000023
 11
123.654694
 21
-42.000023
  0
LINE
  8
0
 10
91.059433
 20
-20.514420
 11
89.904732
 21
-18.514418
  0
LINE
  8
0
 10
89.904739
 20
-18.514420
 11
87.595337
 21
-18.514420
  0
LINE
  8
0
 10
86.440628
 20
-20.514416
 11
87.595337
 21
-18.514416
  0
LINE
  8
0
 10
87.595329
 20
-22.514420
 11
86.440628
 21
-20.514418
  0
LINE
  8
0
 10
89.904739
 20
-22.514420
 11
87.595337
 21
-22.514420
  0
LINE
  8
0
 10
91.059433
 20
-20.514416
 11
89.904732
 21
-22.514416
  0
LINE
  8
0
 10
91.059387
 20
-59.485565
 11
89.904686
 21
-57.485565
  0
LINE
  8
0
 10
89.904694
 20
-57.485565
 11
87.595291
 21
-57.485565
  0
LINE
  8
0
 10
86.440590
 20
-59.485558
 11
87.595291
 21
-57.485558
  0
LINE
  8
0
 10
87.595299
 20
-61.485558
 11
86.440598
 21
-59.485558
  0
LINE
  8
0
 10
89.904694
 20
-61.485565
 11
87.595291
 21
-61.485565
  0
LINE
  8
0
 10
91.059395
 20
-59.485558
 11
89.904694
 21
-61.485558
  0
ARC
  8
0
 10
65.000000
 20
-74.999985
 40
5.000000
 50
180.000000
 51
270.000000
  0
ARC
  8
0
 10
135.000000
 20
-75.000000
 40
5.000000
 50
270.000000
 51
0.000000
  0
ARC
  8
0
 10
135.000000
 20
-5.000015
 40
5.000000
 50
0.000000
 51
90.000000
  0
ARC
  8
0
 10
65.000000
 20
-5.000000
 40
5.000000
 50
90.000000
 51
179.999954
  0
CIRCLE
  8
0
 10
68.000000
 20
-71.999985
 40
3.500000
  0
CIRCLE
  8
0
 10
132.000000
 20
-72.000000
 40
3.500000
  0
CIRCLE
  8
0
 10
132.000000
 20
-8.000015
 40
3.500000
  0
CIRCLE
  8
0
 10
68.000000
 20
-8.000000
 40
3.500000
  0
CIRCLE
  8
0
 10
100.000000
 20
-40.000000
 40
15.000000
  0
CIRCLE
  8
0
 10
77.500000
 20
-40.000000
 40
6.250000
  0
CIRCLE
  8
0
 10
88.750000
 20
-59.485565
 40
6.250000
  0
CIRCLE
  8
0
 10
111.249985
 20
-59.485580
 40
6.250000
  0
CIRCLE
  8
0
 10
122.500000
 20
-40.000023
 40
6.250000
  0
CIRCLE
  8
0
 10
111.250031
 20
-20.514450
 40
6.250000
  0
CIRCLE
  8
0
 10
88.750031
 20
-20.514420
 40
6.250000
  0
CIRCLE
  8
0
 10
88.750031
 20
-20.514420
 40
6.000000
  0
CIRCLE
  8
0
 10
88.749985
 20
-59.485565
 40
6.000000
  0
CIRCLE
  8
0
 10
122.500000
 20
-40.000000
 40
6.000000
  0
CIRCLE
  8
0
 10
111.250031
 20
-20.514450
 40
3.200000
  0
CIRCLE
  8
0
 10
77.500000
 20
-40.000000
 40
3.200000
  0
CIRCLE
  8
0
 10
111.249985
 20
-59.485580
 40
3.200000
  0
ENDSEC
  0
EOF
