  0
SECTION
  2
HEADER
  0
ENDSEC
  0
SECTION
  2
TABLES
  0
TABLE
  2
LTYPE
 70
     4
  0
LTYPE
  2
CONTINUOUS
 70
    64
  3
Solid line
 72
    65
 73
     0
 40
0.000000
  0
LTYPE
  2
DASHED
 70
    64
  3
__ __ __ __ __ __ __ __ __ __ __ __ __ __ __
 72
    65
 73
     2
 40
3.500000
 49
2.000000
 49
-1.500000
  0
LTYPE
  2
CENTER
 70
    64
  3
____ _ ____ _ ____ _ ____ _ ____ _ ____ _ ____
 72
    65
 73
     4
 40
17.500000
 49
13.000000
 49
-1.500000
 49
1.500000
 49
-1.500000
  0
LTYPE
  2
PHANTOM
 70
    64
  3
_____ _ _ _____ _ _ _____ _ _ _____ _ _ ____  
 72
    65
 73
     6
 40
15.500000
 49
8.000000
 49
-1.500000
 49
1.500000
 49
-1.500000
 49
1.500000
 49
-1.500000
  0
LTYPE
  2
DASHED1
 70
    64
  3
__ __ __ __ __ __ __ __ __ __ __ __ __ __ __
 72
    65
 73
     2
 40
1.500000
 49
1.000000
 49
-0.500000
  0
LTYPE
  2
DASHED2
 70
    64
  3
__ __ __ __ __ __ __ __ __ __ __ __ __ __ __
 72
    65
 73
     2
 40
3.500000
 49
2.500000
 49
-1.000000
  0
LTYPE
  2
DASHED3
 70
    64
  3
__ __ __ __ __ __ __ __ __ __ __ __ __ __ __
 72
    65
 73
     2
 40
6.000000
 49
4.000000
 49
-2.000000
  0
LTYPE
  2
DASHED4
 70
    64
  3
__ __ __ __ __ __ __ __ __ __ __ __ __ __ __
 72
    65
 73
     2
 40
12.000000
 49
10.000000
 49
-2.000000
  0
LTYPE
  2
DASHED5
 70
    64
  3
__ __ __ __ __ __ __ __ __ __ __ __ __ __ __
 72
    65
 73
     2
 40
17.000000
 49
15.000000
 49
-2.000000
  0
LTYPE
  2
DASHED6
 70
    64
  3
__ __ __ __ __ __ __ __ __ __ __ __ __ __ __
 72
    65
 73
     2
 40
29.000000
 49
27.000000
 49
-2.000000
  0
LTYPE
  2
PHANTOM1
 70
    64
  3
_____ _ _ _____ _ _ _____ _ _ _____ _ _ ____  
 72
    65
 73
     6
 40
31.000000
 49
25.000000
 49
-1.500000
 49
1.000000
 49
-1.000000
 49
1.000000
 49
-1.500000
  0
LTYPE
  2
PHANTOM2
 70
    64
  3
_____ _ _ _____ _ _ _____ _ _ _____ _ _ ____  
 72
    65
 73
     6
 40
36.000000
 49
27.000000
 49
-1.500000
 49
2.500000
 49
-1.000000
 49
2.500000
 49
-1.500000
  0
LTYPE
  2
PHANTOM3
 70
    64
  3
_____ _ _ _____ _ _ _____ _ _ _____ _ _ ____  
 72
    65
 73
     6
 40
78.000000
 49
64.000000
 49
-2.000000
 49
4.000000
 49
-2.000000
 49
4.000000
 49
-2.000000
  0
LTYPE
  2
CENTER1
 70
    64
  3
____ _ ____ _ ____ _ ____ _ ____ _ ____ _ ____
 72
    65
 73
     4
 40
19.000000
 49
14.000000
 49
-1.000000
 49
3.000000
 49
-1.000000
  0
LTYPE
  2
CENTER2
 70
    64
  3
____ _ ____ _ ____ _ ____ _ ____ _ ____ _ ____
 72
    65
 73
     4
 40
28.500000
 49
25.000000
 49
-1.000000
 49
1.500000
 49
-1.000000
  0
LTYPE
  2
CENTER3
 70
    64
  3
____ _ ____ _ ____ _ ____ _ ____ _ ____ _ ____
 72
    65
 73
     4
 40
31.500000
 49
27.000000
 49
-1.000000
 49
2.500000
 49
-1.000000
  0
LTYPE
  2
CENTER4
 70
    64
  3
____ _ ____ _ ____ _ ____ _ ____ _ ____ _ ____
 72
    65
 73
     4
 40
50.000000
 49
45.000000
 49
-1.000000
 49
3.000000
 49
-1.000000
  0
LTYPE
  2
CENTER5
 70
    64
  3
____ _ ____ _ ____ _ ____ _ ____ _ ____ _ ____
 72
    65
 73
     4
 40
100.000000
 49
92.000000
 49
-2.000000
 49
4.000000
 49
-2.000000
  0
LTYPE
  2
SBK1
 70
    64
  3
______ _ _ _ ______ _ _ _ ______ _ _ _ _____  
 72
    65
 73
     8
 40
60.500000
 49
45.000000
 49
-2.000000
 49
2.500000
 49
-2.000000
 49
2.500000
 49
-2.000000
 49
2.500000
 49
-2.000000
  0
LTYPE
  2
SBK2
 70
    64
  3
______ _ _ _ ______ _ _ _ ______ _ _ _ _____  
 72
    65
 73
     8
 40
84.000000
 49
64.000000
 49
-2.000000
 49
4.000000
 49
-2.000000
 49
4.000000
 49
-2.000000
 49
4.000000
 49
-2.000000
  0
LTYPE
  2
STCH
 70
    64
  3
__ __ __ __ __ __ __ __ __ __ __ __ __ __ __
 72
    65
 73
     2
 40
3.000000
 49
1.000000
 49
-2.000000
  0
LTYPE
  2
MTCH
 70
    64
  3
_____ _ _ _____ _ _ _____ _ _ _____ _ _ ____  
 72
    65
 73
     6
 40
80.000000
 49
66.000000
 49
-2.000000
 49
4.000000
 49
-2.000000
 49
4.000000
 49
-2.000000
  0
ENDTAB
  0
TABLE
  2
LAYER
 70
     1
  0
LAYER
  2
0
 70
     0
 62
     7
  6
CONTINUOUS
  0
ENDTAB
  0
TABLE
  2
STYLE
 70
     1
  0
STYLE
  2
STANDARD
 70
     0
 40
0.000000
 41
1.000000
 50
0.000000
 71
     0
 42
0.200000
  3
txt
  4
BIGFONT
  0
ENDTAB
  0
TABLE
  2
VIEW
 70
     0
  0
ENDTAB
  0
ENDSEC
  0
SECTION
  2
BLOCKS
  0
ENDSEC
  0
SECTION
  2
ENTITIES
  0
LINE
  8
0
 10
594.500000
 20
420.500000
 11
594.500000
 21
-420.500000
  0
LINE
  8
0
 10
-594.500000
 20
420.500000
 11
-594.500000
 21
-420.500000
  0
LINE
  8
0
 10
-594.500000
 20
420.500000
 11
594.500000
 21
420.500000
  0
LINE
  8
0
 10
-594.500000
 20
-420.500000
 11
594.500000
 21
-420.500000
  0
LINE
  8
0
 10
574.500000
 20
400.500000
 11
574.500000
 21
-400.500000
  0
LINE
  8
0
 10
-564.500000
 20
400.500000
 11
574.500000
 21
400.500000
  0
LINE
  8
0
 10
-564.500000
 20
-400.500000
 11
574.500000
 21
-400.500000
  0
LINE
  8
0
 10
-564.500000
 20
400.500000
 11
-564.500000
 21
-400.500000
  0
LINE
  8
0
 10
-564.500000
 20
-380.500000
 11
174.875015
 21
-380.500000
  0
LINE
  8
0
 10
35.000004
 20
69.750000
 11
-294.500061
 21
69.750000
  0
LINE
  8
0
 10
35.000004
 20
69.750000
 11
35.000004
 21
400.500000
  0
LINE
  8
0
 10
35.000000
 20
69.749992
 11
174.875015
 21
-70.125000
  0
LINE
  8
0
 10
-294.500061
 20
69.750008
 11
-434.375092
 21
-70.125000
  0
LINE
  8
0
 10
-564.500000
 20
-70.125000
 11
-434.375061
 21
-70.125000
  0
LINE
  8
0
 10
174.875015
 20
-70.125000
 11
174.875015
 21
-400.500000
  0
LINE
  8
0
 10
174.875015
 20
-70.125000
 11
574.500000
 21
-70.125000
  0
LINE
  8
0
 10
154.875015
 20
-50.125000
 11
574.500000
 21
-50.125000
  0
LINE
  8
0
 10
35.000004
 20
89.750000
 11
-294.500061
 21
89.750000
  0
LINE
  8
0
 10
-294.500061
 20
89.750000
 11
-294.500061
 21
69.750000
  0
LINE
  8
0
 10
-564.500000
 20
375.500000
 11
-364.500000
 21
375.500000
  0
LINE
  8
0
 10
-364.500000
 20
400.500000
 11
-364.500000
 21
375.500000
  0
LINE
  8
0
 10
374.500000
 20
375.500000
 11
574.500000
 21
375.500000
  0
LINE
  8
0
 10
374.500000
 20
400.500000
 11
374.500000
 21
375.500000
  0
LINE
  8
0
 10
374.500000
 20
-375.500000
 11
574.500000
 21
-375.500000
  0
LINE
  8
0
 10
374.500000
 20
-375.500000
 11
374.500000
 21
-400.500000
  0
TEXT
  8
0
 10
-555.963745
 20
378.200012
 40
12.000000
  1
ROTARY ACTUATER
 50
0.000000
 41
1.052631
 51
0.000000
  7
STANDARD
  0
TEXT
  8
0
 10
383.036224
 20
378.200012
 40
12.000000
  1
DATE: MAY ,1992
 50
0.000000
 41
1.052632
 51
0.000000
  7
STANDARD
  0
TEXT
  8
0
 10
253.509384
 20
-68.125000
 40
10.000000
  1
SWING ANGLE : 270 DEGREE
 50
0.000000
 41
1.052631
 51
0.000000
  7
STANDARD
  0
TEXT
  8
0
 10
268.813690
 20
-193.918396
 40
10.000000
  1
MODEL : RAK800-US
 50
0.000000
 41
1.052632
 51
0.000000
  7
STANDARD
  0
TEXT
  8
0
 10
-245.928146
 20
71.750000
 40
10.000000
  1
SWING ANGLE : 90 DEGREE
 50
0.000000
 41
1.052632
 51
0.000000
  7
STANDARD
  0
TEXT
  8
0
 10
-315.990601
 20
-398.500000
 40
10.000000
  1
SWING ANGLE : 180 DEGREE
 50
0.000000
 41
1.052631
 51
0.000000
  7
STANDARD
  0
TEXT
  8
0
 10
381.580109
 20
-400.299988
 40
12.000000
  1
ＫＯＧＡＮＥＩ，ＣＯＲＰ．
 50
0.000000
 41
0.902367
 51
15.000000
  7
STANDARD
  0
POINT
  8
0
 10
-425.500000
 20
260.000000
  0
POINT
  8
0
 10
-470.000000
 20
260.000000
  0
LINE
  8
0
 10
-445.700012
 20
223.513260
 11
-438.299988
 21
223.513260
  0
LINE
  8
0
 10
-446.500000
 20
221.533356
 11
-437.500000
 21
221.533356
  0
LINE
  8
0
 10
-446.500000
 20
216.083603
 11
-437.500000
 21
216.083603
  0
LINE
  8
0
 10
-445.700012
 20
215.235077
 11
-438.299988
 21
215.235077
  0
LINE
  8
0
 10
-445.700012
 20
227.897308
 11
-438.299988
 21
227.897308
  0
LINE
  8
0
 10
-437.799988
 20
227.397308
 11
-437.799988
 21
222.599045
  0
LINE
  8
0
 10
-437.000000
 20
225.983109
 11
-437.000000
 21
216.583603
  0
LINE
  8
0
 10
-446.200012
 20
227.397308
 11
-446.200012
 21
222.599045
  0
LINE
  8
0
 10
-447.000000
 20
225.983093
 11
-447.000000
 21
216.583603
  0
LINE
  8
0
 10
-445.700012
 20
222.099045
 11
-438.299988
 21
222.099045
  0
LINE
  8
0
 10
-447.500000
 20
226.483093
 11
-446.200012
 21
226.483093
  0
LINE
  8
0
 10
-446.200012
 20
216.083603
 11
-446.200012
 21
215.735077
  0
LINE
  8
0
 10
-437.799988
 20
216.083603
 11
-437.799988
 21
215.735077
  0
LINE
  8
0
 10
-437.799988
 20
226.483093
 11
-436.500000
 21
226.483093
  0
LINE
  8
0
 10
-453.500000
 20
226.200256
 11
-447.500000
 21
226.200256
  0
LINE
  8
0
 10
-436.500000
 20
226.483093
 11
-436.500000
 21
220.543396
  0
LINE
  8
0
 10
-447.500000
 20
226.483093
 11
-447.500000
 21
220.543396
  0
LINE
  8
0
 10
-438.500000
 20
233.695587
 11
-438.500000
 21
227.897308
  0
LINE
  8
0
 10
-445.500000
 20
233.695587
 11
-445.500000
 21
227.897308
  0
LINE
  8
0
 10
-436.500000
 20
226.200256
 11
-431.500000
 21
226.200256
  0
LINE
  8
0
 10
-440.499939
 20
230.867157
 11
-440.499939
 21
233.695587
  0
LINE
  8
0
 10
-443.500000
 20
230.867157
 11
-443.500000
 21
233.695587
  0
LINE
  8
0
 10
-445.500000
 20
233.695587
 11
-443.500000
 21
233.695587
  0
LINE
  8
0
 10
-440.500000
 20
233.695587
 11
-438.500000
 21
233.695587
  0
LINE
  8
0
 10
-431.500000
 20
231.644989
 11
-431.500000
 21
220.543396
  0
LINE
  8
0
 10
-453.500000
 20
220.543396
 11
-447.500000
 21
220.543396
  0
LINE
  8
0
 10
-447.500000
 20
220.826248
 11
-447.000000
 21
220.826248
  0
LINE
  8
0
 10
-437.000000
 20
220.826248
 11
-436.500000
 21
220.826248
  0
LINE
  8
0
 10
-436.500000
 20
220.543396
 11
-431.500000
 21
220.543396
  0
LINE
  8
0
 10
-453.500000
 20
231.644989
 11
-445.500000
 21
231.644989
  0
LINE
  8
0
 10
-443.500000
 20
231.644989
 11
-440.500000
 21
231.644989
  0
LINE
  8
0
 10
-438.500000
 20
231.644989
 11
-431.500000
 21
231.644989
  0
LINE
  8
0
 10
-429.500000
 20
227.993149
 11
-429.500000
 21
222.993149
  0
LINE
  8
0
 10
-431.500000
 20
227.993149
 11
-429.500000
 21
227.993149
  0
LINE
  8
0
 10
-429.500000
 20
227.493149
 11
-414.422089
 21
227.493149
  0
LINE
  8
0
 10
-429.500000
 20
223.493149
 11
-414.422089
 21
223.493149
  0
LINE
  8
0
 10
-431.500000
 20
222.993149
 11
-429.500000
 21
222.993149
  0
LINE
  8
0
 10
-453.500000
 20
231.644989
 11
-453.500000
 21
220.543396
  0
LINE
  8
0
 10
-438.299988
 20
252.308914
 11
-438.299988
 21
233.129929
  0
LINE
  8
0
 10
-470.000000
 20
320.961487
 11
-470.000000
 21
199.038498
  0
LINE
  8
0
 10
-468.399994
 20
314.000000
 11
-468.399994
 21
266.000000
  0
LINE
  8
0
 10
-466.799988
 20
320.961487
 11
-466.799988
 21
199.038452
  0
LINE
  8
0
 10
-470.000000
 20
314.000000
 11
-466.799988
 21
314.000000
  0
LINE
  8
0
 10
-465.500000
 20
295.000000
 11
-465.500000
 21
269.000000
  0
LINE
  8
0
 10
-466.799988
 20
295.000000
 11
-465.500000
 21
295.000000
  0
LINE
  8
0
 10
-460.500000
 20
288.000000
 11
-460.500000
 21
269.000000
  0
LINE
  8
0
 10
-460.500000
 20
288.000000
 11
-439.500000
 21
288.000000
  0
LINE
  8
0
 10
-439.500000
 20
288.000000
 11
-439.500000
 21
239.811890
  0
LINE
  8
0
 10
-465.299988
 20
236.311920
 11
-465.299988
 21
217.927124
  0
LINE
  8
0
 10
-466.799988
 20
217.038452
 11
-455.549988
 21
217.038452
  0
LINE
  8
0
 10
-466.799988
 20
199.038452
 11
-455.549988
 21
199.038452
  0
LINE
  8
0
 10
-454.799988
 20
215.739426
 11
-454.799988
 21
200.337494
  0
LINE
  8
0
 10
-455.549988
 20
217.038452
 11
-455.549988
 21
199.038452
  0
LINE
  8
0
 10
-455.549988
 20
217.038452
 11
-454.799988
 21
215.739426
  0
LINE
  8
0
 10
-455.550018
 20
199.038452
 11
-454.800018
 21
200.337494
  0
LINE
  8
0
 10
-465.500000
 20
251.000000
 11
-465.500000
 21
237.372574
  0
LINE
  8
0
 10
-460.500000
 20
251.000000
 11
-460.500000
 21
237.372574
  0
LINE
  8
0
 10
-470.000000
 20
202.038452
 11
-466.799988
 21
202.038452
  0
LINE
  8
0
 10
-470.000000
 20
203.238464
 11
-466.799988
 21
203.238464
  0
LINE
  8
0
 10
-468.399994
 20
254.000000
 11
-468.399994
 21
205.999985
  0
LINE
  8
0
 10
-466.799988
 20
269.000000
 11
-455.549988
 21
269.000000
  0
LINE
  8
0
 10
-455.549988
 20
269.000000
 11
-455.549988
 21
251.000000
  0
LINE
  8
0
 10
-454.799988
 20
267.700958
 11
-454.799988
 21
252.299042
  0
LINE
  8
0
 10
-455.549988
 20
269.000000
 11
-454.799988
 21
267.700958
  0
LINE
  8
0
 10
-455.550018
 20
251.000000
 11
-454.800018
 21
252.299042
  0
LINE
  8
0
 10
-466.799988
 20
251.000000
 11
-455.549988
 21
251.000000
  0
LINE
  8
0
 10
-470.000000
 20
266.000000
 11
-466.799988
 21
266.000000
  0
LINE
  8
0
 10
-470.000000
 20
264.799988
 11
-466.799988
 21
264.799988
  0
LINE
  8
0
 10
-470.000000
 20
255.199997
 11
-466.799988
 21
255.199997
  0
LINE
  8
0
 10
-470.000000
 20
254.000000
 11
-466.799988
 21
254.000000
  0
LINE
  8
0
 10
-466.799988
 20
320.961487
 11
-455.549988
 21
320.961487
  0
LINE
  8
0
 10
-455.549988
 20
320.961487
 11
-455.549988
 21
302.961487
  0
LINE
  8
0
 10
-454.799988
 20
319.662445
 11
-454.799988
 21
304.260529
  0
LINE
  8
0
 10
-455.550018
 20
320.961487
 11
-454.800018
 21
319.662476
  0
LINE
  8
0
 10
-455.550018
 20
302.961487
 11
-454.800018
 21
304.260529
  0
LINE
  8
0
 10
-466.799988
 20
302.961487
 11
-455.549988
 21
302.961487
  0
LINE
  8
0
 10
-470.000000
 20
317.961487
 11
-466.799988
 21
317.961487
  0
LINE
  8
0
 10
-470.000000
 20
316.761505
 11
-466.799988
 21
316.761505
  0
LINE
  8
0
 10
-470.000000
 20
205.999985
 11
-466.799988
 21
205.999985
  0
LINE
  8
0
 10
-438.299988
 20
242.951340
 11
-437.560852
 21
242.951340
  0
LINE
  8
0
 10
-438.299988
 20
237.451340
 11
-437.560852
 21
237.451340
  0
LINE
  8
0
 10
-438.299988
 20
244.522034
 11
-437.560852
 21
244.522034
  0
LINE
  8
0
 10
-438.299988
 20
250.022034
 11
-437.560852
 21
250.022034
  0
LINE
  8
0
 10
-465.299988
 20
236.311920
 11
-457.799988
 21
236.311920
  0
LINE
  8
0
 10
-466.799988
 20
237.372574
 11
-457.799988
 21
237.372574
  0
LINE
  8
0
 10
-466.799988
 20
232.069229
 11
-465.299988
 21
232.069229
  0
LINE
  8
0
 10
-466.799988
 20
217.927124
 11
-465.299988
 21
217.927124
  0
LINE
  8
0
 10
-457.799988
 20
237.372574
 11
-457.799988
 21
236.311920
  0
LINE
  8
0
 10
-447.799988
 20
233.129929
 11
-447.799988
 21
232.069275
  0
LINE
  8
0
 10
-465.299988
 20
222.169785
 11
-457.799988
 21
222.169785
  0
LINE
  8
0
 10
-447.799988
 20
232.069275
 11
-445.500000
 21
232.069275
  0
LINE
  8
0
 10
-447.799988
 20
233.129929
 11
-445.500000
 21
233.129929
  0
LINE
  8
0
 10
-457.800018
 20
237.372574
 11
-447.800018
 21
233.129929
  0
LINE
  8
0
 10
-457.800018
 20
236.311920
 11
-447.799988
 21
232.069275
  0
LINE
  8
0
 10
-457.799988
 20
222.169785
 11
-453.500000
 21
223.994110
  0
LINE
  8
0
 10
-427.799988
 20
233.129929
 11
-427.799988
 21
227.493149
  0
LINE
  8
0
 10
-443.500000
 20
233.129929
 11
-440.499939
 21
233.129929
  0
LINE
  8
0
 10
-443.500000
 20
232.069275
 11
-440.499939
 21
232.069275
  0
LINE
  8
0
 10
-438.500000
 20
233.129929
 11
-427.799988
 21
233.129929
  0
LINE
  8
0
 10
-438.500000
 20
232.069275
 11
-427.799988
 21
232.069275
  0
LINE
  8
0
 10
-445.500000
 20
239.811890
 11
-438.299988
 21
239.811890
  0
LINE
  8
0
 10
-445.500000
 20
235.428528
 11
-439.500000
 21
235.428528
  0
LINE
  8
0
 10
-445.500000
 20
236.276352
 11
-438.299988
 21
236.276352
  0
LINE
  8
0
 10
-445.500000
 20
239.811890
 11
-445.500000
 21
233.129929
  0
LINE
  8
0
 10
-439.500000
 20
235.428528
 11
-439.500000
 21
233.695587
  0
LINE
  8
0
 10
-449.500000
 20
289.698334
 11
-449.500000
 21
288.000000
  0
LINE
  8
0
 10
-454.700073
 20
288.000000
 11
-449.500000
 21
289.698334
  0
LINE
  8
0
 10
-449.500000
 20
289.698334
 11
-444.299957
 21
288.000000
  0
LINE
  8
0
 10
-439.500000
 20
252.308914
 11
-438.299988
 21
252.308914
  0
LINE
  8
0
 10
-414.422089
 20
227.493149
 11
-414.422089
 21
223.493149
  0
LINE
  8
0
 10
-414.422089
 20
225.193146
 11
-411.422089
 21
225.193146
  0
LINE
  8
0
 10
-414.422089
 20
225.793152
 11
-411.422089
 21
225.793152
  0
LINE
  8
0
 10
-414.422089
 20
224.193146
 11
-411.422089
 21
224.193146
  0
LINE
  8
0
 10
-414.422089
 20
226.793152
 11
-411.422089
 21
226.793152
  0
LINE
  8
0
 10
-411.422089
 20
226.793152
 11
-411.422089
 21
225.793152
  0
LINE
  8
0
 10
-411.422089
 20
225.193146
 11
-411.422089
 21
224.193146
  0
LINE
  8
0
 10
-411.422089
 20
226.668152
 11
-409.922089
 21
226.668152
  0
LINE
  8
0
 10
-411.422089
 20
226.543152
 11
-409.922089
 21
226.543152
  0
LINE
  8
0
 10
-411.422089
 20
226.418152
 11
-409.922089
 21
226.418152
  0
LINE
  8
0
 10
-411.422089
 20
226.293152
 11
-409.922089
 21
226.293152
  0
LINE
  8
0
 10
-411.422089
 20
226.168152
 11
-409.922089
 21
226.168152
  0
LINE
  8
0
 10
-411.422089
 20
226.043152
 11
-409.922089
 21
226.043152
  0
LINE
  8
0
 10
-411.422089
 20
225.918152
 11
-409.922089
 21
225.918152
  0
LINE
  8
0
 10
-411.422089
 20
225.068146
 11
-409.922089
 21
225.068146
  0
LINE
  8
0
 10
-411.422089
 20
224.943146
 11
-409.922089
 21
224.943146
  0
LINE
  8
0
 10
-411.422089
 20
224.818146
 11
-409.922089
 21
224.818146
  0
LINE
  8
0
 10
-411.422089
 20
224.693146
 11
-409.922089
 21
224.693146
  0
LINE
  8
0
 10
-411.422089
 20
224.568146
 11
-409.922089
 21
224.568146
  0
LINE
  8
0
 10
-411.422089
 20
224.443146
 11
-409.922089
 21
224.443146
  0
LINE
  8
0
 10
-411.422089
 20
224.318146
 11
-409.922089
 21
224.318146
  0
LINE
  8
0
 10
-425.500000
 20
279.149994
 11
-425.500000
 21
240.850006
  0
LINE
  8
0
 10
-491.500000
 20
336.000000
 11
-491.500000
 21
184.000000
  0
LINE
  8
0
 10
-484.500000
 20
325.000000
 11
-484.500000
 21
323.961487
  0
LINE
  8
0
 10
-465.500000
 20
240.000000
 11
-461.549988
 21
240.000000
  0
LINE
  8
0
 10
-484.500000
 20
248.000000
 11
-470.000000
 21
248.000000
  0
LINE
  8
0
 10
-484.500000
 20
272.000000
 11
-470.000000
 21
272.000000
  0
LINE
  8
0
 10
-465.500000
 20
280.000000
 11
-461.549988
 21
280.000000
  0
LINE
  8
0
 10
-487.840759
 20
196.038498
 11
-473.000000
 21
196.038498
  0
LINE
  8
0
 10
-487.840881
 20
323.961487
 11
-473.000000
 21
323.961487
  0
LINE
  8
0
 10
-461.500000
 20
279.949982
 11
-461.500000
 21
269.000000
  0
LINE
  8
0
 10
-461.500000
 20
240.050003
 11
-460.500000
 21
240.050003
  0
LINE
  8
0
 10
-461.500000
 20
279.950012
 11
-460.500000
 21
279.950012
  0
LINE
  8
0
 10
-426.299957
 20
279.950043
 11
-425.499939
 21
279.150055
  0
LINE
  8
0
 10
-426.299866
 20
240.049866
 11
-425.499878
 21
240.849869
  0
LINE
  8
0
 10
-426.299988
 20
279.950012
 11
-426.299988
 21
240.049988
  0
LINE
  8
0
 10
-461.549988
 20
280.000000
 11
-461.500000
 21
279.949982
  0
LINE
  8
0
 10
-461.549988
 20
240.000000
 11
-461.500000
 21
240.050003
  0
LINE
  8
0
 10
-491.500031
 20
183.999969
 11
-484.500031
 21
194.999969
  0
LINE
  8
0
 10
-484.500031
 20
325.000031
 11
-491.500031
 21
336.000031
  0
LINE
  8
0
 10
-439.500000
 20
279.739929
 11
-426.299988
 21
279.739929
  0
LINE
  8
0
 10
-439.500000
 20
262.887482
 11
-426.299988
 21
262.887482
  0
LINE
  8
0
 10
-439.500000
 20
257.112518
 11
-426.299988
 21
257.112518
  0
LINE
  8
0
 10
-436.300232
 20
240.260071
 11
-426.299988
 21
240.260071
  0
LINE
  8
0
 10
-426.300049
 20
240.260132
 11
-425.500061
 21
241.015457
  0
LINE
  8
0
 10
-426.299988
 20
257.112518
 11
-425.500000
 21
257.488556
  0
LINE
  8
0
 10
-439.500000
 20
269.391998
 11
-426.299988
 21
262.887543
  0
LINE
  8
0
 10
-426.300018
 20
279.739929
 11
-439.500000
 21
273.235474
  0
LINE
  8
0
 10
-436.576508
 20
245.323959
 11
-426.299988
 21
240.260086
  0
LINE
  8
0
 10
-426.299988
 20
257.112518
 11
-438.299988
 21
251.199387
  0
LINE
  8
0
 10
-426.300018
 20
262.887421
 11
-425.500031
 21
262.511383
  0
LINE
  8
0
 10
-425.500000
 20
278.984619
 11
-426.299988
 21
279.739929
  0
LINE
  8
0
 10
-484.500000
 20
196.038498
 11
-484.500000
 21
195.000000
  0
LINE
  8
0
 10
-484.500000
 20
248.000000
 11
-484.500000
 21
210.222549
  0
LINE
  8
0
 10
-484.500000
 20
309.777466
 11
-484.500000
 21
272.000000
  0
LINE
  8
0
 10
-461.500000
 20
251.000000
 11
-461.500000
 21
240.050003
  0
LINE
  8
0
 10
-465.500000
 20
251.000000
 11
-465.500000
 21
237.372574
  0
LINE
  8
0
 10
-426.299957
 20
279.950043
 11
-439.500000
 21
279.950043
  0
LINE
  8
0
 10
-426.299988
 20
240.049988
 11
-436.301636
 21
240.049988
  0
ARC
  8
0
 10
-445.700012
 20
227.397308
 40
0.500000
 50
90.000000
 51
180.000000
  0
ARC
  8
0
 10
-438.299988
 20
227.397308
 40
0.500000
 50
0.000000
 51
90.000000
  0
ARC
  8
0
 10
-437.500000
 20
225.983109
 40
0.500000
 50
0.000000
 51
90.000000
  0
ARC
  8
0
 10
-446.500000
 20
225.983093
 40
0.500000
 50
90.000000
 51
180.000000
  0
ARC
  8
0
 10
-446.500000
 20
216.583603
 40
0.500000
 50
180.000000
 51
270.000000
  0
ARC
  8
0
 10
-437.500000
 20
216.583603
 40
0.500000
 50
270.000000
 51
0.000000
  0
ARC
  8
0
 10
-438.299988
 20
215.735077
 40
0.500000
 50
270.000000
 51
0.000000
  0
ARC
  8
0
 10
-445.700012
 20
215.735077
 40
0.500000
 50
180.000000
 51
270.000000
  0
ARC
  8
0
 10
-438.299988
 20
222.599045
 40
0.500000
 50
270.000000
 51
0.000000
  0
ARC
  8
0
 10
-445.700012
 20
222.599045
 40
0.500000
 50
180.000000
 51
270.000000
  0
ARC
  8
0
 10
-443.299988
 20
240.201340
 40
7.000009
 50
343.042206
 51
16.957785
  0
ARC
  8
0
 10
-437.560852
 20
241.951340
 40
0.999994
 50
16.958168
 51
90.000000
  0
ARC
  8
0
 10
-437.560852
 20
238.451340
 40
1.000000
 50
270.000000
 51
343.041840
  0
ARC
  8
0
 10
-437.560852
 20
245.522034
 40
1.000000
 50
270.000000
 51
343.042664
  0
ARC
  8
0
 10
-443.299988
 20
247.272034
 40
7.000005
 50
343.042328
 51
16.957785
  0
ARC
  8
0
 10
-437.560852
 20
249.022034
 40
0.999994
 50
16.958168
 51
90.000000
  0
ARC
  8
0
 10
-473.000000
 20
199.038498
 40
3.000000
 50
270.000000
 51
0.000000
  0
ARC
  8
0
 10
-473.000000
 20
320.961487
 40
3.000000
 50
0.000000
 51
90.000000
  0
ARC
  8
0
 10
-487.840881
 20
322.961700
 40
1.000000
 50
90.000000
 51
124.848206
  0
ARC
  8
0
 10
-487.840759
 20
197.038223
 40
1.000005
 50
235.160034
 51
270.000000
  0
ARC
  8
0
 10
-442.744293
 20
230.867157
 40
0.755707
 50
180.000000
 51
194.105835
  0
ARC
  8
0
 10
-442.546753
 20
230.939575
 40
0.965183
 50
195.417343
 51
231.388000
  0
ARC
  8
0
 10
-442.000000
 20
231.738388
 40
1.931895
 50
233.502090
 51
306.497894
  0
ARC
  8
0
 10
-441.453247
 20
230.939575
 40
0.965198
 50
308.612000
 51
344.581787
  0
ARC
  8
0
 10
-441.255707
 20
230.867157
 40
0.755700
 50
345.893036
 51
0.000000
  0
ARC
  8
0
 10
-449.781311
 20
223.371826
 40
0.425078
 50
345.894928
 51
14.107077
  0
ARC
  8
0
 10
-449.892426
 20
223.331085
 40
0.542917
 50
15.418950
 51
51.388477
  0
ARC
  8
0
 10
-450.199982
 20
222.881760
 40
1.086693
 50
53.501793
 51
126.498207
  0
ARC
  8
0
 10
-450.507538
 20
223.331085
 40
0.542927
 50
128.611526
 51
164.582596
  0
ARC
  8
0
 10
-450.618652
 20
223.371826
 40
0.425078
 50
165.894913
 51
194.107071
  0
ARC
  8
0
 10
-450.507538
 20
223.412567
 40
0.542917
 50
195.418945
 51
231.388474
  0
ARC
  8
0
 10
-450.199982
 20
223.861893
 40
1.086693
 50
233.501785
 51
306.498199
  0
ARC
  8
0
 10
-449.892426
 20
223.412567
 40
0.542927
 50
308.611511
 51
344.582611
  0
ARC
  8
0
 10
-449.455688
 20
223.371826
 40
0.755696
 50
345.894165
 51
14.106952
  0
ARC
  8
0
 10
-449.653229
 20
223.299408
 40
0.965187
 50
15.418217
 51
51.388004
  0
ARC
  8
0
 10
-450.199982
 20
222.500595
 40
1.931895
 50
53.502094
 51
126.497902
  0
ARC
  8
0
 10
-450.746735
 20
223.299408
 40
0.965198
 50
128.612000
 51
164.582657
  0
ARC
  8
0
 10
-450.944275
 20
223.371826
 40
0.755696
 50
165.894165
 51
194.106949
  0
ARC
  8
0
 10
-450.746735
 20
223.444244
 40
0.965187
 50
195.418213
 51
231.388000
  0
ARC
  8
0
 10
-450.199982
 20
224.243057
 40
1.931895
 50
233.502090
 51
306.497894
  0
ARC
  8
0
 10
-449.653229
 20
223.444244
 40
0.965198
 50
308.612000
 51
344.582642
  0
ARC
  8
0
 10
-442.819672
 20
218.704926
 40
2.130294
 50
176.237244
 51
191.773209
  0
ARC
  8
0
 10
-442.602112
 20
218.771393
 40
2.356930
 50
192.275894
 51
225.305573
  0
ARC
  8
0
 10
-441.999969
 20
219.504486
 40
3.302718
 50
226.824738
 51
313.175079
  0
ARC
  8
0
 10
-441.397827
 20
218.771393
 40
2.356934
 50
314.694183
 51
347.723724
  0
ARC
  8
0
 10
-441.180267
 20
218.704926
 40
2.130298
 50
348.226379
 51
356.237244
  0
ARC
  8
0
 10
-440.536194
 20
218.704926
 40
1.486227
 50
354.668701
 51
14.106438
  0
ARC
  8
0
 10
-440.924713
 20
218.562500
 40
1.898237
 50
15.417706
 51
51.388241
  0
ARC
  8
0
 10
-441.999969
 20
216.991547
 40
3.799348
 50
53.502098
 51
126.497902
  0
ARC
  8
0
 10
-443.075226
 20
218.562500
 40
1.898228
 50
128.611755
 51
164.582291
  0
ARC
  8
0
 10
-443.463745
 20
218.704926
 40
1.486224
 50
165.893570
 51
185.353775
  0
ARC
  8
0
 10
-442.000000
 20
222.106445
 40
4.532881
 50
245.097824
 51
294.888184
  0
POLYLINE
  8
0
 66
     1
  0
VERTEX
  8
0
 10
-488.412262
 20
323.782379
  0
VERTEX
  8
0
 10
-488.637665
 20
323.602386
  0
VERTEX
  8
0
 10
-488.829193
 20
323.334198
  0
VERTEX
  8
0
 10
-488.956360
 20
322.880768
  0
VERTEX
  8
0
 10
-488.954529
 20
322.335480
  0
VERTEX
  8
0
 10
-488.918304
 20
321.703796
  0
VERTEX
  8
0
 10
-488.829193
 20
320.945923
  0
VERTEX
  8
0
 10
-488.678802
 20
320.110199
  0
VERTEX
  8
0
 10
-488.477661
 20
319.276978
  0
VERTEX
  8
0
 10
-488.235474
 20
318.427368
  0
VERTEX
  8
0
 10
-487.961365
 20
317.550842
  0
VERTEX
  8
0
 10
-487.666260
 20
316.684326
  0
VERTEX
  8
0
 10
-487.331818
 20
315.778534
  0
VERTEX
  8
0
 10
-487.034454
 20
315.023712
  0
VERTEX
  8
0
 10
-486.722717
 20
314.276031
  0
VERTEX
  8
0
 10
-486.395142
 20
313.530579
  0
VERTEX
  8
0
 10
-486.050171
 20
312.782318
  0
VERTEX
  8
0
 10
-485.682861
 20
312.020508
  0
VERTEX
  8
0
 10
-485.302155
 20
311.265594
  0
VERTEX
  8
0
 10
-484.907898
 20
310.517822
  0
VERTEX
  8
0
 10
-484.500000
 20
309.777466
  0
SEQEND
  0
POLYLINE
  8
0
 66
     1
  0
VERTEX
  8
0
 10
-484.500000
 20
210.222549
  0
VERTEX
  8
0
 10
-484.909119
 20
209.479614
  0
VERTEX
  8
0
 10
-485.305420
 20
208.727493
  0
VERTEX
  8
0
 10
-485.686523
 20
207.971695
  0
VERTEX
  8
0
 10
-486.050171
 20
207.217682
  0
VERTEX
  8
0
 10
-486.395294
 20
206.467163
  0
VERTEX
  8
0
 10
-486.729736
 20
205.704056
  0
VERTEX
  8
0
 10
-487.044769
 20
204.948700
  0
VERTEX
  8
0
 10
-487.331818
 20
204.221466
  0
VERTEX
  8
0
 10
-487.656342
 20
203.339935
  0
VERTEX
  8
0
 10
-487.959808
 20
202.450012
  0
VERTEX
  8
0
 10
-488.235474
 20
201.572647
  0
VERTEX
  8
0
 10
-488.479401
 20
200.694916
  0
VERTEX
  8
0
 10
-488.688995
 20
199.810989
  0
VERTEX
  8
0
 10
-488.829193
 20
199.054077
  0
VERTEX
  8
0
 10
-488.908997
 20
198.343964
  0
VERTEX
  8
0
 10
-488.954529
 20
197.664536
  0
VERTEX
  8
0
 10
-488.943970
 20
197.122910
  0
VERTEX
  8
0
 10
-488.829193
 20
196.665802
  0
VERTEX
  8
0
 10
-488.647797
 20
196.418335
  0
VERTEX
  8
0
 10
-488.412842
 20
196.218018
  0
SEQEND
  0
POLYLINE
  8
0
 66
     1
  0
VERTEX
  8
0
 10
-484.500000
 20
272.000000
  0
VERTEX
  8
0
 10
-484.932312
 20
271.388794
  0
VERTEX
  8
0
 10
-485.374298
 20
270.784485
  0
VERTEX
  8
0
 10
-485.772736
 20
270.269165
  0
VERTEX
  8
0
 10
-486.169220
 20
269.789124
  0
VERTEX
  8
0
 10
-486.566284
 20
269.275116
  0
VERTEX
  8
0
 10
-486.961304
 20
268.656738
  0
VERTEX
  8
0
 10
-487.314636
 20
267.978546
  0
VERTEX
  8
0
 10
-487.656158
 20
267.218353
  0
VERTEX
  8
0
 10
-487.970093
 20
266.379425
  0
VERTEX
  8
0
 10
-488.193726
 20
265.671112
  0
VERTEX
  8
0
 10
-488.384491
 20
264.952789
  0
VERTEX
  8
0
 10
-488.546631
 20
264.218475
  0
VERTEX
  8
0
 10
-488.684814
 20
263.444855
  0
VERTEX
  8
0
 10
-488.794128
 20
262.666779
  0
VERTEX
  8
0
 10
-488.871826
 20
261.927856
  0
VERTEX
  8
0
 10
-488.933960
 20
260.964813
  0
VERTEX
  8
0
 10
-488.954529
 20
260.000000
  0
VERTEX
  8
0
 10
-488.936035
 20
259.059082
  0
VERTEX
  8
0
 10
-488.871826
 20
258.072144
  0
VERTEX
  8
0
 10
-488.791107
 20
257.302094
  0
VERTEX
  8
0
 10
-488.682465
 20
256.535400
  0
VERTEX
  8
0
 10
-488.546631
 20
255.781525
  0
VERTEX
  8
0
 10
-488.379517
 20
255.035004
  0
VERTEX
  8
0
 10
-488.182068
 20
254.296066
  0
VERTEX
  8
0
 10
-487.970093
 20
253.620560
  0
VERTEX
  8
0
 10
-487.660156
 20
252.798645
  0
VERTEX
  8
0
 10
-487.314636
 20
252.021454
  0
VERTEX
  8
0
 10
-486.959412
 20
251.344864
  0
VERTEX
  8
0
 10
-486.566284
 20
250.724884
  0
VERTEX
  8
0
 10
-486.211853
 20
250.264923
  0
VERTEX
  8
0
 10
-485.772736
 20
249.730835
  0
VERTEX
  8
0
 10
-485.333405
 20
249.165009
  0
VERTEX
  8
0
 10
-484.911865
 20
248.585968
  0
VERTEX
  8
0
 10
-484.500000
 20
248.000000
  0
SEQEND
  0
POINT
  8
0
 10
-425.500000
 20
55.000000
  0
POINT
  8
0
 10
-470.000000
 20
55.000000
  0
LINE
  8
0
 10
-470.000000
 20
124.000000
 11
-470.000000
 21
-14.000000
  0
LINE
  8
0
 10
-468.399994
 20
109.000000
 11
-468.399994
 21
31.000023
  0
LINE
  8
0
 10
-466.799988
 20
124.000000
 11
-466.799988
 21
0.999996
  0
LINE
  8
0
 10
-469.999939
 20
109.000000
 11
-466.799957
 21
109.000000
  0
LINE
  8
0
  6
DASHED
 10
-470.000000
 20
20.000000
 11
-468.399994
 21
20.000000
  0
LINE
  8
0
 10
-465.500000
 20
77.627457
 11
-465.500000
 21
34.000023
  0
LINE
  8
0
 10
-460.500000
 20
77.627457
 11
-460.500000
 21
34.000023
  0
LINE
  8
0
 10
-468.399994
 20
19.000023
 11
-468.399994
 21
0.999996
  0
LINE
  8
0
 10
-466.799988
 20
34.000023
 11
-455.549988
 21
34.000023
  0
LINE
  8
0
 10
-455.549988
 20
34.000015
 11
-455.549988
 21
16.000015
  0
LINE
  8
0
 10
-454.799988
 20
32.700974
 11
-454.799988
 21
17.299053
  0
LINE
  8
0
 10
-455.549957
 20
34.000031
 11
-454.799957
 21
32.700981
  0
LINE
  8
0
 10
-455.549988
 20
16.000023
 11
-454.799988
 21
17.299061
  0
LINE
  8
0
 10
-466.799988
 20
16.000023
 11
-455.549988
 21
16.000023
  0
LINE
  8
0
 10
-470.000000
 20
31.000023
 11
-466.799988
 21
31.000023
  0
LINE
  8
0
 10
-470.000000
 20
29.800022
 11
-466.799988
 21
29.800022
  0
LINE
  8
0
 10
-470.000000
 20
20.200020
 11
-466.799988
 21
20.200020
  0
LINE
  8
0
 10
-470.000000
 20
19.000023
 11
-466.799988
 21
19.000023
  0
LINE
  8
0
 10
-466.799957
 20
124.000000
 11
-455.549957
 21
124.000000
  0
LINE
  8
0
 10
-455.549988
 20
123.999992
 11
-455.549988
 21
105.999992
  0
LINE
  8
0
 10
-454.799988
 20
122.700951
 11
-454.799988
 21
107.299026
  0
LINE
  8
0
 10
-455.549988
 20
123.999992
 11
-454.799988
 21
122.700951
  0
LINE
  8
0
 10
-455.549988
 20
106.000015
 11
-454.799988
 21
107.299049
  0
LINE
  8
0
 10
-466.799957
 20
106.000000
 11
-455.549957
 21
106.000000
  0
LINE
  8
0
 10
-469.999939
 20
121.000000
 11
-466.799957
 21
121.000000
  0
LINE
  8
0
 10
-469.999939
 20
119.800003
 11
-466.799957
 21
119.800003
  0
LINE
  8
0
 10
-470.000000
 20
0.999996
 11
-466.800018
 21
0.999996
  0
LINE
  8
0
 10
-469.999939
 20
110.199997
 11
-466.799957
 21
110.199997
  0
LINE
  8
0
 10
-445.700012
 20
18.513256
 11
-438.299988
 21
18.513256
  0
LINE
  8
0
 10
-446.500000
 20
16.533352
 11
-437.500000
 21
16.533352
  0
LINE
  8
0
 10
-446.500000
 20
11.083607
 11
-437.500000
 21
11.083607
  0
LINE
  8
0
 10
-445.700012
 20
10.235073
 11
-438.299988
 21
10.235073
  0
LINE
  8
0
 10
-445.700012
 20
22.897312
 11
-438.299988
 21
22.897312
  0
LINE
  8
0
 10
-437.799988
 20
22.397312
 11
-437.799988
 21
17.599049
  0
LINE
  8
0
 10
-437.000000
 20
20.983105
 11
-437.000000
 21
11.583607
  0
LINE
  8
0
 10
-446.200012
 20
22.397312
 11
-446.200012
 21
17.599049
  0
LINE
  8
0
 10
-447.000000
 20
20.983101
 11
-447.000000
 21
11.583607
  0
LINE
  8
0
 10
-445.700012
 20
17.099049
 11
-438.299988
 21
17.099049
  0
LINE
  8
0
 10
-447.500000
 20
21.483101
 11
-446.200012
 21
21.483101
  0
LINE
  8
0
 10
-446.200012
 20
11.083607
 11
-446.200012
 21
10.735073
  0
LINE
  8
0
 10
-437.799988
 20
11.083607
 11
-437.799988
 21
10.735073
  0
LINE
  8
0
 10
-437.799988
 20
21.483101
 11
-436.500000
 21
21.483101
  0
LINE
  8
0
 10
-453.500000
 20
21.200256
 11
-447.500000
 21
21.200256
  0
LINE
  8
0
 10
-436.500000
 20
21.483101
 11
-436.500000
 21
15.543404
  0
LINE
  8
0
 10
-447.500000
 20
21.483101
 11
-447.500000
 21
15.543400
  0
LINE
  8
0
 10
-438.500000
 20
28.695591
 11
-438.500000
 21
22.897312
  0
LINE
  8
0
 10
-445.500000
 20
28.695587
 11
-445.500000
 21
22.897312
  0
LINE
  8
0
 10
-436.500000
 20
21.200256
 11
-431.500000
 21
21.200256
  0
LINE
  8
0
 10
-440.499939
 20
25.867165
 11
-440.499939
 21
28.695587
  0
LINE
  8
0
 10
-443.500000
 20
25.867157
 11
-443.500000
 21
28.695587
  0
LINE
  8
0
 10
-445.500000
 20
28.695587
 11
-443.500000
 21
28.695587
  0
LINE
  8
0
 10
-440.500000
 20
28.695587
 11
-438.500000
 21
28.695587
  0
LINE
  8
0
 10
-431.500000
 20
26.644981
 11
-431.500000
 21
15.543404
  0
LINE
  8
0
 10
-453.500000
 20
15.543400
 11
-447.500000
 21
15.543400
  0
LINE
  8
0
 10
-447.500000
 20
15.826244
 11
-447.000000
 21
15.826244
  0
LINE
  8
0
 10
-437.000000
 20
15.826244
 11
-436.500000
 21
15.826244
  0
LINE
  8
0
 10
-436.500000
 20
15.543400
 11
-431.500000
 21
15.543400
  0
LINE
  8
0
 10
-453.500000
 20
26.644981
 11
-445.500000
 21
26.644981
  0
LINE
  8
0
 10
-443.500000
 20
26.644981
 11
-440.500000
 21
26.644981
  0
LINE
  8
0
 10
-438.500000
 20
26.644981
 11
-431.500000
 21
26.644981
  0
LINE
  8
0
 10
-429.500000
 20
22.993153
 11
-429.500000
 21
17.993153
  0
LINE
  8
0
 10
-431.500000
 20
22.993149
 11
-429.500000
 21
22.993149
  0
LINE
  8
0
 10
-429.500000
 20
22.493149
 11
-414.422089
 21
22.493149
  0
LINE
  8
0
 10
-429.500000
 20
18.493149
 11
-414.422089
 21
18.493149
  0
LINE
  8
0
 10
-431.500000
 20
17.993149
 11
-429.500000
 21
17.993149
  0
LINE
  8
0
 10
-453.500000
 20
26.644981
 11
-453.500000
 21
15.543400
  0
LINE
  8
0
 10
-438.299988
 20
62.690430
 11
-438.299988
 21
81.304443
  0
LINE
  8
0
 10
-439.500000
 20
81.304443
 11
-439.500000
 21
79.571503
  0
LINE
  8
0
 10
-438.299988
 20
72.049004
 11
-437.560852
 21
72.049004
  0
LINE
  8
0
 10
-438.299988
 20
77.549004
 11
-437.560852
 21
77.549004
  0
LINE
  8
0
 10
-438.299988
 20
70.477890
 11
-437.560852
 21
70.477890
  0
LINE
  8
0
 10
-438.299988
 20
64.977890
 11
-437.560852
 21
64.977890
  0
LINE
  8
0
 10
-449.399994
 20
28.129932
 11
-449.399994
 21
27.069279
  0
LINE
  8
0
 10
-449.400024
 20
27.069279
 11
-445.500000
 21
27.069279
  0
LINE
  8
0
 10
-449.400024
 20
28.129932
 11
-445.500000
 21
28.129932
  0
LINE
  8
0
 10
-454.799988
 20
30.420940
 11
-449.400024
 21
28.129930
  0
LINE
  8
0
 10
-454.799988
 20
29.360283
 11
-449.400024
 21
27.069275
  0
LINE
  8
0
 10
-454.799957
 20
19.121403
 11
-453.500000
 21
19.672932
  0
LINE
  8
0
 10
-429.399994
 20
28.129932
 11
-429.399994
 21
22.493149
  0
LINE
  8
0
 10
-443.500000
 20
28.129932
 11
-440.499939
 21
28.129932
  0
LINE
  8
0
 10
-443.500000
 20
27.069279
 11
-440.499939
 21
27.069279
  0
LINE
  8
0
 10
-438.500000
 20
28.129932
 11
-429.399994
 21
28.129932
  0
LINE
  8
0
 10
-438.500000
 20
27.069279
 11
-429.399994
 21
27.069279
  0
LINE
  8
0
 10
-445.500000
 20
75.188141
 11
-438.299988
 21
75.188141
  0
LINE
  8
0
 10
-445.500000
 20
79.571503
 11
-439.500000
 21
79.571503
  0
LINE
  8
0
 10
-445.500000
 20
78.723679
 11
-438.299988
 21
78.723679
  0
LINE
  8
0
 10
-445.500000
 20
75.188141
 11
-445.500000
 21
81.870102
  0
LINE
  8
0
 10
-445.700012
 20
91.486771
 11
-438.299988
 21
91.486771
  0
LINE
  8
0
 10
-446.500000
 20
93.466675
 11
-437.500000
 21
93.466675
  0
LINE
  8
0
 10
-446.500000
 20
98.916428
 11
-437.500000
 21
98.916428
  0
LINE
  8
0
 10
-445.700012
 20
99.764954
 11
-438.299988
 21
99.764954
  0
LINE
  8
0
 10
-445.700012
 20
87.102722
 11
-438.299988
 21
87.102722
  0
LINE
  8
0
 10
-437.799988
 20
87.602722
 11
-437.799988
 21
92.400986
  0
LINE
  8
0
 10
-437.000000
 20
89.016922
 11
-437.000000
 21
98.416428
  0
LINE
  8
0
 10
-446.200012
 20
87.602722
 11
-446.200012
 21
92.400986
  0
LINE
  8
0
 10
-447.000000
 20
89.016930
 11
-447.000000
 21
98.416428
  0
LINE
  8
0
 10
-445.700012
 20
92.900986
 11
-438.299988
 21
92.900986
  0
LINE
  8
0
 10
-447.500000
 20
88.516930
 11
-446.200012
 21
88.516930
  0
LINE
  8
0
 10
-446.200012
 20
98.916428
 11
-446.200012
 21
99.264954
  0
LINE
  8
0
 10
-437.799988
 20
98.916428
 11
-437.799988
 21
99.264954
  0
LINE
  8
0
 10
-437.799988
 20
88.516930
 11
-436.500000
 21
88.516930
  0
LINE
  8
0
 10
-453.500000
 20
88.799774
 11
-447.500000
 21
88.799774
  0
LINE
  8
0
 10
-436.500000
 20
88.516930
 11
-436.500000
 21
94.456627
  0
LINE
  8
0
 10
-447.500000
 20
88.516930
 11
-447.500000
 21
94.456635
  0
LINE
  8
0
 10
-438.500000
 20
81.304443
 11
-438.500000
 21
87.102722
  0
LINE
  8
0
 10
-445.500000
 20
81.304443
 11
-445.500000
 21
87.102722
  0
LINE
  8
0
 10
-436.500000
 20
88.799774
 11
-431.500000
 21
88.799774
  0
LINE
  8
0
 10
-440.499939
 20
84.132866
 11
-440.499939
 21
81.304443
  0
LINE
  8
0
 10
-443.500000
 20
84.132874
 11
-443.500000
 21
81.304443
  0
LINE
  8
0
 10
-445.500000
 20
81.304443
 11
-443.500000
 21
81.304443
  0
LINE
  8
0
 10
-440.500000
 20
81.304443
 11
-438.500000
 21
81.304443
  0
LINE
  8
0
 10
-431.500000
 20
83.355049
 11
-431.500000
 21
94.456627
  0
LINE
  8
0
 10
-453.500000
 20
94.456635
 11
-447.500000
 21
94.456635
  0
LINE
  8
0
 10
-447.500000
 20
94.173782
 11
-447.000000
 21
94.173782
  0
LINE
  8
0
 10
-437.000000
 20
94.173782
 11
-436.500000
 21
94.173782
  0
LINE
  8
0
 10
-436.500000
 20
94.456635
 11
-431.500000
 21
94.456635
  0
LINE
  8
0
 10
-453.500000
 20
83.355049
 11
-445.500000
 21
83.355049
  0
LINE
  8
0
 10
-443.500000
 20
83.355049
 11
-440.500000
 21
83.355049
  0
LINE
  8
0
 10
-438.500000
 20
83.355049
 11
-431.500000
 21
83.355049
  0
LINE
  8
0
 10
-429.500000
 20
87.006882
 11
-429.500000
 21
92.006882
  0
LINE
  8
0
 10
-431.500000
 20
87.006882
 11
-429.500000
 21
87.006882
  0
LINE
  8
0
 10
-429.500000
 20
87.506882
 11
-414.422089
 21
87.506882
  0
LINE
  8
0
 10
-429.500000
 20
91.506882
 11
-414.422089
 21
91.506882
  0
LINE
  8
0
 10
-431.500000
 20
92.006882
 11
-429.500000
 21
92.006882
  0
LINE
  8
0
 10
-453.500000
 20
83.355049
 11
-453.500000
 21
94.456635
  0
LINE
  8
0
 10
-447.799988
 20
81.870102
 11
-447.799988
 21
82.930756
  0
LINE
  8
0
 10
-447.799988
 20
82.930756
 11
-445.500000
 21
82.930756
  0
LINE
  8
0
 10
-447.799988
 20
81.870102
 11
-445.500000
 21
81.870102
  0
LINE
  8
0
 10
-465.299988
 20
78.688110
 11
-457.799988
 21
78.688110
  0
LINE
  8
0
 10
-457.800018
 20
78.688110
 11
-447.800018
 21
82.930756
  0
LINE
  8
0
 10
-457.800018
 20
92.830254
 11
-453.500000
 21
91.005913
  0
LINE
  8
0
 10
-427.799988
 20
81.870102
 11
-427.799988
 21
87.506882
  0
LINE
  8
0
 10
-443.500000
 20
81.870102
 11
-440.499939
 21
81.870102
  0
LINE
  8
0
 10
-443.500000
 20
82.930756
 11
-440.499939
 21
82.930756
  0
LINE
  8
0
 10
-438.500000
 20
81.870102
 11
-427.799988
 21
81.870102
  0
LINE
  8
0
 10
-438.500000
 20
82.930756
 11
-427.799988
 21
82.930756
  0
LINE
  8
0
 10
-457.799988
 20
77.627457
 11
-457.799988
 21
78.688110
  0
LINE
  8
0
 10
-457.800018
 20
77.627457
 11
-447.800018
 21
81.870094
  0
LINE
  8
0
 10
-466.799988
 20
77.627457
 11
-457.799988
 21
77.627457
  0
LINE
  8
0
 10
-466.799988
 20
82.930801
 11
-465.299988
 21
82.930801
  0
LINE
  8
0
 10
-465.299988
 20
92.830246
 11
-457.799988
 21
92.830246
  0
LINE
  8
0
 10
-466.799988
 20
97.072906
 11
-465.299988
 21
97.072906
  0
LINE
  8
0
 10
-465.299988
 20
78.688110
 11
-465.299988
 21
97.072906
  0
LINE
  8
0
 10
-439.500000
 20
62.690430
 11
-438.299988
 21
62.690430
  0
LINE
  8
0
 10
-439.500000
 20
75.188141
 11
-439.500000
 21
28.695587
  0
LINE
  8
0
 10
-414.422089
 20
22.493149
 11
-414.422089
 21
18.493149
  0
LINE
  8
0
 10
-414.422089
 20
20.193150
 11
-411.422089
 21
20.193150
  0
LINE
  8
0
 10
-414.422089
 20
20.793148
 11
-411.422089
 21
20.793148
  0
LINE
  8
0
 10
-414.422089
 20
19.193150
 11
-411.422089
 21
19.193150
  0
LINE
  8
0
 10
-414.422089
 20
21.793148
 11
-411.422089
 21
21.793148
  0
LINE
  8
0
 10
-411.422089
 20
21.793148
 11
-411.422089
 21
20.793148
  0
LINE
  8
0
 10
-411.422089
 20
20.193150
 11
-411.422089
 21
19.193150
  0
LINE
  8
0
 10
-411.422089
 20
21.668148
 11
-409.922089
 21
21.668148
  0
LINE
  8
0
 10
-411.422089
 20
21.543148
 11
-409.922089
 21
21.543148
  0
LINE
  8
0
 10
-411.422089
 20
21.418148
 11
-409.922089
 21
21.418148
  0
LINE
  8
0
 10
-411.422089
 20
21.293148
 11
-409.922089
 21
21.293148
  0
LINE
  8
0
 10
-411.422089
 20
21.168148
 11
-409.922089
 21
21.168148
  0
LINE
  8
0
 10
-411.422089
 20
21.043148
 11
-409.922089
 21
21.043148
  0
LINE
  8
0
 10
-411.422089
 20
20.918148
 11
-409.922089
 21
20.918148
  0
LINE
  8
0
 10
-411.422089
 20
20.068150
 11
-409.922089
 21
20.068150
  0
LINE
  8
0
 10
-411.422089
 20
19.943150
 11
-409.922089
 21
19.943150
  0
LINE
  8
0
 10
-411.422089
 20
19.818150
 11
-409.922089
 21
19.818150
  0
LINE
  8
0
 10
-411.422089
 20
19.693150
 11
-409.922089
 21
19.693150
  0
LINE
  8
0
 10
-411.422089
 20
19.568150
 11
-409.922089
 21
19.568150
  0
LINE
  8
0
 10
-411.422089
 20
19.443150
 11
-409.922089
 21
19.443150
  0
LINE
  8
0
 10
-411.422089
 20
19.318150
 11
-409.922089
 21
19.318150
  0
LINE
  8
0
 10
-414.422089
 20
91.506882
 11
-414.422089
 21
87.506882
  0
LINE
  8
0
 10
-414.422089
 20
89.206879
 11
-411.422089
 21
89.206879
  0
LINE
  8
0
 10
-414.422089
 20
89.806885
 11
-411.422089
 21
89.806885
  0
LINE
  8
0
 10
-414.422089
 20
88.206879
 11
-411.422089
 21
88.206879
  0
LINE
  8
0
 10
-414.422089
 20
90.806885
 11
-411.422089
 21
90.806885
  0
LINE
  8
0
 10
-411.422089
 20
90.806885
 11
-411.422089
 21
89.806885
  0
LINE
  8
0
 10
-411.422089
 20
89.206879
 11
-411.422089
 21
88.206879
  0
LINE
  8
0
 10
-411.422089
 20
90.681885
 11
-409.922089
 21
90.681885
  0
LINE
  8
0
 10
-411.422089
 20
90.556885
 11
-409.922089
 21
90.556885
  0
LINE
  8
0
 10
-411.422089
 20
90.431885
 11
-409.922089
 21
90.431885
  0
LINE
  8
0
 10
-411.422089
 20
90.306885
 11
-409.922089
 21
90.306885
  0
LINE
  8
0
 10
-411.422089
 20
90.181885
 11
-409.922089
 21
90.181885
  0
LINE
  8
0
 10
-411.422089
 20
90.056885
 11
-409.922089
 21
90.056885
  0
LINE
  8
0
 10
-411.422089
 20
89.931885
 11
-409.922089
 21
89.931885
  0
LINE
  8
0
 10
-411.422089
 20
89.081879
 11
-409.922089
 21
89.081879
  0
LINE
  8
0
 10
-411.422089
 20
88.956879
 11
-409.922089
 21
88.956879
  0
LINE
  8
0
 10
-411.422089
 20
88.831879
 11
-409.922089
 21
88.831879
  0
LINE
  8
0
 10
-411.422089
 20
88.706879
 11
-409.922089
 21
88.706879
  0
LINE
  8
0
 10
-411.422089
 20
88.581879
 11
-409.922089
 21
88.581879
  0
LINE
  8
0
 10
-411.422089
 20
88.456879
 11
-409.922089
 21
88.456879
  0
LINE
  8
0
 10
-411.422089
 20
88.331879
 11
-409.922089
 21
88.331879
  0
LINE
  8
0
 10
-425.500000
 20
74.150002
 11
-425.500000
 21
35.849998
  0
LINE
  8
0
 10
-491.500000
 20
131.000000
 11
-491.500000
 21
-21.000000
  0
LINE
  8
0
 10
-488.954529
 20
-17.000000
 11
-473.000000
 21
-17.000000
  0
LINE
  8
0
 10
-484.500000
 20
13.000000
 11
-470.000000
 21
13.000000
  0
LINE
  8
0
 10
-465.500000
 20
35.000000
 11
-461.549988
 21
35.000000
  0
LINE
  8
0
 10
-465.500000
 20
75.000000
 11
-461.549988
 21
75.000000
  0
LINE
  8
0
 10
-484.500000
 20
97.000000
 11
-470.000000
 21
97.000000
  0
LINE
  8
0
 10
-488.954529
 20
127.000000
 11
-473.000000
 21
127.000000
  0
LINE
  8
0
 10
-461.500000
 20
74.949997
 11
-461.500000
 21
35.050003
  0
LINE
  8
0
 10
-461.500000
 20
35.049999
 11
-460.500000
 21
35.049999
  0
LINE
  8
0
 10
-461.500000
 20
74.949997
 11
-460.500000
 21
74.949997
  0
LINE
  8
0
 10
-426.299896
 20
35.049896
 11
-425.499908
 21
35.849899
  0
LINE
  8
0
 10
-426.299957
 20
74.950035
 11
-425.499939
 21
74.150040
  0
LINE
  8
0
 10
-426.299988
 20
74.949997
 11
-426.299988
 21
35.049995
  0
LINE
  8
0
 10
-461.500061
 20
74.949944
 11
-461.550079
 21
74.999939
  0
LINE
  8
0
 10
-461.549988
 20
34.999992
 11
-461.500000
 21
35.049995
  0
LINE
  8
0
 10
-491.500000
 20
-21.000015
 11
-488.954559
 21
-17.000023
  0
LINE
  8
0
 10
-491.500000
 20
131.000015
 11
-488.954559
 21
127.000023
  0
LINE
  8
0
 10
-436.300232
 20
74.739929
 11
-426.299988
 21
74.739929
  0
LINE
  8
0
 10
-439.500000
 20
57.887482
 11
-426.299988
 21
57.887482
  0
LINE
  8
0
 10
-439.500000
 20
52.112518
 11
-426.299988
 21
52.112518
  0
LINE
  8
0
 10
-439.500000
 20
35.260071
 11
-426.299988
 21
35.260071
  0
LINE
  8
0
 10
-426.300110
 20
35.260246
 11
-425.500122
 21
36.015564
  0
LINE
  8
0
 10
-426.299988
 20
52.112534
 11
-425.500000
 21
52.488567
  0
LINE
  8
0
 10
-438.299988
 20
63.800697
 11
-426.299988
 21
57.887566
  0
LINE
  8
0
 10
-426.299957
 20
74.739922
 11
-436.576538
 21
69.676018
  0
LINE
  8
0
 10
-439.500000
 20
41.764557
 11
-426.299957
 21
35.260082
  0
LINE
  8
0
 10
-426.299957
 20
52.112537
 11
-439.500000
 21
45.608070
  0
LINE
  8
0
 10
-426.300049
 20
57.887367
 11
-425.500061
 21
57.511333
  0
LINE
  8
0
 10
-425.499969
 20
73.984573
 11
-426.299988
 21
74.739891
  0
LINE
  8
0
 10
-484.500000
 20
119.008331
 11
-484.500000
 21
97.000000
  0
LINE
  8
0
 10
-484.500000
 20
77.208664
 11
-484.500000
 21
32.791332
  0
LINE
  8
0
 10
-484.500000
 20
13.000000
 11
-484.500000
 21
-9.008331
  0
LINE
  8
0
 10
-426.299988
 20
74.949997
 11
-436.301605
 21
74.949997
  0
LINE
  8
0
 10
-426.299988
 20
35.049995
 11
-439.500000
 21
35.049995
  0
ARC
  8
0
 10
-445.700012
 20
22.397312
 40
0.500000
 50
90.000000
 51
180.000000
  0
ARC
  8
0
 10
-438.299988
 20
22.397312
 40
0.500000
 50
0.000000
 51
90.000000
  0
ARC
  8
0
 10
-437.500000
 20
20.983105
 40
0.500000
 50
0.000000
 51
90.000000
  0
ARC
  8
0
 10
-446.500000
 20
20.983101
 40
0.500000
 50
90.000000
 51
180.000000
  0
ARC
  8
0
 10
-446.500000
 20
11.583607
 40
0.500000
 50
180.000000
 51
270.000000
  0
ARC
  8
0
 10
-437.500000
 20
11.583607
 40
0.500000
 50
270.000000
 51
0.000000
  0
ARC
  8
0
 10
-438.299988
 20
10.735073
 40
0.500000
 50
270.000000
 51
0.000000
  0
ARC
  8
0
 10
-445.700012
 20
10.735073
 40
0.500000
 50
180.000000
 51
270.000000
  0
ARC
  8
0
 10
-438.299988
 20
17.599049
 40
0.500000
 50
270.000000
 51
0.000000
  0
ARC
  8
0
 10
-445.700012
 20
17.599049
 40
0.500000
 50
180.000000
 51
270.000000
  0
ARC
  8
0
 10
-443.299988
 20
74.799004
 40
7.000011
 50
343.042145
 51
16.957664
  0
ARC
  8
0
 10
-437.560852
 20
73.049004
 40
1.000000
 50
270.000000
 51
343.041840
  0
ARC
  8
0
 10
-437.560852
 20
76.549004
 40
0.999992
 50
16.957750
 51
90.000000
  0
ARC
  8
0
 10
-437.560852
 20
69.477890
 40
0.999994
 50
16.958168
 51
90.000000
  0
ARC
  8
0
 10
-443.299988
 20
67.727890
 40
7.000009
 50
343.042206
 51
16.957724
  0
ARC
  8
0
 10
-437.560852
 20
65.977890
 40
1.000000
 50
270.000000
 51
343.042236
  0
ARC
  8
0
 10
-445.700012
 20
87.602722
 40
0.500000
 50
180.000000
 51
270.000000
  0
ARC
  8
0
 10
-438.299988
 20
87.602722
 40
0.500000
 50
270.000000
 51
0.000000
  0
ARC
  8
0
 10
-437.500000
 20
89.016922
 40
0.500000
 50
270.000000
 51
0.000000
  0
ARC
  8
0
 10
-446.500000
 20
89.016930
 40
0.500000
 50
180.000000
 51
270.000000
  0
ARC
  8
0
 10
-446.500000
 20
98.416428
 40
0.500000
 50
90.000000
 51
180.000000
  0
ARC
  8
0
 10
-437.500000
 20
98.416428
 40
0.500000
 50
0.000000
 51
90.000000
  0
ARC
  8
0
 10
-438.299988
 20
99.264954
 40
0.500000
 50
0.000000
 51
90.000000
  0
ARC
  8
0
 10
-445.700012
 20
99.264954
 40
0.500000
 50
90.000000
 51
180.000000
  0
ARC
  8
0
 10
-438.299988
 20
92.400986
 40
0.500000
 50
0.000000
 51
90.000000
  0
ARC
  8
0
 10
-445.700012
 20
92.400986
 40
0.500000
 50
90.000000
 51
180.000000
  0
ARC
  8
0
 10
-473.000000
 20
-14.000000
 40
3.000000
 50
270.000000
 51
0.000000
  0
ARC
  8
0
 10
-473.000000
 20
124.000000
 40
3.000000
 50
0.000000
 51
90.000000
  0
ARC
  8
0
 10
-442.744293
 20
25.867159
 40
0.755707
 50
180.000000
 51
194.106384
  0
ARC
  8
0
 10
-442.546753
 20
25.939583
 40
0.965186
 50
195.418106
 51
231.388214
  0
ARC
  8
0
 10
-442.000000
 20
26.738384
 40
1.931890
 50
233.501999
 51
306.497925
  0
ARC
  8
0
 10
-441.453247
 20
25.939581
 40
0.965204
 50
308.611725
 51
344.581787
  0
ARC
  8
0
 10
-441.255707
 20
25.867155
 40
0.755698
 50
345.893616
 51
0.000000
  0
ARC
  8
0
 10
-449.781311
 20
18.371834
 40
0.425080
 50
345.893921
 51
14.106827
  0
ARC
  8
0
 10
-449.892426
 20
18.331093
 40
0.542917
 50
15.418756
 51
51.388603
  0
ARC
  8
0
 10
-450.199982
 20
17.881765
 40
1.086696
 50
53.501911
 51
126.498390
  0
ARC
  8
0
 10
-450.507538
 20
18.331089
 40
0.542924
 50
128.611771
 51
164.582214
  0
ARC
  8
0
 10
-450.618652
 20
18.371826
 40
0.425080
 50
165.893921
 51
194.106827
  0
ARC
  8
0
 10
-450.507538
 20
18.412567
 40
0.542917
 50
195.418762
 51
231.388596
  0
ARC
  8
0
 10
-450.199982
 20
18.861895
 40
1.086696
 50
233.501907
 51
306.498383
  0
ARC
  8
0
 10
-449.892426
 20
18.412571
 40
0.542924
 50
308.611786
 51
344.582214
  0
ARC
  8
0
 10
-449.455688
 20
18.371830
 40
0.755698
 50
345.893616
 51
14.106531
  0
ARC
  8
0
 10
-449.653229
 20
18.299406
 40
0.965187
 50
15.418217
 51
51.388287
  0
ARC
  8
0
 10
-450.199982
 20
17.500607
 40
1.931890
 50
53.501995
 51
126.498039
  0
ARC
  8
0
 10
-450.746735
 20
18.299406
 40
0.965203
 50
128.611786
 51
164.581894
  0
ARC
  8
0
 10
-450.944275
 20
18.371830
 40
0.755698
 50
165.893616
 51
194.106537
  0
ARC
  8
0
 10
-450.746735
 20
18.444254
 40
0.965187
 50
195.418213
 51
231.388290
  0
ARC
  8
0
 10
-450.199982
 20
19.243053
 40
1.931890
 50
233.501999
 51
306.498047
  0
ARC
  8
0
 10
-449.653229
 20
18.444254
 40
0.965203
 50
308.611786
 51
344.581879
  0
ARC
  8
0
 10
-442.819672
 20
13.704924
 40
2.130294
 50
176.237198
 51
191.773331
  0
ARC
  8
0
 10
-442.602112
 20
13.771391
 40
2.356931
 50
192.276016
 51
225.305664
  0
ARC
  8
0
 10
-441.999969
 20
14.504489
 40
3.302726
 50
226.824860
 51
313.175049
  0
ARC
  8
0
 10
-441.397827
 20
13.771389
 40
2.356931
 50
314.694244
 51
347.723816
  0
ARC
  8
0
 10
-441.180267
 20
13.704920
 40
2.130297
 50
348.226501
 51
356.237152
  0
ARC
  8
0
 10
-440.536194
 20
13.704926
 40
1.486226
 50
354.668762
 51
14.106330
  0
ARC
  8
0
 10
-440.924713
 20
13.562493
 40
1.898238
 50
15.417817
 51
51.388348
  0
ARC
  8
0
 10
-441.999969
 20
11.991547
 40
3.799347
 50
53.502090
 51
126.497917
  0
ARC
  8
0
 10
-443.075226
 20
13.562492
 40
1.898233
 50
128.611649
 51
164.582214
  0
ARC
  8
0
 10
-443.463745
 20
13.704926
 40
1.486223
 50
165.893738
 51
185.354034
  0
ARC
  8
0
 10
-442.000000
 20
17.106434
 40
4.532876
 50
245.097794
 51
294.888184
  0
ARC
  8
0
 10
-442.000000
 20
92.893593
 40
4.532872
 50
65.111816
 51
114.902214
  0
ARC
  8
0
 10
-443.463745
 20
96.295105
 40
1.486220
 50
174.646225
 51
194.106155
  0
ARC
  8
0
 10
-443.075226
 20
96.437538
 40
1.898237
 50
195.417709
 51
231.388382
  0
ARC
  8
0
 10
-441.999969
 20
98.008484
 40
3.799348
 50
233.502106
 51
306.497894
  0
ARC
  8
0
 10
-440.924713
 20
96.437538
 40
1.898234
 50
308.611603
 51
344.582062
  0
ARC
  8
0
 10
-440.536194
 20
96.295105
 40
1.486224
 50
345.893555
 51
5.331300
  0
ARC
  8
0
 10
-441.255707
 20
84.132874
 40
0.755707
 50
0.000000
 51
14.106391
  0
ARC
  8
0
 10
-441.453247
 20
84.060448
 40
0.965187
 50
15.418217
 51
51.388287
  0
ARC
  8
0
 10
-442.000000
 20
83.261642
 40
1.931895
 50
53.502094
 51
126.497902
  0
ARC
  8
0
 10
-442.546753
 20
84.060448
 40
0.965204
 50
128.611710
 51
164.581787
  0
ARC
  8
0
 10
-442.744293
 20
84.132874
 40
0.755698
 50
165.893616
 51
180.000000
  0
ARC
  8
0
 10
-449.781311
 20
91.628204
 40
0.425082
 50
345.892914
 51
14.106079
  0
ARC
  8
0
 10
-449.892426
 20
91.587463
 40
0.542915
 50
15.418174
 51
51.388477
  0
ARC
  8
0
 10
-450.199982
 20
91.138138
 40
1.086693
 50
53.501793
 51
126.497971
  0
ARC
  8
0
 10
-450.507538
 20
91.587471
 40
0.542927
 50
128.611526
 51
164.581833
  0
ARC
  8
0
 10
-450.618652
 20
91.628204
 40
0.425082
 50
165.892929
 51
194.106079
  0
ARC
  8
0
 10
-450.507538
 20
91.668945
 40
0.542915
 50
195.418167
 51
231.388474
  0
ARC
  8
0
 10
-450.199982
 20
92.118271
 40
1.086693
 50
233.501785
 51
306.497955
  0
ARC
  8
0
 10
-449.892426
 20
91.668938
 40
0.542927
 50
308.611511
 51
344.581818
  0
ARC
  8
0
 10
-449.455688
 20
91.628204
 40
0.755698
 50
345.893616
 51
14.106391
  0
ARC
  8
0
 10
-449.653229
 20
91.555779
 40
0.965187
 50
15.418217
 51
51.388287
  0
ARC
  8
0
 10
-450.199982
 20
90.756981
 40
1.931889
 50
53.501961
 51
126.498039
  0
ARC
  8
0
 10
-450.746735
 20
91.555779
 40
0.965204
 50
128.611710
 51
164.581787
  0
ARC
  8
0
 10
-450.944275
 20
91.628204
 40
0.755698
 50
165.893616
 51
194.106384
  0
ARC
  8
0
 10
-450.746735
 20
91.700630
 40
0.965187
 50
195.418213
 51
231.388290
  0
ARC
  8
0
 10
-450.199982
 20
92.499428
 40
1.931889
 50
233.501953
 51
306.498047
  0
ARC
  8
0
 10
-449.653229
 20
91.700630
 40
0.965204
 50
308.611725
 51
344.581787
  0
ARC
  8
0
 10
-441.180267
 20
96.295105
 40
2.130295
 50
3.762957
 51
11.773612
  0
ARC
  8
0
 10
-441.397827
 20
96.228638
 40
2.356934
 50
12.276262
 51
45.305832
  0
ARC
  8
0
 10
-441.999969
 20
95.495537
 40
3.302735
 50
46.825008
 51
133.175171
  0
ARC
  8
0
 10
-442.602112
 20
96.228638
 40
2.356923
 50
134.694427
 51
167.724106
  0
ARC
  8
0
 10
-442.819672
 20
96.295105
 40
2.130295
 50
168.226791
 51
183.762756
  0
POLYLINE
  8
0
 66
     1
  0
VERTEX
  8
0
 10
-484.500000
 20
97.000000
  0
VERTEX
  8
0
 10
-485.334930
 20
96.786491
  0
VERTEX
  8
0
 10
-486.138611
 20
96.463776
  0
VERTEX
  8
0
 10
-486.881897
 20
96.052849
  0
VERTEX
  8
0
 10
-487.521301
 20
95.592453
  0
VERTEX
  8
0
 10
-488.076630
 20
95.050018
  0
VERTEX
  8
0
 10
-488.503357
 20
94.409973
  0
VERTEX
  8
0
 10
-488.766266
 20
93.685562
  0
VERTEX
  8
0
 10
-488.884064
 20
92.901779
  0
VERTEX
  8
0
 10
-488.923370
 20
92.000412
  0
VERTEX
  8
0
 10
-488.934113
 20
91.171761
  0
VERTEX
  8
0
 10
-488.923889
 20
90.359375
  0
VERTEX
  8
0
 10
-488.886536
 20
89.546066
  0
VERTEX
  8
0
 10
-488.815826
 20
88.714645
  0
VERTEX
  8
0
 10
-488.704468
 20
87.842148
  0
VERTEX
  8
0
 10
-488.556427
 20
86.976692
  0
VERTEX
  8
0
 10
-488.371521
 20
86.104019
  0
VERTEX
  8
0
 10
-488.149536
 20
85.209839
  0
VERTEX
  8
0
 10
-487.871216
 20
84.236893
  0
VERTEX
  8
0
 10
-487.554077
 20
83.259079
  0
VERTEX
  8
0
 10
-487.217743
 20
82.325684
  0
VERTEX
  8
0
 10
-486.881897
 20
81.485977
  0
VERTEX
  8
0
 10
-486.486847
 20
80.606743
  0
VERTEX
  8
0
 10
-486.058411
 20
79.742989
  0
VERTEX
  8
0
 10
-485.634644
 20
78.966896
  0
VERTEX
  8
0
 10
-485.275635
 20
78.368462
  0
VERTEX
  8
0
 10
-484.897064
 20
77.782280
  0
VERTEX
  8
0
 10
-484.500000
 20
77.208664
  0
SEQEND
  0
POLYLINE
  8
0
 66
     1
  0
VERTEX
  8
0
 10
-484.500000
 20
13.000000
  0
VERTEX
  8
0
 10
-485.334930
 20
13.213510
  0
VERTEX
  8
0
 10
-486.138611
 20
13.536228
  0
VERTEX
  8
0
 10
-486.881897
 20
13.947151
  0
VERTEX
  8
0
 10
-487.521301
 20
14.407549
  0
VERTEX
  8
0
 10
-488.076630
 20
14.949984
  0
VERTEX
  8
0
 10
-488.503357
 20
15.590031
  0
VERTEX
  8
0
 10
-488.766266
 20
16.314442
  0
VERTEX
  8
0
 10
-488.884064
 20
17.098223
  0
VERTEX
  8
0
 10
-488.923370
 20
17.999588
  0
VERTEX
  8
0
 10
-488.934113
 20
18.828241
  0
VERTEX
  8
0
 10
-488.923889
 20
19.640623
  0
VERTEX
  8
0
 10
-488.886536
 20
20.453928
  0
VERTEX
  8
0
 10
-488.815826
 20
21.285351
  0
VERTEX
  8
0
 10
-488.704468
 20
22.157852
  0
VERTEX
  8
0
 10
-488.556427
 20
23.023304
  0
VERTEX
  8
0
 10
-488.371521
 20
23.895981
  0
VERTEX
  8
0
 10
-488.149536
 20
24.790161
  0
VERTEX
  8
0
 10
-487.871216
 20
25.763111
  0
VERTEX
  8
0
 10
-487.554077
 20
26.740923
  0
VERTEX
  8
0
 10
-487.217743
 20
27.674320
  0
VERTEX
  8
0
 10
-486.881897
 20
28.514023
  0
VERTEX
  8
0
 10
-486.486847
 20
29.393255
  0
VERTEX
  8
0
 10
-486.058411
 20
30.257011
  0
VERTEX
  8
0
 10
-485.634644
 20
31.033106
  0
VERTEX
  8
0
 10
-485.275635
 20
31.631536
  0
VERTEX
  8
0
 10
-484.897064
 20
32.217720
  0
VERTEX
  8
0
 10
-484.500000
 20
32.791332
  0
SEQEND
  0
POLYLINE
  8
0
 66
     1
  0
VERTEX
  8
0
 10
-488.954529
 20
127.000000
  0
VERTEX
  8
0
 10
-488.652191
 20
126.431564
  0
VERTEX
  8
0
 10
-488.337280
 20
125.843742
  0
VERTEX
  8
0
 10
-488.005035
 20
125.227577
  0
VERTEX
  8
0
 10
-487.625183
 20
124.529434
  0
VERTEX
  8
0
 10
-487.259827
 20
123.863297
  0
VERTEX
  8
0
 10
-486.892151
 20
123.198418
  0
VERTEX
  8
0
 10
-486.535095
 20
122.557983
  0
VERTEX
  8
0
 10
-486.207275
 20
121.974792
  0
VERTEX
  8
0
 10
-485.877563
 20
121.392700
  0
VERTEX
  8
0
 10
-485.542358
 20
120.805573
  0
VERTEX
  8
0
 10
-485.196960
 20
120.205299
  0
VERTEX
  8
0
 10
-484.849518
 20
119.606216
  0
VERTEX
  8
0
 10
-484.500000
 20
119.008331
  0
SEQEND
  0
POLYLINE
  8
0
 66
     1
  0
VERTEX
  8
0
 10
-488.954529
 20
-17.000000
  0
VERTEX
  8
0
 10
-488.652191
 20
-16.431564
  0
VERTEX
  8
0
 10
-488.337280
 20
-15.843742
  0
VERTEX
  8
0
 10
-488.005035
 20
-15.227573
  0
VERTEX
  8
0
 10
-487.625183
 20
-14.529434
  0
VERTEX
  8
0
 10
-487.259827
 20
-13.863294
  0
VERTEX
  8
0
 10
-486.892151
 20
-13.198416
  0
VERTEX
  8
0
 10
-486.535095
 20
-12.557983
  0
VERTEX
  8
0
 10
-486.207275
 20
-11.974795
  0
VERTEX
  8
0
 10
-485.877563
 20
-11.392697
  0
VERTEX
  8
0
 10
-485.542358
 20
-10.805573
  0
VERTEX
  8
0
 10
-485.196960
 20
-10.205297
  0
VERTEX
  8
0
 10
-484.849518
 20
-9.606215
  0
VERTEX
  8
0
 10
-484.500000
 20
-9.008331
  0
SEQEND
  0
POINT
  8
0
 10
-220.000000
 20
260.000000
  0
POINT
  8
0
 10
-122.000000
 20
260.000000
  0
LINE
  8
0
 10
-181.886932
 20
216.230087
 11
-193.129929
 21
227.473083
  0
LINE
  8
0
 10
-176.230103
 20
221.886948
 11
-187.473114
 21
233.129959
  0
LINE
  8
0
 10
-180.543381
 20
226.200226
 11
-186.200241
 21
220.543365
  0
LINE
  8
0
 10
-187.473038
 20
233.695541
 11
-193.695587
 21
227.472992
  0
LINE
  8
0
 10
-186.765945
 20
220.543427
 11
-193.695587
 21
227.473068
  0
LINE
  8
0
 10
-180.543442
 20
226.765976
 11
-187.473083
 21
233.695618
  0
LINE
  8
0
 10
-185.988113
 20
231.644943
 11
-191.644974
 21
225.988098
  0
LINE
  8
0
 10
-179.412018
 20
227.897278
 11
-180.826233
 21
226.483063
  0
LINE
  8
0
 10
-176.230042
 20
221.179718
 11
-181.179779
 21
216.229980
  0
LINE
  8
0
 10
-175.381531
 20
223.159622
 11
-176.442200
 21
222.098969
  0
LINE
  8
0
 10
-186.483093
 20
220.826202
 11
-187.897308
 21
219.411987
  0
LINE
  8
0
 10
-183.866791
 20
215.381531
 11
-187.897308
 21
219.412048
  0
LINE
  8
0
 10
-175.381531
 20
223.866837
 11
-179.412033
 21
227.897339
  0
LINE
  8
0
 10
-182.099060
 20
216.442108
 11
-183.159714
 21
215.381454
  0
LINE
  8
0
 10
-186.765976
 20
231.715988
 11
-186.058884
 21
231.715988
  0
LINE
  8
0
 10
-191.715790
 20
226.765961
 11
-191.715790
 21
226.058868
  0
LINE
  8
0
 10
-190.301468
 20
224.644592
 11
-184.644638
 21
230.301422
  0
LINE
  8
0
 10
-183.230377
 20
237.372513
 11
-187.190186
 21
233.412704
  0
LINE
  8
0
 10
-187.473022
 20
241.615143
 11
-201.615158
 21
227.473007
  0
LINE
  8
0
 10
-182.169769
 20
236.311859
 11
-186.129578
 21
232.352051
  0
LINE
  8
0
 10
-187.473022
 20
241.615189
 11
-182.169724
 21
236.311874
  0
LINE
  8
0
 10
-201.615189
 20
227.473053
 11
-196.311890
 21
222.169739
  0
LINE
  8
0
 10
-186.412415
 20
232.069214
 11
-192.069260
 21
226.412354
  0
LINE
  8
0
 10
-187.473022
 20
233.129868
 11
-193.129868
 21
227.473022
  0
LINE
  8
0
 10
-192.352112
 20
226.129517
 11
-196.311905
 21
222.169724
  0
LINE
  8
0
 10
-193.412720
 20
227.190186
 11
-197.372513
 21
223.230377
  0
LINE
  8
0
 10
-243.722824
 20
227.155518
 11
-252.844498
 21
236.277206
  0
LINE
  8
0
 10
-240.187225
 20
230.691147
 11
-241.035767
 21
231.539673
  0
LINE
  8
0
 10
-240.187775
 20
230.690125
 11
-243.723312
 21
227.154587
  0
LINE
  8
0
 10
-249.309494
 20
239.811905
 11
-252.845032
 21
236.276367
  0
LINE
  8
0
 10
-241.743362
 20
230.831589
 11
-243.864685
 21
228.710266
  0
LINE
  8
0
 10
-249.168076
 20
238.256271
 11
-251.289398
 21
236.134949
  0
LINE
  8
0
 10
-239.091736
 20
238.079453
 11
-243.334366
 21
233.836823
  0
LINE
  8
0
 10
-241.920273
 20
240.907867
 11
-246.162903
 21
236.665237
  0
LINE
  8
0
 10
-239.091125
 20
238.080429
 11
-241.919571
 21
240.908875
  0
LINE
  8
0
 10
-242.485336
 20
234.686310
 11
-245.313766
 21
237.514740
  0
LINE
  8
0
 10
-248.460373
 20
238.964294
 11
-249.308884
 21
239.812805
  0
LINE
  8
0
 10
-244.040970
 20
234.544891
 11
-245.455185
 21
235.959106
  0
LINE
  8
0
 10
-241.036438
 20
231.538757
 11
-227.690384
 21
240.113022
  0
LINE
  8
0
 10
-248.460403
 20
238.962875
 11
-239.886139
 21
252.308929
  0
LINE
  8
0
 10
-227.689606
 20
240.114044
 11
-239.885986
 21
252.310425
  0
LINE
  8
0
 10
-263.769928
 20
221.886902
 11
-252.526932
 21
233.129883
  0
LINE
  8
0
 10
-258.113098
 20
216.230042
 11
-246.870102
 21
227.473038
  0
LINE
  8
0
 10
-253.799744
 20
220.543442
 11
-259.456604
 21
226.200302
  0
LINE
  8
0
 10
-246.304398
 20
227.473083
 11
-252.526947
 21
233.695633
  0
LINE
  8
0
 10
-259.456573
 20
226.765945
 11
-252.526917
 21
233.695602
  0
LINE
  8
0
 10
-253.234039
 20
220.543396
 11
-246.304398
 21
227.473038
  0
LINE
  8
0
 10
-248.355026
 20
225.988174
 11
-254.011871
 21
231.645035
  0
LINE
  8
0
 10
-252.102692
 20
219.412079
 11
-253.516907
 21
220.826294
  0
LINE
  8
0
 10
-258.820190
 20
216.230072
 11
-263.769928
 21
221.179825
  0
LINE
  8
0
 10
-256.840332
 20
215.381592
 11
-257.901001
 21
216.442261
  0
LINE
  8
0
 10
-259.173767
 20
226.483154
 11
-260.587952
 21
227.897369
  0
LINE
  8
0
 10
-264.618469
 20
223.866806
 11
-260.587952
 21
227.897324
  0
LINE
  8
0
 10
-256.133179
 20
215.381500
 11
-252.102692
 21
219.412018
  0
LINE
  8
0
 10
-263.557831
 20
222.099121
 11
-264.618500
 21
223.159775
  0
LINE
  8
0
 10
-248.284195
 20
226.765991
 11
-248.284195
 21
226.058899
  0
LINE
  8
0
 10
-253.234100
 20
231.715805
 11
-253.941193
 21
231.715805
  0
LINE
  8
0
 10
-255.355362
 20
230.301514
 11
-249.698532
 21
224.644684
  0
LINE
  8
0
 10
-243.688110
 20
222.169800
 11
-247.647919
 21
226.129593
  0
LINE
  8
0
 10
-247.930725
 20
217.927124
 11
-251.890533
 21
221.886932
  0
LINE
  8
0
 10
-242.627441
 20
223.230453
 11
-246.587250
 21
227.190262
  0
LINE
  8
0
 10
-247.930710
 20
217.927124
 11
-242.627411
 21
223.230438
  0
LINE
  8
0
 10
-262.072876
 20
232.069244
 11
-256.769562
 21
237.372559
  0
LINE
  8
0
 10
-247.930756
 20
226.412430
 11
-253.587616
 21
232.069290
  0
LINE
  8
0
 10
-246.870087
 20
227.473099
 11
-252.526947
 21
233.129944
  0
LINE
  8
0
 10
-258.113068
 20
228.109467
 11
-262.072876
 21
232.069275
  0
LINE
  8
0
 10
-252.809784
 20
233.412781
 11
-256.769592
 21
237.372589
  0
LINE
  8
0
 10
-253.870453
 20
232.352127
 11
-257.830261
 21
236.311935
  0
LINE
  8
0
 10
-192.281265
 20
283.192963
 11
-196.806747
 21
287.718445
  0
LINE
  8
0
 10
-202.052582
 20
289.260773
 11
-205.857666
 21
285.455719
  0
LINE
  8
0
 10
-190.738953
 20
277.946960
 11
-194.544052
 21
274.141876
  0
LINE
  8
0
 10
-193.887680
 20
280.455109
 11
-197.372452
 21
276.970337
  0
LINE
  8
0
 10
-199.544434
 20
286.112061
 11
-203.029236
 21
282.627258
  0
LINE
  8
0
 10
-205.857727
 20
285.455719
 11
-194.544022
 21
274.141998
  0
LINE
  8
0
 10
-200.857117
 20
288.940460
 11
-191.059158
 21
279.142487
  0
LINE
  8
0
 10
-191.059143
 20
279.142456
 11
-190.738831
 21
277.947021
  0
LINE
  8
0
 10
-200.857086
 20
288.940521
 11
-202.052521
 21
289.260834
  0
LINE
  8
0
 10
-193.129776
 20
281.213013
 11
-192.281265
 21
282.061523
  0
LINE
  8
0
 10
-193.695450
 20
281.778687
 11
-192.281235
 21
283.192902
  0
LINE
  8
0
 10
-198.220932
 20
286.304199
 11
-196.806717
 21
287.718414
  0
LINE
  8
0
 10
-192.281235
 20
282.061646
 11
-197.938080
 21
287.718475
  0
LINE
  8
0
 10
-196.806763
 20
287.718048
 11
-197.938141
 21
287.718048
  0
LINE
  8
0
 10
-192.281342
 20
283.192963
 11
-192.281342
 21
282.061584
  0
LINE
  8
0
 10
-198.786621
 20
286.869873
 11
-197.938110
 21
287.718384
  0
LINE
  8
0
 10
-192.886719
 20
306.961487
 11
-187.113220
 21
306.961487
  0
LINE
  8
0
 10
-192.886719
 20
316.961487
 11
-187.113220
 21
316.961487
  0
LINE
  8
0
 10
-184.226440
 20
311.961487
 11
-187.113190
 21
306.961487
  0
LINE
  8
0
 10
-192.886703
 20
316.961487
 11
-195.773453
 21
311.961517
  0
LINE
  8
0
 10
-187.113190
 20
316.961517
 11
-184.226456
 21
311.961548
  0
LINE
  8
0
 10
-195.773453
 20
311.961517
 11
-192.886703
 21
306.961517
  0
LINE
  8
0
 10
-285.773499
 20
260.000000
 11
-282.886749
 21
265.000031
  0
LINE
  8
0
 10
-282.886719
 20
255.000015
 11
-285.773468
 21
260.000000
  0
LINE
  8
0
 10
-282.886749
 20
255.000015
 11
-277.113251
 21
255.000015
  0
LINE
  8
0
 10
-277.113251
 20
255.000015
 11
-274.226501
 21
260.000000
  0
LINE
  8
0
 10
-274.226471
 20
260.000031
 11
-277.113220
 21
265.000031
  0
LINE
  8
0
 10
-282.886749
 20
265.000000
 11
-277.113251
 21
265.000000
  0
LINE
  8
0
 10
-187.113266
 20
203.038452
 11
-192.886765
 21
203.038452
  0
LINE
  8
0
 10
-184.226379
 20
208.038376
 11
-187.113129
 21
203.038391
  0
LINE
  8
0
 10
-184.226471
 20
208.038498
 11
-187.113190
 21
213.038452
  0
LINE
  8
0
 10
-187.113220
 20
213.038452
 11
-192.886765
 21
213.038452
  0
LINE
  8
0
 10
-192.886642
 20
213.038361
 11
-195.773392
 21
208.038376
  0
LINE
  8
0
 10
-192.886765
 20
203.038467
 11
-195.773514
 21
208.038452
  0
LINE
  8
0
 10
-232.726944
 20
241.701569
 11
-232.726944
 21
238.701569
  0
LINE
  8
0
 10
-234.226944
 20
240.201569
 11
-231.226944
 21
240.201569
  0
LINE
  8
0
 10
-239.798096
 20
248.772720
 11
-239.798096
 21
245.772720
  0
LINE
  8
0
 10
-241.298096
 20
247.272720
 11
-238.298096
 21
247.272720
  0
LINE
  8
0
 10
-230.142227
 20
349.217590
 11
-231.376236
 21
344.612244
  0
LINE
  8
0
 10
-209.857773
 20
349.217590
 11
-208.623779
 21
344.612244
  0
LINE
  8
0
 10
-230.142227
 20
170.782410
 11
-231.376221
 21
175.387756
  0
LINE
  8
0
 10
-209.857788
 20
170.782410
 11
-208.623795
 21
175.387756
  0
LINE
  8
0
 10
-152.411804
 20
207.841751
 11
-147.806427
 21
206.607742
  0
LINE
  8
0
 10
-141.035538
 20
227.545929
 11
-137.664215
 21
224.174591
  0
LINE
  8
0
 10
-141.035522
 20
292.453949
 11
-137.664154
 21
295.825317
  0
LINE
  8
0
 10
-152.411697
 20
312.158173
 11
-147.806366
 21
313.392181
  0
LINE
  8
0
 10
-237.355164
 20
311.135101
 11
-238.408813
 21
315.067383
  0
LINE
  8
0
 10
-255.606598
 20
300.597687
 11
-258.485199
 21
303.476288
  0
LINE
  8
0
 10
-272.961884
 20
270.537476
 11
-276.894165
 21
271.591125
  0
LINE
  8
0
 10
-272.961884
 20
249.462540
 11
-276.894165
 21
248.408890
  0
LINE
  8
0
 10
-238.408920
 20
204.932663
 11
-237.355270
 21
208.864929
  0
LINE
  8
0
 10
-201.591156
 20
204.932617
 11
-202.644806
 21
208.864899
  0
LINE
  8
0
 10
-163.105835
 20
248.408829
 11
-167.038116
 21
249.462479
  0
LINE
  8
0
 10
-163.105835
 20
271.591064
 11
-167.038101
 21
270.537415
  0
LINE
  8
0
 10
-184.393295
 20
300.597565
 11
-181.514648
 21
303.476196
  0
LINE
  8
0
 10
-202.644699
 20
311.135040
 11
-201.591049
 21
315.067322
  0
LINE
  8
0
 10
-142.500000
 20
231.081451
 11
-142.500000
 21
288.918427
  0
LINE
  8
0
 10
-156.205811
 20
312.657684
 11
-206.294174
 21
341.576233
  0
LINE
  8
0
 10
-233.705841
 20
178.423767
 11
-278.576935
 21
204.330109
  0
LINE
  8
0
 10
-206.294159
 20
178.423752
 11
-156.205887
 21
207.342224
  0
LINE
  8
0
 10
-278.576965
 20
315.669891
 11
-233.705856
 21
341.576233
  0
LINE
  8
0
 10
-301.111023
 20
315.000000
 11
-281.076935
 21
315.000000
  0
LINE
  8
0
 10
-301.111053
 20
205.000000
 11
-281.076965
 21
205.000000
  0
LINE
  8
0
 10
-310.000000
 20
221.218567
 11
-310.000000
 21
298.781433
  0
LINE
  8
0
 10
-217.112518
 20
240.260071
 11
-200.260071
 21
257.112518
  0
LINE
  8
0
 10
-239.739929
 20
262.887482
 11
-222.887482
 21
279.739929
  0
LINE
  8
0
 10
-200.260071
 20
262.887482
 11
-217.112518
 21
279.739929
  0
LINE
  8
0
 10
-222.887482
 20
240.260071
 11
-239.739929
 21
257.112518
  0
LINE
  8
0
 10
-222.511444
 20
241.015396
 11
-238.984604
 21
257.488556
  0
LINE
  8
0
 10
-217.488556
 20
241.015396
 11
-201.015396
 21
257.488556
  0
LINE
  8
0
 10
-238.984604
 20
262.511444
 11
-222.511444
 21
278.984619
  0
LINE
  8
0
 10
-201.015396
 20
262.511444
 11
-217.488556
 21
278.984619
  0
LINE
  8
0
 10
-217.488556
 20
278.984619
 11
-217.112518
 21
279.739929
  0
LINE
  8
0
 10
-222.511444
 20
278.984619
 11
-222.887482
 21
279.739929
  0
LINE
  8
0
 10
-239.739929
 20
262.887482
 11
-238.984604
 21
262.511444
  0
LINE
  8
0
 10
-239.739929
 20
257.112518
 11
-238.984604
 21
257.488556
  0
LINE
  8
0
 10
-222.887482
 20
240.260071
 11
-222.511444
 21
241.015396
  0
LINE
  8
0
 10
-217.112518
 20
240.260071
 11
-217.488556
 21
241.015396
  0
LINE
  8
0
 10
-201.015396
 20
257.488556
 11
-200.260071
 21
257.112518
  0
LINE
  8
0
 10
-200.260071
 20
262.887482
 11
-201.015396
 21
262.511414
  0
ARC
  8
0
 10
-176.583649
 20
221.533325
 40
0.500001
 50
314.998749
 51
45.000000
  0
ARC
  8
0
 10
-181.533417
 20
216.583572
 40
0.500001
 50
225.001236
 51
314.998749
  0
ARC
  8
0
 10
-183.513306
 20
215.735046
 40
0.499990
 50
225.000000
 51
315.000000
  0
ARC
  8
0
 10
-175.735138
 20
223.513214
 40
0.499990
 50
315.000000
 51
45.001236
  0
ARC
  8
0
 10
-180.062286
 20
220.062225
 40
3.519536
 50
258.051575
 51
11.948174
  0
CIRCLE
  8
0
 10
-185.493164
 20
225.493164
 40
2.500000
  0
CIRCLE
  8
0
 10
-185.493164
 20
225.493164
 40
2.000000
  0
ARC
  8
0
 10
-220.000000
 20
260.000000
 40
53.999996
 50
231.379395
 51
293.243713
  0
ARC
  8
0
 10
-220.000000
 20
260.000000
 40
44.749996
 50
237.912582
 51
309.357330
  0
ARC
  8
0
 10
-220.000000
 20
260.000000
 40
35.000000
 50
233.774658
 51
38.437176
  0
ARC
  8
0
 10
-220.000000
 20
260.000000
 40
27.999994
 50
239.404526
 51
210.595642
  0
ARC
  8
0
 10
-220.000000
 20
260.000000
 40
19.950003
 50
237.192535
 51
212.807526
  0
CIRCLE
  8
0
 10
-239.799011
 20
247.272064
 40
2.750000
  0
CIRCLE
  8
0
 10
-232.727936
 20
240.201004
 40
2.750000
  0
CIRCLE
  8
0
 10
-254.506836
 20
225.493164
 40
2.000000
  0
ARC
  8
0
 10
-258.466675
 20
216.583649
 40
0.499990
 50
225.000000
 51
315.002472
  0
ARC
  8
0
 10
-263.416412
 20
221.533401
 40
0.499990
 50
135.000000
 51
225.001236
  0
ARC
  8
0
 10
-264.264954
 20
223.513290
 40
0.500001
 50
134.998764
 51
225.001236
  0
ARC
  8
0
 10
-256.486755
 20
215.735123
 40
0.500022
 50
224.998764
 51
314.998749
  0
ARC
  8
0
 10
-259.937775
 20
220.062286
 40
3.519521
 50
168.051529
 51
281.948669
  0
CIRCLE
  8
0
 10
-254.506836
 20
225.493164
 40
2.500000
  0
ARC
  8
0
 10
-201.615082
 20
278.384644
 40
7.999995
 50
14.999588
 51
74.999619
  0
ARC
  8
0
 10
-193.414001
 20
278.100372
 40
2.401924
 50
348.625885
 51
101.373466
  0
ARC
  8
0
 10
-201.899216
 20
286.585724
 40
2.401924
 50
348.625885
 51
101.373108
  0
ARC
  8
0
 10
-220.000000
 20
260.000000
 40
35.000015
 50
51.562077
 51
216.225433
  0
CIRCLE
  8
0
 10
-189.999969
 20
311.961517
 40
9.000000
  0
CIRCLE
  8
0
 10
-280.000000
 20
260.000000
 40
9.000000
  0
CIRCLE
  8
0
 10
-190.000000
 20
208.038467
 40
9.000000
  0
ARC
  8
0
 10
-220.000000
 20
260.000000
 40
53.999996
 50
186.756256
 51
218.620590
  0
ARC
  8
0
 10
-220.000000
 20
260.000000
 40
54.000011
 50
66.756264
 51
173.243713
  0
ARC
  8
0
 10
-220.000000
 20
260.000000
 40
54.000004
 50
321.379364
 51
53.243671
  0
ARC
  8
0
 10
-220.000000
 20
260.000000
 40
44.750000
 50
320.642670
 51
212.087463
  0
ARC
  8
0
 10
-220.000000
 20
260.000000
 40
53.999996
 50
306.756287
 51
308.620636
  0
CIRCLE
  8
0
 10
-280.000000
 20
260.000000
 40
7.800000
  0
CIRCLE
  8
0
 10
-189.999969
 20
311.961517
 40
7.800000
  0
CIRCLE
  8
0
 10
-189.999969
 20
208.038483
 40
7.800000
  0
ARC
  8
0
 10
-220.000000
 20
260.000000
 40
65.000000
 50
70.021080
 51
109.978760
  0
CIRCLE
  8
0
 10
-220.000000
 20
260.000000
 40
76.000000
  0
CIRCLE
  8
0
 10
-249.999924
 20
311.961578
 40
6.000000
  0
CIRCLE
  8
0
 10
-250.000031
 20
208.038498
 40
6.000000
  0
CIRCLE
  8
0
 10
-160.000000
 20
259.999939
 40
6.000000
  0
CIRCLE
  8
0
 10
-249.999924
 20
311.961578
 40
5.125000
  0
CIRCLE
  8
0
 10
-250.000031
 20
208.038498
 40
5.125000
  0
CIRCLE
  8
0
 10
-160.000000
 20
259.999939
 40
5.125000
  0
ARC
  8
0
 10
-249.999924
 20
311.961578
 40
11.999994
 50
14.999888
 51
225.000046
  0
ARC
  8
0
 10
-280.000000
 20
260.000000
 40
12.000017
 50
74.999992
 51
285.000031
  0
ARC
  8
0
 10
-250.000031
 20
208.038498
 40
12.000007
 50
137.116104
 51
344.999908
  0
ARC
  8
0
 10
-190.000046
 20
208.038452
 40
12.000002
 50
195.000031
 51
42.876774
  0
ARC
  8
0
 10
-160.000000
 20
259.999939
 40
11.999998
 50
255.000046
 51
105.000008
  0
ARC
  8
0
 10
-189.999939
 20
311.961487
 40
12.000002
 50
314.999939
 51
164.999969
  0
ARC
  8
0
 10
-220.000000
 20
346.500000
 40
10.500003
 50
14.999941
 51
165.000031
  0
ARC
  8
0
 10
-220.000015
 20
173.500000
 40
10.500008
 50
195.000015
 51
344.999969
  0
ARC
  8
0
 10
-145.088821
 20
216.749969
 40
10.500003
 50
255.000061
 51
45.000000
  0
ARC
  8
0
 10
-145.088776
 20
303.249939
 40
10.500001
 50
315.000000
 51
104.999916
  0
ARC
  8
0
 10
-220.000000
 20
260.000000
 40
65.000000
 50
130.021057
 51
169.978851
  0
ARC
  8
0
 10
-220.000000
 20
260.000000
 40
65.000000
 50
190.021179
 51
229.978836
  0
ARC
  8
0
 10
-220.000000
 20
260.000000
 40
65.000000
 50
250.021164
 51
289.978760
  0
ARC
  8
0
 10
-220.000000
 20
260.000000
 40
65.000000
 50
310.021088
 51
349.978760
  0
ARC
  8
0
 10
-220.000000
 20
260.000000
 40
64.999985
 50
10.021097
 51
49.978775
  0
ARC
  8
0
 10
-236.205841
 20
345.906342
 40
4.999984
 50
300.000092
 51
344.999939
  0
ARC
  8
0
 10
-236.205872
 20
174.093658
 40
5.000007
 50
15.000010
 51
60.000069
  0
ARC
  8
0
 10
-203.794174
 20
174.093658
 40
4.999984
 50
120.000107
 51
164.999939
  0
ARC
  8
0
 10
-153.705902
 20
203.012131
 40
4.999992
 50
74.999947
 51
120.000015
  0
ARC
  8
0
 10
-137.500000
 20
231.081451
 40
5.000000
 50
180.000000
 51
225.000000
  0
ARC
  8
0
 10
-137.500000
 20
288.918427
 40
4.999984
 50
135.000000
 51
180.000000
  0
ARC
  8
0
 10
-153.705780
 20
316.987823
 40
5.000010
 50
240.000076
 51
284.999969
  0
ARC
  8
0
 10
-203.794144
 20
345.906342
 40
5.000007
 50
195.000015
 51
240.000076
  0
ARC
  8
0
 10
-281.076935
 20
320.000000
 40
5.000000
 50
270.000000
 51
299.999939
  0
ARC
  8
0
 10
-281.076965
 20
200.000000
 40
5.000010
 50
60.000069
 51
90.000000
  0
ARC
  8
0
 10
-220.000000
 20
260.000000
 40
97.999985
 50
203.311478
 51
156.688522
  0
ARC
  8
0
 10
-220.000000
 20
260.000000
 40
19.150002
 50
172.464188
 51
187.535812
  0
ARC
  8
0
 10
-220.000000
 20
260.000000
 40
19.150000
 50
262.464233
 51
277.535858
  0
ARC
  8
0
 10
-220.000000
 20
260.000000
 40
19.150002
 50
352.464172
 51
7.535724
  0
ARC
  8
0
 10
-220.000000
 20
260.000000
 40
19.149986
 50
82.464180
 51
97.535805
  0
POINT
  8
0
 10
-205.500000
 20
-60.000000
  0
POINT
  8
0
 10
-250.000000
 20
-60.000000
  0
LINE
  8
0
 10
-220.499969
 20
-24.644657
 11
-220.499969
 21
-32.000011
  0
LINE
  8
0
 10
-223.500015
 20
-24.644650
 11
-223.500015
 21
-32.000011
  0
LINE
  8
0
 10
-225.700012
 20
-15.235104
 11
-218.300018
 21
-15.235104
  0
LINE
  8
0
 10
-226.500015
 20
-16.083630
 11
-226.200012
 21
-16.083630
  0
LINE
  8
0
 10
-225.700012
 20
-19.412056
 11
-218.300018
 21
-19.412056
  0
LINE
  8
0
 10
-227.500015
 20
-20.826279
 11
-225.500015
 21
-20.826279
  0
LINE
  8
0
 10
-226.200012
 20
-15.735104
 11
-226.200012
 21
-20.826279
  0
LINE
  8
0
 10
-217.800018
 20
-15.735104
 11
-217.800018
 21
-20.826275
  0
LINE
  8
0
 10
-217.000015
 20
-16.583630
 11
-217.000015
 21
-20.826275
  0
LINE
  8
0
 10
-227.000000
 20
-16.583630
 11
-227.000000
 21
-20.826279
  0
LINE
  8
0
 10
-227.500015
 20
-20.543430
 11
-227.500015
 21
-20.826279
  0
LINE
  8
0
 10
-216.500000
 20
-20.543430
 11
-216.500000
 21
-20.826279
  0
LINE
  8
0
 10
-233.500015
 20
-20.543430
 11
-227.500015
 21
-20.543430
  0
LINE
  8
0
 10
-216.500015
 20
-20.543430
 11
-211.500015
 21
-20.543430
  0
LINE
  8
0
 10
-217.800018
 20
-16.083630
 11
-217.500015
 21
-16.083630
  0
LINE
  8
0
 10
-218.300018
 20
-19.836319
 11
-218.300018
 21
-20.826275
  0
LINE
  8
0
 10
-225.700012
 20
-19.836323
 11
-225.700012
 21
-20.826279
  0
LINE
  8
0
 10
-225.700012
 20
-19.836323
 11
-218.300018
 21
-19.836323
  0
LINE
  8
0
 10
-225.500000
 20
-19.836323
 11
-225.500000
 21
-32.000011
  0
LINE
  8
0
 10
-218.500000
 20
-19.836323
 11
-218.500000
 21
-33.695618
  0
LINE
  8
0
 10
-219.500000
 20
-33.695621
 11
-218.500000
 21
-33.695621
  0
LINE
  8
0
 10
-218.500000
 20
-20.826279
 11
-216.500015
 21
-20.826279
  0
LINE
  8
0
 10
-233.500015
 20
-20.543430
 11
-233.500015
 21
-24.672905
  0
LINE
  8
0
 10
-211.500000
 20
-20.543430
 11
-211.500000
 21
-26.412392
  0
LINE
  8
0
 10
-209.500015
 20
-22.993168
 11
-209.500015
 21
-26.412392
  0
LINE
  8
0
 10
-211.500015
 20
-22.993172
 11
-209.500015
 21
-22.993172
  0
LINE
  8
0
 10
-209.500015
 20
-23.493172
 11
-194.422089
 21
-23.493172
  0
LINE
  8
0
 10
-209.399994
 20
-27.493172
 11
-194.422089
 21
-27.493172
  0
LINE
  8
0
 10
-225.700012
 20
-96.486740
 11
-218.300018
 21
-96.486740
  0
LINE
  8
0
 10
-226.500000
 20
-98.466644
 11
-217.500015
 21
-98.466644
  0
LINE
  8
0
 10
-226.500000
 20
-103.916397
 11
-217.500015
 21
-103.916397
  0
LINE
  8
0
 10
-225.700012
 20
-104.764923
 11
-218.300018
 21
-104.764923
  0
LINE
  8
0
 10
-225.700012
 20
-92.102692
 11
-218.300018
 21
-92.102692
  0
LINE
  8
0
 10
-217.800018
 20
-92.602692
 11
-217.800018
 21
-97.400955
  0
LINE
  8
0
 10
-217.000015
 20
-94.016891
 11
-217.000015
 21
-103.416397
  0
LINE
  8
0
 10
-226.200012
 20
-92.602692
 11
-226.200012
 21
-97.400955
  0
LINE
  8
0
 10
-227.000000
 20
-94.016899
 11
-227.000000
 21
-103.416397
  0
LINE
  8
0
 10
-225.700012
 20
-97.900955
 11
-218.300018
 21
-97.900955
  0
LINE
  8
0
 10
-227.500015
 20
-93.516899
 11
-226.200012
 21
-93.516899
  0
LINE
  8
0
 10
-226.200012
 20
-103.916397
 11
-226.200012
 21
-104.264923
  0
LINE
  8
0
 10
-217.800018
 20
-103.916397
 11
-217.800018
 21
-104.264923
  0
LINE
  8
0
 10
-217.800018
 20
-93.516899
 11
-216.500000
 21
-93.516899
  0
LINE
  8
0
 10
-233.500015
 20
-93.799744
 11
-227.500015
 21
-93.799744
  0
LINE
  8
0
 10
-216.500000
 20
-93.516899
 11
-216.500000
 21
-99.456596
  0
LINE
  8
0
 10
-227.500015
 20
-93.516899
 11
-227.500015
 21
-99.456604
  0
LINE
  8
0
 10
-218.500000
 20
-86.304413
 11
-218.500000
 21
-92.102692
  0
LINE
  8
0
 10
-225.500000
 20
-86.304413
 11
-225.500000
 21
-92.102692
  0
LINE
  8
0
 10
-216.500000
 20
-93.799744
 11
-211.500000
 21
-93.799744
  0
LINE
  8
0
 10
-220.499969
 20
-89.132835
 11
-220.499969
 21
-86.304413
  0
LINE
  8
0
 10
-223.500015
 20
-89.132843
 11
-223.500015
 21
-86.304413
  0
LINE
  8
0
 10
-225.500000
 20
-86.304413
 11
-223.500015
 21
-86.304413
  0
LINE
  8
0
 10
-220.500000
 20
-86.304413
 11
-218.500000
 21
-86.304413
  0
LINE
  8
0
 10
-211.500000
 20
-88.355019
 11
-211.500000
 21
-99.456596
  0
LINE
  8
0
 10
-233.500015
 20
-99.456604
 11
-227.500015
 21
-99.456604
  0
LINE
  8
0
 10
-227.500015
 20
-99.173752
 11
-227.000000
 21
-99.173752
  0
LINE
  8
0
 10
-217.000015
 20
-99.173752
 11
-216.500000
 21
-99.173752
  0
LINE
  8
0
 10
-216.500000
 20
-99.456604
 11
-211.500000
 21
-99.456604
  0
LINE
  8
0
 10
-233.500015
 20
-88.355019
 11
-225.500000
 21
-88.355019
  0
LINE
  8
0
 10
-223.500015
 20
-88.355019
 11
-220.500015
 21
-88.355019
  0
LINE
  8
0
 10
-218.500000
 20
-88.355019
 11
-211.500000
 21
-88.355019
  0
LINE
  8
0
 10
-209.500015
 20
-92.006851
 11
-209.500015
 21
-97.006851
  0
LINE
  8
0
 10
-211.500000
 20
-92.006851
 11
-209.500015
 21
-92.006851
  0
LINE
  8
0
 10
-209.500015
 20
-92.506851
 11
-194.422104
 21
-92.506851
  0
LINE
  8
0
 10
-209.500015
 20
-96.506851
 11
-194.422104
 21
-96.506851
  0
LINE
  8
0
 10
-211.500000
 20
-97.006851
 11
-209.500015
 21
-97.006851
  0
LINE
  8
0
 10
-233.500015
 20
-88.355019
 11
-233.500015
 21
-99.456604
  0
LINE
  8
0
 10
-218.299988
 20
-67.691086
 11
-218.299988
 21
-86.870071
  0
LINE
  8
0
 10
-250.000000
 20
0.961498
 11
-250.000000
 21
-120.961502
  0
LINE
  8
0
 10
-248.399994
 20
-6.000011
 11
-248.399994
 21
-54.000000
  0
LINE
  8
0
 10
-246.800003
 20
0.961494
 11
-246.800003
 21
-120.961540
  0
LINE
  8
0
 10
-250.000000
 20
-6.000011
 11
-246.800003
 21
-6.000011
  0
LINE
  8
0
 10
-245.500000
 20
-25.000011
 11
-245.500000
 21
-51.000000
  0
LINE
  8
0
 10
-246.800003
 20
-25.000011
 11
-245.500000
 21
-25.000011
  0
LINE
  8
0
 10
-240.500000
 20
-32.000011
 11
-240.500000
 21
-51.000000
  0
LINE
  8
0
 10
-240.500000
 20
-32.000011
 11
-219.500000
 21
-32.000011
  0
LINE
  8
0
 10
-219.500000
 20
-32.000011
 11
-219.500000
 21
-80.188110
  0
LINE
  8
0
 10
-245.300003
 20
-83.688080
 11
-245.300003
 21
-102.072876
  0
LINE
  8
0
 10
-246.800003
 20
-102.961540
 11
-235.550003
 21
-102.961540
  0
LINE
  8
0
 10
-246.800003
 20
-120.961540
 11
-235.550003
 21
-120.961540
  0
LINE
  8
0
 10
-234.800003
 20
-104.260574
 11
-234.800003
 21
-119.662506
  0
LINE
  8
0
 10
-235.550003
 20
-102.961540
 11
-235.550003
 21
-120.961540
  0
LINE
  8
0
 10
-235.550003
 20
-102.961533
 11
-234.800003
 21
-104.260574
  0
LINE
  8
0
 10
-235.550018
 20
-120.961533
 11
-234.800018
 21
-119.662491
  0
LINE
  8
0
 10
-245.500000
 20
-69.000000
 11
-245.500000
 21
-82.627426
  0
LINE
  8
0
 10
-240.500000
 20
-69.000000
 11
-240.500000
 21
-82.627426
  0
LINE
  8
0
 10
-250.000000
 20
-117.961540
 11
-246.800003
 21
-117.961540
  0
LINE
  8
0
 10
-250.000000
 20
-116.761536
 11
-246.800003
 21
-116.761536
  0
LINE
  8
0
 10
-248.399994
 20
-66.000000
 11
-248.399994
 21
-114.000015
  0
LINE
  8
0
 10
-246.800003
 20
-51.000000
 11
-235.550003
 21
-51.000000
  0
LINE
  8
0
 10
-235.550003
 20
-51.000000
 11
-235.550003
 21
-69.000000
  0
LINE
  8
0
 10
-234.800003
 20
-52.299038
 11
-234.800003
 21
-67.700958
  0
LINE
  8
0
 10
-235.549988
 20
-51.000000
 11
-234.799988
 21
-52.299042
  0
LINE
  8
0
 10
-235.550003
 20
-68.999992
 11
-234.800003
 21
-67.700958
  0
LINE
  8
0
 10
-246.800003
 20
-69.000000
 11
-235.550003
 21
-69.000000
  0
LINE
  8
0
 10
-250.000000
 20
-54.000000
 11
-246.800003
 21
-54.000000
  0
LINE
  8
0
 10
-250.000000
 20
-55.200001
 11
-246.800003
 21
-55.200001
  0
LINE
  8
0
 10
-250.000000
 20
-64.800003
 11
-246.800003
 21
-64.800003
  0
LINE
  8
0
 10
-250.000000
 20
-66.000000
 11
-246.800003
 21
-66.000000
  0
LINE
  8
0
 10
-246.800003
 20
0.961494
 11
-235.550003
 21
0.961494
  0
LINE
  8
0
 10
-235.550003
 20
0.961494
 11
-235.550003
 21
-17.038506
  0
LINE
  8
0
 10
-234.800003
 20
-0.337543
 11
-234.800003
 21
-15.739468
  0
LINE
  8
0
 10
-235.550003
 20
0.961510
 11
-234.800003
 21
-0.337532
  0
LINE
  8
0
 10
-235.550018
 20
-17.038509
 11
-234.800018
 21
-15.739471
  0
LINE
  8
0
 10
-246.800003
 20
-17.038506
 11
-235.550003
 21
-17.038506
  0
LINE
  8
0
 10
-250.000000
 20
-2.038506
 11
-246.800003
 21
-2.038506
  0
LINE
  8
0
 10
-250.000000
 20
-3.238506
 11
-246.800003
 21
-3.238506
  0
LINE
  8
0
 10
-250.000000
 20
-114.000015
 11
-246.800003
 21
-114.000015
  0
LINE
  8
0
 10
-218.299988
 20
-77.048973
 11
-217.560867
 21
-77.048973
  0
LINE
  8
0
 10
-218.299988
 20
-82.548973
 11
-217.560867
 21
-82.548973
  0
LINE
  8
0
 10
-218.299988
 20
-75.477859
 11
-217.560867
 21
-75.477859
  0
LINE
  8
0
 10
-218.299988
 20
-69.977859
 11
-217.560867
 21
-69.977859
  0
LINE
  8
0
 10
-245.300003
 20
-83.688080
 11
-237.800003
 21
-83.688080
  0
LINE
  8
0
 10
-246.800003
 20
-82.627426
 11
-237.800003
 21
-82.627426
  0
LINE
  8
0
 10
-246.800003
 20
-87.930771
 11
-245.300003
 21
-87.930771
  0
LINE
  8
0
 10
-246.800003
 20
-102.072876
 11
-245.300003
 21
-102.072876
  0
LINE
  8
0
 10
-237.800003
 20
-82.627426
 11
-237.800003
 21
-83.688080
  0
LINE
  8
0
 10
-227.800003
 20
-86.870071
 11
-227.800003
 21
-87.930725
  0
LINE
  8
0
 10
-245.300003
 20
-97.830215
 11
-237.800003
 21
-97.830215
  0
LINE
  8
0
 10
-227.800003
 20
-87.930725
 11
-225.500000
 21
-87.930725
  0
LINE
  8
0
 10
-227.800003
 20
-86.870071
 11
-225.500000
 21
-86.870071
  0
LINE
  8
0
 10
-237.800018
 20
-82.627426
 11
-227.800018
 21
-86.870064
  0
LINE
  8
0
 10
-237.800018
 20
-83.688080
 11
-227.800018
 21
-87.930725
  0
LINE
  8
0
 10
-237.800003
 20
-97.830223
 11
-233.500015
 21
-96.005890
  0
LINE
  8
0
 10
-207.800003
 20
-86.870071
 11
-207.800003
 21
-92.506851
  0
LINE
  8
0
 10
-223.500015
 20
-86.870071
 11
-220.499969
 21
-86.870071
  0
LINE
  8
0
 10
-223.500015
 20
-87.930725
 11
-220.499969
 21
-87.930725
  0
LINE
  8
0
 10
-218.500000
 20
-86.870071
 11
-207.800003
 21
-86.870071
  0
LINE
  8
0
 10
-218.500000
 20
-87.930725
 11
-207.800003
 21
-87.930725
  0
LINE
  8
0
 10
-225.500000
 20
-80.188110
 11
-218.299988
 21
-80.188110
  0
LINE
  8
0
 10
-225.500000
 20
-84.571472
 11
-219.500000
 21
-84.571472
  0
LINE
  8
0
 10
-225.500000
 20
-83.723648
 11
-218.299988
 21
-83.723648
  0
LINE
  8
0
 10
-225.500000
 20
-80.188110
 11
-225.500000
 21
-86.870071
  0
LINE
  8
0
 10
-219.500000
 20
-84.571472
 11
-219.500000
 21
-86.304413
  0
LINE
  8
0
 10
-229.500000
 20
-30.301678
 11
-229.500000
 21
-32.000011
  0
LINE
  8
0
 10
-234.700058
 20
-32.000015
 11
-229.500000
 21
-30.301676
  0
LINE
  8
0
 10
-229.500000
 20
-30.301680
 11
-224.299942
 21
-32.000015
  0
LINE
  8
0
 10
-219.500000
 20
-67.691086
 11
-218.299988
 21
-67.691086
  0
LINE
  8
0
 10
-246.800003
 20
-23.230324
 11
-239.399994
 21
-23.230324
  0
LINE
  8
0
 10
-246.800003
 20
-22.169750
 11
-239.399994
 21
-22.169750
  0
LINE
  8
0
 10
-229.400009
 20
-27.472965
 11
-225.500000
 21
-27.472965
  0
LINE
  8
0
 10
-229.400009
 20
-26.412392
 11
-225.500000
 21
-26.412392
  0
LINE
  8
0
 10
-239.399994
 20
-22.169750
 11
-239.399994
 21
-23.230324
  0
LINE
  8
0
 10
-229.400009
 20
-26.412392
 11
-229.400009
 21
-27.472965
  0
LINE
  8
0
 10
-209.399994
 20
-26.412392
 11
-209.399994
 21
-33.129822
  0
LINE
  8
0
 10
-245.500000
 20
-37.372467
 11
-240.500000
 21
-37.372467
  0
LINE
  8
0
 10
-229.400009
 20
-26.412392
 11
-239.400009
 21
-22.169746
  0
LINE
  8
0
 10
-239.399994
 20
-23.230328
 11
-229.400009
 21
-27.472969
  0
LINE
  8
0
 10
-218.500000
 20
-33.129822
 11
-209.399994
 21
-33.129822
  0
LINE
  8
0
 10
-223.500015
 20
-26.412392
 11
-220.499969
 21
-26.412392
  0
LINE
  8
0
 10
-218.500000
 20
-26.412392
 11
-209.399994
 21
-26.412392
  0
LINE
  8
0
 10
-194.422104
 20
-23.493172
 11
-194.422104
 21
-27.493172
  0
LINE
  8
0
 10
-194.422104
 20
-25.793171
 11
-191.422104
 21
-25.793171
  0
LINE
  8
0
 10
-194.422104
 20
-25.193172
 11
-191.422104
 21
-25.193172
  0
LINE
  8
0
 10
-194.422104
 20
-26.793171
 11
-191.422104
 21
-26.793171
  0
LINE
  8
0
 10
-194.422104
 20
-24.193172
 11
-191.422104
 21
-24.193172
  0
LINE
  8
0
 10
-191.422104
 20
-24.193172
 11
-191.422104
 21
-25.193172
  0
LINE
  8
0
 10
-191.422104
 20
-25.793171
 11
-191.422104
 21
-26.793171
  0
LINE
  8
0
 10
-191.422104
 20
-24.318172
 11
-189.922104
 21
-24.318172
  0
LINE
  8
0
 10
-191.422104
 20
-24.443172
 11
-189.922104
 21
-24.443172
  0
LINE
  8
0
 10
-191.422104
 20
-24.568172
 11
-189.922104
 21
-24.568172
  0
LINE
  8
0
 10
-191.422104
 20
-24.693172
 11
-189.922104
 21
-24.693172
  0
LINE
  8
0
 10
-191.422104
 20
-24.818172
 11
-189.922104
 21
-24.818172
  0
LINE
  8
0
 10
-191.422104
 20
-24.943172
 11
-189.922104
 21
-24.943172
  0
LINE
  8
0
 10
-191.422104
 20
-25.068172
 11
-189.922104
 21
-25.068172
  0
LINE
  8
0
 10
-191.422104
 20
-25.918171
 11
-189.922104
 21
-25.918171
  0
LINE
  8
0
 10
-191.422104
 20
-26.043171
 11
-189.922104
 21
-26.043171
  0
LINE
  8
0
 10
-191.422104
 20
-26.168171
 11
-189.922104
 21
-26.168171
  0
LINE
  8
0
 10
-191.422104
 20
-26.293171
 11
-189.922104
 21
-26.293171
  0
LINE
  8
0
 10
-191.422104
 20
-26.418171
 11
-189.922104
 21
-26.418171
  0
LINE
  8
0
 10
-191.422104
 20
-26.543171
 11
-189.922104
 21
-26.543171
  0
LINE
  8
0
 10
-191.422104
 20
-26.668171
 11
-189.922104
 21
-26.668171
  0
LINE
  8
0
 10
-194.422104
 20
-92.506851
 11
-194.422104
 21
-96.506851
  0
LINE
  8
0
 10
-194.422104
 20
-94.806854
 11
-191.422104
 21
-94.806854
  0
LINE
  8
0
 10
-194.422104
 20
-94.206848
 11
-191.422104
 21
-94.206848
  0
LINE
  8
0
 10
-194.422104
 20
-95.806854
 11
-191.422104
 21
-95.806854
  0
LINE
  8
0
 10
-194.422104
 20
-93.206848
 11
-191.422104
 21
-93.206848
  0
LINE
  8
0
 10
-191.422104
 20
-93.206848
 11
-191.422104
 21
-94.206848
  0
LINE
  8
0
 10
-191.422104
 20
-94.806854
 11
-191.422104
 21
-95.806854
  0
LINE
  8
0
 10
-191.422104
 20
-93.331848
 11
-189.922104
 21
-93.331848
  0
LINE
  8
0
 10
-191.422104
 20
-93.456848
 11
-189.922104
 21
-93.456848
  0
LINE
  8
0
 10
-191.422104
 20
-93.581848
 11
-189.922104
 21
-93.581848
  0
LINE
  8
0
 10
-191.422104
 20
-93.706848
 11
-189.922104
 21
-93.706848
  0
LINE
  8
0
 10
-191.422104
 20
-93.831848
 11
-189.922104
 21
-93.831848
  0
LINE
  8
0
 10
-191.422104
 20
-93.956848
 11
-189.922104
 21
-93.956848
  0
LINE
  8
0
 10
-191.422104
 20
-94.081848
 11
-189.922104
 21
-94.081848
  0
LINE
  8
0
 10
-191.422104
 20
-94.931854
 11
-189.922104
 21
-94.931854
  0
LINE
  8
0
 10
-191.422104
 20
-95.056854
 11
-189.922104
 21
-95.056854
  0
LINE
  8
0
 10
-191.422104
 20
-95.181854
 11
-189.922104
 21
-95.181854
  0
LINE
  8
0
 10
-191.422104
 20
-95.306854
 11
-189.922104
 21
-95.306854
  0
LINE
  8
0
 10
-191.422104
 20
-95.431854
 11
-189.922104
 21
-95.431854
  0
LINE
  8
0
 10
-191.422104
 20
-95.556854
 11
-189.922104
 21
-95.556854
  0
LINE
  8
0
 10
-191.422104
 20
-95.681854
 11
-189.922104
 21
-95.681854
  0
LINE
  8
0
 10
-205.500000
 20
-40.849998
 11
-205.500000
 21
-79.150002
  0
LINE
  8
0
 10
-271.500000
 20
16.000000
 11
-271.500000
 21
-136.000000
  0
LINE
  8
0
 10
-264.500000
 20
5.000000
 11
-264.500000
 21
3.961498
  0
LINE
  8
0
 10
-245.500000
 20
-80.000000
 11
-241.550003
 21
-80.000000
  0
LINE
  8
0
 10
-264.500000
 20
-72.000000
 11
-250.000000
 21
-72.000000
  0
LINE
  8
0
 10
-264.500000
 20
-48.000000
 11
-250.000000
 21
-48.000000
  0
LINE
  8
0
 10
-245.500000
 20
-40.000000
 11
-241.550003
 21
-40.000000
  0
LINE
  8
0
 10
-267.840759
 20
-123.961502
 11
-253.000000
 21
-123.961502
  0
LINE
  8
0
 10
-267.840881
 20
3.961498
 11
-253.000000
 21
3.961498
  0
LINE
  8
0
 10
-241.500000
 20
-40.050003
 11
-241.500000
 21
-51.000000
  0
LINE
  8
0
 10
-241.500000
 20
-79.949997
 11
-240.500000
 21
-79.949997
  0
LINE
  8
0
 10
-241.500000
 20
-40.049999
 11
-240.500000
 21
-40.049999
  0
LINE
  8
0
 10
-206.299942
 20
-40.049965
 11
-205.499954
 21
-40.849960
  0
LINE
  8
0
 10
-206.299881
 20
-79.950134
 11
-205.499878
 21
-79.150131
  0
LINE
  8
0
 10
-206.299988
 20
-40.049999
 11
-206.299988
 21
-79.950005
  0
LINE
  8
0
 10
-241.550003
 20
-40.000004
 11
-241.500000
 21
-40.050011
  0
LINE
  8
0
 10
-241.549988
 20
-80.000008
 11
-241.499985
 21
-79.950005
  0
LINE
  8
0
 10
-271.500031
 20
-136.000031
 11
-264.500031
 21
-125.000031
  0
LINE
  8
0
 10
-264.500031
 20
5.000031
 11
-271.500031
 21
16.000031
  0
LINE
  8
0
 10
-219.500000
 20
-40.260071
 11
-206.299988
 21
-40.260071
  0
LINE
  8
0
 10
-219.500000
 20
-57.112518
 11
-206.299988
 21
-57.112518
  0
LINE
  8
0
 10
-219.500000
 20
-62.887482
 11
-206.299988
 21
-62.887482
  0
LINE
  8
0
 10
-216.300232
 20
-79.739929
 11
-206.299988
 21
-79.739929
  0
LINE
  8
0
 10
-206.300049
 20
-79.739868
 11
-205.500061
 21
-78.984550
  0
LINE
  8
0
 10
-206.299988
 20
-62.887474
 11
-205.500015
 21
-62.511433
  0
LINE
  8
0
 10
-219.500000
 20
-50.607990
 11
-206.299988
 21
-57.112450
  0
LINE
  8
0
 10
-206.300003
 20
-40.260078
 11
-219.500000
 21
-46.764530
  0
LINE
  8
0
 10
-216.576538
 20
-74.676025
 11
-206.299988
 21
-79.739914
  0
LINE
  8
0
 10
-206.299988
 20
-62.887482
 11
-218.299988
 21
-68.800621
  0
LINE
  8
0
 10
-206.300003
 20
-57.112572
 11
-205.500031
 21
-57.488609
  0
LINE
  8
0
 10
-205.499985
 20
-41.015381
 11
-206.299973
 21
-40.260067
  0
LINE
  8
0
 10
-264.500000
 20
-123.961502
 11
-264.500000
 21
-125.000000
  0
LINE
  8
0
 10
-264.500000
 20
-72.000000
 11
-264.500000
 21
-109.777451
  0
LINE
  8
0
 10
-264.500000
 20
-10.222549
 11
-264.500000
 21
-48.000000
  0
LINE
  8
0
 10
-216.301620
 20
-79.949997
 11
-206.300003
 21
-79.949997
  0
LINE
  8
0
 10
-219.500000
 20
-40.049999
 11
-206.300003
 21
-40.049999
  0
LINE
  8
0
 10
-241.500000
 20
-69.000000
 11
-241.500000
 21
-79.949997
  0
LINE
  8
0
 10
-223.500015
 20
-27.472965
 11
-220.499969
 21
-27.472965
  0
LINE
  8
0
 10
-218.500000
 20
-27.472965
 11
-209.399994
 21
-27.472965
  0
ARC
  8
0
 10
-225.700012
 20
-15.735104
 40
0.500000
 50
90.000000
 51
180.000000
  0
ARC
  8
0
 10
-218.300018
 20
-15.735104
 40
0.500000
 50
0.000000
 51
90.000000
  0
ARC
  8
0
 10
-218.300018
 20
-19.912052
 40
0.500000
 50
0.000000
 51
90.000000
  0
ARC
  8
0
 10
-225.700012
 20
-19.912056
 40
0.500000
 50
90.000000
 51
180.000000
  0
ARC
  8
0
 10
-217.500015
 20
-16.583630
 40
0.500000
 50
0.000000
 51
90.000000
  0
ARC
  8
0
 10
-226.500015
 20
-16.583630
 40
0.500000
 50
90.000000
 51
180.000000
  0
ARC
  8
0
 10
-225.700012
 20
-92.602692
 40
0.500000
 50
90.000000
 51
180.000000
  0
ARC
  8
0
 10
-218.300003
 20
-92.602692
 40
0.500000
 50
0.000000
 51
90.000000
  0
ARC
  8
0
 10
-217.500015
 20
-94.016891
 40
0.500000
 50
0.000000
 51
90.000000
  0
ARC
  8
0
 10
-226.500000
 20
-94.016899
 40
0.500000
 50
90.000000
 51
180.000000
  0
ARC
  8
0
 10
-226.500000
 20
-103.416397
 40
0.500000
 50
180.000000
 51
270.000000
  0
ARC
  8
0
 10
-217.500015
 20
-103.416397
 40
0.500000
 50
270.000000
 51
0.000000
  0
ARC
  8
0
 10
-218.300003
 20
-104.264923
 40
0.500000
 50
270.000000
 51
0.000000
  0
ARC
  8
0
 10
-225.700012
 20
-104.264923
 40
0.500000
 50
180.000000
 51
270.000000
  0
ARC
  8
0
 10
-218.300003
 20
-97.400955
 40
0.500000
 50
270.000000
 51
0.000000
  0
ARC
  8
0
 10
-225.700012
 20
-97.400955
 40
0.500000
 50
180.000000
 51
270.000000
  0
ARC
  8
0
 10
-223.299988
 20
-79.798973
 40
7.000007
 50
343.042267
 51
16.957724
  0
ARC
  8
0
 10
-217.560867
 20
-78.048973
 40
1.000007
 50
16.957495
 51
90.000000
  0
ARC
  8
0
 10
-217.560867
 20
-81.548973
 40
1.000000
 50
270.000000
 51
343.042511
  0
ARC
  8
0
 10
-217.560867
 20
-74.477859
 40
1.000000
 50
270.000000
 51
343.042084
  0
ARC
  8
0
 10
-223.299988
 20
-72.727859
 40
7.000009
 50
343.042206
 51
16.957724
  0
ARC
  8
0
 10
-217.560867
 20
-70.977859
 40
1.000007
 50
16.957495
 51
90.000000
  0
ARC
  8
0
 10
-253.000000
 20
-120.961502
 40
3.000000
 50
270.000000
 51
0.000000
  0
ARC
  8
0
 10
-253.000000
 20
0.961498
 40
3.000000
 50
0.000000
 51
90.000000
  0
ARC
  8
0
 10
-267.840881
 20
2.961704
 40
1.000000
 50
90.000000
 51
124.848457
  0
ARC
  8
0
 10
-267.840759
 20
-122.961777
 40
1.000005
 50
235.160034
 51
270.000000
  0
ARC
  8
0
 10
-221.255692
 20
-24.644648
 40
0.755692
 50
359.999847
 51
14.106391
  0
ARC
  8
0
 10
-221.453247
 20
-24.717073
 40
0.965201
 50
15.417976
 51
51.388996
  0
ARC
  8
0
 10
-222.000000
 20
-25.515877
 40
1.931884
 50
53.502426
 51
126.497643
  0
ARC
  8
0
 10
-222.546753
 20
-24.717075
 40
0.965193
 50
128.611069
 51
164.582138
  0
ARC
  8
0
 10
-222.744308
 20
-24.644651
 40
0.755698
 50
165.893616
 51
179.999863
  0
ARC
  8
0
 10
-222.744308
 20
-89.132843
 40
0.755692
 50
180.000000
 51
194.106384
  0
ARC
  8
0
 10
-222.546753
 20
-89.060417
 40
0.965201
 50
195.417969
 51
231.388992
  0
ARC
  8
0
 10
-222.000000
 20
-88.261612
 40
1.931886
 50
233.502457
 51
306.497528
  0
ARC
  8
0
 10
-221.453247
 20
-89.060417
 40
0.965195
 50
308.610992
 51
344.582031
  0
ARC
  8
0
 10
-221.255692
 20
-89.132843
 40
0.755698
 50
345.893616
 51
0.000000
  0
ARC
  8
0
 10
-229.781326
 20
-96.628174
 40
0.425080
 50
345.893921
 51
14.107077
  0
ARC
  8
0
 10
-229.892456
 20
-96.668907
 40
0.542930
 50
15.417746
 51
51.388477
  0
ARC
  8
0
 10
-230.199997
 20
-97.118240
 40
1.086690
 50
53.502678
 51
126.497559
  0
ARC
  8
0
 10
-230.507538
 20
-96.668915
 40
0.542927
 50
128.611526
 51
164.582260
  0
ARC
  8
0
 10
-230.618668
 20
-96.628174
 40
0.425080
 50
165.893921
 51
194.107071
  0
ARC
  8
0
 10
-230.507538
 20
-96.587440
 40
0.542930
 50
195.417740
 51
231.388474
  0
ARC
  8
0
 10
-230.199997
 20
-96.138107
 40
1.086690
 50
233.502686
 51
306.497559
  0
ARC
  8
0
 10
-229.892456
 20
-96.587433
 40
0.542927
 50
308.611511
 51
344.582245
  0
ARC
  8
0
 10
-229.455704
 20
-96.628174
 40
0.755698
 50
345.893616
 51
14.106391
  0
ARC
  8
0
 10
-229.653259
 20
-96.700600
 40
0.965201
 50
15.417976
 51
51.388996
  0
ARC
  8
0
 10
-230.200012
 20
-97.499397
 40
1.931880
 50
53.502323
 51
126.497673
  0
ARC
  8
0
 10
-230.746765
 20
-96.700600
 40
0.965195
 50
128.611008
 51
164.582031
  0
ARC
  8
0
 10
-230.944321
 20
-96.628174
 40
0.755698
 50
165.893616
 51
194.106384
  0
ARC
  8
0
 10
-230.746765
 20
-96.555748
 40
0.965201
 50
195.417969
 51
231.388992
  0
ARC
  8
0
 10
-230.200012
 20
-95.756950
 40
1.931880
 50
233.502319
 51
306.497681
  0
ARC
  8
0
 10
-229.653259
 20
-96.555748
 40
0.965195
 50
308.610992
 51
344.582031
  0
ARC
  8
0
 10
-222.819702
 20
-101.295074
 40
2.130294
 50
176.237244
 51
191.773209
  0
ARC
  8
0
 10
-222.602142
 20
-101.228607
 40
2.356930
 50
192.275894
 51
225.305573
  0
ARC
  8
0
 10
-222.000000
 20
-100.495506
 40
3.302724
 50
226.824829
 51
313.174988
  0
ARC
  8
0
 10
-221.397858
 20
-101.228607
 40
2.356934
 50
314.694183
 51
347.723724
  0
ARC
  8
0
 10
-221.180298
 20
-101.295074
 40
2.130298
 50
348.226379
 51
356.237030
  0
ARC
  8
0
 10
-220.536209
 20
-101.295074
 40
1.486211
 50
354.668640
 51
14.106581
  0
ARC
  8
0
 10
-220.924744
 20
-101.437508
 40
1.898239
 50
15.417928
 51
51.388382
  0
ARC
  8
0
 10
-222.000000
 20
-103.008453
 40
3.799348
 50
53.502098
 51
126.497902
  0
ARC
  8
0
 10
-223.075256
 20
-101.437508
 40
1.898234
 50
128.611618
 51
164.582291
  0
ARC
  8
0
 10
-223.463791
 20
-101.295074
 40
1.486207
 50
165.893707
 51
185.354126
  0
ARC
  8
0
 10
-222.000031
 20
-97.893562
 40
4.532881
 50
245.098053
 51
294.888550
  0
POLYLINE
  8
0
 66
     1
  0
VERTEX
  8
0
 10
-268.412262
 20
3.782385
  0
VERTEX
  8
0
 10
-268.637665
 20
3.602403
  0
VERTEX
  8
0
 10
-268.829193
 20
3.334206
  0
VERTEX
  8
0
 10
-268.956360
 20
2.880756
  0
VERTEX
  8
0
 10
-268.954529
 20
2.335468
  0
VERTEX
  8
0
 10
-268.918304
 20
1.703795
  0
VERTEX
  8
0
 10
-268.829193
 20
0.945915
  0
VERTEX
  8
0
 10
-268.678802
 20
0.110182
  0
VERTEX
  8
0
 10
-268.477661
 20
-0.723045
  0
VERTEX
  8
0
 10
-268.235474
 20
-1.572643
  0
VERTEX
  8
0
 10
-267.961365
 20
-2.449161
  0
VERTEX
  8
0
 10
-267.666260
 20
-3.315675
  0
VERTEX
  8
0
 10
-267.331818
 20
-4.221474
  0
VERTEX
  8
0
 10
-267.034454
 20
-4.976297
  0
VERTEX
  8
0
 10
-266.722717
 20
-5.723964
  0
VERTEX
  8
0
 10
-266.395142
 20
-6.469440
  0
VERTEX
  8
0
 10
-266.050171
 20
-7.217690
  0
VERTEX
  8
0
 10
-265.682861
 20
-7.979486
  0
VERTEX
  8
0
 10
-265.302155
 20
-8.734422
  0
VERTEX
  8
0
 10
-264.907898
 20
-9.482205
  0
VERTEX
  8
0
 10
-264.500000
 20
-10.222549
  0
SEQEND
  0
POLYLINE
  8
0
 66
     1
  0
VERTEX
  8
0
 10
-264.500000
 20
-109.777451
  0
VERTEX
  8
0
 10
-264.909119
 20
-110.520393
  0
VERTEX
  8
0
 10
-265.305420
 20
-111.272499
  0
VERTEX
  8
0
 10
-265.686523
 20
-112.028297
  0
VERTEX
  8
0
 10
-266.050171
 20
-112.782310
  0
VERTEX
  8
0
 10
-266.395294
 20
-113.532829
  0
VERTEX
  8
0
 10
-266.729736
 20
-114.295944
  0
VERTEX
  8
0
 10
-267.044769
 20
-115.051285
  0
VERTEX
  8
0
 10
-267.331818
 20
-115.778526
  0
VERTEX
  8
0
 10
-267.656342
 20
-116.660057
  0
VERTEX
  8
0
 10
-267.959808
 20
-117.549995
  0
VERTEX
  8
0
 10
-268.235474
 20
-118.427353
  0
VERTEX
  8
0
 10
-268.479401
 20
-119.305077
  0
VERTEX
  8
0
 10
-268.688995
 20
-120.189011
  0
VERTEX
  8
0
 10
-268.829193
 20
-120.945915
  0
VERTEX
  8
0
 10
-268.908997
 20
-121.656036
  0
VERTEX
  8
0
 10
-268.954529
 20
-122.335464
  0
VERTEX
  8
0
 10
-268.943970
 20
-122.877090
  0
VERTEX
  8
0
 10
-268.829193
 20
-123.334206
  0
VERTEX
  8
0
 10
-268.647797
 20
-123.581673
  0
VERTEX
  8
0
 10
-268.412842
 20
-123.781990
  0
SEQEND
  0
POLYLINE
  8
0
 66
     1
  0
VERTEX
  8
0
 10
-264.500000
 20
-48.000000
  0
VERTEX
  8
0
 10
-264.932312
 20
-48.611217
  0
VERTEX
  8
0
 10
-265.374298
 20
-49.215519
  0
VERTEX
  8
0
 10
-265.772736
 20
-49.730839
  0
VERTEX
  8
0
 10
-266.169220
 20
-50.210876
  0
VERTEX
  8
0
 10
-266.566284
 20
-50.724880
  0
VERTEX
  8
0
 10
-266.961304
 20
-51.343250
  0
VERTEX
  8
0
 10
-267.314636
 20
-52.021454
  0
VERTEX
  8
0
 10
-267.656158
 20
-52.781643
  0
VERTEX
  8
0
 10
-267.970093
 20
-53.620564
  0
VERTEX
  8
0
 10
-268.193726
 20
-54.328892
  0
VERTEX
  8
0
 10
-268.384491
 20
-55.047218
  0
VERTEX
  8
0
 10
-268.546631
 20
-55.781521
  0
VERTEX
  8
0
 10
-268.684814
 20
-56.555153
  0
VERTEX
  8
0
 10
-268.794128
 20
-57.333221
  0
VERTEX
  8
0
 10
-268.871826
 20
-58.072136
  0
VERTEX
  8
0
 10
-268.933960
 20
-59.035175
  0
VERTEX
  8
0
 10
-268.954529
 20
-60.000000
  0
VERTEX
  8
0
 10
-268.936035
 20
-60.940910
  0
VERTEX
  8
0
 10
-268.871826
 20
-61.927864
  0
VERTEX
  8
0
 10
-268.791107
 20
-62.697922
  0
VERTEX
  8
0
 10
-268.682465
 20
-63.464615
  0
VERTEX
  8
0
 10
-268.546631
 20
-64.218475
  0
VERTEX
  8
0
 10
-268.379517
 20
-64.964989
  0
VERTEX
  8
0
 10
-268.182068
 20
-65.703934
  0
VERTEX
  8
0
 10
-267.970093
 20
-66.379440
  0
VERTEX
  8
0
 10
-267.660156
 20
-67.201347
  0
VERTEX
  8
0
 10
-267.314636
 20
-67.978546
  0
VERTEX
  8
0
 10
-266.959412
 20
-68.655144
  0
VERTEX
  8
0
 10
-266.566284
 20
-69.275124
  0
VERTEX
  8
0
 10
-266.211853
 20
-69.735077
  0
VERTEX
  8
0
 10
-265.772736
 20
-70.269165
  0
VERTEX
  8
0
 10
-265.333405
 20
-70.834991
  0
VERTEX
  8
0
 10
-264.911865
 20
-71.414032
  0
VERTEX
  8
0
 10
-264.500000
 20
-72.000000
  0
SEQEND
  0
POINT
  8
0
 10
-205.500000
 20
-275.000000
  0
POINT
  8
0
 10
-250.000000
 20
-275.000000
  0
LINE
  8
0
 10
-249.999985
 20
-206.000000
 11
-249.999985
 21
-344.000000
  0
LINE
  8
0
 10
-248.399994
 20
-221.000000
 11
-248.399994
 21
-298.999969
  0
LINE
  8
0
 10
-246.799988
 20
-206.000000
 11
-246.799988
 21
-329.000000
  0
LINE
  8
0
 10
-249.999954
 20
-221.000000
 11
-246.799957
 21
-221.000000
  0
LINE
  8
0
 10
-245.499985
 20
-252.372543
 11
-245.499985
 21
-295.999969
  0
LINE
  8
0
 10
-240.499985
 20
-252.372543
 11
-240.499985
 21
-295.999969
  0
LINE
  8
0
 10
-248.399994
 20
-310.999969
 11
-248.399994
 21
-329.000000
  0
LINE
  8
0
 10
-246.799988
 20
-295.999969
 11
-235.549988
 21
-295.999969
  0
LINE
  8
0
 10
-235.549973
 20
-296.000000
 11
-235.549973
 21
-314.000000
  0
LINE
  8
0
 10
-234.799973
 20
-297.299011
 11
-234.799973
 21
-312.700958
  0
LINE
  8
0
 10
-235.549957
 20
-295.999969
 11
-234.799957
 21
-297.299011
  0
LINE
  8
0
 10
-235.550003
 20
-313.999969
 11
-234.800003
 21
-312.700928
  0
LINE
  8
0
 10
-246.799988
 20
-313.999969
 11
-235.549988
 21
-313.999969
  0
LINE
  8
0
 10
-249.999985
 20
-298.999969
 11
-246.799988
 21
-298.999969
  0
LINE
  8
0
 10
-249.999985
 20
-300.199982
 11
-246.799988
 21
-300.199982
  0
LINE
  8
0
 10
-249.999985
 20
-309.799988
 11
-246.799988
 21
-309.799988
  0
LINE
  8
0
 10
-249.999985
 20
-310.999969
 11
-246.799988
 21
-310.999969
  0
LINE
  8
0
 10
-246.799957
 20
-206.000000
 11
-235.549957
 21
-206.000000
  0
LINE
  8
0
 10
-235.549988
 20
-206.000000
 11
-235.549988
 21
-224.000000
  0
LINE
  8
0
 10
-234.799988
 20
-207.299042
 11
-234.799988
 21
-222.700974
  0
LINE
  8
0
 10
-235.549973
 20
-206.000000
 11
-234.799973
 21
-207.299042
  0
LINE
  8
0
 10
-235.550003
 20
-224.000000
 11
-234.800003
 21
-222.700958
  0
LINE
  8
0
 10
-246.799957
 20
-224.000000
 11
-235.549957
 21
-224.000000
  0
LINE
  8
0
 10
-249.999954
 20
-209.000000
 11
-246.799957
 21
-209.000000
  0
LINE
  8
0
 10
-249.999954
 20
-210.199997
 11
-246.799957
 21
-210.199997
  0
LINE
  8
0
 10
-250.000015
 20
-329.000000
 11
-246.800018
 21
-329.000000
  0
LINE
  8
0
 10
-249.999954
 20
-219.800003
 11
-246.799957
 21
-219.800003
  0
LINE
  8
0
 10
-218.299988
 20
-267.309570
 11
-218.299988
 21
-248.129898
  0
LINE
  8
0
 10
-219.500000
 20
-248.695557
 11
-219.500000
 21
-250.428497
  0
LINE
  8
0
 10
-218.299988
 20
-257.950989
 11
-217.560867
 21
-257.950989
  0
LINE
  8
0
 10
-218.299988
 20
-252.451004
 11
-217.560867
 21
-252.451004
  0
LINE
  8
0
 10
-218.299988
 20
-259.522095
 11
-217.560867
 21
-259.522095
  0
LINE
  8
0
 10
-218.299988
 20
-265.022095
 11
-217.560867
 21
-265.022095
  0
LINE
  8
0
 10
-225.500000
 20
-254.811859
 11
-218.299988
 21
-254.811859
  0
LINE
  8
0
 10
-225.500000
 20
-250.428497
 11
-219.500000
 21
-250.428497
  0
LINE
  8
0
 10
-225.500000
 20
-251.276321
 11
-218.299988
 21
-251.276321
  0
LINE
  8
0
 10
-225.500000
 20
-254.811859
 11
-225.500000
 21
-248.129898
  0
LINE
  8
0
 10
-225.700012
 20
-238.513229
 11
-218.300018
 21
-238.513229
  0
LINE
  8
0
 10
-226.500000
 20
-236.533325
 11
-217.500000
 21
-236.533325
  0
LINE
  8
0
 10
-226.500000
 20
-231.083572
 11
-217.500000
 21
-231.083572
  0
LINE
  8
0
 10
-225.700012
 20
-230.235046
 11
-218.300018
 21
-230.235046
  0
LINE
  8
0
 10
-225.700012
 20
-242.897278
 11
-218.300018
 21
-242.897278
  0
LINE
  8
0
 10
-217.800018
 20
-242.397278
 11
-217.800018
 21
-237.599014
  0
LINE
  8
0
 10
-217.000000
 20
-240.983078
 11
-217.000000
 21
-231.583572
  0
LINE
  8
0
 10
-226.200012
 20
-242.397278
 11
-226.200012
 21
-237.599014
  0
LINE
  8
0
 10
-227.000000
 20
-240.983063
 11
-227.000000
 21
-231.583572
  0
LINE
  8
0
 10
-225.700012
 20
-237.099014
 11
-218.300018
 21
-237.099014
  0
LINE
  8
0
 10
-227.500000
 20
-241.483063
 11
-226.200012
 21
-241.483063
  0
LINE
  8
0
 10
-226.200012
 20
-231.083572
 11
-226.200012
 21
-230.735046
  0
LINE
  8
0
 10
-217.800018
 20
-231.083572
 11
-217.800018
 21
-230.735046
  0
LINE
  8
0
 10
-217.800018
 20
-241.483063
 11
-216.500000
 21
-241.483063
  0
LINE
  8
0
 10
-233.500000
 20
-241.200226
 11
-227.500000
 21
-241.200226
  0
LINE
  8
0
 10
-216.500000
 20
-241.483063
 11
-216.500000
 21
-235.543365
  0
LINE
  8
0
 10
-227.500000
 20
-241.483063
 11
-227.500000
 21
-235.543365
  0
LINE
  8
0
 10
-218.500000
 20
-248.695557
 11
-218.500000
 21
-242.897278
  0
LINE
  8
0
 10
-225.500000
 20
-248.695557
 11
-225.500000
 21
-242.897278
  0
LINE
  8
0
 10
-216.500000
 20
-241.200226
 11
-211.500000
 21
-241.200226
  0
LINE
  8
0
 10
-220.499969
 20
-245.867126
 11
-220.499969
 21
-248.695557
  0
LINE
  8
0
 10
-223.500000
 20
-245.867126
 11
-223.500000
 21
-248.695557
  0
LINE
  8
0
 10
-225.500000
 20
-248.695557
 11
-223.500000
 21
-248.695557
  0
LINE
  8
0
 10
-220.500000
 20
-248.695557
 11
-218.500000
 21
-248.695557
  0
LINE
  8
0
 10
-211.500000
 20
-246.644958
 11
-211.500000
 21
-235.543365
  0
LINE
  8
0
 10
-233.500000
 20
-235.543365
 11
-227.500000
 21
-235.543365
  0
LINE
  8
0
 10
-227.500000
 20
-235.826218
 11
-227.000000
 21
-235.826218
  0
LINE
  8
0
 10
-217.000000
 20
-235.826218
 11
-216.500000
 21
-235.826218
  0
LINE
  8
0
 10
-216.500000
 20
-235.543365
 11
-211.500000
 21
-235.543365
  0
LINE
  8
0
 10
-233.500000
 20
-246.644958
 11
-225.500000
 21
-246.644958
  0
LINE
  8
0
 10
-223.500000
 20
-246.644958
 11
-220.500000
 21
-246.644958
  0
LINE
  8
0
 10
-218.500000
 20
-246.644958
 11
-211.500000
 21
-246.644958
  0
LINE
  8
0
 10
-209.500000
 20
-242.993118
 11
-209.500000
 21
-237.993118
  0
LINE
  8
0
 10
-211.500000
 20
-242.993118
 11
-209.500000
 21
-242.993118
  0
LINE
  8
0
 10
-209.500000
 20
-242.493118
 11
-194.422089
 21
-242.493118
  0
LINE
  8
0
 10
-209.500000
 20
-238.493118
 11
-194.422089
 21
-238.493118
  0
LINE
  8
0
 10
-211.500000
 20
-237.993118
 11
-209.500000
 21
-237.993118
  0
LINE
  8
0
 10
-233.500000
 20
-246.644958
 11
-233.500000
 21
-235.543365
  0
LINE
  8
0
 10
-227.800003
 20
-248.129898
 11
-227.800003
 21
-247.069244
  0
LINE
  8
0
 10
-227.800003
 20
-247.069244
 11
-225.500000
 21
-247.069244
  0
LINE
  8
0
 10
-227.800003
 20
-248.129898
 11
-225.500000
 21
-248.129898
  0
LINE
  8
0
 10
-245.300003
 20
-251.311890
 11
-237.800003
 21
-251.311890
  0
LINE
  8
0
 10
-237.800018
 20
-251.311890
 11
-227.800018
 21
-247.069244
  0
LINE
  8
0
 10
-237.800018
 20
-237.169739
 11
-233.500000
 21
-238.994080
  0
LINE
  8
0
 10
-207.800003
 20
-248.129898
 11
-207.800003
 21
-242.493118
  0
LINE
  8
0
 10
-223.500000
 20
-248.129898
 11
-220.499969
 21
-248.129898
  0
LINE
  8
0
 10
-223.500000
 20
-247.069244
 11
-220.499969
 21
-247.069244
  0
LINE
  8
0
 10
-218.500000
 20
-248.129898
 11
-207.800003
 21
-248.129898
  0
LINE
  8
0
 10
-218.500000
 20
-247.069244
 11
-207.800003
 21
-247.069244
  0
LINE
  8
0
 10
-237.800003
 20
-252.372543
 11
-237.800003
 21
-251.311890
  0
LINE
  8
0
 10
-237.799988
 20
-252.372543
 11
-227.800003
 21
-248.129898
  0
LINE
  8
0
 10
-246.800003
 20
-252.372543
 11
-237.800003
 21
-252.372543
  0
LINE
  8
0
 10
-246.800003
 20
-247.069199
 11
-245.300003
 21
-247.069199
  0
LINE
  8
0
 10
-245.300003
 20
-237.169754
 11
-237.800003
 21
-237.169754
  0
LINE
  8
0
 10
-246.800003
 20
-232.927094
 11
-245.300003
 21
-232.927094
  0
LINE
  8
0
 10
-245.300003
 20
-251.311890
 11
-245.300003
 21
-232.927094
  0
LINE
  8
0
 10
-219.500000
 20
-267.309570
 11
-218.299988
 21
-267.309570
  0
LINE
  8
0
 10
-220.499939
 20
-310.355347
 11
-220.499939
 21
-303.000000
  0
LINE
  8
0
 10
-223.500000
 20
-310.355347
 11
-223.500000
 21
-303.000000
  0
LINE
  8
0
 10
-225.699997
 20
-319.764893
 11
-218.299988
 21
-319.764893
  0
LINE
  8
0
 10
-226.500000
 20
-318.916382
 11
-226.199997
 21
-318.916382
  0
LINE
  8
0
 10
-225.699997
 20
-315.587952
 11
-218.299988
 21
-315.587952
  0
LINE
  8
0
 10
-227.500000
 20
-314.173706
 11
-225.500000
 21
-314.173706
  0
LINE
  8
0
 10
-226.199997
 20
-319.264893
 11
-226.199997
 21
-314.173706
  0
LINE
  8
0
 10
-217.799988
 20
-319.264893
 11
-217.799988
 21
-314.173737
  0
LINE
  8
0
 10
-217.000000
 20
-318.416382
 11
-217.000000
 21
-314.173737
  0
LINE
  8
0
 10
-226.999985
 20
-318.416382
 11
-226.999985
 21
-314.173706
  0
LINE
  8
0
 10
-227.500000
 20
-314.456573
 11
-227.500000
 21
-314.173706
  0
LINE
  8
0
 10
-216.500000
 20
-314.456573
 11
-216.500000
 21
-314.173706
  0
LINE
  8
0
 10
-233.500000
 20
-314.456573
 11
-227.500000
 21
-314.456573
  0
LINE
  8
0
 10
-216.500000
 20
-314.456573
 11
-211.500000
 21
-314.456573
  0
LINE
  8
0
 10
-217.799988
 20
-318.916382
 11
-217.500000
 21
-318.916382
  0
LINE
  8
0
 10
-218.299988
 20
-315.163696
 11
-218.299988
 21
-314.173737
  0
LINE
  8
0
 10
-225.699997
 20
-315.163666
 11
-225.699997
 21
-314.173706
  0
LINE
  8
0
 10
-225.699997
 20
-315.163666
 11
-218.299988
 21
-315.163666
  0
LINE
  8
0
 10
-225.499985
 20
-315.163666
 11
-225.499985
 21
-303.391937
  0
LINE
  8
0
 10
-218.500000
 20
-315.163666
 11
-218.500000
 21
-301.304382
  0
LINE
  8
0
 10
-219.500000
 20
-301.304382
 11
-218.500000
 21
-301.304382
  0
LINE
  8
0
 10
-218.500000
 20
-314.173706
 11
-216.500000
 21
-314.173706
  0
LINE
  8
0
 10
-233.500000
 20
-314.456573
 11
-233.500000
 21
-310.327087
  0
LINE
  8
0
 10
-211.500000
 20
-314.456573
 11
-211.500000
 21
-308.587616
  0
LINE
  8
0
 10
-209.500000
 20
-312.006836
 11
-209.500000
 21
-308.587616
  0
LINE
  8
0
 10
-230.399963
 20
-309.011841
 11
-225.499985
 21
-309.011841
  0
LINE
  8
0
 10
-211.500000
 20
-312.006836
 11
-209.500000
 21
-312.006836
  0
LINE
  8
0
 10
-209.500000
 20
-311.506836
 11
-194.422058
 21
-311.506836
  0
LINE
  8
0
 10
-209.399994
 20
-307.506836
 11
-194.422058
 21
-307.506836
  0
LINE
  8
0
 10
-218.500000
 20
-309.011841
 11
-211.500000
 21
-309.011841
  0
LINE
  8
0
 10
-234.799973
 20
-303.000000
 11
-219.500000
 21
-303.000000
  0
LINE
  8
0
 10
-229.500000
 20
-304.698334
 11
-229.500000
 21
-303.000000
  0
LINE
  8
0
 10
-234.700073
 20
-302.999969
 11
-229.500031
 21
-304.698303
  0
LINE
  8
0
 10
-229.500000
 20
-304.698334
 11
-224.299942
 21
-303.000000
  0
LINE
  8
0
 10
-229.400009
 20
-307.527039
 11
-225.499985
 21
-307.527039
  0
LINE
  8
0
 10
-229.400009
 20
-308.587616
 11
-225.499985
 21
-308.587616
  0
LINE
  8
0
 10
-229.400009
 20
-308.587616
 11
-229.400009
 21
-307.527039
  0
LINE
  8
0
 10
-209.399994
 20
-308.587616
 11
-209.399994
 21
-301.870178
  0
LINE
  8
0
 10
-229.400024
 20
-308.587616
 11
-234.799973
 21
-310.878601
  0
LINE
  8
0
 10
-234.799973
 20
-309.818024
 11
-229.400024
 21
-307.527008
  0
LINE
  8
0
 10
-218.500000
 20
-301.870178
 11
-209.399994
 21
-301.870178
  0
LINE
  8
0
 10
-223.500000
 20
-308.587616
 11
-220.499939
 21
-308.587616
  0
LINE
  8
0
 10
-218.500000
 20
-308.587616
 11
-209.399994
 21
-308.587616
  0
LINE
  8
0
 10
-219.500000
 20
-254.811859
 11
-219.500000
 21
-303.000000
  0
LINE
  8
0
 10
-194.422058
 20
-307.506836
 11
-194.422058
 21
-311.506836
  0
LINE
  8
0
 10
-194.422058
 20
-309.806824
 11
-191.422058
 21
-309.806824
  0
LINE
  8
0
 10
-194.422058
 20
-309.206818
 11
-191.422058
 21
-309.206818
  0
LINE
  8
0
 10
-194.422058
 20
-310.806824
 11
-191.422058
 21
-310.806824
  0
LINE
  8
0
 10
-194.422058
 20
-308.206818
 11
-191.422058
 21
-308.206818
  0
LINE
  8
0
 10
-191.422058
 20
-308.206818
 11
-191.422058
 21
-309.206818
  0
LINE
  8
0
 10
-191.422058
 20
-309.806824
 11
-191.422058
 21
-310.806824
  0
LINE
  8
0
 10
-191.422058
 20
-308.331818
 11
-189.922058
 21
-308.331818
  0
LINE
  8
0
 10
-191.422058
 20
-308.456818
 11
-189.922058
 21
-308.456818
  0
LINE
  8
0
 10
-191.422058
 20
-308.581818
 11
-189.922058
 21
-308.581818
  0
LINE
  8
0
 10
-191.422058
 20
-308.706818
 11
-189.922058
 21
-308.706818
  0
LINE
  8
0
 10
-191.422058
 20
-308.831818
 11
-189.922058
 21
-308.831818
  0
LINE
  8
0
 10
-191.422058
 20
-308.956818
 11
-189.922058
 21
-308.956818
  0
LINE
  8
0
 10
-191.422058
 20
-309.081818
 11
-189.922058
 21
-309.081818
  0
LINE
  8
0
 10
-191.422058
 20
-309.931824
 11
-189.922058
 21
-309.931824
  0
LINE
  8
0
 10
-191.422058
 20
-310.056824
 11
-189.922058
 21
-310.056824
  0
LINE
  8
0
 10
-191.422058
 20
-310.181824
 11
-189.922058
 21
-310.181824
  0
LINE
  8
0
 10
-191.422058
 20
-310.306824
 11
-189.922058
 21
-310.306824
  0
LINE
  8
0
 10
-191.422058
 20
-310.431824
 11
-189.922058
 21
-310.431824
  0
LINE
  8
0
 10
-191.422058
 20
-310.556824
 11
-189.922058
 21
-310.556824
  0
LINE
  8
0
 10
-191.422058
 20
-310.681824
 11
-189.922058
 21
-310.681824
  0
LINE
  8
0
 10
-194.422058
 20
-238.493118
 11
-194.422058
 21
-242.493118
  0
LINE
  8
0
 10
-194.422058
 20
-240.793121
 11
-191.422058
 21
-240.793121
  0
LINE
  8
0
 10
-194.422058
 20
-240.193115
 11
-191.422058
 21
-240.193115
  0
LINE
  8
0
 10
-194.422058
 20
-241.793121
 11
-191.422058
 21
-241.793121
  0
LINE
  8
0
 10
-194.422058
 20
-239.193115
 11
-191.422058
 21
-239.193115
  0
LINE
  8
0
 10
-191.422058
 20
-239.193115
 11
-191.422058
 21
-240.193115
  0
LINE
  8
0
 10
-191.422058
 20
-240.793121
 11
-191.422058
 21
-241.793121
  0
LINE
  8
0
 10
-191.422058
 20
-239.318115
 11
-189.922058
 21
-239.318115
  0
LINE
  8
0
 10
-191.422058
 20
-239.443115
 11
-189.922058
 21
-239.443115
  0
LINE
  8
0
 10
-191.422058
 20
-239.568115
 11
-189.922058
 21
-239.568115
  0
LINE
  8
0
 10
-191.422058
 20
-239.693115
 11
-189.922058
 21
-239.693115
  0
LINE
  8
0
 10
-191.422058
 20
-239.818115
 11
-189.922058
 21
-239.818115
  0
LINE
  8
0
 10
-191.422058
 20
-239.943115
 11
-189.922058
 21
-239.943115
  0
LINE
  8
0
 10
-191.422058
 20
-240.068115
 11
-189.922058
 21
-240.068115
  0
LINE
  8
0
 10
-191.422058
 20
-240.918121
 11
-189.922058
 21
-240.918121
  0
LINE
  8
0
 10
-191.422058
 20
-241.043121
 11
-189.922058
 21
-241.043121
  0
LINE
  8
0
 10
-191.422058
 20
-241.168121
 11
-189.922058
 21
-241.168121
  0
LINE
  8
0
 10
-191.422058
 20
-241.293121
 11
-189.922058
 21
-241.293121
  0
LINE
  8
0
 10
-191.422058
 20
-241.418121
 11
-189.922058
 21
-241.418121
  0
LINE
  8
0
 10
-191.422058
 20
-241.543121
 11
-189.922058
 21
-241.543121
  0
LINE
  8
0
 10
-191.422058
 20
-241.668121
 11
-189.922058
 21
-241.668121
  0
LINE
  8
0
 10
-223.500000
 20
-309.011841
 11
-220.499939
 21
-309.011841
  0
LINE
  8
0
 10
-205.500000
 20
-255.850006
 11
-205.500000
 21
-294.149994
  0
LINE
  8
0
 10
-271.500000
 20
-199.000000
 11
-271.500000
 21
-351.000000
  0
LINE
  8
0
 10
-268.954529
 20
-347.000000
 11
-252.999985
 21
-347.000000
  0
LINE
  8
0
 10
-245.500000
 20
-295.000000
 11
-241.550003
 21
-295.000000
  0
LINE
  8
0
 10
-245.500000
 20
-255.000000
 11
-241.550003
 21
-255.000000
  0
LINE
  8
0
 10
-268.954529
 20
-203.000000
 11
-252.999985
 21
-203.000000
  0
LINE
  8
0
 10
-241.500000
 20
-255.050003
 11
-241.500000
 21
-294.950012
  0
LINE
  8
0
 10
-241.500000
 20
-294.950012
 11
-240.500000
 21
-294.950012
  0
LINE
  8
0
 10
-241.500000
 20
-255.050003
 11
-240.499985
 21
-255.050003
  0
LINE
  8
0
 10
-206.299911
 20
-294.950104
 11
-205.499908
 21
-294.150085
  0
LINE
  8
0
 10
-206.299942
 20
-255.049973
 11
-205.499954
 21
-255.849960
  0
LINE
  8
0
 10
-206.299988
 20
-255.050003
 11
-206.299988
 21
-294.950012
  0
LINE
  8
0
 10
-241.500061
 20
-255.050064
 11
-241.550064
 21
-255.000061
  0
LINE
  8
0
 10
-241.549988
 20
-295.000000
 11
-241.499985
 21
-294.950012
  0
LINE
  8
0
 10
-271.500000
 20
-351.000000
 11
-268.954559
 21
-347.000031
  0
LINE
  8
0
 10
-271.500000
 20
-198.999985
 11
-268.954559
 21
-202.999969
  0
LINE
  8
0
 10
-216.300232
 20
-255.260071
 11
-206.299988
 21
-255.260071
  0
LINE
  8
0
 10
-219.500000
 20
-272.112518
 11
-206.299988
 21
-272.112518
  0
LINE
  8
0
 10
-219.500000
 20
-277.887482
 11
-206.299988
 21
-277.887482
  0
LINE
  8
0
 10
-219.500000
 20
-294.739929
 11
-206.299988
 21
-294.739929
  0
LINE
  8
0
 10
-206.300110
 20
-294.739746
 11
-205.500122
 21
-293.984436
  0
LINE
  8
0
 10
-206.299988
 20
-277.887451
 11
-205.500015
 21
-277.511444
  0
LINE
  8
0
 10
-218.299988
 20
-266.199310
 11
-206.299988
 21
-272.112427
  0
LINE
  8
0
 10
-206.299957
 20
-255.260071
 11
-216.576538
 21
-260.323975
  0
LINE
  8
0
 10
-219.500000
 20
-288.235443
 11
-206.299957
 21
-294.739929
  0
LINE
  8
0
 10
-206.299957
 20
-277.887451
 11
-219.500000
 21
-284.391937
  0
LINE
  8
0
 10
-206.300049
 20
-272.112640
 11
-205.500061
 21
-272.488678
  0
LINE
  8
0
 10
-205.499985
 20
-256.015411
 11
-206.299973
 21
-255.260101
  0
LINE
  8
0
 10
-264.500000
 20
-210.991669
 11
-264.500000
 21
-233.000000
  0
LINE
  8
0
 10
-264.500000
 20
-252.791336
 11
-264.500000
 21
-297.208679
  0
LINE
  8
0
 10
-264.500000
 20
-317.000000
 11
-264.500000
 21
-339.008331
  0
LINE
  8
0
 10
-216.301620
 20
-255.050003
 11
-206.300003
 21
-255.050003
  0
LINE
  8
0
 10
-219.500000
 20
-294.950012
 11
-206.300003
 21
-294.950012
  0
LINE
  8
0
 10
-223.500000
 20
-307.527039
 11
-220.499939
 21
-307.527039
  0
LINE
  8
0
 10
-218.500000
 20
-307.527039
 11
-209.399994
 21
-307.527039
  0
ARC
  8
0
 10
-223.299988
 20
-255.201004
 40
6.999995
 50
343.042175
 51
16.957785
  0
ARC
  8
0
 10
-217.560867
 20
-256.950989
 40
1.000000
 50
270.000000
 51
343.041260
  0
ARC
  8
0
 10
-217.560867
 20
-253.451004
 40
1.000009
 50
16.957914
 51
90.000000
  0
ARC
  8
0
 10
-217.560867
 20
-260.522095
 40
1.000004
 50
16.957077
 51
90.000000
  0
ARC
  8
0
 10
-223.299988
 20
-262.272095
 40
6.999999
 50
343.042053
 51
16.957664
  0
ARC
  8
0
 10
-217.560867
 20
-264.022095
 40
1.000000
 50
270.000000
 51
343.041260
  0
ARC
  8
0
 10
-225.700012
 20
-242.397278
 40
0.500000
 50
180.000000
 51
270.000000
  0
ARC
  8
0
 10
-218.299988
 20
-242.397278
 40
0.500000
 50
270.000000
 51
0.000000
  0
ARC
  8
0
 10
-217.500000
 20
-240.983078
 40
0.500000
 50
270.000000
 51
0.000000
  0
ARC
  8
0
 10
-226.500000
 20
-240.983063
 40
0.500000
 50
180.000000
 51
270.000000
  0
ARC
  8
0
 10
-226.500000
 20
-231.583572
 40
0.500000
 50
90.000000
 51
180.000000
  0
ARC
  8
0
 10
-217.500000
 20
-231.583572
 40
0.500000
 50
0.000000
 51
90.000000
  0
ARC
  8
0
 10
-218.299988
 20
-230.735046
 40
0.500000
 50
0.000000
 51
90.000000
  0
ARC
  8
0
 10
-225.700012
 20
-230.735046
 40
0.500000
 50
90.000000
 51
180.000000
  0
ARC
  8
0
 10
-218.299988
 20
-237.599014
 40
0.500000
 50
0.000000
 51
90.000000
  0
ARC
  8
0
 10
-225.700012
 20
-237.599014
 40
0.500000
 50
90.000000
 51
180.000000
  0
ARC
  8
0
 10
-225.699997
 20
-319.264893
 40
0.500000
 50
180.000000
 51
270.000000
  0
ARC
  8
0
 10
-218.299988
 20
-319.264893
 40
0.500000
 50
270.000000
 51
0.000000
  0
ARC
  8
0
 10
-218.299988
 20
-315.087952
 40
0.500000
 50
270.000000
 51
0.000000
  0
ARC
  8
0
 10
-225.699997
 20
-315.087952
 40
0.500000
 50
180.000000
 51
270.000000
  0
ARC
  8
0
 10
-217.500000
 20
-318.416382
 40
0.500000
 50
270.000000
 51
0.000000
  0
ARC
  8
0
 10
-226.500000
 20
-318.416382
 40
0.500000
 50
180.000000
 51
270.000000
  0
ARC
  8
0
 10
-252.999985
 20
-206.000000
 40
3.000000
 50
0.000000
 51
90.000000
  0
ARC
  8
0
 10
-252.999985
 20
-344.000000
 40
3.000000
 50
270.000000
 51
0.000000
  0
ARC
  8
0
 10
-222.000015
 20
-237.106415
 40
4.532872
 50
65.111816
 51
114.901993
  0
ARC
  8
0
 10
-223.463776
 20
-233.704895
 40
1.486205
 50
174.646164
 51
194.106583
  0
ARC
  8
0
 10
-223.075241
 20
-233.562469
 40
1.898237
 50
195.417709
 51
231.388245
  0
ARC
  8
0
 10
-221.999985
 20
-231.991516
 40
3.799348
 50
233.502106
 51
306.497894
  0
ARC
  8
0
 10
-220.924728
 20
-233.562469
 40
1.898228
 50
308.611755
 51
344.582306
  0
ARC
  8
0
 10
-220.536194
 20
-233.704895
 40
1.486209
 50
345.893433
 51
5.331355
  0
ARC
  8
0
 10
-221.255692
 20
-245.867126
 40
0.755692
 50
0.000000
 51
14.106952
  0
ARC
  8
0
 10
-221.453247
 20
-245.939545
 40
0.965201
 50
15.417976
 51
51.388714
  0
ARC
  8
0
 10
-222.000000
 20
-246.738358
 40
1.931886
 50
53.502457
 51
126.497543
  0
ARC
  8
0
 10
-222.546753
 20
-245.939545
 40
0.965189
 50
128.611282
 51
164.582901
  0
ARC
  8
0
 10
-222.744308
 20
-245.867126
 40
0.755696
 50
165.894165
 51
180.000000
  0
ARC
  8
0
 10
-229.781311
 20
-238.371796
 40
0.425082
 50
345.892914
 51
14.105082
  0
ARC
  8
0
 10
-229.892441
 20
-238.412537
 40
0.542928
 50
15.416969
 51
51.388477
  0
ARC
  8
0
 10
-230.199982
 20
-238.861862
 40
1.086684
 50
53.502438
 51
126.497559
  0
ARC
  8
0
 10
-230.507523
 20
-238.412537
 40
0.542927
 50
128.611526
 51
164.581482
  0
ARC
  8
0
 10
-230.618652
 20
-238.371796
 40
0.425082
 50
165.892929
 51
194.105087
  0
ARC
  8
0
 10
-230.507523
 20
-238.331055
 40
0.542928
 50
195.416962
 51
231.388474
  0
ARC
  8
0
 10
-230.199982
 20
-237.881729
 40
1.086684
 50
233.502441
 51
306.497559
  0
ARC
  8
0
 10
-229.892441
 20
-238.331055
 40
0.542927
 50
308.611511
 51
344.581482
  0
ARC
  8
0
 10
-229.455688
 20
-238.371796
 40
0.755700
 50
345.893036
 51
14.105829
  0
ARC
  8
0
 10
-229.653244
 20
-238.444214
 40
0.965197
 50
15.417103
 51
51.388714
  0
ARC
  8
0
 10
-230.199997
 20
-239.243027
 40
1.931886
 50
53.502457
 51
126.497543
  0
ARC
  8
0
 10
-230.746750
 20
-238.444214
 40
0.965189
 50
128.611282
 51
164.582031
  0
ARC
  8
0
 10
-230.944305
 20
-238.371796
 40
0.755700
 50
165.893051
 51
194.105835
  0
ARC
  8
0
 10
-230.746750
 20
-238.299377
 40
0.965197
 50
195.417099
 51
231.388718
  0
ARC
  8
0
 10
-230.199997
 20
-237.500565
 40
1.931886
 50
233.502457
 51
306.497528
  0
ARC
  8
0
 10
-229.653244
 20
-238.299377
 40
0.965189
 50
308.611298
 51
344.582031
  0
ARC
  8
0
 10
-221.180283
 20
-233.704895
 40
2.130294
 50
3.762753
 51
11.773612
  0
ARC
  8
0
 10
-221.397842
 20
-233.771362
 40
2.356934
 50
12.276262
 51
45.305832
  0
ARC
  8
0
 10
-221.999985
 20
-234.504456
 40
3.302730
 50
46.824921
 51
133.175262
  0
ARC
  8
0
 10
-222.602127
 20
-233.771362
 40
2.356923
 50
134.694427
 51
167.724106
  0
ARC
  8
0
 10
-222.819687
 20
-233.704895
 40
2.130295
 50
168.226791
 51
183.762756
  0
ARC
  8
0
 10
-222.744293
 20
-310.355347
 40
0.755692
 50
180.000000
 51
194.105835
  0
ARC
  8
0
 10
-222.546738
 20
-310.282928
 40
0.965197
 50
195.417099
 51
231.388153
  0
ARC
  8
0
 10
-221.999985
 20
-309.484131
 40
1.931861
 50
233.501923
 51
306.497528
  0
ARC
  8
0
 10
-221.453232
 20
-310.282928
 40
0.965201
 50
308.610718
 51
344.582886
  0
ARC
  8
0
 10
-221.255676
 20
-310.355347
 40
0.755696
 50
345.894165
 51
0.000000
  0
POLYLINE
  8
0
 66
     1
  0
VERTEX
  8
0
 10
-264.500000
 20
-233.000000
  0
VERTEX
  8
0
 10
-265.334930
 20
-233.213501
  0
VERTEX
  8
0
 10
-266.138611
 20
-233.536224
  0
VERTEX
  8
0
 10
-266.881897
 20
-233.947144
  0
VERTEX
  8
0
 10
-267.521301
 20
-234.407547
  0
VERTEX
  8
0
 10
-268.076630
 20
-234.949982
  0
VERTEX
  8
0
 10
-268.503357
 20
-235.590027
  0
VERTEX
  8
0
 10
-268.766266
 20
-236.314438
  0
VERTEX
  8
0
 10
-268.884064
 20
-237.098221
  0
VERTEX
  8
0
 10
-268.923370
 20
-237.999588
  0
VERTEX
  8
0
 10
-268.934113
 20
-238.828247
  0
VERTEX
  8
0
 10
-268.923889
 20
-239.640625
  0
VERTEX
  8
0
 10
-268.886536
 20
-240.453934
  0
VERTEX
  8
0
 10
-268.815826
 20
-241.285355
  0
VERTEX
  8
0
 10
-268.704468
 20
-242.157852
  0
VERTEX
  8
0
 10
-268.556427
 20
-243.023300
  0
VERTEX
  8
0
 10
-268.371521
 20
-243.895981
  0
VERTEX
  8
0
 10
-268.149536
 20
-244.790161
  0
VERTEX
  8
0
 10
-267.871216
 20
-245.763107
  0
VERTEX
  8
0
 10
-267.554077
 20
-246.740921
  0
VERTEX
  8
0
 10
-267.217743
 20
-247.674316
  0
VERTEX
  8
0
 10
-266.881897
 20
-248.514023
  0
VERTEX
  8
0
 10
-266.486847
 20
-249.393250
  0
VERTEX
  8
0
 10
-266.058411
 20
-250.257019
  0
VERTEX
  8
0
 10
-265.634644
 20
-251.033112
  0
VERTEX
  8
0
 10
-265.275635
 20
-251.631546
  0
VERTEX
  8
0
 10
-264.897064
 20
-252.217728
  0
VERTEX
  8
0
 10
-264.500000
 20
-252.791336
  0
SEQEND
  0
POLYLINE
  8
0
 66
     1
  0
VERTEX
  8
0
 10
-264.500000
 20
-317.000000
  0
VERTEX
  8
0
 10
-265.334930
 20
-316.786499
  0
VERTEX
  8
0
 10
-266.138611
 20
-316.463776
  0
VERTEX
  8
0
 10
-266.881897
 20
-316.052856
  0
VERTEX
  8
0
 10
-267.521301
 20
-315.592468
  0
VERTEX
  8
0
 10
-268.076630
 20
-315.050018
  0
VERTEX
  8
0
 10
-268.503357
 20
-314.409973
  0
VERTEX
  8
0
 10
-268.766266
 20
-313.685577
  0
VERTEX
  8
0
 10
-268.884064
 20
-312.901794
  0
VERTEX
  8
0
 10
-268.923370
 20
-312.000427
  0
VERTEX
  8
0
 10
-268.934113
 20
-311.171783
  0
VERTEX
  8
0
 10
-268.923889
 20
-310.359406
  0
VERTEX
  8
0
 10
-268.886536
 20
-309.546082
  0
VERTEX
  8
0
 10
-268.815826
 20
-308.714661
  0
VERTEX
  8
0
 10
-268.704468
 20
-307.842163
  0
VERTEX
  8
0
 10
-268.556427
 20
-306.976715
  0
VERTEX
  8
0
 10
-268.371521
 20
-306.104034
  0
VERTEX
  8
0
 10
-268.149536
 20
-305.209839
  0
VERTEX
  8
0
 10
-267.871216
 20
-304.236877
  0
VERTEX
  8
0
 10
-267.554077
 20
-303.259064
  0
VERTEX
  8
0
 10
-267.217743
 20
-302.325653
  0
VERTEX
  8
0
 10
-266.881897
 20
-301.485962
  0
VERTEX
  8
0
 10
-266.486847
 20
-300.606720
  0
VERTEX
  8
0
 10
-266.058411
 20
-299.742981
  0
VERTEX
  8
0
 10
-265.634644
 20
-298.966888
  0
VERTEX
  8
0
 10
-265.275635
 20
-298.368469
  0
VERTEX
  8
0
 10
-264.897064
 20
-297.782288
  0
VERTEX
  8
0
 10
-264.500000
 20
-297.208679
  0
SEQEND
  0
POLYLINE
  8
0
 66
     1
  0
VERTEX
  8
0
 10
-268.954529
 20
-203.000000
  0
VERTEX
  8
0
 10
-268.652191
 20
-203.568436
  0
VERTEX
  8
0
 10
-268.337280
 20
-204.156250
  0
VERTEX
  8
0
 10
-268.005035
 20
-204.772430
  0
VERTEX
  8
0
 10
-267.625183
 20
-205.470566
  0
VERTEX
  8
0
 10
-267.259827
 20
-206.136703
  0
VERTEX
  8
0
 10
-266.892151
 20
-206.801590
  0
VERTEX
  8
0
 10
-266.535095
 20
-207.442017
  0
VERTEX
  8
0
 10
-266.207275
 20
-208.025208
  0
VERTEX
  8
0
 10
-265.877563
 20
-208.607300
  0
VERTEX
  8
0
 10
-265.542358
 20
-209.194427
  0
VERTEX
  8
0
 10
-265.196960
 20
-209.794708
  0
VERTEX
  8
0
 10
-264.849518
 20
-210.393784
  0
VERTEX
  8
0
 10
-264.500000
 20
-210.991669
  0
SEQEND
  0
POLYLINE
  8
0
 66
     1
  0
VERTEX
  8
0
 10
-268.954529
 20
-347.000000
  0
VERTEX
  8
0
 10
-268.652191
 20
-346.431580
  0
VERTEX
  8
0
 10
-268.337280
 20
-345.843750
  0
VERTEX
  8
0
 10
-268.005035
 20
-345.227570
  0
VERTEX
  8
0
 10
-267.625183
 20
-344.529419
  0
VERTEX
  8
0
 10
-267.259827
 20
-343.863281
  0
VERTEX
  8
0
 10
-266.892151
 20
-343.198425
  0
VERTEX
  8
0
 10
-266.535095
 20
-342.557983
  0
VERTEX
  8
0
 10
-266.207275
 20
-341.974792
  0
VERTEX
  8
0
 10
-265.877563
 20
-341.392700
  0
VERTEX
  8
0
 10
-265.542358
 20
-340.805573
  0
VERTEX
  8
0
 10
-265.196960
 20
-340.205292
  0
VERTEX
  8
0
 10
-264.849518
 20
-339.606201
  0
VERTEX
  8
0
 10
-264.500000
 20
-339.008331
  0
SEQEND
  0
POINT
  8
0
 10
0.000000
 20
-60.000000
  0
POINT
  8
0
 10
98.000000
 20
-60.000000
  0
LINE
  8
0
 10
43.769909
 20
-21.886948
 11
32.526913
 21
-33.129936
  0
LINE
  8
0
 10
38.113052
 20
-16.230118
 11
26.870056
 21
-27.473106
  0
LINE
  8
0
 10
33.799831
 20
-20.543339
 11
39.456684
 21
-26.200195
  0
LINE
  8
0
 10
26.304504
 20
-27.473015
 11
32.527054
 21
-33.695572
  0
LINE
  8
0
 10
39.456573
 20
-26.765953
 11
32.526932
 21
-33.695587
  0
LINE
  8
0
 10
33.234016
 20
-20.543438
 11
26.304377
 21
-27.473072
  0
LINE
  8
0
 10
28.355085
 20
-25.988071
 11
34.011940
 21
-31.644926
  0
LINE
  8
0
 10
32.102810
 20
-19.411968
 11
33.517021
 21
-20.826183
  0
LINE
  8
0
 10
38.820320
 20
-16.229988
 11
43.770065
 21
-21.179737
  0
LINE
  8
0
 10
36.840424
 20
-15.381496
 11
37.901081
 21
-16.442158
  0
LINE
  8
0
 10
39.173874
 20
-26.483040
 11
40.588089
 21
-27.897255
  0
LINE
  8
0
 10
44.618473
 20
-23.866798
 11
40.587955
 21
-27.897316
  0
LINE
  8
0
 10
36.133167
 20
-15.381542
 11
32.102669
 21
-19.412037
  0
LINE
  8
0
 10
43.557934
 20
-22.099010
 11
44.618595
 21
-23.159672
  0
LINE
  8
0
 10
28.283997
 20
-26.765976
 11
28.283997
 21
-26.058884
  0
LINE
  8
0
 10
33.234039
 20
-31.715790
 11
33.941132
 21
-31.715790
  0
LINE
  8
0
 10
35.355423
 20
-30.301441
 11
29.698593
 21
-24.644608
  0
LINE
  8
0
 10
22.627535
 20
-23.230324
 11
26.587337
 21
-27.190128
  0
LINE
  8
0
 10
18.384905
 20
-27.472977
 11
32.527035
 21
-41.615116
  0
LINE
  8
0
 10
23.688208
 20
-22.169731
 11
27.648008
 21
-26.129536
  0
LINE
  8
0
 10
18.384811
 20
-27.473022
 11
23.688114
 21
-22.169724
  0
LINE
  8
0
 10
32.526966
 20
-41.615173
 11
37.830269
 21
-36.311874
  0
LINE
  8
0
 10
27.930847
 20
-26.412373
 11
33.587700
 21
-32.069229
  0
LINE
  8
0
 10
26.870174
 20
-27.472969
 11
32.527027
 21
-33.129822
  0
LINE
  8
0
 10
33.870537
 20
-32.352066
 11
37.830338
 21
-36.311871
  0
LINE
  8
0
 10
32.809864
 20
-33.412663
 11
36.769665
 21
-37.372467
  0
LINE
  8
0
 10
-23.722826
 20
-92.844482
 11
-32.844505
 21
-83.722794
  0
LINE
  8
0
 10
-20.187233
 20
-89.308853
 11
-21.035769
 21
-88.460312
  0
LINE
  8
0
 10
-20.187769
 20
-89.309891
 11
-23.723305
 21
-92.845428
  0
LINE
  8
0
 10
-29.309479
 20
-80.188110
 11
-32.845013
 21
-83.723648
  0
LINE
  8
0
 10
-21.743347
 20
-89.168419
 11
-23.864668
 21
-91.289734
  0
LINE
  8
0
 10
-29.168062
 20
-81.743744
 11
-31.289383
 21
-83.865067
  0
LINE
  8
0
 10
-19.091717
 20
-81.920563
 11
-23.334347
 21
-86.163193
  0
LINE
  8
0
 10
-21.920271
 20
-79.092148
 11
-26.162901
 21
-83.334778
  0
LINE
  8
0
 10
-19.091139
 20
-81.919563
 11
-21.919577
 21
-79.091125
  0
LINE
  8
0
 10
-22.485340
 20
-85.313690
 11
-25.313766
 21
-82.485260
  0
LINE
  8
0
 10
-28.460377
 20
-81.035706
 11
-29.308891
 21
-80.187187
  0
LINE
  8
0
 10
-24.040972
 20
-85.455109
 11
-25.455185
 21
-84.040894
  0
LINE
  8
0
 10
-21.036396
 20
-88.461288
 11
-7.690347
 21
-79.887024
  0
LINE
  8
0
 10
-28.460302
 20
-81.037178
 11
-19.886042
 21
-67.691132
  0
LINE
  8
0
 10
-7.689601
 20
-79.885956
 11
-19.885981
 21
-67.689568
  0
LINE
  8
0
 10
-43.769928
 20
-98.113113
 11
-32.526932
 21
-86.870132
  0
LINE
  8
0
 10
-38.113087
 20
-103.769958
 11
-26.870089
 21
-92.526962
  0
LINE
  8
0
 10
-33.799751
 20
-99.456558
 11
-39.456604
 21
-93.799698
  0
LINE
  8
0
 10
-26.304403
 20
-92.526932
 11
-32.526955
 21
-86.304382
  0
LINE
  8
0
 10
-39.456547
 20
-93.234070
 11
-32.526894
 21
-86.304420
  0
LINE
  8
0
 10
-33.234024
 20
-99.456604
 11
-26.304388
 21
-92.526970
  0
LINE
  8
0
 10
-28.355021
 20
-94.011826
 11
-34.011875
 21
-88.354973
  0
LINE
  8
0
 10
-32.102688
 20
-100.587921
 11
-33.516899
 21
-99.173706
  0
LINE
  8
0
 10
-38.820198
 20
-103.769928
 11
-43.769943
 21
-98.820175
  0
LINE
  8
0
 10
-36.840328
 20
-104.618408
 11
-37.900990
 21
-103.557747
  0
LINE
  8
0
 10
-39.173752
 20
-93.516853
 11
-40.587967
 21
-92.102638
  0
LINE
  8
0
 10
-44.618473
 20
-96.133202
 11
-40.587959
 21
-92.102692
  0
LINE
  8
0
 10
-36.133179
 20
-104.618500
 11
-32.102673
 21
-100.587997
  0
LINE
  8
0
 10
-43.557842
 20
-97.900894
 11
-44.618504
 21
-96.840233
  0
LINE
  8
0
 10
-28.284195
 20
-93.234016
 11
-28.284195
 21
-93.941109
  0
LINE
  8
0
 10
-33.234093
 20
-88.284195
 11
-33.941185
 21
-88.284195
  0
LINE
  8
0
 10
-35.355366
 20
-89.698486
 11
-29.698536
 21
-95.355316
  0
LINE
  8
0
 10
-23.688128
 20
-97.830215
 11
-27.647928
 21
-93.870407
  0
LINE
  8
0
 10
-27.930733
 20
-102.072876
 11
-31.890535
 21
-98.113075
  0
LINE
  8
0
 10
-22.627449
 20
-96.769547
 11
-26.587252
 21
-92.809746
  0
LINE
  8
0
 10
-27.930691
 20
-102.072884
 11
-22.627390
 21
-96.769577
  0
LINE
  8
0
 10
-42.072861
 20
-87.930763
 11
-36.769554
 21
-82.627457
  0
LINE
  8
0
 10
-27.930765
 20
-93.587570
 11
-33.587620
 21
-87.930717
  0
LINE
  8
0
 10
-26.870090
 20
-92.526909
 11
-32.526943
 21
-86.870056
  0
LINE
  8
0
 10
-38.113064
 20
-91.890541
 11
-42.072865
 21
-87.930740
  0
LINE
  8
0
 10
-32.809780
 20
-86.587212
 11
-36.769581
 21
-82.627411
  0
LINE
  8
0
 10
-33.870457
 20
-87.647881
 11
-37.830257
 21
-83.688080
  0
LINE
  8
0
 10
17.947437
 20
-30.739222
 11
14.142358
 21
-34.544300
  0
LINE
  8
0
 10
29.261059
 20
-42.053055
 11
25.455957
 21
-45.858154
  0
LINE
  8
0
 10
26.112322
 20
-39.544903
 11
22.627563
 21
-43.029663
  0
LINE
  8
0
 10
20.455578
 20
-33.887955
 11
16.970776
 21
-37.372753
  0
LINE
  8
0
 10
14.142304
 20
-34.544281
 11
25.456011
 21
-45.857990
  0
LINE
  8
0
 10
19.142910
 20
-31.059534
 11
28.940872
 21
-40.857502
  0
LINE
  8
0
 10
28.940908
 20
-40.857529
 11
29.261215
 21
-42.052971
  0
LINE
  8
0
 10
19.142920
 20
-31.059467
 11
17.947481
 21
-30.739141
  0
LINE
  8
0
 10
26.870226
 20
-38.786999
 11
27.718742
 21
-37.938484
  0
LINE
  8
0
 10
26.304556
 20
-38.221306
 11
27.718769
 21
-36.807095
  0
LINE
  8
0
 10
21.779087
 20
-33.695816
 11
23.193302
 21
-32.281601
  0
LINE
  8
0
 10
27.718782
 20
-37.938354
 11
22.061941
 21
-32.281509
  0
LINE
  8
0
 10
23.193237
 20
-32.281944
 11
22.061859
 21
-32.281944
  0
LINE
  8
0
 10
27.718658
 20
-36.807037
 11
27.718658
 21
-37.938416
  0
LINE
  8
0
 10
21.213396
 20
-33.130135
 11
22.061911
 21
-32.281620
  0
LINE
  8
0
 10
27.113281
 20
-13.038506
 11
32.886780
 21
-13.038506
  0
LINE
  8
0
 10
27.113281
 20
-3.038513
 11
32.886780
 21
-3.038513
  0
LINE
  8
0
 10
35.773571
 20
-8.038528
 11
32.886829
 21
-13.038513
  0
LINE
  8
0
 10
27.113314
 20
-3.038506
 11
24.226562
 21
-8.038502
  0
LINE
  8
0
 10
32.886803
 20
-3.038479
 11
35.773544
 21
-8.038467
  0
LINE
  8
0
 10
24.226574
 20
-8.038471
 11
27.113321
 21
-13.038467
  0
LINE
  8
0
 10
-65.773506
 20
-59.999989
 11
-62.886753
 21
-54.999977
  0
LINE
  8
0
 10
-62.886726
 20
-64.999992
 11
-65.773476
 21
-59.999996
  0
LINE
  8
0
 10
-62.886749
 20
-64.999985
 11
-57.113251
 21
-64.999985
  0
LINE
  8
0
 10
-57.113251
 20
-64.999992
 11
-54.226501
 21
-59.999992
  0
LINE
  8
0
 10
-54.226482
 20
-59.999981
 11
-57.113232
 21
-54.999981
  0
LINE
  8
0
 10
-62.886749
 20
-54.999989
 11
-57.113251
 21
-54.999989
  0
LINE
  8
0
 10
32.886734
 20
-116.961540
 11
27.113235
 21
-116.961540
  0
LINE
  8
0
 10
35.773678
 20
-111.961655
 11
32.886925
 21
-116.961655
  0
LINE
  8
0
 10
35.773567
 20
-111.961502
 11
32.886837
 21
-106.961533
  0
LINE
  8
0
 10
32.886780
 20
-106.961548
 11
27.113235
 21
-106.961548
  0
LINE
  8
0
 10
27.113430
 20
-106.961670
 11
24.226679
 21
-111.961670
  0
LINE
  8
0
 10
27.113237
 20
-116.961533
 11
24.226488
 21
-111.961540
  0
LINE
  8
0
 10
-12.726944
 20
-78.298439
 11
-12.726944
 21
-81.298439
  0
LINE
  8
0
 10
-14.226944
 20
-79.798439
 11
-11.226944
 21
-79.798439
  0
LINE
  8
0
 10
-19.798088
 20
-71.227295
 11
-19.798088
 21
-74.227295
  0
LINE
  8
0
 10
-21.298088
 20
-72.727295
 11
-18.298088
 21
-72.727295
  0
LINE
  8
0
 10
-10.142232
 20
29.217606
 11
-11.376233
 21
24.612251
  0
LINE
  8
0
 10
10.142227
 20
29.217598
 11
11.376228
 21
24.612244
  0
LINE
  8
0
 10
-10.142220
 20
-149.217590
 11
-11.376223
 21
-144.612244
  0
LINE
  8
0
 10
10.142204
 20
-149.217590
 11
11.376202
 21
-144.612244
  0
LINE
  8
0
 10
67.588203
 20
-112.158249
 11
72.193581
 21
-113.392258
  0
LINE
  8
0
 10
78.964462
 20
-92.454079
 11
82.335793
 21
-95.825409
  0
LINE
  8
0
 10
78.964478
 20
-27.546047
 11
82.335854
 21
-24.174671
  0
LINE
  8
0
 10
67.588303
 20
-7.841816
 11
72.193626
 21
-6.607822
  0
LINE
  8
0
 10
-17.355160
 20
-8.864899
 11
-18.408813
 21
-4.932602
  0
LINE
  8
0
 10
-35.606590
 20
-19.402325
 11
-38.485207
 21
-16.523712
  0
LINE
  8
0
 10
-52.961895
 20
-49.462540
 11
-56.894173
 21
-48.408886
  0
LINE
  8
0
 10
-52.961895
 20
-70.537453
 11
-56.894173
 21
-71.591103
  0
LINE
  8
0
 10
-18.408918
 20
-115.067337
 11
-17.355268
 21
-111.135063
  0
LINE
  8
0
 10
18.408846
 20
-115.067375
 11
17.355194
 21
-111.135094
  0
LINE
  8
0
 10
38.485241
 20
-103.476273
 11
35.606621
 21
-100.597656
  0
LINE
  8
0
 10
56.894173
 20
-71.591171
 11
52.961880
 21
-70.537514
  0
LINE
  8
0
 10
56.894173
 20
-48.408951
 11
52.961903
 21
-49.462601
  0
LINE
  8
0
 10
17.355301
 20
-8.864956
 11
18.408951
 21
-4.932686
  0
LINE
  8
0
 10
77.500000
 20
-88.918549
 11
77.500000
 21
-31.081583
  0
LINE
  8
0
 10
63.794182
 20
-7.342304
 11
13.705831
 21
21.576233
  0
LINE
  8
0
 10
-13.705843
 20
-141.576233
 11
-58.576927
 21
-115.669884
  0
LINE
  8
0
 10
13.705836
 20
-141.576248
 11
63.794109
 21
-112.657776
  0
LINE
  8
0
 10
-58.576950
 20
-4.330101
 11
-13.705852
 21
21.576241
  0
LINE
  8
0
 10
-81.111031
 20
-5.000000
 11
-61.076942
 21
-5.000000
  0
LINE
  8
0
 10
-81.111046
 20
-115.000000
 11
-61.076950
 21
-115.000000
  0
LINE
  8
0
 10
-90.000000
 20
-98.781433
 11
-90.000000
 21
-21.218552
  0
LINE
  8
0
 10
2.887481
 20
-79.739929
 11
19.739933
 21
-62.887486
  0
LINE
  8
0
 10
-19.739933
 20
-57.112514
 11
-2.887481
 21
-40.260067
  0
LINE
  8
0
 10
19.739933
 20
-57.112518
 11
2.887486
 21
-40.260067
  0
LINE
  8
0
 10
-2.887486
 20
-79.739929
 11
-19.739933
 21
-62.887482
  0
LINE
  8
0
 10
-2.511446
 20
-78.984604
 11
-18.984604
 21
-62.511440
  0
LINE
  8
0
 10
2.511441
 20
-78.984604
 11
18.984604
 21
-62.511448
  0
LINE
  8
0
 10
-18.984604
 20
-57.488552
 11
-2.511441
 21
-41.015396
  0
LINE
  8
0
 10
18.984604
 20
-57.488560
 11
2.511446
 21
-41.015396
  0
LINE
  8
0
 10
2.511441
 20
-41.015396
 11
2.887483
 21
-40.260063
  0
LINE
  8
0
 10
-2.511436
 20
-41.015396
 11
-2.887478
 21
-40.260063
  0
LINE
  8
0
 10
-19.739935
 20
-57.112518
 11
-18.984604
 21
-57.488560
  0
LINE
  8
0
 10
-19.739935
 20
-62.887478
 11
-18.984606
 21
-62.511436
  0
LINE
  8
0
 10
-2.887486
 20
-79.739929
 11
-2.511438
 21
-78.984604
  0
LINE
  8
0
 10
2.887476
 20
-79.739937
 11
2.511442
 21
-78.984604
  0
LINE
  8
0
 10
18.984604
 20
-62.511452
 11
19.739935
 21
-62.887486
  0
LINE
  8
0
 10
19.739935
 20
-57.112518
 11
18.984604
 21
-57.488575
  0
ARC
  8
0
 10
38.466690
 20
-16.583652
 40
0.500001
 50
45.000000
 51
135.000000
  0
ARC
  8
0
 10
43.416428
 20
-21.533421
 40
0.500001
 50
315.000000
 51
45.000000
  0
ARC
  8
0
 10
44.264954
 20
-23.513309
 40
0.500001
 50
315.000000
 51
45.000000
  0
ARC
  8
0
 10
36.486786
 20
-15.735142
 40
0.500001
 50
45.000000
 51
135.000000
  0
ARC
  8
0
 10
39.937790
 20
-20.062290
 40
3.519531
 50
348.051636
 51
101.948425
  0
CIRCLE
  8
0
 10
34.506836
 20
-25.493168
 40
2.500000
  0
CIRCLE
  8
0
 10
34.506836
 20
-25.493168
 40
2.000000
  0
ARC
  8
0
 10
0.000000
 20
-60.000000
 40
54.000000
 50
231.379395
 51
293.243713
  0
ARC
  8
0
 10
0.000000
 20
-60.000000
 40
44.750000
 50
237.912582
 51
39.357365
  0
ARC
  8
0
 10
0.000000
 20
-60.000000
 40
35.000000
 50
233.774658
 51
38.437191
  0
ARC
  8
0
 10
0.000000
 20
-60.000000
 40
28.000000
 50
239.404541
 51
210.595627
  0
ARC
  8
0
 10
0.000000
 20
-60.000000
 40
19.950001
 50
237.192551
 51
212.807526
  0
CIRCLE
  8
0
 10
-19.799011
 20
-72.727928
 40
2.750000
  0
CIRCLE
  8
0
 10
-12.727936
 20
-79.798996
 40
2.750000
  0
CIRCLE
  8
0
 10
-34.506844
 20
-94.506836
 40
2.000000
  0
ARC
  8
0
 10
-38.466660
 20
-103.416351
 40
0.500001
 50
225.000000
 51
315.000000
  0
ARC
  8
0
 10
-43.416405
 20
-98.466599
 40
0.499995
 50
135.000626
 51
225.000626
  0
ARC
  8
0
 10
-44.264938
 20
-96.486710
 40
0.500001
 50
135.000000
 51
225.000000
  0
ARC
  8
0
 10
-36.486763
 20
-104.264877
 40
0.500001
 50
225.000000
 51
315.000000
  0
ARC
  8
0
 10
-39.937775
 20
-99.937714
 40
3.519532
 50
168.051575
 51
281.948425
  0
CIRCLE
  8
0
 10
-34.506844
 20
-94.506836
 40
2.500000
  0
ARC
  8
0
 10
18.384918
 20
-41.615372
 40
8.000000
 50
14.999607
 51
74.999634
  0
ARC
  8
0
 10
26.585999
 20
-41.899635
 40
2.401924
 50
348.625885
 51
101.373199
  0
ARC
  8
0
 10
18.100784
 20
-33.414288
 40
2.401922
 50
348.625977
 51
101.373131
  0
ARC
  8
0
 10
0.000000
 20
-60.000000
 40
35.000000
 50
51.562077
 51
216.225433
  0
CIRCLE
  8
0
 10
30.000031
 20
-8.038486
 40
9.000000
  0
CIRCLE
  8
0
 10
-60.000000
 20
-59.999989
 40
9.000000
  0
CIRCLE
  8
0
 10
30.000000
 20
-111.961533
 40
9.000000
  0
ARC
  8
0
 10
0.000000
 20
-60.000000
 40
54.000000
 50
186.756256
 51
218.620605
  0
ARC
  8
0
 10
0.000000
 20
-60.000000
 40
54.000000
 50
66.756264
 51
173.243713
  0
ARC
  8
0
 10
0.000000
 20
-60.000000
 40
54.000000
 50
51.379387
 51
53.243679
  0
ARC
  8
0
 10
0.000000
 20
-60.000000
 40
44.750000
 50
50.642693
 51
212.087463
  0
ARC
  8
0
 10
0.000000
 20
-60.000000
 40
53.999996
 50
306.756287
 51
38.620659
  0
CIRCLE
  8
0
 10
30.000063
 20
-111.961502
 40
7.800000
  0
CIRCLE
  8
0
 10
-60.000000
 20
-59.999989
 40
7.800000
  0
CIRCLE
  8
0
 10
30.000036
 20
-8.038490
 40
7.800000
  0
ARC
  8
0
 10
0.000000
 20
-60.000000
 40
65.000000
 50
70.021088
 51
109.978752
  0
CIRCLE
  8
0
 10
0.000000
 20
-60.000000
 40
76.000000
  0
CIRCLE
  8
0
 10
-29.999926
 20
-8.038429
 40
6.000000
  0
CIRCLE
  8
0
 10
-30.000031
 20
-111.961502
 40
6.000000
  0
CIRCLE
  8
0
 10
60.000000
 20
-60.000061
 40
6.000000
  0
CIRCLE
  8
0
 10
-29.999926
 20
-8.038429
 40
5.125000
  0
CIRCLE
  8
0
 10
-30.000031
 20
-111.961502
 40
5.125000
  0
CIRCLE
  8
0
 10
60.000000
 20
-60.000061
 40
5.125000
  0
ARC
  8
0
 10
-29.999926
 20
-8.038429
 40
12.000000
 50
14.999994
 51
225.000015
  0
ARC
  8
0
 10
-60.000000
 20
-59.999996
 40
12.000000
 50
75.000008
 51
284.999969
  0
ARC
  8
0
 10
-30.000031
 20
-111.961502
 40
11.999999
 50
137.116074
 51
344.999939
  0
ARC
  8
0
 10
29.999958
 20
-111.961548
 40
12.000000
 50
195.000031
 51
44.999989
  0
ARC
  8
0
 10
60.000000
 20
-60.000061
 40
11.999998
 50
255.000046
 51
105.000015
  0
ARC
  8
0
 10
30.000063
 20
-8.038513
 40
12.000000
 50
317.116089
 51
164.999985
  0
ARC
  8
0
 10
0.000007
 20
26.500000
 40
10.500000
 50
14.999989
 51
165.000015
  0
ARC
  8
0
 10
-0.000020
 20
-146.500000
 40
10.500000
 50
195.000031
 51
344.999969
  0
ARC
  8
0
 10
74.911179
 20
-103.250031
 40
10.500003
 50
255.000061
 51
45.000000
  0
ARC
  8
0
 10
74.911224
 20
-16.750046
 40
10.500003
 50
315.000000
 51
104.999985
  0
ARC
  8
0
 10
0.000000
 20
-60.000000
 40
65.000000
 50
130.021072
 51
169.978851
  0
ARC
  8
0
 10
0.000000
 20
-60.000000
 40
64.999992
 50
190.021179
 51
229.978821
  0
ARC
  8
0
 10
0.000000
 20
-60.000000
 40
65.000000
 50
250.021164
 51
289.978760
  0
ARC
  8
0
 10
0.000000
 20
-60.000000
 40
65.000000
 50
310.021088
 51
349.978760
  0
ARC
  8
0
 10
0.000000
 20
-60.000000
 40
65.000000
 50
10.021103
 51
49.978775
  0
ARC
  8
0
 10
-16.205845
 20
25.906342
 40
4.999997
 50
300.000031
 51
344.999969
  0
ARC
  8
0
 10
-16.205870
 20
-145.906342
 40
5.000000
 50
15.000033
 51
60.000050
  0
ARC
  8
0
 10
16.205830
 20
-145.906342
 40
4.999984
 50
120.000107
 51
164.999969
  0
ARC
  8
0
 10
66.294098
 20
-116.987869
 40
4.999992
 50
74.999947
 51
120.000015
  0
ARC
  8
0
 10
82.500000
 20
-88.918549
 40
5.000000
 50
179.999908
 51
225.000000
  0
ARC
  8
0
 10
82.500000
 20
-31.081583
 40
4.999999
 50
134.999954
 51
179.999985
  0
ARC
  8
0
 10
66.294212
 20
-3.012188
 40
5.000000
 50
240.000000
 51
285.000031
  0
ARC
  8
0
 10
16.205856
 20
25.906342
 40
5.000000
 50
195.000031
 51
240.000046
  0
ARC
  8
0
 10
-61.076942
 20
0.000004
 40
5.000000
 50
269.999969
 51
299.999969
  0
ARC
  8
0
 10
-61.076950
 20
-120.000000
 40
5.000004
 50
60.000027
 51
90.000000
  0
ARC
  8
0
 10
0.000000
 20
-60.000000
 40
97.999992
 50
203.311478
 51
156.688522
  0
ARC
  8
0
 10
0.000000
 20
-60.000000
 40
19.150002
 50
172.464188
 51
187.535797
  0
ARC
  8
0
 10
0.000000
 20
-60.000000
 40
19.149998
 50
262.464233
 51
277.535858
  0
ARC
  8
0
 10
0.000000
 20
-60.000000
 40
19.150000
 50
352.464172
 51
7.535769
  0
ARC
  8
0
 10
0.000000
 20
-60.000000
 40
19.150002
 50
82.464180
 51
97.535805
  0
POINT
  8
0
 10
224.500000
 20
260.000000
  0
POINT
  8
0
 10
180.000000
 20
260.000000
  0
LINE
  8
0
 10
204.299988
 20
223.513260
 11
211.699982
 21
223.513260
  0
LINE
  8
0
 10
203.500000
 20
221.533356
 11
212.499985
 21
221.533356
  0
LINE
  8
0
 10
203.500000
 20
216.083603
 11
212.499985
 21
216.083603
  0
LINE
  8
0
 10
204.299988
 20
215.235077
 11
211.699982
 21
215.235077
  0
LINE
  8
0
 10
204.299988
 20
227.897308
 11
211.699982
 21
227.897308
  0
LINE
  8
0
 10
212.199982
 20
227.397308
 11
212.199982
 21
222.599045
  0
LINE
  8
0
 10
212.999985
 20
225.983109
 11
212.999985
 21
216.583603
  0
LINE
  8
0
 10
203.799988
 20
227.397308
 11
203.799988
 21
222.599045
  0
LINE
  8
0
 10
203.000000
 20
225.983093
 11
203.000000
 21
216.583603
  0
LINE
  8
0
 10
204.299988
 20
222.099045
 11
211.699982
 21
222.099045
  0
LINE
  8
0
 10
202.499985
 20
226.483093
 11
203.799988
 21
226.483093
  0
LINE
  8
0
 10
203.799988
 20
216.083603
 11
203.799988
 21
215.735077
  0
LINE
  8
0
 10
212.199982
 20
216.083603
 11
212.199982
 21
215.735077
  0
LINE
  8
0
 10
212.199982
 20
226.483093
 11
213.500000
 21
226.483093
  0
LINE
  8
0
 10
196.499985
 20
226.200256
 11
202.499985
 21
226.200256
  0
LINE
  8
0
 10
213.500000
 20
226.483093
 11
213.500000
 21
220.543396
  0
LINE
  8
0
 10
202.499985
 20
226.483093
 11
202.499985
 21
220.543396
  0
LINE
  8
0
 10
211.500000
 20
233.695587
 11
211.500000
 21
227.897308
  0
LINE
  8
0
 10
204.500000
 20
233.695587
 11
204.500000
 21
227.897308
  0
LINE
  8
0
 10
213.500000
 20
226.200256
 11
218.500000
 21
226.200256
  0
LINE
  8
0
 10
209.500031
 20
230.867157
 11
209.500031
 21
233.695587
  0
LINE
  8
0
 10
206.499985
 20
230.867157
 11
206.499985
 21
233.695587
  0
LINE
  8
0
 10
204.500000
 20
233.695587
 11
206.499985
 21
233.695587
  0
LINE
  8
0
 10
209.500000
 20
233.695587
 11
211.500000
 21
233.695587
  0
LINE
  8
0
 10
218.500000
 20
231.644989
 11
218.500000
 21
220.543396
  0
LINE
  8
0
 10
196.499985
 20
220.543396
 11
202.499985
 21
220.543396
  0
LINE
  8
0
 10
202.499985
 20
220.826248
 11
203.000000
 21
220.826248
  0
LINE
  8
0
 10
212.999985
 20
220.826248
 11
213.500000
 21
220.826248
  0
LINE
  8
0
 10
213.500000
 20
220.543396
 11
218.500000
 21
220.543396
  0
LINE
  8
0
 10
196.499985
 20
231.644989
 11
204.500000
 21
231.644989
  0
LINE
  8
0
 10
206.499985
 20
231.644989
 11
209.499985
 21
231.644989
  0
LINE
  8
0
 10
211.500000
 20
231.644989
 11
218.500000
 21
231.644989
  0
LINE
  8
0
 10
220.499985
 20
227.993149
 11
220.499985
 21
222.993149
  0
LINE
  8
0
 10
218.500000
 20
227.993149
 11
220.499985
 21
227.993149
  0
LINE
  8
0
 10
220.499985
 20
227.493149
 11
235.577896
 21
227.493149
  0
LINE
  8
0
 10
220.499985
 20
223.493149
 11
235.577896
 21
223.493149
  0
LINE
  8
0
 10
218.500000
 20
222.993149
 11
220.499985
 21
222.993149
  0
LINE
  8
0
 10
196.499985
 20
231.644989
 11
196.499985
 21
220.543396
  0
LINE
  8
0
 10
211.700012
 20
252.308914
 11
211.700012
 21
233.129929
  0
LINE
  8
0
 10
180.000000
 20
320.961487
 11
180.000000
 21
199.038498
  0
LINE
  8
0
 10
181.600006
 20
314.000000
 11
181.600006
 21
266.000000
  0
LINE
  8
0
 10
183.199997
 20
320.961487
 11
183.199997
 21
199.038452
  0
LINE
  8
0
 10
180.000000
 20
314.000000
 11
183.199997
 21
314.000000
  0
LINE
  8
0
 10
184.500000
 20
282.627441
 11
184.500000
 21
269.000000
  0
LINE
  8
0
 10
189.500000
 20
282.627441
 11
189.500000
 21
269.000000
  0
LINE
  8
0
 10
210.500000
 20
286.304413
 11
210.500000
 21
239.811890
  0
LINE
  8
0
 10
184.699997
 20
236.311920
 11
184.699997
 21
217.927124
  0
LINE
  8
0
 10
183.199997
 20
217.038452
 11
194.449997
 21
217.038452
  0
LINE
  8
0
 10
183.199997
 20
199.038452
 11
194.449997
 21
199.038452
  0
LINE
  8
0
 10
195.199997
 20
215.739426
 11
195.199997
 21
200.337494
  0
LINE
  8
0
 10
194.449997
 20
217.038452
 11
194.449997
 21
199.038452
  0
LINE
  8
0
 10
194.449997
 20
217.038467
 11
195.199997
 21
215.739426
  0
LINE
  8
0
 10
194.449982
 20
199.038467
 11
195.199982
 21
200.337509
  0
LINE
  8
0
 10
184.500000
 20
251.000000
 11
184.500000
 21
237.372574
  0
LINE
  8
0
 10
189.500000
 20
251.000000
 11
189.500000
 21
237.372574
  0
LINE
  8
0
 10
180.000000
 20
202.038452
 11
183.199997
 21
202.038452
  0
LINE
  8
0
 10
180.000000
 20
203.238464
 11
183.199997
 21
203.238464
  0
LINE
  8
0
 10
181.600006
 20
254.000000
 11
181.600006
 21
205.999985
  0
LINE
  8
0
 10
183.199997
 20
269.000000
 11
194.449997
 21
269.000000
  0
LINE
  8
0
 10
194.449997
 20
269.000000
 11
194.449997
 21
251.000000
  0
LINE
  8
0
 10
195.199997
 20
267.700958
 11
195.199997
 21
252.299042
  0
LINE
  8
0
 10
194.450012
 20
269.000000
 11
195.200012
 21
267.700958
  0
LINE
  8
0
 10
194.449997
 20
251.000000
 11
195.199997
 21
252.299042
  0
LINE
  8
0
 10
183.199997
 20
251.000000
 11
194.449997
 21
251.000000
  0
LINE
  8
0
 10
180.000000
 20
266.000000
 11
183.199997
 21
266.000000
  0
LINE
  8
0
 10
180.000000
 20
264.799988
 11
183.199997
 21
264.799988
  0
LINE
  8
0
 10
180.000000
 20
255.199997
 11
183.199997
 21
255.199997
  0
LINE
  8
0
 10
180.000000
 20
254.000000
 11
183.199997
 21
254.000000
  0
LINE
  8
0
 10
183.199997
 20
320.961487
 11
194.449997
 21
320.961487
  0
LINE
  8
0
 10
194.449997
 20
320.961487
 11
194.449997
 21
302.961487
  0
LINE
  8
0
 10
195.199997
 20
319.662445
 11
195.199997
 21
304.260529
  0
LINE
  8
0
 10
194.449997
 20
320.961517
 11
195.199997
 21
319.662476
  0
LINE
  8
0
 10
194.449982
 20
302.961487
 11
195.199982
 21
304.260529
  0
LINE
  8
0
 10
183.199997
 20
302.961487
 11
194.449997
 21
302.961487
  0
LINE
  8
0
 10
180.000000
 20
317.961487
 11
183.199997
 21
317.961487
  0
LINE
  8
0
 10
180.000000
 20
316.761505
 11
183.199997
 21
316.761505
  0
LINE
  8
0
 10
180.000000
 20
205.999985
 11
183.199997
 21
205.999985
  0
LINE
  8
0
 10
211.700012
 20
242.951035
 11
212.439133
 21
242.951035
  0
LINE
  8
0
 10
211.700012
 20
237.451035
 11
212.439133
 21
237.451035
  0
LINE
  8
0
 10
211.700012
 20
244.522141
 11
212.439133
 21
244.522141
  0
LINE
  8
0
 10
211.700012
 20
250.022141
 11
212.439133
 21
250.022141
  0
LINE
  8
0
 10
184.699997
 20
236.311920
 11
192.199997
 21
236.311920
  0
LINE
  8
0
 10
183.199997
 20
237.372574
 11
192.199997
 21
237.372574
  0
LINE
  8
0
 10
183.199997
 20
232.069229
 11
184.699997
 21
232.069229
  0
LINE
  8
0
 10
183.199997
 20
217.927124
 11
184.699997
 21
217.927124
  0
LINE
  8
0
 10
192.199997
 20
237.372574
 11
192.199997
 21
236.311920
  0
LINE
  8
0
 10
202.199997
 20
233.129929
 11
202.199997
 21
232.069275
  0
LINE
  8
0
 10
184.699997
 20
222.169785
 11
192.199997
 21
222.169785
  0
LINE
  8
0
 10
202.199997
 20
232.069275
 11
204.500000
 21
232.069275
  0
LINE
  8
0
 10
202.199997
 20
233.129929
 11
204.500000
 21
233.129929
  0
LINE
  8
0
 10
192.199982
 20
237.372574
 11
202.199982
 21
233.129944
  0
LINE
  8
0
 10
192.199982
 20
236.311920
 11
202.199982
 21
232.069275
  0
LINE
  8
0
 10
192.199997
 20
222.169769
 11
196.499985
 21
223.994110
  0
LINE
  8
0
 10
222.199997
 20
233.129929
 11
222.199997
 21
227.493149
  0
LINE
  8
0
 10
206.499985
 20
233.129929
 11
209.500031
 21
233.129929
  0
LINE
  8
0
 10
206.499985
 20
232.069275
 11
209.500031
 21
232.069275
  0
LINE
  8
0
 10
211.500000
 20
233.129929
 11
222.199997
 21
233.129929
  0
LINE
  8
0
 10
211.500000
 20
232.069275
 11
222.199997
 21
232.069275
  0
LINE
  8
0
 10
204.500000
 20
239.811890
 11
211.700012
 21
239.811890
  0
LINE
  8
0
 10
204.500000
 20
235.428528
 11
210.500000
 21
235.428528
  0
LINE
  8
0
 10
204.500000
 20
236.276352
 11
211.700012
 21
236.276352
  0
LINE
  8
0
 10
204.500000
 20
239.811890
 11
204.500000
 21
233.129929
  0
LINE
  8
0
 10
210.500000
 20
235.428528
 11
210.500000
 21
233.695587
  0
LINE
  8
0
 10
210.500000
 20
252.308914
 11
211.700012
 21
252.308914
  0
LINE
  8
0
 10
204.299988
 20
296.486755
 11
211.699982
 21
296.486755
  0
LINE
  8
0
 10
203.500000
 20
298.466644
 11
212.499985
 21
298.466644
  0
LINE
  8
0
 10
203.500000
 20
303.916382
 11
212.499985
 21
303.916382
  0
LINE
  8
0
 10
204.299988
 20
304.764923
 11
211.699982
 21
304.764923
  0
LINE
  8
0
 10
204.299988
 20
292.102692
 11
211.699982
 21
292.102692
  0
LINE
  8
0
 10
212.199982
 20
292.602692
 11
212.199982
 21
297.400940
  0
LINE
  8
0
 10
212.999985
 20
294.016907
 11
212.999985
 21
303.416382
  0
LINE
  8
0
 10
203.799988
 20
292.602692
 11
203.799988
 21
297.400940
  0
LINE
  8
0
 10
203.000000
 20
294.016907
 11
203.000000
 21
303.416382
  0
LINE
  8
0
 10
204.299988
 20
297.900940
 11
211.699982
 21
297.900940
  0
LINE
  8
0
 10
202.499985
 20
293.516907
 11
203.799988
 21
293.516907
  0
LINE
  8
0
 10
203.799988
 20
303.916382
 11
203.799988
 21
304.264923
  0
LINE
  8
0
 10
212.199982
 20
303.916382
 11
212.199982
 21
304.264923
  0
LINE
  8
0
 10
212.199982
 20
293.516907
 11
213.500000
 21
293.516907
  0
LINE
  8
0
 10
196.499985
 20
293.799744
 11
202.499985
 21
293.799744
  0
LINE
  8
0
 10
213.500000
 20
293.516907
 11
213.500000
 21
299.456604
  0
LINE
  8
0
 10
202.499985
 20
293.516907
 11
202.499985
 21
299.456604
  0
LINE
  8
0
 10
211.500000
 20
286.304413
 11
211.500000
 21
292.102692
  0
LINE
  8
0
 10
204.500000
 20
286.304413
 11
204.500000
 21
292.102692
  0
LINE
  8
0
 10
213.500000
 20
293.799744
 11
218.500000
 21
293.799744
  0
LINE
  8
0
 10
209.500031
 20
289.132843
 11
209.500031
 21
286.304413
  0
LINE
  8
0
 10
206.499985
 20
289.132843
 11
206.499985
 21
286.304413
  0
LINE
  8
0
 10
204.500000
 20
286.304413
 11
206.499985
 21
286.304413
  0
LINE
  8
0
 10
209.500000
 20
286.304413
 11
211.500000
 21
286.304413
  0
LINE
  8
0
 10
218.500000
 20
288.355011
 11
218.500000
 21
299.456604
  0
LINE
  8
0
 10
196.499985
 20
299.456604
 11
202.499985
 21
299.456604
  0
LINE
  8
0
 10
202.499985
 20
299.173767
 11
203.000000
 21
299.173767
  0
LINE
  8
0
 10
212.999985
 20
299.173767
 11
213.500000
 21
299.173767
  0
LINE
  8
0
 10
213.500000
 20
299.456604
 11
218.500000
 21
299.456604
  0
LINE
  8
0
 10
196.499985
 20
288.355011
 11
204.500000
 21
288.355011
  0
LINE
  8
0
 10
206.499985
 20
288.355011
 11
209.499985
 21
288.355011
  0
LINE
  8
0
 10
211.500000
 20
288.355011
 11
218.500000
 21
288.355011
  0
LINE
  8
0
 10
220.499985
 20
292.006836
 11
220.499985
 21
297.006836
  0
LINE
  8
0
 10
218.500000
 20
292.006836
 11
220.499985
 21
292.006836
  0
LINE
  8
0
 10
220.499985
 20
292.506836
 11
235.577896
 21
292.506836
  0
LINE
  8
0
 10
220.499985
 20
296.506836
 11
235.577896
 21
296.506836
  0
LINE
  8
0
 10
218.500000
 20
297.006836
 11
220.499985
 21
297.006836
  0
LINE
  8
0
 10
196.499985
 20
288.355011
 11
196.499985
 21
299.456604
  0
LINE
  8
0
 10
183.199997
 20
283.688080
 11
190.600006
 21
283.688080
  0
LINE
  8
0
 10
183.199997
 20
282.627441
 11
190.600006
 21
282.627441
  0
LINE
  8
0
 10
190.600006
 20
282.627441
 11
190.600006
 21
283.688080
  0
LINE
  8
0
 10
200.600006
 20
286.870056
 11
200.600006
 21
287.930725
  0
LINE
  8
0
 10
183.100006
 20
297.830231
 11
190.600006
 21
297.830231
  0
LINE
  8
0
 10
200.600006
 20
287.930725
 11
204.500000
 21
287.930725
  0
LINE
  8
0
 10
200.600006
 20
286.870056
 11
204.500000
 21
286.870056
  0
LINE
  8
0
 10
190.599991
 20
282.627411
 11
200.599991
 21
286.870056
  0
LINE
  8
0
 10
190.599991
 20
283.688080
 11
200.600006
 21
287.930725
  0
LINE
  8
0
 10
190.599991
 20
297.830200
 11
196.499985
 21
295.327057
  0
LINE
  8
0
 10
220.600006
 20
286.870056
 11
220.600006
 21
292.506836
  0
LINE
  8
0
 10
206.499985
 20
286.870056
 11
209.500031
 21
286.870056
  0
LINE
  8
0
 10
206.499985
 20
287.930725
 11
209.500031
 21
287.930725
  0
LINE
  8
0
 10
211.500000
 20
286.870056
 11
220.600006
 21
286.870056
  0
LINE
  8
0
 10
211.500000
 20
287.930725
 11
220.600006
 21
287.930725
  0
LINE
  8
0
 10
235.577896
 20
227.493149
 11
235.577896
 21
223.493149
  0
LINE
  8
0
 10
235.577896
 20
225.193146
 11
238.577896
 21
225.193146
  0
LINE
  8
0
 10
235.577896
 20
225.793152
 11
238.577896
 21
225.793152
  0
LINE
  8
0
 10
235.577896
 20
224.193146
 11
238.577896
 21
224.193146
  0
LINE
  8
0
 10
235.577896
 20
226.793152
 11
238.577896
 21
226.793152
  0
LINE
  8
0
 10
238.577896
 20
226.793152
 11
238.577896
 21
225.793152
  0
LINE
  8
0
 10
238.577896
 20
225.193146
 11
238.577896
 21
224.193146
  0
LINE
  8
0
 10
238.577896
 20
226.668152
 11
240.077896
 21
226.668152
  0
LINE
  8
0
 10
238.577896
 20
226.543152
 11
240.077896
 21
226.543152
  0
LINE
  8
0
 10
238.577896
 20
226.418152
 11
240.077896
 21
226.418152
  0
LINE
  8
0
 10
238.577896
 20
226.293152
 11
240.077896
 21
226.293152
  0
LINE
  8
0
 10
238.577896
 20
226.168152
 11
240.077896
 21
226.168152
  0
LINE
  8
0
 10
238.577896
 20
226.043152
 11
240.077896
 21
226.043152
  0
LINE
  8
0
 10
238.577896
 20
225.918152
 11
240.077896
 21
225.918152
  0
LINE
  8
0
 10
238.577896
 20
225.068146
 11
240.077896
 21
225.068146
  0
LINE
  8
0
 10
238.577896
 20
224.943146
 11
240.077896
 21
224.943146
  0
LINE
  8
0
 10
238.577896
 20
224.818146
 11
240.077896
 21
224.818146
  0
LINE
  8
0
 10
238.577896
 20
224.693146
 11
240.077896
 21
224.693146
  0
LINE
  8
0
 10
238.577896
 20
224.568146
 11
240.077896
 21
224.568146
  0
LINE
  8
0
 10
238.577896
 20
224.443146
 11
240.077896
 21
224.443146
  0
LINE
  8
0
 10
238.577896
 20
224.318146
 11
240.077896
 21
224.318146
  0
LINE
  8
0
 10
235.577896
 20
296.506836
 11
235.577896
 21
292.506836
  0
LINE
  8
0
 10
235.577896
 20
294.206848
 11
238.577896
 21
294.206848
  0
LINE
  8
0
 10
235.577896
 20
294.806854
 11
238.577896
 21
294.806854
  0
LINE
  8
0
 10
235.577896
 20
293.206848
 11
238.577896
 21
293.206848
  0
LINE
  8
0
 10
235.577896
 20
295.806854
 11
238.577896
 21
295.806854
  0
LINE
  8
0
 10
238.577896
 20
295.806854
 11
238.577896
 21
294.806854
  0
LINE
  8
0
 10
238.577896
 20
294.206848
 11
238.577896
 21
293.206848
  0
LINE
  8
0
 10
238.577896
 20
295.681854
 11
240.077896
 21
295.681854
  0
LINE
  8
0
 10
238.577896
 20
295.556854
 11
240.077896
 21
295.556854
  0
LINE
  8
0
 10
238.577896
 20
295.431854
 11
240.077896
 21
295.431854
  0
LINE
  8
0
 10
238.577896
 20
295.306854
 11
240.077896
 21
295.306854
  0
LINE
  8
0
 10
238.577896
 20
295.181854
 11
240.077896
 21
295.181854
  0
LINE
  8
0
 10
238.577896
 20
295.056854
 11
240.077896
 21
295.056854
  0
LINE
  8
0
 10
238.577896
 20
294.931854
 11
240.077896
 21
294.931854
  0
LINE
  8
0
 10
238.577896
 20
294.081848
 11
240.077896
 21
294.081848
  0
LINE
  8
0
 10
238.577896
 20
293.956848
 11
240.077896
 21
293.956848
  0
LINE
  8
0
 10
238.577896
 20
293.831848
 11
240.077896
 21
293.831848
  0
LINE
  8
0
 10
238.577896
 20
293.706848
 11
240.077896
 21
293.706848
  0
LINE
  8
0
 10
238.577896
 20
293.581848
 11
240.077896
 21
293.581848
  0
LINE
  8
0
 10
238.577896
 20
293.456848
 11
240.077896
 21
293.456848
  0
LINE
  8
0
 10
238.577896
 20
293.331848
 11
240.077896
 21
293.331848
  0
LINE
  8
0
 10
224.500000
 20
279.149994
 11
224.500000
 21
240.850006
  0
LINE
  8
0
 10
158.500000
 20
336.000000
 11
158.500000
 21
184.000000
  0
LINE
  8
0
 10
165.500000
 20
325.000000
 11
165.500000
 21
323.961487
  0
LINE
  8
0
 10
184.500000
 20
240.000000
 11
188.449997
 21
240.000000
  0
LINE
  8
0
 10
165.500000
 20
248.000000
 11
180.000000
 21
248.000000
  0
LINE
  8
0
 10
165.500000
 20
272.000000
 11
180.000000
 21
272.000000
  0
LINE
  8
0
 10
184.500000
 20
280.000000
 11
188.449997
 21
280.000000
  0
LINE
  8
0
 10
162.159225
 20
196.038498
 11
177.000000
 21
196.038498
  0
LINE
  8
0
 10
162.159119
 20
323.961487
 11
177.000000
 21
323.961487
  0
LINE
  8
0
 10
188.500000
 20
279.949982
 11
188.500000
 21
269.000000
  0
LINE
  8
0
 10
188.500000
 20
240.050003
 11
189.500000
 21
240.050003
  0
LINE
  8
0
 10
188.500000
 20
279.950012
 11
189.500000
 21
279.950012
  0
LINE
  8
0
 10
223.700058
 20
279.950043
 11
224.500046
 21
279.150055
  0
LINE
  8
0
 10
223.700119
 20
240.049866
 11
224.500122
 21
240.849869
  0
LINE
  8
0
 10
223.700012
 20
279.950012
 11
223.700012
 21
240.049988
  0
LINE
  8
0
 10
188.449997
 20
280.000000
 11
188.500000
 21
279.949982
  0
LINE
  8
0
 10
188.450012
 20
240.000000
 11
188.500015
 21
240.050003
  0
LINE
  8
0
 10
158.499985
 20
183.999969
 11
165.499985
 21
194.999969
  0
LINE
  8
0
 10
165.499985
 20
325.000031
 11
158.499985
 21
336.000031
  0
LINE
  8
0
 10
210.500000
 20
279.739929
 11
223.700012
 21
279.739929
  0
LINE
  8
0
 10
210.500000
 20
262.887482
 11
223.700012
 21
262.887482
  0
LINE
  8
0
 10
210.500000
 20
257.112518
 11
223.700012
 21
257.112518
  0
LINE
  8
0
 10
213.699768
 20
240.260071
 11
223.700012
 21
240.260071
  0
LINE
  8
0
 10
223.699951
 20
240.260132
 11
224.499939
 21
241.015457
  0
LINE
  8
0
 10
223.700012
 20
257.112518
 11
224.499985
 21
257.488556
  0
LINE
  8
0
 10
210.500000
 20
269.391998
 11
223.700012
 21
262.887543
  0
LINE
  8
0
 10
223.699997
 20
279.739929
 11
210.500000
 21
273.235474
  0
LINE
  8
0
 10
213.423462
 20
245.323975
 11
223.700012
 21
240.260086
  0
LINE
  8
0
 10
223.700012
 20
257.112518
 11
211.700012
 21
251.199387
  0
LINE
  8
0
 10
223.699997
 20
262.887421
 11
224.499969
 21
262.511383
  0
LINE
  8
0
 10
224.500015
 20
278.984619
 11
223.700027
 21
279.739929
  0
LINE
  8
0
 10
165.500000
 20
196.038498
 11
165.500000
 21
195.000000
  0
LINE
  8
0
 10
165.500000
 20
248.000000
 11
165.500000
 21
210.222549
  0
LINE
  8
0
 10
165.500000
 20
309.777466
 11
165.500000
 21
272.000000
  0
LINE
  8
0
 10
213.698380
 20
240.050003
 11
223.699997
 21
240.050003
  0
LINE
  8
0
 10
210.500000
 20
279.950012
 11
223.699997
 21
279.950012
  0
LINE
  8
0
 10
188.500000
 20
251.000000
 11
188.500000
 21
240.050003
  0
ARC
  8
0
 10
204.299988
 20
227.397308
 40
0.500000
 50
90.000000
 51
180.000000
  0
ARC
  8
0
 10
211.699997
 20
227.397308
 40
0.500000
 50
0.000000
 51
90.000000
  0
ARC
  8
0
 10
212.499985
 20
225.983109
 40
0.500000
 50
0.000000
 51
90.000000
  0
ARC
  8
0
 10
203.500000
 20
225.983093
 40
0.500000
 50
90.000000
 51
180.000000
  0
ARC
  8
0
 10
203.500000
 20
216.583603
 40
0.500000
 50
180.000000
 51
270.000000
  0
ARC
  8
0
 10
212.499985
 20
216.583603
 40
0.500000
 50
270.000000
 51
0.000000
  0
ARC
  8
0
 10
211.699997
 20
215.735077
 40
0.500000
 50
270.000000
 51
0.000000
  0
ARC
  8
0
 10
204.299988
 20
215.735077
 40
0.500000
 50
180.000000
 51
270.000000
  0
ARC
  8
0
 10
211.699997
 20
222.599045
 40
0.500000
 50
270.000000
 51
0.000000
  0
ARC
  8
0
 10
204.299988
 20
222.599045
 40
0.500000
 50
180.000000
 51
270.000000
  0
ARC
  8
0
 10
206.700012
 20
240.201035
 40
7.000009
 50
343.042206
 51
16.957664
  0
ARC
  8
0
 10
212.439133
 20
241.951035
 40
1.000004
 50
16.957077
 51
90.000000
  0
ARC
  8
0
 10
212.439133
 20
238.451035
 40
1.000000
 50
270.000000
 51
343.042084
  0
ARC
  8
0
 10
212.439133
 20
245.522141
 40
1.000000
 50
270.000000
 51
343.042084
  0
ARC
  8
0
 10
206.700012
 20
247.272141
 40
7.000009
 50
343.042206
 51
16.957785
  0
ARC
  8
0
 10
212.439133
 20
249.022141
 40
1.000009
 50
16.957914
 51
90.000000
  0
ARC
  8
0
 10
204.299988
 20
292.602692
 40
0.500000
 50
180.000000
 51
270.000000
  0
ARC
  8
0
 10
211.699997
 20
292.602692
 40
0.500000
 50
270.000000
 51
0.000000
  0
ARC
  8
0
 10
212.499985
 20
294.016907
 40
0.500000
 50
270.000000
 51
0.000000
  0
ARC
  8
0
 10
203.500000
 20
294.016907
 40
0.500000
 50
180.000000
 51
270.000000
  0
ARC
  8
0
 10
203.500000
 20
303.416382
 40
0.500000
 50
90.000000
 51
180.000000
  0
ARC
  8
0
 10
212.499985
 20
303.416382
 40
0.500000
 50
0.000000
 51
90.000000
  0
ARC
  8
0
 10
211.699997
 20
304.264923
 40
0.500000
 50
0.000000
 51
90.000000
  0
ARC
  8
0
 10
204.299988
 20
304.264923
 40
0.500000
 50
90.000000
 51
180.000000
  0
ARC
  8
0
 10
211.699997
 20
297.400940
 40
0.500000
 50
0.000000
 51
90.000000
  0
ARC
  8
0
 10
204.299988
 20
297.400940
 40
0.500000
 50
90.000000
 51
180.000000
  0
ARC
  8
0
 10
177.000000
 20
199.038498
 40
3.000000
 50
270.000000
 51
0.000000
  0
ARC
  8
0
 10
177.000000
 20
320.961487
 40
3.000000
 50
0.000000
 51
90.000000
  0
ARC
  8
0
 10
162.159119
 20
322.961700
 40
1.000000
 50
90.000000
 51
124.848206
  0
ARC
  8
0
 10
162.159225
 20
197.038223
 40
1.000005
 50
235.160034
 51
270.000000
  0
ARC
  8
0
 10
207.255692
 20
230.867157
 40
0.755707
 50
180.000000
 51
194.105835
  0
ARC
  8
0
 10
207.453247
 20
230.939575
 40
0.965197
 50
195.417099
 51
231.388718
  0
ARC
  8
0
 10
208.000000
 20
231.738388
 40
1.931886
 50
233.502457
 51
306.497528
  0
ARC
  8
0
 10
208.546753
 20
230.939575
 40
0.965189
 50
308.611298
 51
344.582031
  0
ARC
  8
0
 10
208.744308
 20
230.867157
 40
0.755700
 50
345.893036
 51
0.000000
  0
ARC
  8
0
 10
200.218674
 20
223.371826
 40
0.425078
 50
345.894928
 51
14.107077
  0
ARC
  8
0
 10
200.107544
 20
223.331085
 40
0.542932
 50
15.418522
 51
51.388477
  0
ARC
  8
0
 10
199.800003
 20
222.881760
 40
1.086684
 50
53.502438
 51
126.497559
  0
ARC
  8
0
 10
199.492462
 20
223.331085
 40
0.542927
 50
128.611526
 51
164.583038
  0
ARC
  8
0
 10
199.381332
 20
223.371826
 40
0.425078
 50
165.894913
 51
194.107071
  0
ARC
  8
0
 10
199.492462
 20
223.412567
 40
0.542932
 50
195.418518
 51
231.388474
  0
ARC
  8
0
 10
199.800003
 20
223.861893
 40
1.086684
 50
233.502441
 51
306.497559
  0
ARC
  8
0
 10
200.107544
 20
223.412567
 40
0.542927
 50
308.611511
 51
344.583038
  0
ARC
  8
0
 10
200.544296
 20
223.371826
 40
0.755696
 50
345.894165
 51
14.106952
  0
ARC
  8
0
 10
200.346741
 20
223.299408
 40
0.965201
 50
15.417976
 51
51.388714
  0
ARC
  8
0
 10
199.799988
 20
222.500595
 40
1.931886
 50
53.502457
 51
126.497543
  0
ARC
  8
0
 10
199.253235
 20
223.299408
 40
0.965189
 50
128.611282
 51
164.582901
  0
ARC
  8
0
 10
199.055679
 20
223.371826
 40
0.755696
 50
165.894165
 51
194.106949
  0
ARC
  8
0
 10
199.253235
 20
223.444244
 40
0.965201
 50
195.417969
 51
231.388718
  0
ARC
  8
0
 10
199.799988
 20
224.243057
 40
1.931886
 50
233.502457
 51
306.497528
  0
ARC
  8
0
 10
200.346741
 20
223.444244
 40
0.965189
 50
308.611298
 51
344.582886
  0
ARC
  8
0
 10
207.180298
 20
218.704926
 40
2.130294
 50
176.237244
 51
191.773209
  0
ARC
  8
0
 10
207.397858
 20
218.771393
 40
2.356930
 50
192.275894
 51
225.305573
  0
ARC
  8
0
 10
208.000000
 20
219.504486
 40
3.302718
 50
226.824738
 51
313.175079
  0
ARC
  8
0
 10
208.602142
 20
218.771393
 40
2.356934
 50
314.694183
 51
347.723724
  0
ARC
  8
0
 10
208.819702
 20
218.704926
 40
2.130298
 50
348.226379
 51
356.237244
  0
ARC
  8
0
 10
209.463791
 20
218.704926
 40
1.486211
 50
354.668640
 51
14.106581
  0
ARC
  8
0
 10
209.075256
 20
218.562500
 40
1.898237
 50
15.417706
 51
51.388241
  0
ARC
  8
0
 10
208.000000
 20
216.991547
 40
3.799348
 50
53.502098
 51
126.497902
  0
ARC
  8
0
 10
206.924744
 20
218.562500
 40
1.898228
 50
128.611755
 51
164.582291
  0
ARC
  8
0
 10
206.536209
 20
218.704926
 40
1.486209
 50
165.893417
 51
185.353836
  0
ARC
  8
0
 10
207.999969
 20
222.106445
 40
4.532888
 50
245.098083
 51
294.888550
  0
ARC
  8
0
 10
208.819702
 20
301.295074
 40
2.130294
 50
3.762753
 51
11.773211
  0
ARC
  8
0
 10
208.602142
 20
301.228607
 40
2.356930
 50
12.275900
 51
45.305832
  0
ARC
  8
0
 10
208.000000
 20
300.495514
 40
3.302730
 50
46.824921
 51
133.175079
  0
ARC
  8
0
 10
207.397858
 20
301.228607
 40
2.356934
 50
134.694168
 51
167.724106
  0
ARC
  8
0
 10
207.180298
 20
301.295074
 40
2.130295
 50
168.226791
 51
183.762756
  0
ARC
  8
0
 10
207.999969
 20
297.893555
 40
4.532878
 50
65.111641
 51
114.901817
  0
ARC
  8
0
 10
206.536209
 20
301.295074
 40
1.486205
 50
174.646164
 51
194.106003
  0
ARC
  8
0
 10
206.924744
 20
301.437500
 40
1.898233
 50
195.417267
 51
231.387955
  0
ARC
  8
0
 10
208.000000
 20
303.008453
 40
3.799335
 50
233.501968
 51
306.498047
  0
ARC
  8
0
 10
209.075256
 20
301.437500
 40
1.898216
 50
308.612061
 51
344.582733
  0
ARC
  8
0
 10
209.463791
 20
301.295074
 40
1.486205
 50
345.893982
 51
5.331355
  0
ARC
  8
0
 10
208.744308
 20
289.132843
 40
0.755692
 50
0.000000
 51
14.105829
  0
ARC
  8
0
 10
208.546753
 20
289.060425
 40
0.965197
 50
15.417103
 51
51.389278
  0
ARC
  8
0
 10
208.000000
 20
288.261627
 40
1.931886
 50
53.502457
 51
126.498077
  0
ARC
  8
0
 10
207.453247
 20
289.060425
 40
0.965177
 50
128.611847
 51
164.582901
  0
ARC
  8
0
 10
207.255692
 20
289.132843
 40
0.755696
 50
165.894165
 51
180.000000
  0
ARC
  8
0
 10
200.218674
 20
296.628174
 40
0.425082
 50
345.892914
 51
14.107077
  0
ARC
  8
0
 10
200.107544
 20
296.587433
 40
0.542932
 50
15.418522
 51
51.387470
  0
ARC
  8
0
 10
199.800003
 20
296.138123
 40
1.086659
 50
53.501484
 51
126.497559
  0
ARC
  8
0
 10
199.492462
 20
296.587433
 40
0.542939
 50
128.610519
 51
164.581482
  0
ARC
  8
0
 10
199.381332
 20
296.628174
 40
0.425082
 50
165.892929
 51
194.107071
  0
ARC
  8
0
 10
199.492462
 20
296.668915
 40
0.542932
 50
195.418518
 51
231.387466
  0
ARC
  8
0
 10
199.800003
 20
297.118225
 40
1.086659
 50
233.501480
 51
306.497559
  0
ARC
  8
0
 10
200.107544
 20
296.668915
 40
0.542939
 50
308.610504
 51
344.581482
  0
ARC
  8
0
 10
200.544296
 20
296.628174
 40
0.755696
 50
345.894165
 51
14.105829
  0
ARC
  8
0
 10
200.346741
 20
296.555756
 40
0.965197
 50
15.417103
 51
51.389278
  0
ARC
  8
0
 10
199.799988
 20
295.756958
 40
1.931886
 50
53.502457
 51
126.497543
  0
ARC
  8
0
 10
199.253235
 20
296.555756
 40
0.965201
 50
128.610718
 51
164.582901
  0
ARC
  8
0
 10
199.055679
 20
296.628174
 40
0.755696
 50
165.894165
 51
194.105835
  0
ARC
  8
0
 10
199.253235
 20
296.700592
 40
0.965197
 50
195.417099
 51
231.389282
  0
ARC
  8
0
 10
199.799988
 20
297.499390
 40
1.931886
 50
233.502457
 51
306.497528
  0
ARC
  8
0
 10
200.346741
 20
296.700592
 40
0.965201
 50
308.610718
 51
344.582886
  0
POLYLINE
  8
0
 66
     1
  0
VERTEX
  8
0
 10
161.587723
 20
323.782379
  0
VERTEX
  8
0
 10
161.362320
 20
323.602386
  0
VERTEX
  8
0
 10
161.170807
 20
323.334198
  0
VERTEX
  8
0
 10
161.043625
 20
322.880768
  0
VERTEX
  8
0
 10
161.045456
 20
322.335480
  0
VERTEX
  8
0
 10
161.081680
 20
321.703796
  0
VERTEX
  8
0
 10
161.170807
 20
320.945923
  0
VERTEX
  8
0
 10
161.321213
 20
320.110199
  0
VERTEX
  8
0
 10
161.522339
 20
319.276978
  0
VERTEX
  8
0
 10
161.764542
 20
318.427368
  0
VERTEX
  8
0
 10
162.038651
 20
317.550842
  0
VERTEX
  8
0
 10
162.333755
 20
316.684326
  0
VERTEX
  8
0
 10
162.668182
 20
315.778534
  0
VERTEX
  8
0
 10
162.965546
 20
315.023712
  0
VERTEX
  8
0
 10
163.277267
 20
314.276031
  0
VERTEX
  8
0
 10
163.604874
 20
313.530579
  0
VERTEX
  8
0
 10
163.949829
 20
312.782318
  0
VERTEX
  8
0
 10
164.317139
 20
312.020508
  0
VERTEX
  8
0
 10
164.697861
 20
311.265594
  0
VERTEX
  8
0
 10
165.092102
 20
310.517822
  0
VERTEX
  8
0
 10
165.500000
 20
309.777466
  0
SEQEND
  0
POLYLINE
  8
0
 66
     1
  0
VERTEX
  8
0
 10
165.500000
 20
210.222549
  0
VERTEX
  8
0
 10
165.090866
 20
209.479614
  0
VERTEX
  8
0
 10
164.694595
 20
208.727493
  0
VERTEX
  8
0
 10
164.313477
 20
207.971695
  0
VERTEX
  8
0
 10
163.949829
 20
207.217682
  0
VERTEX
  8
0
 10
163.604691
 20
206.467163
  0
VERTEX
  8
0
 10
163.270279
 20
205.704056
  0
VERTEX
  8
0
 10
162.955215
 20
204.948700
  0
VERTEX
  8
0
 10
162.668182
 20
204.221466
  0
VERTEX
  8
0
 10
162.343643
 20
203.339935
  0
VERTEX
  8
0
 10
162.040207
 20
202.450012
  0
VERTEX
  8
0
 10
161.764542
 20
201.572647
  0
VERTEX
  8
0
 10
161.520615
 20
200.694916
  0
VERTEX
  8
0
 10
161.311005
 20
199.810989
  0
VERTEX
  8
0
 10
161.170807
 20
199.054077
  0
VERTEX
  8
0
 10
161.091003
 20
198.343964
  0
VERTEX
  8
0
 10
161.045456
 20
197.664536
  0
VERTEX
  8
0
 10
161.056015
 20
197.122910
  0
VERTEX
  8
0
 10
161.170807
 20
196.665802
  0
VERTEX
  8
0
 10
161.352203
 20
196.418335
  0
VERTEX
  8
0
 10
161.587158
 20
196.218018
  0
SEQEND
  0
POLYLINE
  8
0
 66
     1
  0
VERTEX
  8
0
 10
165.500000
 20
272.000000
  0
VERTEX
  8
0
 10
165.067688
 20
271.388794
  0
VERTEX
  8
0
 10
164.625702
 20
270.784485
  0
VERTEX
  8
0
 10
164.227264
 20
270.269165
  0
VERTEX
  8
0
 10
163.830795
 20
269.789124
  0
VERTEX
  8
0
 10
163.433716
 20
269.275116
  0
VERTEX
  8
0
 10
163.038696
 20
268.656738
  0
VERTEX
  8
0
 10
162.685364
 20
267.978546
  0
VERTEX
  8
0
 10
162.343857
 20
267.218353
  0
VERTEX
  8
0
 10
162.029907
 20
266.379425
  0
VERTEX
  8
0
 10
161.806290
 20
265.671112
  0
VERTEX
  8
0
 10
161.615494
 20
264.952789
  0
VERTEX
  8
0
 10
161.453369
 20
264.218475
  0
VERTEX
  8
0
 10
161.315186
 20
263.444855
  0
VERTEX
  8
0
 10
161.205872
 20
262.666779
  0
VERTEX
  8
0
 10
161.128174
 20
261.927856
  0
VERTEX
  8
0
 10
161.066025
 20
260.964813
  0
VERTEX
  8
0
 10
161.045456
 20
260.000000
  0
VERTEX
  8
0
 10
161.063950
 20
259.059082
  0
VERTEX
  8
0
 10
161.128174
 20
258.072144
  0
VERTEX
  8
0
 10
161.208878
 20
257.302094
  0
VERTEX
  8
0
 10
161.317520
 20
256.535400
  0
VERTEX
  8
0
 10
161.453369
 20
255.781525
  0
VERTEX
  8
0
 10
161.620468
 20
255.035004
  0
VERTEX
  8
0
 10
161.817917
 20
254.296066
  0
VERTEX
  8
0
 10
162.029907
 20
253.620560
  0
VERTEX
  8
0
 10
162.339859
 20
252.798645
  0
VERTEX
  8
0
 10
162.685364
 20
252.021454
  0
VERTEX
  8
0
 10
163.040573
 20
251.344864
  0
VERTEX
  8
0
 10
163.433716
 20
250.724884
  0
VERTEX
  8
0
 10
163.788132
 20
250.264923
  0
VERTEX
  8
0
 10
164.227264
 20
249.730835
  0
VERTEX
  8
0
 10
164.666580
 20
249.165009
  0
VERTEX
  8
0
 10
165.088120
 20
248.585968
  0
VERTEX
  8
0
 10
165.500000
 20
248.000000
  0
SEQEND
  0
POINT
  8
0
 10
224.500000
 20
55.000000
  0
POINT
  8
0
 10
180.000000
 20
55.000000
  0
LINE
  8
0
 10
180.000015
 20
124.000000
 11
180.000015
 21
-14.000000
  0
LINE
  8
0
 10
181.600006
 20
109.000000
 11
181.600006
 21
31.000023
  0
LINE
  8
0
 10
183.200012
 20
124.000000
 11
183.200012
 21
0.999996
  0
LINE
  8
0
 10
180.000046
 20
109.000000
 11
183.200043
 21
109.000000
  0
LINE
  8
0
 10
184.500015
 20
77.627457
 11
184.500015
 21
34.000023
  0
LINE
  8
0
 10
189.500015
 20
77.627457
 11
189.500015
 21
34.000023
  0
LINE
  8
0
 10
181.600006
 20
19.000023
 11
181.600006
 21
0.999996
  0
LINE
  8
0
 10
183.200012
 20
34.000023
 11
194.450012
 21
34.000023
  0
LINE
  8
0
 10
194.450027
 20
34.000015
 11
194.450027
 21
16.000015
  0
LINE
  8
0
 10
195.200027
 20
32.700974
 11
195.200027
 21
17.299053
  0
LINE
  8
0
 10
194.450043
 20
34.000031
 11
195.200043
 21
32.700981
  0
LINE
  8
0
 10
194.449997
 20
16.000027
 11
195.199997
 21
17.299065
  0
LINE
  8
0
 10
183.200012
 20
16.000023
 11
194.450012
 21
16.000023
  0
LINE
  8
0
 10
180.000015
 20
31.000023
 11
183.200012
 21
31.000023
  0
LINE
  8
0
 10
180.000015
 20
29.800022
 11
183.200012
 21
29.800022
  0
LINE
  8
0
 10
180.000015
 20
20.200020
 11
183.200012
 21
20.200020
  0
LINE
  8
0
 10
180.000015
 20
19.000023
 11
183.200012
 21
19.000023
  0
LINE
  8
0
 10
183.200043
 20
124.000000
 11
194.450043
 21
124.000000
  0
LINE
  8
0
 10
194.450012
 20
123.999992
 11
194.450012
 21
105.999992
  0
LINE
  8
0
 10
195.200012
 20
122.700951
 11
195.200012
 21
107.299026
  0
LINE
  8
0
 10
194.450027
 20
123.999992
 11
195.200027
 21
122.700951
  0
LINE
  8
0
 10
194.449997
 20
106.000008
 11
195.199997
 21
107.299042
  0
LINE
  8
0
 10
183.200043
 20
106.000000
 11
194.450043
 21
106.000000
  0
LINE
  8
0
 10
180.000046
 20
121.000000
 11
183.200043
 21
121.000000
  0
LINE
  8
0
 10
180.000046
 20
119.800003
 11
183.200043
 21
119.800003
  0
LINE
  8
0
 10
179.999985
 20
0.999996
 11
183.199982
 21
0.999996
  0
LINE
  8
0
 10
180.000046
 20
110.199997
 11
183.200043
 21
110.199997
  0
LINE
  8
0
 10
211.700012
 20
62.690430
 11
211.700012
 21
81.870102
  0
LINE
  8
0
 10
210.500000
 20
81.304443
 11
210.500000
 21
79.571503
  0
LINE
  8
0
 10
211.700012
 20
72.049004
 11
212.439133
 21
72.049004
  0
LINE
  8
0
 10
211.700012
 20
77.549004
 11
212.439133
 21
77.549004
  0
LINE
  8
0
 10
211.700012
 20
70.477890
 11
212.439133
 21
70.477890
  0
LINE
  8
0
 10
211.700012
 20
64.977890
 11
212.439133
 21
64.977890
  0
LINE
  8
0
 10
204.500000
 20
75.188141
 11
211.700012
 21
75.188141
  0
LINE
  8
0
 10
204.500000
 20
79.571503
 11
210.500000
 21
79.571503
  0
LINE
  8
0
 10
204.500000
 20
78.723679
 11
211.700012
 21
78.723679
  0
LINE
  8
0
 10
204.500000
 20
75.188141
 11
204.500000
 21
81.870102
  0
LINE
  8
0
 10
204.299988
 20
91.486771
 11
211.699982
 21
91.486771
  0
LINE
  8
0
 10
203.500000
 20
93.466675
 11
212.499985
 21
93.466675
  0
LINE
  8
0
 10
203.500000
 20
98.916428
 11
212.499985
 21
98.916428
  0
LINE
  8
0
 10
204.299988
 20
99.764954
 11
211.699982
 21
99.764954
  0
LINE
  8
0
 10
204.299988
 20
87.102722
 11
211.699982
 21
87.102722
  0
LINE
  8
0
 10
212.199982
 20
87.602722
 11
212.199982
 21
92.400986
  0
LINE
  8
0
 10
212.999985
 20
89.016922
 11
212.999985
 21
98.416428
  0
LINE
  8
0
 10
203.799988
 20
87.602722
 11
203.799988
 21
92.400986
  0
LINE
  8
0
 10
203.000000
 20
89.016930
 11
203.000000
 21
98.416428
  0
LINE
  8
0
 10
204.299988
 20
92.900986
 11
211.699982
 21
92.900986
  0
LINE
  8
0
 10
202.499985
 20
88.516930
 11
203.799988
 21
88.516930
  0
LINE
  8
0
 10
203.799988
 20
98.916428
 11
203.799988
 21
99.264954
  0
LINE
  8
0
 10
212.199982
 20
98.916428
 11
212.199982
 21
99.264954
  0
LINE
  8
0
 10
212.199982
 20
88.516930
 11
213.500000
 21
88.516930
  0
LINE
  8
0
 10
196.499985
 20
88.799774
 11
202.499985
 21
88.799774
  0
LINE
  8
0
 10
213.500000
 20
88.516930
 11
213.500000
 21
94.456627
  0
LINE
  8
0
 10
202.499985
 20
88.516930
 11
202.499985
 21
94.456635
  0
LINE
  8
0
 10
211.500000
 20
81.304443
 11
211.500000
 21
87.102722
  0
LINE
  8
0
 10
204.500000
 20
81.304443
 11
204.500000
 21
87.102722
  0
LINE
  8
0
 10
213.500000
 20
88.799774
 11
218.500000
 21
88.799774
  0
LINE
  8
0
 10
209.500031
 20
84.132866
 11
209.500031
 21
81.304443
  0
LINE
  8
0
 10
206.499985
 20
84.132874
 11
206.499985
 21
81.304443
  0
LINE
  8
0
 10
204.500000
 20
81.304443
 11
206.499985
 21
81.304443
  0
LINE
  8
0
 10
209.500000
 20
81.304443
 11
211.500000
 21
81.304443
  0
LINE
  8
0
 10
218.500000
 20
83.355049
 11
218.500000
 21
94.456627
  0
LINE
  8
0
 10
196.499985
 20
94.456635
 11
202.499985
 21
94.456635
  0
LINE
  8
0
 10
202.499985
 20
94.173782
 11
203.000000
 21
94.173782
  0
LINE
  8
0
 10
212.999985
 20
94.173782
 11
213.500000
 21
94.173782
  0
LINE
  8
0
 10
213.500000
 20
94.456635
 11
218.500000
 21
94.456635
  0
LINE
  8
0
 10
196.499985
 20
83.355049
 11
204.500000
 21
83.355049
  0
LINE
  8
0
 10
206.499985
 20
83.355049
 11
209.499985
 21
83.355049
  0
LINE
  8
0
 10
211.500000
 20
83.355049
 11
218.500000
 21
83.355049
  0
LINE
  8
0
 10
220.499985
 20
87.006882
 11
220.499985
 21
92.006882
  0
LINE
  8
0
 10
218.500000
 20
87.006882
 11
220.499985
 21
87.006882
  0
LINE
  8
0
 10
220.499985
 20
87.506882
 11
235.577896
 21
87.506882
  0
LINE
  8
0
 10
220.499985
 20
91.506882
 11
235.577896
 21
91.506882
  0
LINE
  8
0
 10
218.500000
 20
92.006882
 11
220.499985
 21
92.006882
  0
LINE
  8
0
 10
196.499985
 20
83.355049
 11
196.499985
 21
94.456635
  0
LINE
  8
0
 10
202.199997
 20
81.870102
 11
202.199997
 21
82.930756
  0
LINE
  8
0
 10
202.199997
 20
82.930756
 11
204.500000
 21
82.930756
  0
LINE
  8
0
 10
202.199997
 20
81.870102
 11
204.500000
 21
81.870102
  0
LINE
  8
0
 10
184.699997
 20
78.688110
 11
192.199997
 21
78.688110
  0
LINE
  8
0
 10
192.199982
 20
78.688110
 11
202.199982
 21
82.930748
  0
LINE
  8
0
 10
192.199982
 20
92.830254
 11
196.499985
 21
91.005920
  0
LINE
  8
0
 10
222.199997
 20
81.870102
 11
222.199997
 21
87.506882
  0
LINE
  8
0
 10
206.499985
 20
81.870102
 11
209.500031
 21
81.870102
  0
LINE
  8
0
 10
206.499985
 20
82.930756
 11
209.500031
 21
82.930756
  0
LINE
  8
0
 10
211.500000
 20
81.870102
 11
222.199997
 21
81.870102
  0
LINE
  8
0
 10
211.500000
 20
82.930756
 11
222.199997
 21
82.930756
  0
LINE
  8
0
 10
192.199997
 20
77.627457
 11
192.199997
 21
78.688110
  0
LINE
  8
0
 10
192.200012
 20
77.627457
 11
202.199997
 21
81.870102
  0
LINE
  8
0
 10
183.199997
 20
77.627457
 11
192.199997
 21
77.627457
  0
LINE
  8
0
 10
183.199997
 20
82.930801
 11
184.699997
 21
82.930801
  0
LINE
  8
0
 10
184.699997
 20
92.830246
 11
192.199997
 21
92.830246
  0
LINE
  8
0
 10
183.199997
 20
97.072906
 11
184.699997
 21
97.072906
  0
LINE
  8
0
 10
184.699997
 20
78.688110
 11
184.699997
 21
97.072906
  0
LINE
  8
0
 10
210.500000
 20
62.690430
 11
211.700012
 21
62.690430
  0
LINE
  8
0
 10
195.200027
 20
27.000011
 11
210.500000
 21
27.000011
  0
LINE
  8
0
 10
200.500000
 20
25.301678
 11
200.500000
 21
27.000011
  0
LINE
  8
0
 10
195.299927
 20
27.000008
 11
200.500000
 21
25.301668
  0
LINE
  8
0
 10
200.500000
 20
25.301680
 11
205.700058
 21
27.000011
  0
LINE
  8
0
 10
210.500000
 20
75.188141
 11
210.500000
 21
27.000011
  0
LINE
  8
0
 10
235.577896
 20
91.506882
 11
235.577896
 21
87.506882
  0
LINE
  8
0
 10
235.577896
 20
89.206879
 11
238.577896
 21
89.206879
  0
LINE
  8
0
 10
235.577896
 20
89.806885
 11
238.577896
 21
89.806885
  0
LINE
  8
0
 10
235.577896
 20
88.206879
 11
238.577896
 21
88.206879
  0
LINE
  8
0
 10
235.577896
 20
90.806885
 11
238.577896
 21
90.806885
  0
LINE
  8
0
 10
238.577896
 20
90.806885
 11
238.577896
 21
89.806885
  0
LINE
  8
0
 10
238.577896
 20
89.206879
 11
238.577896
 21
88.206879
  0
LINE
  8
0
 10
238.577896
 20
90.681885
 11
240.077896
 21
90.681885
  0
LINE
  8
0
 10
238.577896
 20
90.556885
 11
240.077896
 21
90.556885
  0
LINE
  8
0
 10
238.577896
 20
90.431885
 11
240.077896
 21
90.431885
  0
LINE
  8
0
 10
238.577896
 20
90.306885
 11
240.077896
 21
90.306885
  0
LINE
  8
0
 10
238.577896
 20
90.181885
 11
240.077896
 21
90.181885
  0
LINE
  8
0
 10
238.577896
 20
90.056885
 11
240.077896
 21
90.056885
  0
LINE
  8
0
 10
238.577896
 20
89.931885
 11
240.077896
 21
89.931885
  0
LINE
  8
0
 10
238.577896
 20
89.081879
 11
240.077896
 21
89.081879
  0
LINE
  8
0
 10
238.577896
 20
88.956879
 11
240.077896
 21
88.956879
  0
LINE
  8
0
 10
238.577896
 20
88.831879
 11
240.077896
 21
88.831879
  0
LINE
  8
0
 10
238.577896
 20
88.706879
 11
240.077896
 21
88.706879
  0
LINE
  8
0
 10
238.577896
 20
88.581879
 11
240.077896
 21
88.581879
  0
LINE
  8
0
 10
238.577896
 20
88.456879
 11
240.077896
 21
88.456879
  0
LINE
  8
0
 10
238.577896
 20
88.331879
 11
240.077896
 21
88.331879
  0
LINE
  8
0
 10
224.500000
 20
74.150002
 11
224.500000
 21
35.849998
  0
LINE
  8
0
 10
158.500000
 20
131.000000
 11
158.500000
 21
-21.000000
  0
LINE
  8
0
 10
161.045456
 20
-17.000000
 11
177.000015
 21
-17.000000
  0
LINE
  8
0
 10
184.500000
 20
35.000000
 11
188.449997
 21
35.000000
  0
LINE
  8
0
 10
184.500000
 20
75.000000
 11
188.449997
 21
75.000000
  0
LINE
  8
0
 10
161.045456
 20
127.000000
 11
177.000015
 21
127.000000
  0
LINE
  8
0
 10
188.500000
 20
74.949997
 11
188.500000
 21
35.050003
  0
LINE
  8
0
 10
188.500000
 20
35.049999
 11
189.500015
 21
35.049999
  0
LINE
  8
0
 10
188.500000
 20
74.949997
 11
189.500015
 21
74.949997
  0
LINE
  8
0
 10
223.700089
 20
35.049896
 11
224.500092
 21
35.849899
  0
LINE
  8
0
 10
223.700058
 20
74.950035
 11
224.500046
 21
74.150040
  0
LINE
  8
0
 10
223.700012
 20
74.949997
 11
223.700012
 21
35.049995
  0
LINE
  8
0
 10
188.499939
 20
74.949944
 11
188.449936
 21
74.999939
  0
LINE
  8
0
 10
188.450012
 20
34.999992
 11
188.500015
 21
35.049995
  0
LINE
  8
0
 10
158.499985
 20
-21.000015
 11
161.045441
 21
-17.000023
  0
LINE
  8
0
 10
158.499985
 20
131.000015
 11
161.045441
 21
127.000023
  0
LINE
  8
0
 10
213.699768
 20
74.739929
 11
223.700012
 21
74.739929
  0
LINE
  8
0
 10
210.500000
 20
57.887482
 11
223.700012
 21
57.887482
  0
LINE
  8
0
 10
210.500000
 20
52.112518
 11
223.700012
 21
52.112518
  0
LINE
  8
0
 10
210.500000
 20
35.260071
 11
223.700012
 21
35.260071
  0
LINE
  8
0
 10
223.699890
 20
35.260246
 11
224.499878
 21
36.015564
  0
LINE
  8
0
 10
223.700012
 20
52.112534
 11
224.499985
 21
52.488567
  0
LINE
  8
0
 10
211.700012
 20
63.800697
 11
223.700012
 21
57.887566
  0
LINE
  8
0
 10
223.700043
 20
74.739922
 11
213.423462
 21
69.676018
  0
LINE
  8
0
 10
210.500000
 20
41.764557
 11
223.700043
 21
35.260082
  0
LINE
  8
0
 10
223.700043
 20
52.112537
 11
210.500000
 21
45.608070
  0
LINE
  8
0
 10
223.699951
 20
57.887367
 11
224.499939
 21
57.511333
  0
LINE
  8
0
 10
224.500015
 20
73.984573
 11
223.700027
 21
74.739891
  0
LINE
  8
0
 10
165.500000
 20
119.008331
 11
165.500000
 21
97.000000
  0
LINE
  8
0
 10
165.500000
 20
77.208664
 11
165.500000
 21
32.791332
  0
LINE
  8
0
 10
165.500000
 20
13.000000
 11
165.500000
 21
-9.008331
  0
LINE
  8
0
 10
210.500000
 20
35.049999
 11
223.699997
 21
35.049999
  0
LINE
  8
0
 10
213.698380
 20
74.949997
 11
223.699997
 21
74.949997
  0
ARC
  8
0
 10
206.700012
 20
74.799004
 40
6.999997
 50
343.042114
 51
16.957664
  0
ARC
  8
0
 10
212.439133
 20
73.049004
 40
1.000000
 50
270.000000
 51
343.042084
  0
ARC
  8
0
 10
212.439133
 20
76.549004
 40
1.000007
 50
16.957495
 51
90.000000
  0
ARC
  8
0
 10
212.439133
 20
69.477890
 40
1.000009
 50
16.957914
 51
90.000000
  0
ARC
  8
0
 10
206.700012
 20
67.727890
 40
6.999995
 50
343.042175
 51
16.957724
  0
ARC
  8
0
 10
212.439133
 20
65.977890
 40
1.000000
 50
270.000000
 51
343.042511
  0
ARC
  8
0
 10
204.299988
 20
87.602722
 40
0.500000
 50
180.000000
 51
270.000000
  0
ARC
  8
0
 10
211.699997
 20
87.602722
 40
0.500000
 50
270.000000
 51
0.000000
  0
ARC
  8
0
 10
212.499985
 20
89.016922
 40
0.500000
 50
270.000000
 51
0.000000
  0
ARC
  8
0
 10
203.500000
 20
89.016930
 40
0.500000
 50
180.000000
 51
270.000000
  0
ARC
  8
0
 10
203.500000
 20
98.416428
 40
0.500000
 50
90.000000
 51
180.000000
  0
ARC
  8
0
 10
212.499985
 20
98.416428
 40
0.500000
 50
0.000000
 51
90.000000
  0
ARC
  8
0
 10
211.699997
 20
99.264954
 40
0.500000
 50
0.000000
 51
90.000000
  0
ARC
  8
0
 10
204.299988
 20
99.264954
 40
0.500000
 50
90.000000
 51
180.000000
  0
ARC
  8
0
 10
211.699997
 20
92.400986
 40
0.500000
 50
0.000000
 51
90.000000
  0
ARC
  8
0
 10
204.299988
 20
92.400986
 40
0.500000
 50
90.000000
 51
180.000000
  0
ARC
  8
0
 10
177.000015
 20
124.000000
 40
3.000000
 50
0.000000
 51
90.000000
  0
ARC
  8
0
 10
177.000015
 20
-14.000000
 40
3.000000
 50
270.000000
 51
0.000000
  0
ARC
  8
0
 10
207.999969
 20
92.893593
 40
4.532878
 50
65.111420
 51
114.901993
  0
ARC
  8
0
 10
206.536209
 20
96.295105
 40
1.486205
 50
174.645874
 51
194.106293
  0
ARC
  8
0
 10
206.924744
 20
96.437538
 40
1.898237
 50
195.417709
 51
231.388382
  0
ARC
  8
0
 10
208.000000
 20
98.008484
 40
3.799348
 50
233.502106
 51
306.497894
  0
ARC
  8
0
 10
209.075256
 20
96.437538
 40
1.898234
 50
308.611603
 51
344.582062
  0
ARC
  8
0
 10
209.463791
 20
96.295105
 40
1.486209
 50
345.893433
 51
5.331355
  0
ARC
  8
0
 10
208.744308
 20
84.132874
 40
0.755692
 50
0.000000
 51
14.106391
  0
ARC
  8
0
 10
208.546753
 20
84.060448
 40
0.965201
 50
15.417976
 51
51.388996
  0
ARC
  8
0
 10
208.000000
 20
83.261642
 40
1.931886
 50
53.502457
 51
126.497543
  0
ARC
  8
0
 10
207.453247
 20
84.060448
 40
0.965195
 50
128.611008
 51
164.582031
  0
ARC
  8
0
 10
207.255692
 20
84.132874
 40
0.755698
 50
165.893616
 51
180.000000
  0
ARC
  8
0
 10
200.218674
 20
91.628204
 40
0.425082
 50
345.892914
 51
14.106079
  0
ARC
  8
0
 10
200.107544
 20
91.587463
 40
0.542930
 50
15.417746
 51
51.388477
  0
ARC
  8
0
 10
199.800003
 20
91.138138
 40
1.086684
 50
53.502438
 51
126.497322
  0
ARC
  8
0
 10
199.492462
 20
91.587471
 40
0.542927
 50
128.611526
 51
164.582260
  0
ARC
  8
0
 10
199.381332
 20
91.628204
 40
0.425082
 50
165.892929
 51
194.106079
  0
ARC
  8
0
 10
199.492462
 20
91.668945
 40
0.542930
 50
195.417740
 51
231.388474
  0
ARC
  8
0
 10
199.800003
 20
92.118271
 40
1.086684
 50
233.502441
 51
306.497314
  0
ARC
  8
0
 10
200.107544
 20
91.668938
 40
0.542927
 50
308.611511
 51
344.582245
  0
ARC
  8
0
 10
200.544296
 20
91.628204
 40
0.755698
 50
345.893616
 51
14.106391
  0
ARC
  8
0
 10
200.346741
 20
91.555779
 40
0.965201
 50
15.417976
 51
51.388996
  0
ARC
  8
0
 10
199.799988
 20
90.756981
 40
1.931880
 50
53.502323
 51
126.497673
  0
ARC
  8
0
 10
199.253235
 20
91.555779
 40
0.965195
 50
128.611008
 51
164.582031
  0
ARC
  8
0
 10
199.055679
 20
91.628204
 40
0.755698
 50
165.893616
 51
194.106384
  0
ARC
  8
0
 10
199.253235
 20
91.700630
 40
0.965201
 50
195.417969
 51
231.388992
  0
ARC
  8
0
 10
199.799988
 20
92.499428
 40
1.931880
 50
233.502319
 51
306.497681
  0
ARC
  8
0
 10
200.346741
 20
91.700630
 40
0.965195
 50
308.610992
 51
344.582031
  0
ARC
  8
0
 10
208.819702
 20
96.295105
 40
2.130295
 50
3.762957
 51
11.773612
  0
ARC
  8
0
 10
208.602142
 20
96.228638
 40
2.356934
 50
12.276262
 51
45.305832
  0
ARC
  8
0
 10
208.000000
 20
95.495537
 40
3.302735
 50
46.825008
 51
133.175171
  0
ARC
  8
0
 10
207.397858
 20
96.228638
 40
2.356923
 50
134.694427
 51
167.724106
  0
ARC
  8
0
 10
207.180298
 20
96.295105
 40
2.130295
 50
168.226791
 51
183.762756
  0
POLYLINE
  8
0
 66
     1
  0
VERTEX
  8
0
 10
165.500000
 20
97.000000
  0
VERTEX
  8
0
 10
164.665085
 20
96.786491
  0
VERTEX
  8
0
 10
163.861404
 20
96.463776
  0
VERTEX
  8
0
 10
163.118103
 20
96.052849
  0
VERTEX
  8
0
 10
162.478714
 20
95.592453
  0
VERTEX
  8
0
 10
161.923370
 20
95.050018
  0
VERTEX
  8
0
 10
161.496643
 20
94.409973
  0
VERTEX
  8
0
 10
161.233749
 20
93.685562
  0
VERTEX
  8
0
 10
161.115936
 20
92.901779
  0
VERTEX
  8
0
 10
161.076630
 20
92.000412
  0
VERTEX
  8
0
 10
161.065903
 20
91.171761
  0
VERTEX
  8
0
 10
161.076111
 20
90.359375
  0
VERTEX
  8
0
 10
161.113464
 20
89.546066
  0
VERTEX
  8
0
 10
161.184174
 20
88.714645
  0
VERTEX
  8
0
 10
161.295547
 20
87.842148
  0
VERTEX
  8
0
 10
161.443573
 20
86.976692
  0
VERTEX
  8
0
 10
161.628479
 20
86.104019
  0
VERTEX
  8
0
 10
161.850464
 20
85.209839
  0
VERTEX
  8
0
 10
162.128784
 20
84.236893
  0
VERTEX
  8
0
 10
162.445923
 20
83.259079
  0
VERTEX
  8
0
 10
162.782257
 20
82.325684
  0
VERTEX
  8
0
 10
163.118103
 20
81.485977
  0
VERTEX
  8
0
 10
163.513168
 20
80.606743
  0
VERTEX
  8
0
 10
163.941589
 20
79.742989
  0
VERTEX
  8
0
 10
164.365356
 20
78.966896
  0
VERTEX
  8
0
 10
164.724380
 20
78.368462
  0
VERTEX
  8
0
 10
165.102936
 20
77.782280
  0
VERTEX
  8
0
 10
165.500000
 20
77.208664
  0
SEQEND
  0
POLYLINE
  8
0
 66
     1
  0
VERTEX
  8
0
 10
165.500000
 20
13.000000
  0
VERTEX
  8
0
 10
164.665085
 20
13.213510
  0
VERTEX
  8
0
 10
163.861404
 20
13.536228
  0
VERTEX
  8
0
 10
163.118103
 20
13.947151
  0
VERTEX
  8
0
 10
162.478714
 20
14.407549
  0
VERTEX
  8
0
 10
161.923370
 20
14.949984
  0
VERTEX
  8
0
 10
161.496643
 20
15.590031
  0
VERTEX
  8
0
 10
161.233749
 20
16.314442
  0
VERTEX
  8
0
 10
161.115936
 20
17.098223
  0
VERTEX
  8
0
 10
161.076630
 20
17.999588
  0
VERTEX
  8
0
 10
161.065903
 20
18.828241
  0
VERTEX
  8
0
 10
161.076111
 20
19.640623
  0
VERTEX
  8
0
 10
161.113464
 20
20.453928
  0
VERTEX
  8
0
 10
161.184174
 20
21.285351
  0
VERTEX
  8
0
 10
161.295547
 20
22.157852
  0
VERTEX
  8
0
 10
161.443573
 20
23.023304
  0
VERTEX
  8
0
 10
161.628479
 20
23.895981
  0
VERTEX
  8
0
 10
161.850464
 20
24.790161
  0
VERTEX
  8
0
 10
162.128784
 20
25.763111
  0
VERTEX
  8
0
 10
162.445923
 20
26.740923
  0
VERTEX
  8
0
 10
162.782257
 20
27.674320
  0
VERTEX
  8
0
 10
163.118103
 20
28.514023
  0
VERTEX
  8
0
 10
163.513168
 20
29.393255
  0
VERTEX
  8
0
 10
163.941589
 20
30.257011
  0
VERTEX
  8
0
 10
164.365356
 20
31.033106
  0
VERTEX
  8
0
 10
164.724380
 20
31.631536
  0
VERTEX
  8
0
 10
165.102936
 20
32.217720
  0
VERTEX
  8
0
 10
165.500000
 20
32.791332
  0
SEQEND
  0
POLYLINE
  8
0
 66
     1
  0
VERTEX
  8
0
 10
161.045456
 20
127.000000
  0
VERTEX
  8
0
 10
161.347809
 20
126.431564
  0
VERTEX
  8
0
 10
161.662720
 20
125.843742
  0
VERTEX
  8
0
 10
161.994980
 20
125.227577
  0
VERTEX
  8
0
 10
162.374817
 20
124.529434
  0
VERTEX
  8
0
 10
162.740189
 20
123.863297
  0
VERTEX
  8
0
 10
163.107849
 20
123.198418
  0
VERTEX
  8
0
 10
163.464905
 20
122.557983
  0
VERTEX
  8
0
 10
163.792709
 20
121.974792
  0
VERTEX
  8
0
 10
164.122452
 20
121.392700
  0
VERTEX
  8
0
 10
164.457642
 20
120.805573
  0
VERTEX
  8
0
 10
164.803040
 20
120.205299
  0
VERTEX
  8
0
 10
165.150482
 20
119.606216
  0
VERTEX
  8
0
 10
165.500000
 20
119.008331
  0
SEQEND
  0
POLYLINE
  8
0
 66
     1
  0
VERTEX
  8
0
 10
161.045456
 20
-17.000000
  0
VERTEX
  8
0
 10
161.347809
 20
-16.431562
  0
VERTEX
  8
0
 10
161.662720
 20
-15.843742
  0
VERTEX
  8
0
 10
161.994980
 20
-15.227573
  0
VERTEX
  8
0
 10
162.374817
 20
-14.529434
  0
VERTEX
  8
0
 10
162.740189
 20
-13.863294
  0
VERTEX
  8
0
 10
163.107849
 20
-13.198416
  0
VERTEX
  8
0
 10
163.464905
 20
-12.557983
  0
VERTEX
  8
0
 10
163.792709
 20
-11.974795
  0
VERTEX
  8
0
 10
164.122452
 20
-11.392697
  0
VERTEX
  8
0
 10
164.457642
 20
-10.805573
  0
VERTEX
  8
0
 10
164.803040
 20
-10.205297
  0
VERTEX
  8
0
 10
165.150482
 20
-9.606215
  0
VERTEX
  8
0
 10
165.500000
 20
-9.008331
  0
SEQEND
  0
POINT
  8
0
 10
420.000000
 20
260.000000
  0
POINT
  8
0
 10
518.000000
 20
260.000000
  0
LINE
  8
0
 10
376.230133
 20
298.113037
 11
387.473114
 21
286.870026
  0
LINE
  8
0
 10
381.886993
 20
303.769867
 11
393.130005
 21
292.526855
  0
LINE
  8
0
 10
386.200256
 20
299.456573
 11
380.543396
 21
293.799744
  0
LINE
  8
0
 10
393.695587
 20
292.526917
 11
387.473053
 21
286.304352
  0
LINE
  8
0
 10
380.543457
 20
293.234009
 11
387.473114
 21
286.304382
  0
LINE
  8
0
 10
386.766022
 20
299.456512
 11
393.695648
 21
292.526886
  0
LINE
  8
0
 10
391.644989
 20
294.011841
 11
385.988129
 21
288.354980
  0
LINE
  8
0
 10
387.897308
 20
300.587952
 11
386.483093
 21
299.173737
  0
LINE
  8
0
 10
381.179749
 20
303.769928
 11
376.230011
 21
298.820190
  0
LINE
  8
0
 10
383.159668
 20
304.618408
 11
382.098999
 21
303.557770
  0
LINE
  8
0
 10
380.826233
 20
293.516876
 11
379.412018
 21
292.102661
  0
LINE
  8
0
 10
375.381561
 20
296.133179
 11
379.412079
 21
292.102661
  0
LINE
  8
0
 10
383.866882
 20
304.618439
 11
387.897369
 21
300.587921
  0
LINE
  8
0
 10
376.442139
 20
297.900909
 11
375.381500
 21
296.840240
  0
LINE
  8
0
 10
391.715942
 20
293.233978
 11
391.715942
 21
293.941071
  0
LINE
  8
0
 10
386.765991
 20
288.284088
 11
386.058899
 21
288.284088
  0
LINE
  8
0
 10
384.644653
 20
289.698486
 11
390.301483
 21
295.355316
  0
LINE
  8
0
 10
397.372559
 20
296.769592
 11
393.412750
 21
292.809784
  0
LINE
  8
0
 10
401.615173
 20
292.526947
 11
387.473053
 21
278.384796
  0
LINE
  8
0
 10
396.311890
 20
297.830200
 11
392.352112
 21
293.870392
  0
LINE
  8
0
 10
401.615234
 20
292.526947
 11
396.311920
 21
297.830231
  0
LINE
  8
0
 10
387.473083
 20
278.384766
 11
382.169800
 21
283.688080
  0
LINE
  8
0
 10
392.069275
 20
293.587555
 11
386.412415
 21
287.930695
  0
LINE
  8
0
 10
393.129913
 20
292.526947
 11
387.473053
 21
286.870087
  0
LINE
  8
0
 10
386.129578
 20
287.647858
 11
382.169769
 21
283.688049
  0
LINE
  8
0
 10
387.190216
 20
286.587250
 11
383.230408
 21
282.627441
  0
LINE
  8
0
 10
396.277161
 20
227.155518
 11
387.155487
 21
236.277206
  0
LINE
  8
0
 10
399.812775
 20
230.691147
 11
398.964233
 21
231.539673
  0
LINE
  8
0
 10
399.812225
 20
230.690125
 11
396.276672
 21
227.154587
  0
LINE
  8
0
 10
390.690491
 20
239.811905
 11
387.154968
 21
236.276367
  0
LINE
  8
0
 10
398.256653
 20
230.831589
 11
396.135315
 21
228.710266
  0
LINE
  8
0
 10
390.831909
 20
238.256271
 11
388.710602
 21
236.134949
  0
LINE
  8
0
 10
400.908264
 20
238.079453
 11
396.665649
 21
233.836823
  0
LINE
  8
0
 10
398.079712
 20
240.907867
 11
393.837097
 21
236.665237
  0
LINE
  8
0
 10
400.908875
 20
238.080429
 11
398.080444
 21
240.908875
  0
LINE
  8
0
 10
397.514648
 20
234.686310
 11
394.686249
 21
237.514725
  0
LINE
  8
0
 10
391.539612
 20
238.964294
 11
390.691101
 21
239.812805
  0
LINE
  8
0
 10
395.959045
 20
234.544876
 11
394.544830
 21
235.959091
  0
LINE
  8
0
 10
398.963562
 20
231.538757
 11
412.309601
 21
240.113022
  0
LINE
  8
0
 10
391.539581
 20
238.962891
 11
400.113861
 21
252.308945
  0
LINE
  8
0
 10
412.310394
 20
240.114044
 11
400.114014
 21
252.310425
  0
LINE
  8
0
 10
376.230072
 20
221.886902
 11
387.473053
 21
233.129883
  0
LINE
  8
0
 10
381.886902
 20
216.230042
 11
393.129913
 21
227.473038
  0
LINE
  8
0
 10
386.200256
 20
220.543442
 11
380.543396
 21
226.200302
  0
LINE
  8
0
 10
393.695587
 20
227.473068
 11
387.473053
 21
233.695618
  0
LINE
  8
0
 10
380.543427
 20
226.765945
 11
387.473083
 21
233.695602
  0
LINE
  8
0
 10
386.765961
 20
220.543396
 11
393.695618
 21
227.473038
  0
LINE
  8
0
 10
391.644989
 20
225.988174
 11
385.988129
 21
231.645020
  0
LINE
  8
0
 10
387.897308
 20
219.412079
 11
386.483093
 21
220.826294
  0
LINE
  8
0
 10
381.179810
 20
216.230072
 11
376.230072
 21
221.179825
  0
LINE
  8
0
 10
383.159668
 20
215.381592
 11
382.098999
 21
216.442261
  0
LINE
  8
0
 10
380.826233
 20
226.483154
 11
379.412048
 21
227.897369
  0
LINE
  8
0
 10
375.381531
 20
223.866806
 11
379.412048
 21
227.897324
  0
LINE
  8
0
 10
383.866821
 20
215.381500
 11
387.897308
 21
219.412018
  0
LINE
  8
0
 10
376.442169
 20
222.099106
 11
375.381500
 21
223.159760
  0
LINE
  8
0
 10
391.715820
 20
226.765991
 11
391.715820
 21
226.058899
  0
LINE
  8
0
 10
386.765900
 20
231.715805
 11
386.058807
 21
231.715805
  0
LINE
  8
0
 10
384.644623
 20
230.301514
 11
390.301453
 21
224.644684
  0
LINE
  8
0
 10
396.311859
 20
222.169785
 11
392.352081
 21
226.129593
  0
LINE
  8
0
 10
392.069275
 20
217.927124
 11
388.109467
 21
221.886932
  0
LINE
  8
0
 10
397.372559
 20
223.230453
 11
393.412750
 21
227.190247
  0
LINE
  8
0
 10
392.069305
 20
217.927124
 11
397.372589
 21
223.230438
  0
LINE
  8
0
 10
377.927124
 20
232.069244
 11
383.230438
 21
237.372559
  0
LINE
  8
0
 10
392.069244
 20
226.412430
 11
386.412384
 21
232.069275
  0
LINE
  8
0
 10
393.129913
 20
227.473083
 11
387.473053
 21
233.129944
  0
LINE
  8
0
 10
381.886932
 20
228.109451
 11
377.927124
 21
232.069260
  0
LINE
  8
0
 10
387.190216
 20
233.412781
 11
383.230408
 21
237.372589
  0
LINE
  8
0
 10
386.129547
 20
232.352127
 11
382.169739
 21
236.311920
  0
LINE
  8
0
 10
447.718750
 20
283.192963
 11
443.193268
 21
287.718445
  0
LINE
  8
0
 10
437.947418
 20
289.260773
 11
434.142334
 21
285.455719
  0
LINE
  8
0
 10
449.261047
 20
277.946960
 11
445.455963
 21
274.141876
  0
LINE
  8
0
 10
446.112305
 20
280.455109
 11
442.627563
 21
276.970337
  0
LINE
  8
0
 10
440.455566
 20
286.112061
 11
436.970764
 21
282.627258
  0
LINE
  8
0
 10
434.142273
 20
285.455719
 11
445.455994
 21
274.141998
  0
LINE
  8
0
 10
439.142883
 20
288.940460
 11
448.940857
 21
279.142487
  0
LINE
  8
0
 10
448.940857
 20
279.142456
 11
449.261169
 21
277.947021
  0
LINE
  8
0
 10
439.142914
 20
288.940521
 11
437.947479
 21
289.260864
  0
LINE
  8
0
 10
446.870209
 20
281.213013
 11
447.718719
 21
282.061523
  0
LINE
  8
0
 10
446.304535
 20
281.778687
 11
447.718750
 21
283.192902
  0
LINE
  8
0
 10
441.779083
 20
286.304199
 11
443.193298
 21
287.718414
  0
LINE
  8
0
 10
447.718781
 20
282.061646
 11
442.061920
 21
287.718475
  0
LINE
  8
0
 10
443.193237
 20
287.718048
 11
442.061859
 21
287.718048
  0
LINE
  8
0
 10
447.718658
 20
283.192963
 11
447.718658
 21
282.061584
  0
LINE
  8
0
 10
441.213379
 20
286.869873
 11
442.061890
 21
287.718384
  0
LINE
  8
0
 10
447.113281
 20
306.961487
 11
452.886780
 21
306.961487
  0
LINE
  8
0
 10
447.113281
 20
316.961487
 11
452.886780
 21
316.961487
  0
LINE
  8
0
 10
455.773560
 20
311.961487
 11
452.886810
 21
306.961487
  0
LINE
  8
0
 10
447.113312
 20
316.961487
 11
444.226562
 21
311.961517
  0
LINE
  8
0
 10
452.886810
 20
316.961517
 11
455.773560
 21
311.961548
  0
LINE
  8
0
 10
444.226562
 20
311.961517
 11
447.113312
 21
306.961517
  0
LINE
  8
0
 10
354.226501
 20
260.000000
 11
357.113251
 21
265.000031
  0
LINE
  8
0
 10
357.113281
 20
255.000015
 11
354.226501
 21
260.000000
  0
LINE
  8
0
 10
357.113251
 20
255.000015
 11
362.886749
 21
255.000015
  0
LINE
  8
0
 10
362.886749
 20
255.000015
 11
365.773499
 21
260.000000
  0
LINE
  8
0
 10
365.773529
 20
260.000031
 11
362.886780
 21
265.000031
  0
LINE
  8
0
 10
357.113251
 20
265.000000
 11
362.886749
 21
265.000000
  0
LINE
  8
0
 10
452.886719
 20
203.038452
 11
447.113220
 21
203.038452
  0
LINE
  8
0
 10
455.773621
 20
208.038376
 11
452.886871
 21
203.038376
  0
LINE
  8
0
 10
455.773529
 20
208.038498
 11
452.886810
 21
213.038452
  0
LINE
  8
0
 10
452.886780
 20
213.038452
 11
447.113220
 21
213.038452
  0
LINE
  8
0
 10
447.113373
 20
213.038361
 11
444.226624
 21
208.038361
  0
LINE
  8
0
 10
447.113251
 20
203.038467
 11
444.226501
 21
208.038452
  0
LINE
  8
0
 10
407.273041
 20
241.701569
 11
407.273041
 21
238.701569
  0
LINE
  8
0
 10
405.773041
 20
240.201569
 11
408.773041
 21
240.201569
  0
LINE
  8
0
 10
400.201904
 20
248.772720
 11
400.201904
 21
245.772720
  0
LINE
  8
0
 10
398.701904
 20
247.272720
 11
401.701904
 21
247.272720
  0
LINE
  8
0
 10
409.857758
 20
349.217590
 11
408.623779
 21
344.612244
  0
LINE
  8
0
 10
430.142212
 20
349.217590
 11
431.376221
 21
344.612244
  0
LINE
  8
0
 10
409.857788
 20
170.782410
 11
408.623779
 21
175.387756
  0
LINE
  8
0
 10
430.142212
 20
170.782410
 11
431.376190
 21
175.387756
  0
LINE
  8
0
 10
487.588196
 20
207.841751
 11
492.193573
 21
206.607742
  0
LINE
  8
0
 10
498.964478
 20
227.545929
 11
502.335785
 21
224.174591
  0
LINE
  8
0
 10
498.964478
 20
292.453949
 11
502.335846
 21
295.825317
  0
LINE
  8
0
 10
487.588318
 20
312.158173
 11
492.193634
 21
313.392181
  0
LINE
  8
0
 10
402.644836
 20
311.135101
 11
401.591187
 21
315.067383
  0
LINE
  8
0
 10
367.038116
 20
270.537476
 11
363.105835
 21
271.591125
  0
LINE
  8
0
 10
367.038116
 20
249.462540
 11
363.105835
 21
248.408890
  0
LINE
  8
0
 10
401.591095
 20
204.932663
 11
402.644745
 21
208.864929
  0
LINE
  8
0
 10
438.408844
 20
204.932617
 11
437.355194
 21
208.864899
  0
LINE
  8
0
 10
458.485229
 20
216.523727
 11
455.606628
 21
219.402344
  0
LINE
  8
0
 10
476.894165
 20
248.408829
 11
472.961884
 21
249.462479
  0
LINE
  8
0
 10
476.894165
 20
271.591064
 11
472.961914
 21
270.537415
  0
LINE
  8
0
 10
455.606720
 20
300.597565
 11
458.485352
 21
303.476196
  0
LINE
  8
0
 10
437.355286
 20
311.135040
 11
438.408936
 21
315.067322
  0
LINE
  8
0
 10
497.500000
 20
231.081451
 11
497.500000
 21
288.918427
  0
LINE
  8
0
 10
483.794189
 20
312.657684
 11
433.705841
 21
341.576233
  0
LINE
  8
0
 10
406.294159
 20
178.423767
 11
361.423065
 21
204.330109
  0
LINE
  8
0
 10
433.705841
 20
178.423752
 11
483.794098
 21
207.342224
  0
LINE
  8
0
 10
361.423035
 20
315.669891
 11
406.294159
 21
341.576233
  0
LINE
  8
0
 10
338.888977
 20
315.000000
 11
358.923065
 21
315.000000
  0
LINE
  8
0
 10
338.888947
 20
205.000000
 11
358.923035
 21
205.000000
  0
LINE
  8
0
 10
330.000000
 20
221.218567
 11
330.000000
 21
298.781433
  0
LINE
  8
0
 10
422.887482
 20
240.260071
 11
439.739929
 21
257.112518
  0
LINE
  8
0
 10
400.260071
 20
262.887482
 11
417.112518
 21
279.739929
  0
LINE
  8
0
 10
439.739929
 20
262.887482
 11
422.887482
 21
279.739929
  0
LINE
  8
0
 10
417.112518
 20
240.260071
 11
400.260071
 21
257.112518
  0
LINE
  8
0
 10
417.488556
 20
241.015396
 11
401.015381
 21
257.488556
  0
LINE
  8
0
 10
422.511444
 20
241.015396
 11
438.984619
 21
257.488556
  0
LINE
  8
0
 10
401.015381
 20
262.511444
 11
417.488556
 21
278.984619
  0
LINE
  8
0
 10
438.984619
 20
262.511444
 11
422.511444
 21
278.984619
  0
LINE
  8
0
 10
422.511444
 20
278.984619
 11
422.887482
 21
279.739929
  0
LINE
  8
0
 10
417.488556
 20
278.984619
 11
417.112518
 21
279.739929
  0
LINE
  8
0
 10
400.260071
 20
262.887482
 11
401.015381
 21
262.511444
  0
LINE
  8
0
 10
400.260071
 20
257.112518
 11
401.015381
 21
257.488556
  0
LINE
  8
0
 10
417.112518
 20
240.260071
 11
417.488556
 21
241.015396
  0
LINE
  8
0
 10
422.887482
 20
240.260071
 11
422.511444
 21
241.015396
  0
LINE
  8
0
 10
438.984619
 20
257.488556
 11
439.739929
 21
257.112518
  0
LINE
  8
0
 10
439.739929
 20
262.887482
 11
438.984619
 21
262.511414
  0
ARC
  8
0
 10
381.533356
 20
303.416321
 40
0.499990
 50
45.000000
 51
135.000000
  0
ARC
  8
0
 10
376.583618
 20
298.466553
 40
0.500011
 50
135.002472
 51
225.000000
  0
ARC
  8
0
 10
375.735107
 20
296.486664
 40
0.500011
 50
135.002472
 51
225.000000
  0
ARC
  8
0
 10
383.513275
 20
304.264832
 40
0.499990
 50
45.000000
 51
135.002472
  0
ARC
  8
0
 10
380.062256
 20
299.937683
 40
3.519524
 50
78.051292
 51
191.948715
  0
CIRCLE
  8
0
 10
385.493195
 20
294.506805
 40
2.500000
  0
CIRCLE
  8
0
 10
385.493195
 20
294.506805
 40
2.000000
  0
ARC
  8
0
 10
420.000000
 20
260.000000
 40
54.000004
 50
231.379395
 51
293.243713
  0
ARC
  8
0
 10
420.000061
 20
259.999939
 40
44.750038
 50
140.642624
 51
212.087341
  0
ARC
  8
0
 10
420.000000
 20
260.000000
 40
35.000000
 50
233.774658
 51
38.437176
  0
ARC
  8
0
 10
420.000000
 20
260.000000
 40
27.999994
 50
239.404526
 51
210.595642
  0
ARC
  8
0
 10
420.000000
 20
260.000000
 40
19.950003
 50
237.192535
 51
212.807526
  0
CIRCLE
  8
0
 10
400.200989
 20
247.272064
 40
2.750000
  0
CIRCLE
  8
0
 10
407.272064
 20
240.201004
 40
2.750000
  0
CIRCLE
  8
0
 10
385.493164
 20
225.493164
 40
2.000000
  0
ARC
  8
0
 10
381.533325
 20
216.583649
 40
0.499990
 50
225.000000
 51
315.002472
  0
ARC
  8
0
 10
376.583588
 20
221.533401
 40
0.499990
 50
135.000000
 51
225.001236
  0
ARC
  8
0
 10
375.735046
 20
223.513290
 40
0.500001
 50
134.998764
 51
225.001236
  0
ARC
  8
0
 10
383.513245
 20
215.735123
 40
0.500022
 50
224.998764
 51
314.998749
  0
ARC
  8
0
 10
380.062225
 20
220.062286
 40
3.519521
 50
168.051529
 51
281.948669
  0
CIRCLE
  8
0
 10
385.493164
 20
225.493164
 40
2.500000
  0
ARC
  8
0
 10
438.384918
 20
278.384644
 40
7.999995
 50
14.999588
 51
74.999725
  0
ARC
  8
0
 10
446.585999
 20
278.100372
 40
2.401909
 50
348.625824
 51
101.373466
  0
ARC
  8
0
 10
438.100769
 20
286.585724
 40
2.401939
 50
348.625977
 51
101.372749
  0
ARC
  8
0
 10
420.000000
 20
260.000000
 40
35.000015
 50
51.562077
 51
216.225433
  0
CIRCLE
  8
0
 10
450.000031
 20
311.961517
 40
9.000000
  0
CIRCLE
  8
0
 10
360.000000
 20
260.000000
 40
9.000000
  0
CIRCLE
  8
0
 10
450.000000
 20
208.038467
 40
9.000000
  0
ARC
  8
0
 10
420.000000
 20
260.000000
 40
53.999996
 50
186.756256
 51
218.620590
  0
ARC
  8
0
 10
420.000000
 20
260.000000
 40
53.999992
 50
141.379379
 51
173.243713
  0
ARC
  8
0
 10
420.000000
 20
260.000000
 40
54.000015
 50
66.756248
 51
128.620621
  0
ARC
  8
0
 10
420.000061
 20
259.999939
 40
44.749992
 50
237.912491
 51
129.357285
  0
ARC
  8
0
 10
420.000000
 20
260.000000
 40
53.999996
 50
306.756287
 51
53.243690
  0
CIRCLE
  8
0
 10
450.000031
 20
208.038483
 40
7.800000
  0
CIRCLE
  8
0
 10
450.000031
 20
311.961517
 40
7.800000
  0
CIRCLE
  8
0
 10
360.000000
 20
260.000000
 40
7.800000
  0
ARC
  8
0
 10
420.000000
 20
260.000000
 40
65.000000
 50
70.021080
 51
109.978745
  0
CIRCLE
  8
0
 10
420.000000
 20
260.000000
 40
76.000000
  0
CIRCLE
  8
0
 10
390.000061
 20
311.961578
 40
6.000000
  0
CIRCLE
  8
0
 10
389.999969
 20
208.038498
 40
6.000000
  0
CIRCLE
  8
0
 10
480.000000
 20
259.999939
 40
6.000000
  0
CIRCLE
  8
0
 10
390.000061
 20
311.961578
 40
5.125000
  0
CIRCLE
  8
0
 10
389.999969
 20
208.038498
 40
5.125000
  0
CIRCLE
  8
0
 10
480.000000
 20
259.999939
 40
5.125000
  0
ARC
  8
0
 10
390.000061
 20
311.961578
 40
12.000009
 50
14.999869
 51
222.884155
  0
ARC
  8
0
 10
360.000000
 20
260.000000
 40
12.000017
 50
74.999992
 51
285.000031
  0
ARC
  8
0
 10
389.999969
 20
208.038498
 40
12.000007
 50
137.116104
 51
344.999878
  0
ARC
  8
0
 10
449.999969
 20
208.038452
 40
12.000017
 50
195.000015
 51
45.000053
  0
ARC
  8
0
 10
480.000000
 20
259.999939
 40
12.000002
 50
254.999969
 51
105.000008
  0
ARC
  8
0
 10
450.000061
 20
311.961487
 40
12.000013
 50
315.000000
 51
164.999954
  0
ARC
  8
0
 10
420.000000
 20
346.500000
 40
10.500018
 50
14.999919
 51
165.000031
  0
ARC
  8
0
 10
419.999969
 20
173.500000
 40
10.499992
 50
195.000046
 51
345.000000
  0
ARC
  8
0
 10
494.911194
 20
216.749969
 40
10.500003
 50
255.000061
 51
45.000000
  0
ARC
  8
0
 10
494.911224
 20
303.249939
 40
10.500001
 50
315.000000
 51
104.999916
  0
ARC
  8
0
 10
420.000000
 20
260.000000
 40
65.000000
 50
130.021057
 51
169.978851
  0
ARC
  8
0
 10
420.000000
 20
260.000000
 40
65.000000
 50
190.021179
 51
229.978836
  0
ARC
  8
0
 10
420.000000
 20
260.000000
 40
65.000000
 50
250.021164
 51
289.978760
  0
ARC
  8
0
 10
420.000000
 20
260.000000
 40
65.000008
 50
310.021088
 51
349.978760
  0
ARC
  8
0
 10
420.000000
 20
260.000000
 40
64.999985
 50
10.021097
 51
49.978764
  0
ARC
  8
0
 10
403.794159
 20
345.906342
 40
4.999984
 50
300.000092
 51
344.999939
  0
ARC
  8
0
 10
403.794128
 20
174.093658
 40
4.999992
 50
15.000055
 51
60.000069
  0
ARC
  8
0
 10
436.205841
 20
174.093658
 40
4.999984
 50
120.000107
 51
165.000031
  0
ARC
  8
0
 10
486.294098
 20
203.012131
 40
4.999992
 50
74.999947
 51
120.000015
  0
ARC
  8
0
 10
502.500000
 20
231.081451
 40
5.000000
 50
180.000000
 51
225.000000
  0
ARC
  8
0
 10
502.500000
 20
288.918427
 40
4.999984
 50
135.000000
 51
180.000000
  0
ARC
  8
0
 10
486.294220
 20
316.987823
 40
5.000010
 50
240.000076
 51
284.999969
  0
ARC
  8
0
 10
436.205872
 20
345.906342
 40
5.000022
 50
194.999969
 51
240.000076
  0
ARC
  8
0
 10
358.923065
 20
320.000000
 40
5.000000
 50
270.000000
 51
299.999939
  0
ARC
  8
0
 10
358.923035
 20
200.000000
 40
5.000010
 50
60.000069
 51
90.000000
  0
ARC
  8
0
 10
420.000000
 20
260.000000
 40
97.999985
 50
203.311478
 51
156.688522
  0
ARC
  8
0
 10
420.000000
 20
260.000000
 40
19.150017
 50
172.464188
 51
187.535812
  0
ARC
  8
0
 10
420.000000
 20
260.000000
 40
19.149998
 50
262.464264
 51
277.535828
  0
ARC
  8
0
 10
420.000000
 20
260.000000
 40
19.149986
 50
352.464172
 51
7.535718
  0
ARC
  8
0
 10
420.000000
 20
260.000000
 40
19.149986
 50
82.464180
 51
97.535805
  0
ENDSEC
  0
EOF
