  0
SECTION
  2
HEADER
  0
ENDSEC
  0
SECTION
  2
TABLES
  0
TABLE
  2
LTYPE
 70
     4
  0
LTYPE
  2
CONTINUOUS
 70
    64
  3
Solid line
 72
    65
 73
     0
 40
0.000000
  0
LTYPE
  2
DASHED
 70
    64
  3
__ __ __ __ __ __ __ __ __ __ __ __ __ __ __
 72
    65
 73
     2
 40
3.500000
 49
2.000000
 49
-1.500000
  0
LTYPE
  2
CENTER
 70
    64
  3
____ _ ____ _ ____ _ ____ _ ____ _ ____ _ ____
 72
    65
 73
     4
 40
17.500000
 49
13.000000
 49
-1.500000
 49
1.500000
 49
-1.500000
  0
LTYPE
  2
PHANTOM
 70
    64
  3
_____ _ _ _____ _ _ _____ _ _ _____ _ _ ____  
 72
    65
 73
     6
 40
15.500000
 49
8.000000
 49
-1.500000
 49
1.500000
 49
-1.500000
 49
1.500000
 49
-1.500000
  0
LTYPE
  2
DASHED1
 70
    64
  3
__ __ __ __ __ __ __ __ __ __ __ __ __ __ __
 72
    65
 73
     2
 40
1.500000
 49
1.000000
 49
-0.500000
  0
LTYPE
  2
DASHED2
 70
    64
  3
__ __ __ __ __ __ __ __ __ __ __ __ __ __ __
 72
    65
 73
     2
 40
3.500000
 49
2.500000
 49
-1.000000
  0
LTYPE
  2
DASHED3
 70
    64
  3
__ __ __ __ __ __ __ __ __ __ __ __ __ __ __
 72
    65
 73
     2
 40
6.000000
 49
4.000000
 49
-2.000000
  0
LTYPE
  2
DASHED4
 70
    64
  3
__ __ __ __ __ __ __ __ __ __ __ __ __ __ __
 72
    65
 73
     2
 40
12.000000
 49
10.000000
 49
-2.000000
  0
LTYPE
  2
DASHED5
 70
    64
  3
__ __ __ __ __ __ __ __ __ __ __ __ __ __ __
 72
    65
 73
     2
 40
17.000000
 49
15.000000
 49
-2.000000
  0
LTYPE
  2
DASHED6
 70
    64
  3
__ __ __ __ __ __ __ __ __ __ __ __ __ __ __
 72
    65
 73
     2
 40
29.000000
 49
27.000000
 49
-2.000000
  0
LTYPE
  2
PHANTOM1
 70
    64
  3
_____ _ _ _____ _ _ _____ _ _ _____ _ _ ____  
 72
    65
 73
     6
 40
31.000000
 49
25.000000
 49
-1.500000
 49
1.000000
 49
-1.000000
 49
1.000000
 49
-1.500000
  0
LTYPE
  2
PHANTOM2
 70
    64
  3
_____ _ _ _____ _ _ _____ _ _ _____ _ _ ____  
 72
    65
 73
     6
 40
36.000000
 49
27.000000
 49
-1.500000
 49
2.500000
 49
-1.000000
 49
2.500000
 49
-1.500000
  0
LTYPE
  2
PHANTOM3
 70
    64
  3
_____ _ _ _____ _ _ _____ _ _ _____ _ _ ____  
 72
    65
 73
     6
 40
78.000000
 49
64.000000
 49
-2.000000
 49
4.000000
 49
-2.000000
 49
4.000000
 49
-2.000000
  0
LTYPE
  2
CENTER1
 70
    64
  3
____ _ ____ _ ____ _ ____ _ ____ _ ____ _ ____
 72
    65
 73
     4
 40
19.000000
 49
14.000000
 49
-1.000000
 49
3.000000
 49
-1.000000
  0
LTYPE
  2
CENTER2
 70
    64
  3
____ _ ____ _ ____ _ ____ _ ____ _ ____ _ ____
 72
    65
 73
     4
 40
28.500000
 49
25.000000
 49
-1.000000
 49
1.500000
 49
-1.000000
  0
LTYPE
  2
CENTER3
 70
    64
  3
____ _ ____ _ ____ _ ____ _ ____ _ ____ _ ____
 72
    65
 73
     4
 40
31.500000
 49
27.000000
 49
-1.000000
 49
2.500000
 49
-1.000000
  0
LTYPE
  2
CENTER4
 70
    64
  3
____ _ ____ _ ____ _ ____ _ ____ _ ____ _ ____
 72
    65
 73
     4
 40
50.000000
 49
45.000000
 49
-1.000000
 49
3.000000
 49
-1.000000
  0
LTYPE
  2
CENTER5
 70
    64
  3
____ _ ____ _ ____ _ ____ _ ____ _ ____ _ ____
 72
    65
 73
     4
 40
100.000000
 49
92.000000
 49
-2.000000
 49
4.000000
 49
-2.000000
  0
LTYPE
  2
SBK1
 70
    64
  3
______ _ _ _ ______ _ _ _ ______ _ _ _ _____  
 72
    65
 73
     8
 40
60.500000
 49
45.000000
 49
-2.000000
 49
2.500000
 49
-2.000000
 49
2.500000
 49
-2.000000
 49
2.500000
 49
-2.000000
  0
LTYPE
  2
SBK2
 70
    64
  3
______ _ _ _ ______ _ _ _ ______ _ _ _ _____  
 72
    65
 73
     8
 40
84.000000
 49
64.000000
 49
-2.000000
 49
4.000000
 49
-2.000000
 49
4.000000
 49
-2.000000
 49
4.000000
 49
-2.000000
  0
LTYPE
  2
STCH
 70
    64
  3
__ __ __ __ __ __ __ __ __ __ __ __ __ __ __
 72
    65
 73
     2
 40
3.000000
 49
1.000000
 49
-2.000000
  0
LTYPE
  2
MTCH
 70
    64
  3
_____ _ _ _____ _ _ _____ _ _ _____ _ _ ____  
 72
    65
 73
     6
 40
80.000000
 49
66.000000
 49
-2.000000
 49
4.000000
 49
-2.000000
 49
4.000000
 49
-2.000000
  0
ENDTAB
  0
TABLE
  2
LAYER
 70
     1
  0
LAYER
  2
0
 70
     0
 62
     7
  6
CONTINUOUS
  0
ENDTAB
  0
TABLE
  2
STYLE
 70
     1
  0
STYLE
  2
STANDARD
 70
     0
 40
0.000000
 41
1.000000
 50
0.000000
 71
     0
 42
0.200000
  3
txt
  4
BIGFONT
  0
ENDTAB
  0
TABLE
  2
VIEW
 70
     0
  0
ENDTAB
  0
ENDSEC
  0
SECTION
  2
BLOCKS
  0
ENDSEC
  0
SECTION
  2
ENTITIES
  0
LINE
  8
0
 10
594.500000
 20
420.500000
 11
594.500000
 21
-420.500000
  0
LINE
  8
0
 10
-594.500000
 20
420.500000
 11
-594.500000
 21
-420.500000
  0
LINE
  8
0
 10
-594.500000
 20
420.500000
 11
594.500000
 21
420.500000
  0
LINE
  8
0
 10
-594.500000
 20
-420.500000
 11
594.500000
 21
-420.500000
  0
LINE
  8
0
 10
574.500000
 20
400.500000
 11
574.500000
 21
-400.500000
  0
LINE
  8
0
 10
-564.500000
 20
400.500000
 11
574.500000
 21
400.500000
  0
LINE
  8
0
 10
-564.500000
 20
-400.500000
 11
574.500000
 21
-400.500000
  0
LINE
  8
0
 10
-564.500000
 20
400.500000
 11
-564.500000
 21
-400.500000
  0
LINE
  8
0
 10
-564.500000
 20
-380.500000
 11
174.875015
 21
-380.500000
  0
LINE
  8
0
 10
35.000004
 20
69.750000
 11
-294.500061
 21
69.750000
  0
LINE
  8
0
 10
35.000004
 20
69.750000
 11
35.000004
 21
400.500000
  0
LINE
  8
0
 10
-294.500061
 20
69.750008
 11
-434.375092
 21
-70.125000
  0
LINE
  8
0
 10
-564.500000
 20
-70.125000
 11
-434.375061
 21
-70.125000
  0
LINE
  8
0
 10
174.875015
 20
-70.125000
 11
174.875015
 21
-400.500000
  0
LINE
  8
0
 10
174.875015
 20
-70.125000
 11
574.500000
 21
-70.125000
  0
LINE
  8
0
 10
154.875015
 20
-50.125000
 11
574.500000
 21
-50.125000
  0
LINE
  8
0
 10
35.000004
 20
89.750000
 11
-294.500061
 21
89.750000
  0
LINE
  8
0
 10
-294.500061
 20
89.750000
 11
-294.500061
 21
69.750000
  0
LINE
  8
0
 10
-564.500000
 20
375.500000
 11
-364.500000
 21
375.500000
  0
LINE
  8
0
 10
-364.500000
 20
400.500000
 11
-364.500000
 21
375.500000
  0
LINE
  8
0
 10
374.500000
 20
375.500000
 11
574.500000
 21
375.500000
  0
LINE
  8
0
 10
374.500000
 20
400.500000
 11
374.500000
 21
375.500000
  0
LINE
  8
0
 10
374.500000
 20
-375.500000
 11
574.500000
 21
-375.500000
  0
LINE
  8
0
 10
374.500000
 20
-375.500000
 11
374.500000
 21
-400.500000
  0
LINE
  8
0
 10
35.000000
 20
69.749985
 11
174.875015
 21
-70.125000
  0
TEXT
  8
0
 10
-555.963745
 20
378.200012
 40
12.000000
  1
ROTARY ACTUATER
 50
0.000000
 41
1.052631
 51
0.000000
  7
STANDARD
  0
TEXT
  8
0
 10
383.036224
 20
378.200012
 40
12.000000
  1
DATE: MAY ,1992
 50
0.000000
 41
1.052632
 51
0.000000
  7
STANDARD
  0
TEXT
  8
0
 10
253.509384
 20
-68.125000
 40
10.000000
  1
SWING ANGLE : 270 DEGREE
 50
0.000000
 41
1.052631
 51
0.000000
  7
STANDARD
  0
TEXT
  8
0
 10
263.813690
 20
-193.918396
 40
10.000000
  1
MODEL : RAK800-USK
 50
0.000000
 41
1.052632
 51
0.000000
  7
STANDARD
  0
TEXT
  8
0
 10
-245.928146
 20
71.750000
 40
10.000000
  1
SWING ANGLE : 90 DEGREE
 50
0.000000
 41
1.052632
 51
0.000000
  7
STANDARD
  0
TEXT
  8
0
 10
-315.990601
 20
-398.500000
 40
10.000000
  1
SWING ANGLE : 180 DEGREE
 50
0.000000
 41
1.052631
 51
0.000000
  7
STANDARD
  0
TEXT
  8
0
 10
381.580109
 20
-400.299988
 40
12.000000
  1
ＫＯＧＡＮＥＩ，ＣＯＲＰ．
 50
0.000000
 41
0.902367
 51
15.000000
  7
STANDARD
  0
POINT
  8
0
 10
-397.000000
 20
272.000000
  0
POINT
  8
0
 10
-470.000000
 20
272.000000
  0
LINE
  8
0
 10
-464.000000
 20
348.221558
 11
-464.000000
 21
337.000000
  0
LINE
  8
0
 10
-464.000000
 20
341.150574
 11
-461.500000
 21
341.150574
  0
LINE
  8
0
 10
-462.500000
 20
340.089905
 11
-461.500000
 21
340.089905
  0
LINE
  8
0
 10
-447.500000
 20
342.281921
 11
-447.500000
 21
340.796906
  0
LINE
  8
0
 10
-462.500000
 20
340.089905
 11
-462.500000
 21
335.639587
  0
LINE
  8
0
 10
-448.399994
 20
193.586334
 11
-455.799988
 21
193.586334
  0
LINE
  8
0
 10
-447.600006
 20
191.606445
 11
-456.599976
 21
191.606445
  0
LINE
  8
0
 10
-447.600006
 20
186.156693
 11
-456.599976
 21
186.156693
  0
LINE
  8
0
 10
-448.399994
 20
185.308167
 11
-455.799988
 21
185.308167
  0
LINE
  8
0
 10
-448.399994
 20
197.970398
 11
-455.799988
 21
197.970398
  0
LINE
  8
0
 10
-456.299988
 20
197.470398
 11
-456.299988
 21
192.672134
  0
LINE
  8
0
 10
-457.099976
 20
196.056183
 11
-457.099976
 21
186.656693
  0
LINE
  8
0
 10
-447.899994
 20
197.470398
 11
-447.899994
 21
192.672134
  0
LINE
  8
0
 10
-447.100006
 20
196.056183
 11
-447.100006
 21
186.656693
  0
LINE
  8
0
 10
-448.399994
 20
192.172134
 11
-455.799988
 21
192.172134
  0
LINE
  8
0
 10
-457.600006
 20
196.556183
 11
-456.299988
 21
196.556183
  0
LINE
  8
0
 10
-447.899994
 20
186.156693
 11
-447.899994
 21
185.808167
  0
LINE
  8
0
 10
-456.299988
 20
186.156693
 11
-456.299988
 21
185.808167
  0
LINE
  8
0
 10
-447.900024
 20
196.556183
 11
-446.599976
 21
196.556183
  0
LINE
  8
0
 10
-463.600006
 20
196.273346
 11
-457.600006
 21
196.273346
  0
LINE
  8
0
 10
-446.599976
 20
196.556183
 11
-446.599976
 21
190.616486
  0
LINE
  8
0
 10
-457.600006
 20
196.556183
 11
-457.600006
 21
190.616486
  0
LINE
  8
0
 10
-455.600006
 20
203.503098
 11
-455.600006
 21
197.970398
  0
LINE
  8
0
 10
-448.600006
 20
203.503098
 11
-448.600006
 21
197.970398
  0
LINE
  8
0
 10
-446.599976
 20
196.273346
 11
-441.599976
 21
196.273346
  0
LINE
  8
0
 10
-453.600037
 20
200.940247
 11
-453.600037
 21
203.503098
  0
LINE
  8
0
 10
-450.599976
 20
200.940247
 11
-450.599976
 21
203.503098
  0
LINE
  8
0
 10
-441.599976
 20
201.718079
 11
-441.599976
 21
190.616486
  0
LINE
  8
0
 10
-463.600006
 20
190.616486
 11
-457.600006
 21
190.616486
  0
LINE
  8
0
 10
-457.600006
 20
190.899323
 11
-457.099976
 21
190.899323
  0
LINE
  8
0
 10
-447.100006
 20
190.899323
 11
-446.599976
 21
190.899323
  0
LINE
  8
0
 10
-446.599976
 20
190.616486
 11
-441.599976
 21
190.616486
  0
LINE
  8
0
 10
-463.600006
 20
201.718079
 11
-455.599976
 21
201.718079
  0
LINE
  8
0
 10
-453.600006
 20
201.718079
 11
-450.600006
 21
201.718079
  0
LINE
  8
0
 10
-448.599976
 20
201.718079
 11
-441.599976
 21
201.718079
  0
LINE
  8
0
 10
-439.600006
 20
198.066238
 11
-439.600006
 21
193.066238
  0
LINE
  8
0
 10
-441.599976
 20
198.066223
 11
-439.600006
 21
198.066223
  0
LINE
  8
0
 10
-439.600006
 20
197.566223
 11
-392.350006
 21
197.566223
  0
LINE
  8
0
 10
-439.600006
 20
193.566223
 11
-392.350006
 21
193.566223
  0
LINE
  8
0
 10
-441.599976
 20
193.066223
 11
-439.600006
 21
193.066223
  0
LINE
  8
0
 10
-463.600006
 20
201.718079
 11
-463.600006
 21
190.616486
  0
LINE
  8
0
 10
-392.350006
 20
193.566223
 11
-392.350006
 21
197.566223
  0
LINE
  8
0
 10
-392.350006
 20
195.866226
 11
-389.350006
 21
195.866226
  0
LINE
  8
0
 10
-392.350006
 20
195.266235
 11
-389.350006
 21
195.266235
  0
LINE
  8
0
 10
-392.350006
 20
196.866226
 11
-389.350006
 21
196.866226
  0
LINE
  8
0
 10
-392.350006
 20
194.266235
 11
-389.350006
 21
194.266235
  0
LINE
  8
0
 10
-389.350006
 20
194.266235
 11
-389.350006
 21
195.266235
  0
LINE
  8
0
 10
-389.350006
 20
195.866226
 11
-389.350006
 21
196.866226
  0
LINE
  8
0
 10
-389.350006
 20
194.391235
 11
-387.850006
 21
194.391235
  0
LINE
  8
0
 10
-389.350006
 20
194.516235
 11
-387.850006
 21
194.516235
  0
LINE
  8
0
 10
-389.350006
 20
194.641235
 11
-387.850006
 21
194.641235
  0
LINE
  8
0
 10
-389.350006
 20
194.766235
 11
-387.850006
 21
194.766235
  0
LINE
  8
0
 10
-389.350006
 20
194.891235
 11
-387.850006
 21
194.891235
  0
LINE
  8
0
 10
-389.350006
 20
195.016235
 11
-387.850006
 21
195.016235
  0
LINE
  8
0
 10
-389.350006
 20
195.141235
 11
-387.850006
 21
195.141235
  0
LINE
  8
0
 10
-389.350006
 20
195.991226
 11
-387.850006
 21
195.991226
  0
LINE
  8
0
 10
-389.350006
 20
196.116226
 11
-387.850006
 21
196.116226
  0
LINE
  8
0
 10
-389.350006
 20
196.241226
 11
-387.850006
 21
196.241226
  0
LINE
  8
0
 10
-389.350006
 20
196.366226
 11
-387.850006
 21
196.366226
  0
LINE
  8
0
 10
-389.350006
 20
196.491226
 11
-387.850006
 21
196.491226
  0
LINE
  8
0
 10
-389.350006
 20
196.616226
 11
-387.850006
 21
196.616226
  0
LINE
  8
0
 10
-389.350006
 20
196.741226
 11
-387.850006
 21
196.741226
  0
LINE
  8
0
 10
-464.000000
 20
195.778442
 11
-464.000000
 21
207.000015
  0
LINE
  8
0
 10
-464.000000
 20
202.849426
 11
-461.500000
 21
202.849426
  0
LINE
  8
0
 10
-462.500000
 20
203.910095
 11
-461.500000
 21
203.910095
  0
LINE
  8
0
 10
-447.500000
 20
201.718079
 11
-447.500000
 21
203.203094
  0
LINE
  8
0
 10
-462.500000
 20
203.910095
 11
-462.500000
 21
208.360397
  0
LINE
  8
0
 10
-448.399994
 20
350.413666
 11
-455.799988
 21
350.413666
  0
LINE
  8
0
 10
-447.600006
 20
352.393555
 11
-456.599976
 21
352.393555
  0
LINE
  8
0
 10
-447.600006
 20
357.843292
 11
-456.599976
 21
357.843292
  0
LINE
  8
0
 10
-448.399994
 20
358.691833
 11
-455.799988
 21
358.691833
  0
LINE
  8
0
 10
-448.399994
 20
346.029602
 11
-455.799988
 21
346.029602
  0
LINE
  8
0
 10
-456.299988
 20
346.529602
 11
-456.299988
 21
351.327881
  0
LINE
  8
0
 10
-457.099976
 20
347.943817
 11
-457.099976
 21
357.343323
  0
LINE
  8
0
 10
-447.899994
 20
346.529602
 11
-447.899994
 21
351.327881
  0
LINE
  8
0
 10
-447.100006
 20
347.943817
 11
-447.100006
 21
357.343323
  0
LINE
  8
0
 10
-448.399994
 20
351.827850
 11
-455.799988
 21
351.827850
  0
LINE
  8
0
 10
-457.600006
 20
347.443817
 11
-456.299988
 21
347.443817
  0
LINE
  8
0
 10
-447.899994
 20
357.843323
 11
-447.899994
 21
358.191833
  0
LINE
  8
0
 10
-456.299988
 20
357.843323
 11
-456.299988
 21
358.191833
  0
LINE
  8
0
 10
-447.900024
 20
347.443817
 11
-446.599976
 21
347.443817
  0
LINE
  8
0
 10
-463.600006
 20
347.726654
 11
-457.600006
 21
347.726654
  0
LINE
  8
0
 10
-446.599976
 20
347.443817
 11
-446.599976
 21
353.383514
  0
LINE
  8
0
 10
-457.600006
 20
347.443817
 11
-457.600006
 21
353.383514
  0
LINE
  8
0
 10
-455.600006
 20
340.496887
 11
-455.600006
 21
346.029602
  0
LINE
  8
0
 10
-448.600006
 20
340.496887
 11
-448.600006
 21
346.029602
  0
LINE
  8
0
 10
-446.599976
 20
347.726654
 11
-441.599976
 21
347.726654
  0
LINE
  8
0
 10
-453.600037
 20
343.059753
 11
-453.600037
 21
340.496887
  0
LINE
  8
0
 10
-450.599976
 20
343.059753
 11
-450.599976
 21
340.496887
  0
LINE
  8
0
 10
-441.599976
 20
342.281921
 11
-441.599976
 21
353.383514
  0
LINE
  8
0
 10
-463.600006
 20
353.383514
 11
-457.600006
 21
353.383514
  0
LINE
  8
0
 10
-457.600006
 20
353.100677
 11
-457.099976
 21
353.100677
  0
LINE
  8
0
 10
-447.100006
 20
353.100677
 11
-446.599976
 21
353.100677
  0
LINE
  8
0
 10
-446.599976
 20
353.383514
 11
-441.599976
 21
353.383514
  0
LINE
  8
0
 10
-463.600006
 20
342.281921
 11
-455.599976
 21
342.281921
  0
LINE
  8
0
 10
-453.600006
 20
342.281921
 11
-450.600006
 21
342.281921
  0
LINE
  8
0
 10
-448.599976
 20
342.281921
 11
-441.599976
 21
342.281921
  0
LINE
  8
0
 10
-439.600006
 20
345.933777
 11
-439.600006
 21
350.933777
  0
LINE
  8
0
 10
-441.599976
 20
345.933777
 11
-439.600006
 21
345.933777
  0
LINE
  8
0
 10
-439.600006
 20
346.433777
 11
-392.350006
 21
346.433777
  0
LINE
  8
0
 10
-439.600006
 20
350.433777
 11
-392.350006
 21
350.433777
  0
LINE
  8
0
 10
-441.599976
 20
350.933777
 11
-439.600006
 21
350.933777
  0
LINE
  8
0
 10
-463.600006
 20
342.281921
 11
-463.600006
 21
353.383514
  0
LINE
  8
0
 10
-392.350006
 20
350.433777
 11
-392.350006
 21
346.433777
  0
LINE
  8
0
 10
-392.350006
 20
348.133759
 11
-389.350006
 21
348.133759
  0
LINE
  8
0
 10
-392.350006
 20
348.733765
 11
-389.350006
 21
348.733765
  0
LINE
  8
0
 10
-392.350006
 20
347.133759
 11
-389.350006
 21
347.133759
  0
LINE
  8
0
 10
-392.350006
 20
349.733765
 11
-389.350006
 21
349.733765
  0
LINE
  8
0
 10
-389.350006
 20
349.733765
 11
-389.350006
 21
348.733765
  0
LINE
  8
0
 10
-389.350006
 20
348.133789
 11
-389.350006
 21
347.133789
  0
LINE
  8
0
 10
-389.350006
 20
349.608765
 11
-387.850006
 21
349.608765
  0
LINE
  8
0
 10
-389.350006
 20
349.483765
 11
-387.850006
 21
349.483765
  0
LINE
  8
0
 10
-389.350006
 20
349.358765
 11
-387.850006
 21
349.358765
  0
LINE
  8
0
 10
-389.350006
 20
349.233765
 11
-387.850006
 21
349.233765
  0
LINE
  8
0
 10
-389.350006
 20
349.108765
 11
-387.850006
 21
349.108765
  0
LINE
  8
0
 10
-389.350006
 20
348.983765
 11
-387.850006
 21
348.983765
  0
LINE
  8
0
 10
-389.350006
 20
348.858765
 11
-387.850006
 21
348.858765
  0
LINE
  8
0
 10
-389.350006
 20
348.008759
 11
-387.850006
 21
348.008759
  0
LINE
  8
0
 10
-389.350006
 20
347.883759
 11
-387.850006
 21
347.883759
  0
LINE
  8
0
 10
-389.350006
 20
347.758759
 11
-387.850006
 21
347.758759
  0
LINE
  8
0
 10
-389.350006
 20
347.633759
 11
-387.850006
 21
347.633759
  0
LINE
  8
0
 10
-389.350006
 20
347.508759
 11
-387.850006
 21
347.508759
  0
LINE
  8
0
 10
-389.350006
 20
347.383759
 11
-387.850006
 21
347.383759
  0
LINE
  8
0
 10
-389.350006
 20
347.258759
 11
-387.850006
 21
347.258759
  0
LINE
  8
0
 10
-461.500000
 20
341.150574
 11
-461.500000
 21
340.089905
  0
LINE
  8
0
 10
-460.500000
 20
341.857574
 11
-460.500000
 21
340.796906
  0
LINE
  8
0
 10
-460.500000
 20
340.796906
 11
-461.500000
 21
340.089905
  0
LINE
  8
0
 10
-460.500000
 20
341.857574
 11
-461.500000
 21
341.150574
  0
LINE
  8
0
 10
-460.500000
 20
341.857574
 11
-455.600006
 21
341.857574
  0
LINE
  8
0
 10
-460.500000
 20
340.796906
 11
-455.600006
 21
340.796906
  0
LINE
  8
0
 10
-453.600037
 20
341.857574
 11
-450.599976
 21
341.857574
  0
LINE
  8
0
 10
-453.600037
 20
340.796906
 11
-450.599976
 21
340.796906
  0
LINE
  8
0
 10
-448.600006
 20
341.857574
 11
-447.500000
 21
341.857574
  0
LINE
  8
0
 10
-448.600006
 20
340.796906
 11
-447.500000
 21
340.796906
  0
LINE
  8
0
 10
-448.600006
 20
203.503098
 11
-450.599976
 21
203.503098
  0
LINE
  8
0
 10
-453.600037
 20
203.503098
 11
-455.600006
 21
203.503098
  0
LINE
  8
0
 10
-461.500000
 20
202.849426
 11
-461.500000
 21
203.910095
  0
LINE
  8
0
 10
-460.500000
 20
202.142426
 11
-460.500000
 21
203.203094
  0
LINE
  8
0
 10
-461.500000
 20
203.910095
 11
-460.500000
 21
203.203094
  0
LINE
  8
0
 10
-460.500000
 20
203.203094
 11
-455.600006
 21
203.203094
  0
LINE
  8
0
 10
-453.600037
 20
203.203094
 11
-450.599976
 21
203.203094
  0
LINE
  8
0
 10
-448.600006
 20
203.203094
 11
-447.500000
 21
203.203094
  0
LINE
  8
0
 10
-447.500000
 20
202.142426
 11
-448.600006
 21
202.142426
  0
LINE
  8
0
 10
-450.599976
 20
202.142426
 11
-453.600037
 21
202.142426
  0
LINE
  8
0
 10
-455.600006
 20
202.142426
 11
-460.500000
 21
202.142426
  0
LINE
  8
0
 10
-460.500000
 20
202.142426
 11
-461.500000
 21
202.849426
  0
LINE
  8
0
 10
-448.600006
 20
340.496887
 11
-450.599976
 21
340.496887
  0
LINE
  8
0
 10
-453.600037
 20
340.496887
 11
-455.600006
 21
340.496887
  0
LINE
  8
0
 10
-447.000000
 20
338.175293
 11
-431.000000
 21
338.175293
  0
LINE
  8
0
 10
-433.200012
 20
200.934830
 11
-433.200012
 21
201.643799
  0
LINE
  8
0
 10
-440.799988
 20
200.934814
 11
-440.799988
 21
201.643799
  0
LINE
  8
0
 10
-433.500000
 20
200.242630
 11
-433.500000
 21
200.936615
  0
LINE
  8
0
 10
-440.500000
 20
200.242630
 11
-440.500000
 21
200.936615
  0
LINE
  8
0
 10
-437.000000
 20
197.774353
 11
-437.000000
 21
200.780365
  0
LINE
  8
0
 10
-433.000000
 20
206.239075
 11
-433.000000
 21
198.107330
  0
LINE
  8
0
 10
-456.200012
 20
205.178406
 11
-454.700012
 21
205.178406
  0
LINE
  8
0
 10
-447.000000
 20
206.239075
 11
-433.000000
 21
206.239075
  0
LINE
  8
0
 10
-454.700012
 20
205.178406
 11
-448.500000
 21
205.178406
  0
LINE
  8
0
 10
-448.500000
 20
205.178406
 11
-433.000000
 21
205.178406
  0
LINE
  8
0
 10
-447.000000
 20
335.639587
 11
-447.000000
 21
342.281921
  0
LINE
  8
0
 10
-431.000000
 20
208.360382
 11
-431.000000
 21
197.566223
  0
LINE
  8
0
 10
-456.200012
 20
208.360382
 11
-456.200012
 21
203.203094
  0
LINE
  8
0
 10
-454.700012
 20
208.360382
 11
-454.700012
 21
203.503098
  0
LINE
  8
0
 10
-448.500000
 20
208.360382
 11
-448.500000
 21
203.203094
  0
LINE
  8
0
 10
-441.599976
 20
198.107330
 11
-439.316895
 21
198.107330
  0
LINE
  8
0
 10
-447.000000
 20
208.360382
 11
-447.000000
 21
206.239075
  0
LINE
  8
0
 10
-456.200012
 20
335.639587
 11
-456.200012
 21
340.796906
  0
LINE
  8
0
 10
-441.599976
 20
351.964081
 11
-433.000000
 21
351.964081
  0
LINE
  8
0
 10
-434.683105
 20
198.107330
 11
-433.000000
 21
198.107330
  0
LINE
  8
0
 10
-464.000000
 20
251.420761
 11
-414.000000
 21
251.420761
  0
LINE
  8
0
 10
-464.000000
 20
292.579224
 11
-414.000000
 21
292.579224
  0
LINE
  8
0
 10
-464.000000
 20
208.360382
 11
-414.000000
 21
208.360382
  0
LINE
  8
0
 10
-470.000000
 20
206.999985
 11
-464.000000
 21
206.999985
  0
LINE
  8
0
 10
-464.000000
 20
335.639587
 11
-414.000000
 21
335.639587
  0
LINE
  8
0
 10
-470.000000
 20
337.000000
 11
-464.000000
 21
337.000000
  0
LINE
  8
0
 10
-470.000000
 20
337.000000
 11
-470.000000
 21
206.999985
  0
LINE
  8
0
 10
-414.000000
 20
335.639587
 11
-414.000000
 21
208.360367
  0
LINE
  8
0
 10
-464.000000
 20
337.000000
 11
-464.000000
 21
206.999985
  0
LINE
  8
0
 10
-412.000000
 20
298.499969
 11
-412.000000
 21
284.168732
  0
LINE
  8
0
 10
-397.000000
 20
288.049988
 11
-397.000000
 21
255.949982
  0
LINE
  8
0
 10
-411.500000
 20
288.250000
 11
-397.200012
 21
288.250000
  0
LINE
  8
0
 10
-414.000000
 20
298.500000
 11
-412.000000
 21
298.500000
  0
LINE
  8
0
 10
-414.000000
 20
245.500046
 11
-412.000000
 21
245.500046
  0
LINE
  8
0
 10
-411.500000
 20
255.750000
 11
-397.200012
 21
255.750000
  0
LINE
  8
0
 10
-397.200012
 20
288.249969
 11
-397.000000
 21
288.049957
  0
LINE
  8
0
 10
-397.199982
 20
255.749924
 11
-396.999969
 21
255.949921
  0
LINE
  8
0
 10
-409.000000
 20
281.720642
 11
-409.000000
 21
274.074036
  0
LINE
  8
0
 10
-402.000000
 20
281.271057
 11
-402.000000
 21
276.871033
  0
LINE
  8
0
 10
-414.000000
 20
259.187042
 11
-409.450012
 21
259.187042
  0
LINE
  8
0
 10
-414.000000
 20
262.580627
 11
-409.450012
 21
262.580627
  0
LINE
  8
0
 10
-414.000000
 20
268.322510
 11
-409.450012
 21
268.322510
  0
LINE
  8
0
 10
-414.000000
 20
270.670807
 11
-409.450012
 21
270.670807
  0
LINE
  8
0
 10
-414.000000
 20
273.973358
 11
-409.450012
 21
273.973358
  0
LINE
  8
0
 10
-414.000000
 20
274.174866
 11
-409.450012
 21
274.174866
  0
LINE
  8
0
 10
-414.000000
 20
284.168762
 11
-409.450012
 21
284.168762
  0
LINE
  8
0
 10
-409.000000
 20
276.571045
 11
-402.299988
 21
276.571045
  0
LINE
  8
0
 10
-409.000000
 20
281.571045
 11
-402.299988
 21
281.571045
  0
LINE
  8
0
 10
-409.000000
 20
262.428925
 11
-402.299988
 21
262.428925
  0
LINE
  8
0
 10
-409.000000
 20
267.428925
 11
-402.299988
 21
267.428925
  0
LINE
  8
0
 10
-402.000000
 20
267.128906
 11
-402.000000
 21
262.728912
  0
LINE
  8
0
 10
-402.300018
 20
267.428894
 11
-402.000000
 21
267.128906
  0
LINE
  8
0
 10
-402.300049
 20
262.428925
 11
-402.000031
 21
262.728912
  0
LINE
  8
0
 10
-401.999969
 20
276.871033
 11
-402.299957
 21
276.571014
  0
LINE
  8
0
 10
-402.300018
 20
281.571045
 11
-402.000000
 21
281.271027
  0
LINE
  8
0
 10
-409.000000
 20
269.496643
 11
-409.000000
 21
260.883820
  0
LINE
  8
0
 10
-412.000000
 20
259.187042
 11
-412.000000
 21
245.499969
  0
LINE
  8
0
 10
-412.000000
 20
273.973358
 11
-412.000000
 21
270.670776
  0
LINE
  8
0
 10
-402.050018
 20
267.178925
 11
-409.000000
 21
267.178925
  0
LINE
  8
0
 10
-402.049988
 20
262.678925
 11
-409.000000
 21
262.678925
  0
LINE
  8
0
 10
-402.049988
 20
276.821045
 11
-409.000000
 21
276.821045
  0
LINE
  8
0
 10
-402.050049
 20
281.321045
 11
-409.000000
 21
281.321045
  0
LINE
  8
0
 10
-402.299988
 20
262.428925
 11
-402.299988
 21
267.428894
  0
LINE
  8
0
 10
-402.300079
 20
276.571045
 11
-402.300079
 21
281.571045
  0
LINE
  8
0
 10
-411.599976
 20
289.899963
 11
-411.599976
 21
297.099976
  0
LINE
  8
0
 10
-409.549988
 20
293.450684
 11
-409.549988
 21
293.549286
  0
LINE
  8
0
 10
-411.599976
 20
297.099976
 11
-412.000000
 21
297.099976
  0
LINE
  8
0
 10
-411.599976
 20
289.899963
 11
-412.000000
 21
289.899963
  0
LINE
  8
0
 10
-411.600006
 20
246.899979
 11
-411.600006
 21
254.099976
  0
LINE
  8
0
 10
-409.549988
 20
250.450684
 11
-409.549988
 21
250.549271
  0
LINE
  8
0
 10
-411.600006
 20
254.099976
 11
-412.000000
 21
254.099976
  0
LINE
  8
0
 10
-411.600006
 20
246.899979
 11
-412.000000
 21
246.899979
  0
LINE
  8
0
 10
-412.041931
 20
300.355316
 11
-414.000000
 21
300.355316
  0
LINE
  8
0
 10
-412.041931
 20
314.355316
 11
-414.000000
 21
314.355316
  0
LINE
  8
0
 10
-412.041962
 20
229.644638
 11
-414.000000
 21
229.644638
  0
LINE
  8
0
 10
-412.041962
 20
243.644638
 11
-414.000000
 21
243.644638
  0
LINE
  8
0
 10
-470.000000
 20
251.399994
 11
-464.000000
 21
251.399994
  0
LINE
  8
0
 10
-470.000000
 20
292.600006
 11
-464.000000
 21
292.600006
  0
LINE
  8
0
 10
-476.000000
 20
224.649994
 11
-470.600006
 21
224.649994
  0
LINE
  8
0
 10
-476.000000
 20
214.649994
 11
-470.600006
 21
214.649994
  0
LINE
  8
0
 10
-476.000000
 20
252.949997
 11
-470.600006
 21
252.949997
  0
LINE
  8
0
 10
-476.000000
 20
242.949997
 11
-470.600006
 21
242.949997
  0
LINE
  8
0
 10
-476.000000
 20
301.049988
 11
-470.600006
 21
301.049988
  0
LINE
  8
0
 10
-476.000000
 20
291.049988
 11
-470.600006
 21
291.049988
  0
LINE
  8
0
 10
-476.000000
 20
329.350006
 11
-470.600006
 21
329.350006
  0
LINE
  8
0
 10
-476.000000
 20
319.350006
 11
-470.600006
 21
319.350006
  0
LINE
  8
0
 10
-470.600006
 20
329.600006
 11
-470.000000
 21
329.600006
  0
LINE
  8
0
 10
-470.600006
 20
319.100006
 11
-470.000000
 21
319.100006
  0
LINE
  8
0
 10
-470.600006
 20
301.299988
 11
-470.000000
 21
301.299988
  0
LINE
  8
0
 10
-470.600006
 20
290.799988
 11
-470.000000
 21
290.799988
  0
LINE
  8
0
 10
-470.600006
 20
242.699997
 11
-470.000000
 21
242.699997
  0
LINE
  8
0
 10
-470.600006
 20
253.199997
 11
-470.000000
 21
253.199997
  0
LINE
  8
0
 10
-470.600006
 20
224.899994
 11
-470.000000
 21
224.899994
  0
LINE
  8
0
 10
-470.600006
 20
214.399994
 11
-470.000000
 21
214.399994
  0
LINE
  8
0
 10
-470.600006
 20
329.600006
 11
-470.600006
 21
319.100006
  0
LINE
  8
0
 10
-476.600006
 20
328.750000
 11
-476.600006
 21
319.950012
  0
LINE
  8
0
 10
-476.000000
 20
329.350006
 11
-476.000000
 21
319.350006
  0
LINE
  8
0
 10
-476.600006
 20
252.350006
 11
-476.600006
 21
243.550003
  0
LINE
  8
0
 10
-476.000000
 20
252.949997
 11
-476.000000
 21
242.949997
  0
LINE
  8
0
 10
-470.600006
 20
253.199997
 11
-470.600006
 21
242.699997
  0
LINE
  8
0
 10
-476.600006
 20
224.050003
 11
-476.600006
 21
215.250000
  0
LINE
  8
0
 10
-470.600006
 20
224.899994
 11
-470.600006
 21
214.399994
  0
LINE
  8
0
 10
-476.000000
 20
224.649994
 11
-476.000000
 21
214.649994
  0
LINE
  8
0
 10
-476.600006
 20
300.450012
 11
-476.600006
 21
291.649994
  0
LINE
  8
0
 10
-476.000000
 20
301.049988
 11
-476.000000
 21
291.049988
  0
LINE
  8
0
 10
-470.600006
 20
301.299988
 11
-470.600006
 21
290.799988
  0
LINE
  8
0
 10
-476.000000
 20
214.649994
 11
-476.600006
 21
215.250000
  0
LINE
  8
0
 10
-476.600006
 20
224.049988
 11
-476.000000
 21
224.649994
  0
LINE
  8
0
 10
-476.000000
 20
242.949997
 11
-476.600006
 21
243.550003
  0
LINE
  8
0
 10
-476.600006
 20
252.349991
 11
-476.000000
 21
252.949997
  0
LINE
  8
0
 10
-476.000000
 20
291.049988
 11
-476.600006
 21
291.649994
  0
LINE
  8
0
 10
-476.600006
 20
300.449982
 11
-476.000000
 21
301.050018
  0
LINE
  8
0
 10
-476.000000
 20
319.350006
 11
-476.600006
 21
319.950012
  0
LINE
  8
0
 10
-476.600006
 20
328.750000
 11
-476.000000
 21
329.350006
  0
LINE
  8
0
 10
-464.000000
 20
195.778442
 11
-463.600006
 21
195.778442
  0
LINE
  8
0
 10
-464.000000
 20
348.221558
 11
-463.600006
 21
348.221558
  0
LINE
  8
0
 10
-431.000000
 20
346.433777
 11
-431.000000
 21
335.639587
  0
ARC
  8
0
 10
-456.599976
 20
196.056183
 40
0.500000
 50
90.000000
 51
180.000000
  0
ARC
  8
0
 10
-455.799988
 20
197.470398
 40
0.500000
 50
90.000000
 51
180.000000
  0
ARC
  8
0
 10
-447.600006
 20
186.656693
 40
0.500000
 50
270.000000
 51
0.000000
  0
ARC
  8
0
 10
-447.600006
 20
196.056183
 40
0.500000
 50
0.000000
 51
90.000000
  0
ARC
  8
0
 10
-456.599976
 20
186.656693
 40
0.500000
 50
180.000000
 51
270.000000
  0
ARC
  8
0
 10
-448.399994
 20
192.672134
 40
0.500000
 50
270.000000
 51
0.000000
  0
ARC
  8
0
 10
-455.799988
 20
192.672134
 40
0.500000
 50
180.000000
 51
270.000000
  0
ARC
  8
0
 10
-455.799988
 20
185.808167
 40
0.500000
 50
180.000000
 51
270.000000
  0
ARC
  8
0
 10
-448.399994
 20
185.808167
 40
0.500000
 50
270.000000
 51
0.000000
  0
ARC
  8
0
 10
-448.399994
 20
197.470398
 40
0.500000
 50
0.000000
 51
90.000000
  0
ARC
  8
0
 10
-456.599976
 20
347.943817
 40
0.500000
 50
180.000000
 51
270.000000
  0
ARC
  8
0
 10
-455.799988
 20
346.529602
 40
0.500000
 50
180.000000
 51
270.000000
  0
ARC
  8
0
 10
-447.600006
 20
357.343292
 40
0.500000
 50
0.000000
 51
90.000000
  0
ARC
  8
0
 10
-447.600006
 20
347.943817
 40
0.500000
 50
270.000000
 51
0.000000
  0
ARC
  8
0
 10
-456.599976
 20
357.343292
 40
0.500000
 50
90.003494
 51
180.000000
  0
ARC
  8
0
 10
-448.399994
 20
351.327850
 40
0.500000
 50
0.000000
 51
90.000000
  0
ARC
  8
0
 10
-455.799988
 20
351.327850
 40
0.500000
 50
90.003494
 51
180.000000
  0
ARC
  8
0
 10
-455.799988
 20
358.191833
 40
0.500000
 50
90.003494
 51
180.000000
  0
ARC
  8
0
 10
-448.399994
 20
358.191833
 40
0.500000
 50
0.000000
 51
90.000000
  0
ARC
  8
0
 10
-448.399994
 20
346.529602
 40
0.500000
 50
270.000000
 51
0.000000
  0
CIRCLE
  8
0
 10
-436.350006
 20
347.448303
 40
0.010000
  0
CIRCLE
  8
0
 10
-437.000000
 20
199.097275
 40
0.010000
  0
ARC
  8
0
 10
-433.000000
 20
349.964081
 40
1.999997
 50
13.582685
 51
90.000000
  0
ARC
  8
0
 10
-412.041962
 20
232.244629
 40
2.599991
 50
270.000000
 51
343.398682
  0
ARC
  8
0
 10
-412.041962
 20
241.044647
 40
2.599986
 50
16.601334
 51
90.000000
  0
ARC
  8
0
 10
-412.424011
 20
260.883820
 40
3.423992
 50
330.293640
 51
29.706814
  0
ARC
  8
0
 10
-418.383179
 20
265.451569
 40
9.383164
 50
342.183624
 51
17.816368
  0
ARC
  8
0
 10
-410.756805
 20
269.496643
 40
1.756806
 50
318.060059
 51
41.939201
  0
ARC
  8
0
 10
-416.443512
 20
276.723694
 40
7.443531
 50
339.975250
 51
20.024750
  0
ARC
  8
0
 10
-415.884155
 20
281.720642
 40
6.884165
 50
339.169067
 51
20.831264
  0
CIRCLE
  8
0
 10
-457.000000
 20
272.000000
 40
2.700000
  0
ARC
  8
0
 10
-413.649994
 20
293.450684
 40
4.100008
 50
299.999725
 51
0.000000
  0
ARC
  8
0
 10
-413.649994
 20
293.549286
 40
4.100006
 50
0.000000
 51
60.000046
  0
ARC
  8
0
 10
-413.650024
 20
250.450684
 40
4.100010
 50
300.000214
 51
0.000000
  0
ARC
  8
0
 10
-413.650024
 20
250.549271
 40
4.100006
 50
0.000000
 51
59.999783
  0
ARC
  8
0
 10
-426.799988
 20
307.355316
 40
17.999996
 50
343.398468
 51
16.601540
  0
ARC
  8
0
 10
-412.041931
 20
302.955322
 40
2.600006
 50
270.000000
 51
343.398346
  0
ARC
  8
0
 10
-412.041931
 20
311.755310
 40
2.599990
 50
16.601656
 51
90.000000
  0
ARC
  8
0
 10
-426.800018
 20
236.644638
 40
17.999996
 50
343.398468
 51
16.601540
  0
ARC
  8
0
 10
-452.844299
 20
200.940247
 40
0.755707
 50
180.001160
 51
194.106949
  0
ARC
  8
0
 10
-452.646759
 20
201.012665
 40
0.965187
 50
195.418213
 51
231.388000
  0
ARC
  8
0
 10
-452.100006
 20
201.811478
 40
1.931895
 50
233.502090
 51
306.497894
  0
ARC
  8
0
 10
-451.553253
 20
201.012665
 40
0.965198
 50
308.612000
 51
344.582642
  0
ARC
  8
0
 10
-451.355713
 20
200.940247
 40
0.755696
 50
345.894165
 51
0.000000
  0
ARC
  8
0
 10
-450.636230
 20
188.778015
 40
1.486220
 50
354.646210
 51
14.106438
  0
ARC
  8
0
 10
-451.024750
 20
188.635590
 40
1.898237
 50
15.417706
 51
51.388241
  0
ARC
  8
0
 10
-452.100006
 20
187.064636
 40
3.799348
 50
53.502098
 51
126.498039
  0
ARC
  8
0
 10
-453.175262
 20
188.635574
 40
1.898228
 50
128.611755
 51
164.582291
  0
ARC
  8
0
 10
-453.563782
 20
188.778015
 40
1.486220
 50
165.894135
 51
185.331299
  0
ARC
  8
0
 10
-452.099976
 20
192.179520
 40
4.532871
 50
245.111389
 51
294.902161
  0
ARC
  8
0
 10
-459.555695
 20
193.444916
 40
0.755696
 50
345.894165
 51
14.106952
  0
ARC
  8
0
 10
-459.753235
 20
193.372498
 40
0.965187
 50
15.418217
 51
51.388004
  0
ARC
  8
0
 10
-460.299988
 20
192.573685
 40
1.931895
 50
53.502094
 51
126.497902
  0
ARC
  8
0
 10
-460.846741
 20
193.372498
 40
0.965198
 50
128.612000
 51
164.582657
  0
ARC
  8
0
 10
-461.044281
 20
193.444916
 40
0.755696
 50
165.894165
 51
194.106949
  0
ARC
  8
0
 10
-460.846741
 20
193.517334
 40
0.965187
 50
195.418213
 51
231.388000
  0
ARC
  8
0
 10
-460.299988
 20
194.316147
 40
1.931895
 50
233.502090
 51
306.497894
  0
ARC
  8
0
 10
-459.753235
 20
193.517334
 40
0.965198
 50
308.612000
 51
344.582642
  0
ARC
  8
0
 10
-452.919708
 20
188.778015
 40
2.130295
 50
183.763168
 51
191.773605
  0
ARC
  8
0
 10
-452.702148
 20
188.844482
 40
2.356934
 50
192.276260
 51
225.305832
  0
ARC
  8
0
 10
-452.100006
 20
189.577576
 40
3.302730
 50
226.824921
 51
313.175262
  0
ARC
  8
0
 10
-451.497864
 20
188.844482
 40
2.356923
 50
314.694427
 51
347.724091
  0
ARC
  8
0
 10
-451.280304
 20
188.778015
 40
2.130295
 50
348.226776
 51
3.762753
  0
ARC
  8
0
 10
-459.881317
 20
193.444916
 40
0.425078
 50
345.894928
 51
14.107077
  0
ARC
  8
0
 10
-459.992432
 20
193.404175
 40
0.542917
 50
15.418950
 51
51.388477
  0
ARC
  8
0
 10
-460.299988
 20
192.954849
 40
1.086693
 50
53.501793
 51
126.498207
  0
ARC
  8
0
 10
-460.607544
 20
193.404175
 40
0.542927
 50
128.611526
 51
164.582596
  0
ARC
  8
0
 10
-460.718658
 20
193.444916
 40
0.425078
 50
165.894913
 51
194.107071
  0
ARC
  8
0
 10
-460.607544
 20
193.485657
 40
0.542917
 50
195.418945
 51
231.388474
  0
ARC
  8
0
 10
-460.299988
 20
193.934982
 40
1.086693
 50
233.501785
 51
306.498199
  0
ARC
  8
0
 10
-459.992432
 20
193.485657
 40
0.542927
 50
308.611511
 51
344.582611
  0
ARC
  8
0
 10
-451.355713
 20
343.059753
 40
0.755707
 50
0.000000
 51
14.105829
  0
ARC
  8
0
 10
-451.553253
 20
342.987335
 40
0.965183
 50
15.417344
 51
51.387440
  0
ARC
  8
0
 10
-452.100006
 20
342.188538
 40
1.931870
 50
53.501556
 51
126.497902
  0
ARC
  8
0
 10
-452.646759
 20
342.987335
 40
0.965210
 50
128.611435
 51
164.582657
  0
ARC
  8
0
 10
-452.844299
 20
343.059753
 40
0.755696
 50
165.894165
 51
180.000000
  0
ARC
  8
0
 10
-453.563782
 20
355.221985
 40
1.486227
 50
174.668701
 51
194.105865
  0
ARC
  8
0
 10
-453.175262
 20
355.364410
 40
1.898233
 50
195.417267
 51
231.387955
  0
ARC
  8
0
 10
-452.100006
 20
356.935364
 40
3.799335
 50
233.501968
 51
306.497772
  0
ARC
  8
0
 10
-451.024750
 20
355.364410
 40
1.898240
 50
308.611481
 51
344.581848
  0
ARC
  8
0
 10
-450.636230
 20
355.221985
 40
1.486228
 50
345.893005
 51
5.353775
  0
ARC
  8
0
 10
-452.099976
 20
351.820465
 40
4.532868
 50
65.098183
 51
114.888535
  0
ARC
  8
0
 10
-459.555695
 20
350.555084
 40
0.755696
 50
345.894165
 51
14.105829
  0
ARC
  8
0
 10
-459.753235
 20
350.482666
 40
0.965183
 50
15.417344
 51
51.388569
  0
ARC
  8
0
 10
-460.299988
 20
349.683868
 40
1.931895
 50
53.502094
 51
126.497902
  0
ARC
  8
0
 10
-460.846741
 20
350.482666
 40
0.965210
 50
128.611435
 51
164.582657
  0
ARC
  8
0
 10
-461.044281
 20
350.555084
 40
0.755696
 50
165.894165
 51
194.105835
  0
ARC
  8
0
 10
-460.846741
 20
350.627502
 40
0.965183
 50
195.417343
 51
231.388565
  0
ARC
  8
0
 10
-460.299988
 20
351.426300
 40
1.931895
 50
233.502090
 51
306.497894
  0
ARC
  8
0
 10
-459.753235
 20
350.627502
 40
0.965210
 50
308.611420
 51
344.582642
  0
ARC
  8
0
 10
-451.280304
 20
355.221985
 40
2.130294
 50
356.237244
 51
11.773211
  0
ARC
  8
0
 10
-451.497864
 20
355.155518
 40
2.356930
 50
12.275900
 51
45.305832
  0
ARC
  8
0
 10
-452.100006
 20
354.422424
 40
3.302730
 50
46.824921
 51
133.175079
  0
ARC
  8
0
 10
-452.702148
 20
355.155518
 40
2.356934
 50
134.694168
 51
167.724106
  0
ARC
  8
0
 10
-452.919708
 20
355.221985
 40
2.130295
 50
168.226791
 51
176.236435
  0
ARC
  8
0
 10
-459.881317
 20
350.555084
 40
0.425082
 50
345.892914
 51
14.107077
  0
ARC
  8
0
 10
-459.992432
 20
350.514343
 40
0.542917
 50
15.418950
 51
51.387470
  0
ARC
  8
0
 10
-460.299988
 20
350.065033
 40
1.086668
 50
53.500835
 51
126.498207
  0
ARC
  8
0
 10
-460.607544
 20
350.514343
 40
0.542939
 50
128.610519
 51
164.581055
  0
ARC
  8
0
 10
-460.718658
 20
350.555084
 40
0.425082
 50
165.892929
 51
194.107071
  0
ARC
  8
0
 10
-460.607544
 20
350.595825
 40
0.542917
 50
195.418945
 51
231.387466
  0
ARC
  8
0
 10
-460.299988
 20
351.045135
 40
1.086668
 50
233.500839
 51
306.498199
  0
ARC
  8
0
 10
-459.992432
 20
350.595825
 40
0.542939
 50
308.610504
 51
344.581055
  0
POLYLINE
  8
0
 66
     1
  0
VERTEX
  8
0
 10
-434.874969
 20
199.277191
  0
VERTEX
  8
0
 10
-435.585602
 20
199.183289
  0
VERTEX
  8
0
 10
-436.293457
 20
199.120285
  0
VERTEX
  8
0
 10
-437.000000
 20
199.097275
  0
VERTEX
  8
0
 10
-437.706818
 20
199.120316
  0
VERTEX
  8
0
 10
-438.415009
 20
199.183365
  0
VERTEX
  8
0
 10
-439.126007
 20
199.277344
  0
SEQEND
  0
ARC
  8
0
 10
-435.114410
 20
201.642868
 40
1.914429
 50
0.000000
 51
14.106243
  0
ARC
  8
0
 10
-435.614899
 20
201.459396
 40
2.445170
 50
15.417622
 51
51.388435
  0
ARC
  8
0
 10
-437.000000
 20
199.435760
 40
4.894115
 50
53.502205
 51
126.497795
  0
ARC
  8
0
 10
-438.385101
 20
201.459396
 40
2.445173
 50
128.611557
 51
164.582031
  0
ARC
  8
0
 10
-438.885590
 20
201.642868
 40
1.914422
 50
165.893311
 51
180.000000
  0
ARC
  8
0
 10
-438.170319
 20
200.242416
 40
2.329682
 50
179.973724
 51
192.317230
  0
ARC
  8
0
 10
-437.859772
 20
200.341583
 40
2.654418
 50
192.978546
 51
226.721817
  0
ARC
  8
0
 10
-437.001099
 20
201.433060
 40
4.039567
 50
228.468231
 51
252.765305
  0
ARC
  8
0
 10
-435.614899
 20
201.119232
 40
2.445169
 50
327.737274
 51
344.582031
  0
ARC
  8
0
 10
-435.114410
 20
200.935760
 40
1.914422
 50
345.893311
 51
14.106243
  0
ARC
  8
0
 10
-435.614899
 20
200.752289
 40
2.445170
 50
15.417622
 51
51.388435
  0
ARC
  8
0
 10
-437.000000
 20
198.728653
 40
4.894115
 50
53.502205
 51
126.497795
  0
ARC
  8
0
 10
-438.385101
 20
200.752289
 40
2.445173
 50
128.611557
 51
164.582031
  0
ARC
  8
0
 10
-438.885590
 20
200.935760
 40
1.914422
 50
165.893311
 51
194.106247
  0
ARC
  8
0
 10
-438.385101
 20
201.119232
 40
2.445170
 50
195.417618
 51
211.651093
  0
ARC
  8
0
 10
-435.263458
 20
200.935760
 40
1.763458
 50
0.000000
 51
14.105742
  0
ARC
  8
0
 10
-435.724396
 20
200.766800
 40
2.252276
 50
15.416729
 51
51.386627
  0
ARC
  8
0
 10
-437.000000
 20
198.903198
 40
4.507553
 50
53.500675
 51
126.499321
  0
ARC
  8
0
 10
-438.275604
 20
200.766800
 40
2.252257
 50
128.613373
 51
164.583267
  0
ARC
  8
0
 10
-438.736542
 20
200.935760
 40
1.763469
 50
165.894257
 51
180.000000
  0
ARC
  8
0
 10
-457.312683
 20
222.502502
 40
1.712665
 50
345.892456
 51
14.107556
  0
ARC
  8
0
 10
-457.760559
 20
222.338303
 40
2.187629
 50
15.419332
 51
51.390373
  0
ARC
  8
0
 10
-459.000000
 20
220.527344
 40
4.379158
 50
53.504395
 51
126.495605
  0
ARC
  8
0
 10
-460.239441
 20
222.338318
 40
2.187630
 50
128.609879
 51
164.581055
  0
ARC
  8
0
 10
-460.687317
 20
222.502502
 40
1.712665
 50
165.892441
 51
194.107559
  0
ARC
  8
0
 10
-460.239441
 20
222.666702
 40
2.187629
 50
195.419327
 51
231.390366
  0
ARC
  8
0
 10
-459.000000
 20
224.477661
 40
4.379158
 50
233.504395
 51
306.495605
  0
ARC
  8
0
 10
-457.760559
 20
222.666687
 40
2.187630
 50
308.609863
 51
344.581055
  0
ARC
  8
0
 10
-457.312714
 20
321.497498
 40
1.712695
 50
345.892700
 51
14.107307
  0
ARC
  8
0
 10
-457.760559
 20
321.333313
 40
2.187625
 50
15.418946
 51
51.390121
  0
ARC
  8
0
 10
-459.000000
 20
319.522369
 40
4.379134
 50
53.504158
 51
126.495842
  0
ARC
  8
0
 10
-460.239441
 20
321.333313
 40
2.187630
 50
128.609879
 51
164.581055
  0
ARC
  8
0
 10
-460.687286
 20
321.497498
 40
1.712695
 50
165.892685
 51
194.107315
  0
ARC
  8
0
 10
-460.239441
 20
321.661682
 40
2.187625
 50
195.418945
 51
231.390121
  0
ARC
  8
0
 10
-459.000000
 20
323.472626
 40
4.379134
 50
233.504150
 51
306.495850
  0
ARC
  8
0
 10
-457.760559
 20
321.661682
 40
2.187630
 50
308.609863
 51
344.581055
  0
ARC
  8
0
 10
-409.450012
 20
275.646667
 40
1.673065
 50
270.000000
 51
281.890594
  0
ARC
  8
0
 10
-409.138336
 20
274.204834
 40
0.198119
 50
279.603058
 51
311.577820
  0
ARC
  8
0
 10
-409.025696
 20
274.074097
 40
0.025676
 50
317.167450
 51
42.832565
  0
ARC
  8
0
 10
-409.138336
 20
273.943359
 40
0.198105
 50
48.422169
 51
80.396935
  0
ARC
  8
0
 10
-409.450012
 20
272.501526
 40
1.673076
 50
78.109406
 51
90.000000
  0
ARC
  8
0
 10
-437.001099
 20
201.433060
 40
4.039561
 50
287.195740
 51
311.636810
  0
ARC
  8
0
 10
-436.140411
 20
200.343155
 40
2.654412
 50
313.383026
 51
347.126129
  0
ARC
  8
0
 10
-435.829681
 20
200.244553
 40
2.329668
 50
347.787506
 51
359.973724
  0
POINT
  8
0
 10
-425.500000
 20
39.000000
  0
POINT
  8
0
 10
-470.000000
 20
39.000000
  0
LINE
  8
0
 10
-464.000000
 20
80.365517
 11
-462.500000
 21
80.365517
  0
LINE
  8
0
 10
-464.000000
 20
107.589127
 11
-461.500000
 21
107.589127
  0
LINE
  8
0
 10
-462.500000
 20
106.528481
 11
-461.500000
 21
106.528481
  0
LINE
  8
0
 10
-462.500000
 20
106.528481
 11
-462.500000
 21
80.365517
  0
LINE
  8
0
 10
-448.399994
 20
116.852417
 11
-455.799988
 21
116.852417
  0
LINE
  8
0
 10
-447.600006
 20
118.832321
 11
-456.599976
 21
118.832321
  0
LINE
  8
0
 10
-447.600006
 20
124.282066
 11
-456.599976
 21
124.282066
  0
LINE
  8
0
 10
-448.399994
 20
125.130600
 11
-455.799988
 21
125.130600
  0
LINE
  8
0
 10
-448.399994
 20
112.468361
 11
-455.799988
 21
112.468361
  0
LINE
  8
0
 10
-456.299988
 20
112.968361
 11
-456.299988
 21
117.766624
  0
LINE
  8
0
 10
-457.099976
 20
114.382576
 11
-457.099976
 21
123.782066
  0
LINE
  8
0
 10
-447.899994
 20
112.968361
 11
-447.899994
 21
117.766624
  0
LINE
  8
0
 10
-447.100006
 20
114.382576
 11
-447.100006
 21
123.782066
  0
LINE
  8
0
 10
-448.399994
 20
118.266624
 11
-455.799988
 21
118.266624
  0
LINE
  8
0
 10
-457.600006
 20
113.882576
 11
-456.299988
 21
113.882576
  0
LINE
  8
0
 10
-447.899994
 20
124.282066
 11
-447.899994
 21
124.630600
  0
LINE
  8
0
 10
-456.299988
 20
124.282066
 11
-456.299988
 21
124.630600
  0
LINE
  8
0
 10
-447.900024
 20
113.882576
 11
-446.599976
 21
113.882576
  0
LINE
  8
0
 10
-463.600006
 20
114.165413
 11
-457.600006
 21
114.165413
  0
LINE
  8
0
 10
-446.599976
 20
113.882576
 11
-446.599976
 21
119.822273
  0
LINE
  8
0
 10
-457.600006
 20
113.882576
 11
-457.600006
 21
119.822273
  0
LINE
  8
0
 10
-455.600006
 20
106.935669
 11
-455.600006
 21
112.468361
  0
LINE
  8
0
 10
-448.600006
 20
106.935669
 11
-448.600006
 21
112.468361
  0
LINE
  8
0
 10
-446.599976
 20
114.165413
 11
-441.599976
 21
114.165413
  0
LINE
  8
0
 10
-453.600037
 20
109.498512
 11
-453.600037
 21
106.935669
  0
LINE
  8
0
 10
-450.599976
 20
109.498512
 11
-450.599976
 21
106.935669
  0
LINE
  8
0
 10
-441.599976
 20
108.720695
 11
-441.599976
 21
119.822273
  0
LINE
  8
0
 10
-463.600006
 20
119.822273
 11
-457.600006
 21
119.822273
  0
LINE
  8
0
 10
-457.600006
 20
119.539429
 11
-457.099976
 21
119.539429
  0
LINE
  8
0
 10
-447.100006
 20
119.539429
 11
-446.599976
 21
119.539429
  0
LINE
  8
0
 10
-446.599976
 20
119.822273
 11
-441.599976
 21
119.822273
  0
LINE
  8
0
 10
-463.600006
 20
108.720695
 11
-455.599976
 21
108.720695
  0
LINE
  8
0
 10
-448.599976
 20
108.720695
 11
-441.599976
 21
108.720695
  0
LINE
  8
0
 10
-439.600006
 20
112.372520
 11
-439.600006
 21
117.372520
  0
LINE
  8
0
 10
-441.599976
 20
112.372520
 11
-439.600006
 21
112.372520
  0
LINE
  8
0
 10
-439.600006
 20
112.872520
 11
-393.100006
 21
112.872520
  0
LINE
  8
0
 10
-439.600006
 20
116.872520
 11
-393.100006
 21
116.872520
  0
LINE
  8
0
 10
-441.599976
 20
117.372520
 11
-439.600006
 21
117.372520
  0
LINE
  8
0
 10
-463.600006
 20
108.720695
 11
-463.600006
 21
119.822273
  0
LINE
  8
0
 10
-447.500000
 20
107.235481
 11
-447.500000
 21
108.720505
  0
LINE
  8
0
 10
-393.100006
 20
116.872520
 11
-393.100006
 21
112.872520
  0
LINE
  8
0
 10
-393.100006
 20
114.572517
 11
-390.100006
 21
114.572517
  0
LINE
  8
0
 10
-393.100006
 20
115.172523
 11
-390.100006
 21
115.172523
  0
LINE
  8
0
 10
-393.100006
 20
113.572517
 11
-390.100006
 21
113.572517
  0
LINE
  8
0
 10
-393.100006
 20
116.172523
 11
-390.100006
 21
116.172523
  0
LINE
  8
0
 10
-390.100006
 20
116.172523
 11
-390.100006
 21
115.172523
  0
LINE
  8
0
 10
-390.100006
 20
114.572517
 11
-390.100006
 21
113.572517
  0
LINE
  8
0
 10
-390.100006
 20
116.047523
 11
-388.600006
 21
116.047523
  0
LINE
  8
0
 10
-390.100006
 20
115.922523
 11
-388.600006
 21
115.922523
  0
LINE
  8
0
 10
-390.100006
 20
115.797523
 11
-388.600006
 21
115.797523
  0
LINE
  8
0
 10
-390.100006
 20
115.672523
 11
-388.600006
 21
115.672523
  0
LINE
  8
0
 10
-390.100006
 20
115.547523
 11
-388.600006
 21
115.547523
  0
LINE
  8
0
 10
-390.100006
 20
115.422523
 11
-388.600006
 21
115.422523
  0
LINE
  8
0
 10
-390.100006
 20
115.297523
 11
-388.600006
 21
115.297523
  0
LINE
  8
0
 10
-390.100006
 20
114.447517
 11
-388.600006
 21
114.447517
  0
LINE
  8
0
 10
-390.100006
 20
114.322517
 11
-388.600006
 21
114.322517
  0
LINE
  8
0
 10
-390.100006
 20
114.197517
 11
-388.600006
 21
114.197517
  0
LINE
  8
0
 10
-390.100006
 20
114.072517
 11
-388.600006
 21
114.072517
  0
LINE
  8
0
 10
-390.100006
 20
113.947517
 11
-388.600006
 21
113.947517
  0
LINE
  8
0
 10
-390.100006
 20
113.822517
 11
-388.600006
 21
113.822517
  0
LINE
  8
0
 10
-390.100006
 20
113.697517
 11
-388.600006
 21
113.697517
  0
LINE
  8
0
 10
-461.500000
 20
106.528481
 11
-461.500000
 21
107.589127
  0
LINE
  8
0
 10
-460.500000
 20
107.235481
 11
-460.500000
 21
108.296127
  0
LINE
  8
0
 10
-460.500000
 20
108.296127
 11
-461.500000
 21
107.589127
  0
LINE
  8
0
 10
-460.500000
 20
107.235474
 11
-461.500000
 21
106.528473
  0
LINE
  8
0
 10
-460.500000
 20
108.296127
 11
-455.600006
 21
108.296127
  0
LINE
  8
0
 10
-460.500000
 20
107.235481
 11
-455.600006
 21
107.235481
  0
LINE
  8
0
 10
-453.600037
 20
108.296127
 11
-450.599976
 21
108.296127
  0
LINE
  8
0
 10
-453.600037
 20
107.235481
 11
-450.599976
 21
107.235481
  0
LINE
  8
0
 10
-448.600006
 20
108.296127
 11
-447.500000
 21
108.296127
  0
LINE
  8
0
 10
-448.600006
 20
107.235481
 11
-447.500000
 21
107.235481
  0
LINE
  8
0
 10
-448.600006
 20
106.935669
 11
-450.599976
 21
106.935669
  0
LINE
  8
0
 10
-453.600037
 20
106.935669
 11
-455.600006
 21
106.935669
  0
LINE
  8
0
 10
-460.520966
 20
97.860001
 11
-461.500000
 21
97.860001
  0
LINE
  8
0
 10
-460.520966
 20
90.860001
 11
-461.500000
 21
90.860001
  0
LINE
  8
0
 10
-461.500000
 20
98.160004
 11
-462.500000
 21
98.160004
  0
LINE
  8
0
 10
-461.500000
 20
90.559998
 11
-462.500000
 21
90.559998
  0
LINE
  8
0
 10
-461.500000
 20
98.160004
 11
-461.500000
 21
84.199997
  0
LINE
  8
0
 10
-462.500000
 20
92.761253
 11
-461.500000
 21
93.029205
  0
LINE
  8
0
 10
-460.520966
 20
84.500000
 11
-461.500000
 21
84.500000
  0
LINE
  8
0
 10
-461.500000
 20
84.199997
 11
-462.500000
 21
84.199997
  0
LINE
  8
0
 10
-462.500000
 20
86.401253
 11
-461.500000
 21
86.669205
  0
LINE
  8
0
 10
-460.500000
 20
78.597977
 11
-460.500000
 21
78.000000
  0
LINE
  8
0
 10
-445.000000
 20
97.686218
 11
-433.000000
 21
97.686218
  0
LINE
  8
0
 10
-445.000000
 20
84.651901
 11
-433.000000
 21
84.651901
  0
LINE
  8
0
 10
-449.661224
 20
34.460876
 11
-431.000000
 21
34.460876
  0
LINE
  8
0
 10
-449.661163
 20
2.526932
 11
-431.000000
 21
2.526932
  0
LINE
  8
0
 10
-445.000000
 20
-38.501480
 11
-433.000000
 21
-38.501480
  0
LINE
  8
0
 10
-460.500000
 20
43.949738
 11
-451.992065
 21
43.949738
  0
LINE
  8
0
 10
-460.500000
 20
34.050247
 11
-451.999969
 21
34.050247
  0
LINE
  8
0
 10
-460.500000
 20
2.937561
 11
-451.995697
 21
2.937561
  0
LINE
  8
0
 10
-460.500000
 20
78.597977
 11
-454.999817
 21
78.597977
  0
LINE
  8
0
 10
-454.999817
 20
78.597977
 11
-454.999817
 21
78.000000
  0
LINE
  8
0
 10
-448.309204
 20
81.426498
 11
-447.000000
 21
81.426498
  0
LINE
  8
0
 10
-450.618561
 20
78.598015
 11
-448.309174
 21
81.426399
  0
LINE
  8
0
 10
-448.309082
 20
75.769547
 11
-449.000000
 21
76.615730
  0
LINE
  8
0
 10
-448.309204
 20
77.890968
 11
-447.000000
 21
77.890968
  0
LINE
  8
0
 10
-449.175171
 20
76.830276
 11
-448.309204
 21
77.890884
  0
LINE
  8
0
 10
-447.167908
 20
75.769547
 11
-448.309113
 21
75.769547
  0
LINE
  8
0
 10
-448.309204
 20
81.426407
 11
-448.309204
 21
77.890869
  0
LINE
  8
0
 10
-433.000000
 20
105.821594
 11
-448.500000
 21
105.821594
  0
LINE
  8
0
 10
-433.000000
 20
104.760933
 11
-447.000000
 21
104.760933
  0
LINE
  8
0
 10
-448.500000
 20
102.286057
 11
-454.700012
 21
102.286057
  0
LINE
  8
0
 10
-447.000000
 20
101.225395
 11
-456.200012
 21
101.225395
  0
LINE
  8
0
 10
-448.500000
 20
105.821594
 11
-454.700012
 21
105.821594
  0
LINE
  8
0
 10
-447.000000
 20
104.760933
 11
-447.000000
 21
101.225395
  0
LINE
  8
0
 10
-454.700012
 20
105.821594
 11
-456.200012
 21
105.821594
  0
LINE
  8
0
 10
-448.500000
 20
-34.892654
 11
-448.500000
 21
-31.357132
  0
LINE
  8
0
 10
-454.700012
 20
-34.892654
 11
-454.700012
 21
-31.357132
  0
LINE
  8
0
 10
-456.200012
 20
-34.892654
 11
-456.200012
 21
-23.225388
  0
LINE
  8
0
 10
-447.000000
 20
-34.892654
 11
-448.500000
 21
-34.892654
  0
LINE
  8
0
 10
-454.699982
 20
-34.892654
 11
-456.199982
 21
-34.892654
  0
LINE
  8
0
 10
-447.000000
 20
-23.225403
 11
-456.199982
 21
-23.225403
  0
LINE
  8
0
 10
-447.000000
 20
-30.296478
 11
-456.199982
 21
-30.296478
  0
LINE
  8
0
 10
-448.500000
 20
-31.357132
 11
-454.699982
 21
-31.357132
  0
LINE
  8
0
 10
-448.500000
 20
-34.892654
 11
-454.699982
 21
-34.892654
  0
LINE
  8
0
 10
-447.000000
 20
101.225395
 11
-447.000000
 21
-30.296478
  0
LINE
  8
0
 10
-447.000000
 20
-30.296478
 11
-447.000000
 21
-34.892654
  0
LINE
  8
0
 10
-447.000000
 20
-34.892654
 11
-447.000000
 21
-36.501480
  0
LINE
  8
0
 10
-440.799988
 20
110.065170
 11
-440.799988
 21
109.356201
  0
LINE
  8
0
 10
-433.200012
 20
110.065178
 11
-433.200012
 21
109.356201
  0
LINE
  8
0
 10
-440.500000
 20
110.757370
 11
-440.500000
 21
110.063393
  0
LINE
  8
0
 10
-433.500000
 20
110.757370
 11
-433.500000
 21
110.063393
  0
LINE
  8
0
 10
-437.000000
 20
112.872520
 11
-437.000000
 21
110.219643
  0
LINE
  8
0
 10
-456.200012
 20
107.235481
 11
-456.200012
 21
101.225395
  0
LINE
  8
0
 10
-454.700012
 20
106.935669
 11
-454.700012
 21
102.286057
  0
LINE
  8
0
 10
-448.500000
 20
107.235481
 11
-448.500000
 21
102.286057
  0
LINE
  8
0
 10
-431.000000
 20
116.964088
 11
-431.000000
 21
116.872520
  0
LINE
  8
0
 10
-433.000000
 20
112.892670
 11
-433.000000
 21
104.760933
  0
LINE
  8
0
 10
-460.500000
 20
60.000000
 11
-460.500000
 21
2.937561
  0
LINE
  8
0
 10
-445.000000
 20
-25.467484
 11
-433.000000
 21
-25.467484
  0
LINE
  8
0
 10
-453.600006
 20
108.720695
 11
-450.599976
 21
108.720695
  0
LINE
  8
0
 10
-464.000000
 20
174.047699
 11
-414.000000
 21
174.047699
  0
LINE
  8
0
 10
-459.202118
 20
92.047691
 11
-447.000000
 21
92.047691
  0
LINE
  8
0
 10
-414.000000
 20
164.545929
 11
-409.450012
 21
164.545929
  0
LINE
  8
0
 10
-414.000000
 20
159.875076
 11
-409.450012
 21
159.875076
  0
LINE
  8
0
 10
-414.000000
 20
154.600708
 11
-409.450012
 21
154.600708
  0
LINE
  8
0
 10
-412.000000
 20
96.352531
 11
-397.300018
 21
96.352531
  0
LINE
  8
0
 10
-408.921387
 20
128.852539
 11
-397.299988
 21
128.852539
  0
LINE
  8
0
 10
-414.000000
 20
92.602531
 11
-412.000000
 21
92.602531
  0
LINE
  8
0
 10
-414.000000
 20
153.997223
 11
-409.450012
 21
153.997223
  0
LINE
  8
0
 10
-470.000000
 20
56.000000
 11
-464.000000
 21
56.000000
  0
LINE
  8
0
 10
-470.000000
 20
129.600006
 11
-464.000000
 21
129.600006
  0
LINE
  8
0
 10
-470.000000
 20
174.000000
 11
-470.000000
 21
-30.000000
  0
LINE
  8
0
 10
-414.000000
 20
174.047699
 11
-414.000000
 21
116.872520
  0
LINE
  8
0
 10
-412.000000
 20
123.939308
 11
-412.000000
 21
116.872520
  0
LINE
  8
0
 10
-397.000000
 20
128.552551
 11
-397.000000
 21
116.872520
  0
LINE
  8
0
 10
-409.000000
 20
162.674805
 11
-409.000000
 21
154.298981
  0
LINE
  8
0
 10
-402.000000
 20
161.471588
 11
-402.000000
 21
157.071594
  0
LINE
  8
0
 10
-409.000000
 20
161.771576
 11
-402.300018
 21
161.771576
  0
LINE
  8
0
 10
-409.000000
 20
156.771576
 11
-402.300018
 21
156.771576
  0
LINE
  8
0
 10
-401.999969
 20
161.471619
 11
-402.299988
 21
161.771606
  0
LINE
  8
0
 10
-402.000000
 20
157.071625
 11
-402.300018
 21
156.771622
  0
LINE
  8
0
 10
-397.299988
 20
96.352531
 11
-397.000000
 21
96.652534
  0
LINE
  8
0
 10
-396.999939
 20
128.552551
 11
-397.299957
 21
128.852570
  0
LINE
  8
0
 10
-409.000000
 20
157.021576
 11
-402.050049
 21
157.021576
  0
LINE
  8
0
 10
-409.000000
 20
161.521576
 11
-402.049988
 21
161.521576
  0
LINE
  8
0
 10
-402.300110
 20
156.771576
 11
-402.300110
 21
161.771576
  0
LINE
  8
0
 10
-470.000000
 20
174.000000
 11
-464.000000
 21
174.000000
  0
LINE
  8
0
 10
-429.518524
 20
124.327408
 11
-429.518524
 21
124.044571
  0
LINE
  8
0
 10
-422.318542
 20
124.327408
 11
-422.318542
 21
124.044571
  0
LINE
  8
0
 10
-420.918701
 20
126.126961
 11
-421.001343
 21
116.687523
  0
LINE
  8
0
 10
-439.225769
 20
129.572021
 11
-425.949890
 21
129.630890
  0
LINE
  8
0
 10
-439.225769
 20
127.804337
 11
-425.949890
 21
127.863205
  0
LINE
  8
0
 10
-420.918640
 20
124.359207
 11
-420.984192
 21
116.872520
  0
LINE
  8
0
 10
-411.600006
 20
109.002541
 11
-411.600006
 21
112.872520
  0
LINE
  8
0
 10
-409.549988
 20
112.553246
 11
-409.549988
 21
112.651833
  0
LINE
  8
0
 10
-411.600006
 20
109.002541
 11
-412.000000
 21
109.002541
  0
LINE
  8
0
 10
-464.000000
 20
130.939301
 11
-414.000000
 21
130.939301
  0
LINE
  8
0
 10
-412.041962
 20
123.939308
 11
-414.000000
 21
123.939308
  0
LINE
  8
0
 10
-412.041962
 20
137.939301
 11
-414.000000
 21
137.939301
  0
LINE
  8
0
 10
-449.000000
 20
60.326412
 11
-449.000000
 21
77.673584
  0
LINE
  8
0
 10
-449.700012
 20
60.000000
 11
-449.700012
 21
78.000000
  0
LINE
  8
0
 10
-449.700012
 20
60.000000
 11
-461.000000
 21
60.000000
  0
LINE
  8
0
 10
-449.700012
 20
78.000000
 11
-461.000000
 21
78.000000
  0
LINE
  8
0
 10
-449.000031
 20
60.326408
 11
-449.700012
 21
59.999992
  0
LINE
  8
0
 10
-449.000000
 20
77.673599
 11
-449.700012
 21
78.000015
  0
LINE
  8
0
 10
-449.700012
 20
62.000000
 11
-457.020294
 21
62.000000
  0
LINE
  8
0
 10
-449.700012
 20
64.000000
 11
-455.865601
 21
64.000000
  0
LINE
  8
0
 10
-449.700012
 20
66.000000
 11
-454.710876
 21
66.000000
  0
LINE
  8
0
 10
-449.700012
 20
68.000000
 11
-453.556213
 21
68.000000
  0
LINE
  8
0
 10
-449.700012
 20
70.000000
 11
-452.401489
 21
70.000000
  0
LINE
  8
0
 10
-449.700012
 20
72.000000
 11
-451.246796
 21
72.000000
  0
LINE
  8
0
 10
-449.700012
 20
74.000000
 11
-450.092102
 21
74.000000
  0
LINE
  8
0
 10
-470.600006
 20
167.350006
 11
-470.600006
 21
156.850006
  0
LINE
  8
0
 10
-476.600006
 20
166.500000
 11
-476.600006
 21
157.700012
  0
LINE
  8
0
 10
-476.000000
 20
167.100006
 11
-476.000000
 21
157.100006
  0
LINE
  8
0
 10
-476.000000
 20
111.200005
 11
-470.600006
 21
111.200005
  0
LINE
  8
0
 10
-476.000000
 20
101.200005
 11
-470.600006
 21
101.200005
  0
LINE
  8
0
 10
-476.000000
 20
138.800003
 11
-470.600006
 21
138.800003
  0
LINE
  8
0
 10
-476.000000
 20
128.800003
 11
-470.600006
 21
128.800003
  0
LINE
  8
0
 10
-476.000000
 20
167.100006
 11
-470.600006
 21
167.100006
  0
LINE
  8
0
 10
-476.000000
 20
157.100006
 11
-470.600006
 21
157.100006
  0
LINE
  8
0
 10
-470.600006
 20
156.850006
 11
-470.000000
 21
156.850006
  0
LINE
  8
0
 10
-470.600006
 20
167.350006
 11
-470.000000
 21
167.350006
  0
LINE
  8
0
 10
-470.600006
 20
139.050003
 11
-470.000000
 21
139.050003
  0
LINE
  8
0
 10
-470.600006
 20
128.550003
 11
-470.000000
 21
128.550003
  0
LINE
  8
0
 10
-470.600006
 20
100.950005
 11
-470.000000
 21
100.950005
  0
LINE
  8
0
 10
-470.600006
 20
111.450005
 11
-470.000000
 21
111.450005
  0
LINE
  8
0
 10
-476.000000
 20
111.200005
 11
-476.000000
 21
101.200005
  0
LINE
  8
0
 10
-476.600006
 20
110.600006
 11
-476.600006
 21
101.800003
  0
LINE
  8
0
 10
-470.600006
 20
111.450005
 11
-470.600006
 21
100.950005
  0
LINE
  8
0
 10
-476.600006
 20
138.200012
 11
-476.600006
 21
129.399994
  0
LINE
  8
0
 10
-476.000000
 20
138.800003
 11
-476.000000
 21
128.800003
  0
LINE
  8
0
 10
-470.600006
 20
139.050003
 11
-470.600006
 21
128.550003
  0
LINE
  8
0
 10
-476.000000
 20
101.200005
 11
-476.600006
 21
101.800003
  0
LINE
  8
0
 10
-476.600006
 20
110.600014
 11
-476.000000
 21
111.200012
  0
LINE
  8
0
 10
-476.000000
 20
128.800003
 11
-476.600006
 21
129.399994
  0
LINE
  8
0
 10
-476.600006
 20
138.200012
 11
-476.000000
 21
138.800018
  0
LINE
  8
0
 10
-476.000000
 20
157.100006
 11
-476.600006
 21
157.700012
  0
LINE
  8
0
 10
-476.600006
 20
166.500015
 11
-476.000000
 21
167.100006
  0
LINE
  8
0
 10
-461.000000
 20
79.750000
 11
-461.000000
 21
58.250000
  0
LINE
  8
0
 10
-461.000000
 20
79.750000
 11
-464.000000
 21
79.750000
  0
LINE
  8
0
 10
-461.000000
 20
58.250000
 11
-464.000000
 21
58.250000
  0
LINE
  8
0
 10
-464.000000
 20
67.267944
 11
-461.000000
 21
69.000000
  0
LINE
  8
0
 10
-464.000000
 20
68.653595
 11
-461.000000
 21
70.385643
  0
LINE
  8
0
 10
-450.130249
 20
78.000000
 11
-450.618530
 21
78.598022
  0
LINE
  8
0
 10
-431.000000
 20
92.047691
 11
-414.000000
 21
92.047691
  0
LINE
  8
0
 10
-464.000000
 20
174.047699
 11
-464.000000
 21
56.000000
  0
LINE
  8
0
 10
-441.599976
 20
118.964088
 11
-433.000000
 21
118.964088
  0
LINE
  8
0
 10
-465.500000
 20
56.000000
 11
-465.500000
 21
4.500004
  0
LINE
  8
0
 10
-425.500000
 20
58.150002
 11
-425.500000
 21
19.850000
  0
LINE
  8
0
 10
-491.500000
 20
115.000000
 11
-491.500000
 21
-37.000000
  0
LINE
  8
0
 10
-488.954529
 20
-33.000000
 11
-473.000000
 21
-33.000000
  0
LINE
  8
0
 10
-484.500000
 20
-3.000000
 11
-470.000000
 21
-3.000000
  0
LINE
  8
0
 10
-469.600006
 20
4.000000
 11
-466.000000
 21
4.000000
  0
LINE
  8
0
 10
-465.500000
 20
19.000000
 11
-461.549988
 21
19.000000
  0
LINE
  8
0
 10
-484.500000
 20
81.000000
 11
-470.000000
 21
81.000000
  0
LINE
  8
0
 10
-488.954529
 20
111.000000
 11
-476.200012
 21
111.000000
  0
LINE
  8
0
 10
-465.999969
 20
3.999977
 11
-465.499969
 21
4.499977
  0
LINE
  8
0
 10
-461.500000
 20
58.250000
 11
-461.500000
 21
19.050003
  0
LINE
  8
0
 10
-461.500000
 20
19.049999
 11
-460.500000
 21
19.049999
  0
LINE
  8
0
 10
-461.000000
 20
58.950001
 11
-460.500000
 21
58.950001
  0
LINE
  8
0
 10
-426.299896
 20
19.049896
 11
-425.499908
 21
19.849901
  0
LINE
  8
0
 10
-426.299957
 20
58.950035
 11
-425.499939
 21
58.150040
  0
LINE
  8
0
 10
-426.299988
 20
58.950001
 11
-426.299988
 21
19.049995
  0
LINE
  8
0
 10
-461.549988
 20
18.999994
 11
-461.500000
 21
19.049997
  0
LINE
  8
0
 10
-491.500000
 20
-37.000015
 11
-488.954559
 21
-33.000023
  0
LINE
  8
0
 10
-491.500000
 20
115.000000
 11
-488.954559
 21
111.000023
  0
LINE
  8
0
 10
-431.000000
 20
58.739929
 11
-426.299988
 21
58.739929
  0
LINE
  8
0
 10
-431.000000
 20
41.887482
 11
-426.299988
 21
41.887482
  0
LINE
  8
0
 10
-431.000000
 20
36.112518
 11
-426.299988
 21
36.112518
  0
LINE
  8
0
 10
-431.000000
 20
19.260071
 11
-426.299988
 21
19.260071
  0
LINE
  8
0
 10
-426.300110
 20
19.260244
 11
-425.500122
 21
20.015566
  0
LINE
  8
0
 10
-426.299988
 20
36.112534
 11
-425.500000
 21
36.488567
  0
LINE
  8
0
 10
-431.000000
 20
44.203545
 11
-426.299988
 21
41.887566
  0
LINE
  8
0
 10
-426.299957
 20
58.739922
 11
-431.000000
 21
56.423920
  0
LINE
  8
0
 10
-431.000000
 20
21.576084
 11
-426.299957
 21
19.260082
  0
LINE
  8
0
 10
-426.299957
 20
36.112537
 11
-431.000000
 21
33.796539
  0
LINE
  8
0
 10
-426.300049
 20
41.887367
 11
-425.500061
 21
41.511333
  0
LINE
  8
0
 10
-425.499969
 20
57.984577
 11
-426.299988
 21
58.739891
  0
LINE
  8
0
 10
-484.500000
 20
103.008331
 11
-484.500000
 21
81.000000
  0
LINE
  8
0
 10
-484.500000
 20
61.208668
 11
-484.500000
 21
16.791332
  0
LINE
  8
0
 10
-484.500000
 20
-3.000000
 11
-484.500000
 21
-25.008331
  0
LINE
  8
0
 10
-431.000000
 20
58.950001
 11
-426.299988
 21
58.950001
  0
LINE
  8
0
 10
-431.000000
 20
19.049999
 11
-426.299988
 21
19.049999
  0
LINE
  8
0
 10
-414.000000
 20
112.872520
 11
-414.000000
 21
92.047699
  0
LINE
  8
0
 10
-412.000000
 20
112.872520
 11
-412.000000
 21
92.602539
  0
LINE
  8
0
 10
-397.000000
 20
112.872520
 11
-397.000000
 21
96.652542
  0
LINE
  8
0
 10
-431.000000
 20
112.872520
 11
-431.000000
 21
-36.501480
  0
CIRCLE
  8
0
 10
-451.081482
 20
104.095207
 40
0.010000
  0
ARC
  8
0
 10
-455.799988
 20
112.968361
 40
0.500000
 50
180.000000
 51
270.000000
  0
ARC
  8
0
 10
-447.600006
 20
123.782066
 40
0.500000
 50
0.000000
 51
90.000000
  0
ARC
  8
0
 10
-447.600006
 20
114.382576
 40
0.500000
 50
270.000000
 51
0.000000
  0
ARC
  8
0
 10
-456.599976
 20
123.782066
 40
0.500000
 50
90.003494
 51
180.000000
  0
ARC
  8
0
 10
-448.399994
 20
117.766624
 40
0.500000
 50
0.000000
 51
90.000000
  0
ARC
  8
0
 10
-455.799988
 20
117.766624
 40
0.500000
 50
90.003494
 51
180.000000
  0
ARC
  8
0
 10
-455.799988
 20
124.630600
 40
0.500000
 50
90.003494
 51
180.000000
  0
ARC
  8
0
 10
-448.399994
 20
124.630600
 40
0.500000
 50
0.000000
 51
90.000000
  0
ARC
  8
0
 10
-448.399994
 20
112.968361
 40
0.500000
 50
270.000000
 51
0.000000
  0
ARC
  8
0
 10
-460.520966
 20
96.559998
 40
1.300010
 50
16.601463
 51
90.000000
  0
ARC
  8
0
 10
-467.899994
 20
94.360016
 40
9.000021
 50
343.398315
 51
16.601418
  0
ARC
  8
0
 10
-460.520966
 20
92.160019
 40
1.300003
 50
270.000000
 51
343.398529
  0
ARC
  8
0
 10
-460.520966
 20
90.199997
 40
1.300010
 50
16.601463
 51
48.925293
  0
ARC
  8
0
 10
-467.899994
 20
88.000015
 40
9.000021
 50
343.398315
 51
16.601418
  0
ARC
  8
0
 10
-460.520966
 20
85.800018
 40
1.300003
 50
270.000000
 51
343.398529
  0
ARC
  8
0
 10
-433.000000
 20
-36.501480
 40
2.000000
 50
270.000000
 51
0.000000
  0
ARC
  8
0
 10
-445.000000
 20
-36.501480
 40
2.000000
 50
180.000000
 51
270.000000
  0
ARC
  8
0
 10
-433.000000
 20
95.686218
 40
2.000000
 50
0.000000
 51
90.000000
  0
ARC
  8
0
 10
-445.000000
 20
95.686218
 40
2.000000
 50
90.000000
 51
180.000000
  0
CIRCLE
  8
0
 10
-437.000000
 20
111.902725
 40
0.010000
  0
CIRCLE
  8
0
 10
-437.000000
 20
-32.842056
 40
0.010000
  0
ARC
  8
0
 10
-456.599976
 20
114.382576
 40
0.500000
 50
180.000000
 51
270.000000
  0
ARC
  8
0
 10
-415.045837
 20
162.210510
 40
6.063622
 50
337.346649
 51
22.653360
  0
ARC
  8
0
 10
-409.326172
 20
154.298981
 40
0.326181
 50
247.686935
 51
112.315109
  0
ARC
  8
0
 10
-416.952515
 20
157.237915
 40
7.952504
 50
340.632996
 51
19.366821
  0
CIRCLE
  8
0
 10
-452.081482
 20
104.095207
 40
0.010000
  0
CIRCLE
  8
0
 10
-425.918518
 20
122.595215
 40
0.010000
  0
ARC
  8
0
 10
-413.650024
 20
112.553246
 40
4.100010
 50
300.000214
 51
0.000000
  0
ARC
  8
0
 10
-413.650024
 20
112.651833
 40
4.100006
 50
0.000000
 51
3.085512
  0
ARC
  8
0
 10
-426.799988
 20
130.939301
 40
17.999994
 50
343.398499
 51
16.601540
  0
ARC
  8
0
 10
-412.041962
 20
126.539307
 40
2.599998
 50
270.000000
 51
343.398346
  0
ARC
  8
0
 10
-412.041962
 20
135.339310
 40
2.599990
 50
16.601656
 51
90.000000
  0
ARC
  8
0
 10
-433.000000
 20
116.964088
 40
2.000000
 50
0.000000
 51
90.000000
  0
ARC
  8
0
 10
-473.000000
 20
-30.000000
 40
3.000000
 50
270.000000
 51
0.000000
  0
ARC
  8
0
 10
-469.600006
 20
3.599998
 40
0.400002
 50
90.000000
 51
180.000000
  0
ARC
  8
0
 10
-451.355713
 20
109.498512
 40
0.755707
 50
0.000000
 51
14.106391
  0
ARC
  8
0
 10
-451.553253
 20
109.426086
 40
0.965187
 50
15.418217
 51
51.388287
  0
ARC
  8
0
 10
-452.100006
 20
108.627281
 40
1.931895
 50
53.502094
 51
126.497902
  0
ARC
  8
0
 10
-452.646759
 20
109.426086
 40
0.965204
 50
128.611710
 51
164.581787
  0
ARC
  8
0
 10
-452.844299
 20
109.498512
 40
0.755698
 50
165.893616
 51
179.999420
  0
ARC
  8
0
 10
-453.563782
 20
121.660744
 40
1.486227
 50
174.668701
 51
194.106430
  0
ARC
  8
0
 10
-453.175262
 20
121.803177
 40
1.898239
 50
195.417923
 51
231.388382
  0
ARC
  8
0
 10
-452.100006
 20
123.374130
 40
3.799354
 50
233.502167
 51
306.497955
  0
ARC
  8
0
 10
-451.024750
 20
121.803192
 40
1.898234
 50
308.611603
 51
344.582306
  0
ARC
  8
0
 10
-450.636230
 20
121.660759
 40
1.486222
 50
345.893860
 51
5.353775
  0
ARC
  8
0
 10
-452.099976
 20
118.259239
 40
4.532874
 50
65.097786
 51
114.888618
  0
ARC
  8
0
 10
-459.555695
 20
116.993843
 40
0.755698
 50
345.893616
 51
14.106391
  0
ARC
  8
0
 10
-459.753235
 20
116.921417
 40
0.965187
 50
15.418217
 51
51.388287
  0
ARC
  8
0
 10
-460.299988
 20
116.122620
 40
1.931889
 50
53.501961
 51
126.498039
  0
ARC
  8
0
 10
-460.846741
 20
116.921417
 40
0.965204
 50
128.611710
 51
164.581787
  0
ARC
  8
0
 10
-461.044281
 20
116.993843
 40
0.755698
 50
165.893616
 51
194.106384
  0
ARC
  8
0
 10
-460.846741
 20
117.066269
 40
0.965187
 50
195.418213
 51
231.388290
  0
ARC
  8
0
 10
-460.299988
 20
117.865067
 40
1.931889
 50
233.501953
 51
306.498047
  0
ARC
  8
0
 10
-459.753235
 20
117.066269
 40
0.965204
 50
308.611725
 51
344.581787
  0
ARC
  8
0
 10
-451.280304
 20
121.660751
 40
2.130295
 50
356.237030
 51
11.773211
  0
ARC
  8
0
 10
-451.497864
 20
121.594284
 40
2.356930
 50
12.275900
 51
45.305698
  0
ARC
  8
0
 10
-452.100006
 20
120.861183
 40
3.302730
 50
46.824921
 51
133.175079
  0
ARC
  8
0
 10
-452.702148
 20
121.594284
 40
2.356929
 50
134.694305
 51
167.723740
  0
ARC
  8
0
 10
-452.919708
 20
121.660751
 40
2.130298
 50
168.226395
 51
176.237045
  0
ARC
  8
0
 10
-459.881317
 20
116.993843
 40
0.425082
 50
345.892914
 51
14.106079
  0
ARC
  8
0
 10
-459.992432
 20
116.953102
 40
0.542915
 50
15.418174
 51
51.388477
  0
ARC
  8
0
 10
-460.299988
 20
116.503777
 40
1.086693
 50
53.501793
 51
126.497971
  0
ARC
  8
0
 10
-460.607544
 20
116.953110
 40
0.542927
 50
128.611526
 51
164.581833
  0
ARC
  8
0
 10
-460.718658
 20
116.993843
 40
0.425082
 50
165.892929
 51
194.106079
  0
ARC
  8
0
 10
-460.607544
 20
117.034584
 40
0.542915
 50
195.418167
 51
231.388474
  0
ARC
  8
0
 10
-460.299988
 20
117.483910
 40
1.086693
 50
233.501785
 51
306.497955
  0
ARC
  8
0
 10
-459.992432
 20
117.034576
 40
0.542927
 50
308.611511
 51
344.581818
  0
ARC
  8
0
 10
-445.999817
 20
73.597908
 40
10.303370
 50
95.563339
 51
126.497787
  0
ARC
  8
0
 10
-448.915802
 20
77.858162
 40
5.147733
 50
128.611481
 51
164.581985
  0
ARC
  8
0
 10
-449.969421
 20
78.244423
 40
4.030383
 50
165.893463
 51
183.477402
  0
ARC
  8
0
 10
-445.999817
 20
74.454453
 40
9.187993
 50
96.251190
 51
126.497704
  0
ARC
  8
0
 10
-448.600128
 20
78.253525
 40
4.590481
 50
128.611450
 51
164.582047
  0
ARC
  8
0
 10
-449.539703
 20
78.597977
 40
3.594099
 50
165.893555
 51
189.569458
  0
ARC
  8
0
 10
-452.000000
 20
79.582161
 40
6.439601
 50
297.630524
 51
306.497803
  0
ARC
  8
0
 10
-450.177521
 20
76.919495
 40
3.217344
 50
308.611755
 51
344.582123
  0
ARC
  8
0
 10
-449.518982
 20
76.678085
 40
2.518986
 50
345.893372
 51
0.000000
  0
ARC
  8
0
 10
-452.000000
 20
40.489857
 40
6.439606
 50
270.000275
 51
306.497803
  0
ARC
  8
0
 10
-450.177521
 20
37.827194
 40
3.217347
 50
308.611725
 51
344.582123
  0
ARC
  8
0
 10
-449.518982
 20
37.585781
 40
2.518986
 50
345.893463
 51
0.000087
  0
ARC
  8
0
 10
-449.518921
 20
-0.597973
 40
2.518982
 50
359.999939
 51
14.106556
  0
ARC
  8
0
 10
-450.177460
 20
-0.839388
 40
3.217348
 50
15.417933
 51
51.388302
  0
ARC
  8
0
 10
-451.999939
 20
-3.502042
 40
6.439609
 50
53.502159
 51
90.000000
  0
ARC
  8
0
 10
-452.000000
 20
50.389351
 40
6.439613
 50
270.000275
 51
306.497803
  0
ARC
  8
0
 10
-450.177521
 20
47.726688
 40
3.217347
 50
308.611725
 51
344.582123
  0
ARC
  8
0
 10
-449.518982
 20
47.485275
 40
2.518986
 50
345.893463
 51
0.000000
  0
POLYLINE
  8
0
 66
     1
  0
VERTEX
  8
0
 10
-439.125031
 20
111.722794
  0
VERTEX
  8
0
 10
-438.414398
 20
111.816696
  0
VERTEX
  8
0
 10
-437.706543
 20
111.879707
  0
VERTEX
  8
0
 10
-437.000000
 20
111.902725
  0
VERTEX
  8
0
 10
-436.293182
 20
111.879684
  0
VERTEX
  8
0
 10
-435.584991
 20
111.816635
  0
VERTEX
  8
0
 10
-434.873993
 20
111.722649
  0
SEQEND
  0
ARC
  8
0
 10
-438.885590
 20
109.357132
 40
1.914429
 50
180.000000
 51
194.106461
  0
ARC
  8
0
 10
-438.385101
 20
109.540611
 40
2.445174
 50
195.417969
 51
231.388443
  0
ARC
  8
0
 10
-437.000000
 20
111.564240
 40
4.894110
 50
233.502151
 51
306.497864
  0
ARC
  8
0
 10
-435.614899
 20
109.540611
 40
2.445173
 50
308.611572
 51
344.582031
  0
ARC
  8
0
 10
-435.114410
 20
109.357132
 40
1.914420
 50
345.893524
 51
0.000000
  0
ARC
  8
0
 10
-435.829681
 20
110.755447
 40
2.329682
 50
0.026269
 51
12.212494
  0
ARC
  8
0
 10
-436.140411
 20
110.656837
 40
2.654403
 50
12.874034
 51
46.617081
  0
ARC
  8
0
 10
-437.001099
 20
109.566933
 40
4.039595
 50
48.363262
 51
54.623402
  0
ARC
  8
0
 10
-438.385101
 20
109.880768
 40
2.445165
 50
147.737427
 51
164.582031
  0
ARC
  8
0
 10
-438.885590
 20
110.064247
 40
1.914420
 50
165.893539
 51
194.106461
  0
ARC
  8
0
 10
-438.385101
 20
110.247726
 40
2.445174
 50
195.417969
 51
231.388443
  0
ARC
  8
0
 10
-437.000000
 20
112.271362
 40
4.894115
 50
233.502197
 51
306.497803
  0
ARC
  8
0
 10
-435.614899
 20
110.247726
 40
2.445173
 50
308.611572
 51
344.582031
  0
ARC
  8
0
 10
-435.114410
 20
110.064247
 40
1.914420
 50
345.893524
 51
14.106465
  0
ARC
  8
0
 10
-435.614899
 20
109.880768
 40
2.445174
 50
15.417966
 51
31.651094
  0
ARC
  8
0
 10
-438.736542
 20
110.064247
 40
1.763458
 50
180.000000
 51
194.105743
  0
ARC
  8
0
 10
-438.275604
 20
110.233215
 40
2.252278
 50
195.416916
 51
231.386749
  0
ARC
  8
0
 10
-437.000000
 20
112.096802
 40
4.507546
 50
233.500626
 51
306.499390
  0
ARC
  8
0
 10
-435.724396
 20
110.233215
 40
2.252263
 50
308.613251
 51
344.583069
  0
ARC
  8
0
 10
-435.263458
 20
110.064247
 40
1.763469
 50
345.894257
 51
0.000000
  0
ARC
  8
0
 10
-435.829681
 20
110.755447
 40
2.329682
 50
0.026269
 51
12.212494
  0
ARC
  8
0
 10
-436.140411
 20
110.656837
 40
2.654403
 50
12.874034
 51
46.617081
  0
ARC
  8
0
 10
-437.001099
 20
109.566933
 40
4.039595
 50
48.363262
 51
54.640938
  0
ARC
  8
0
 10
-457.312683
 20
145.129456
 40
1.712665
 50
345.892456
 51
14.107556
  0
ARC
  8
0
 10
-457.760559
 20
144.965256
 40
2.187629
 50
15.419332
 51
51.390373
  0
ARC
  8
0
 10
-459.000000
 20
143.154297
 40
4.379158
 50
53.504395
 51
126.495605
  0
ARC
  8
0
 10
-460.239441
 20
144.965256
 40
2.187642
 50
128.609634
 51
164.580673
  0
ARC
  8
0
 10
-460.687317
 20
145.129456
 40
1.712665
 50
165.892441
 51
194.107559
  0
ARC
  8
0
 10
-460.239441
 20
145.293655
 40
2.187629
 50
195.419327
 51
231.390366
  0
ARC
  8
0
 10
-459.000000
 20
147.104614
 40
4.379158
 50
233.504395
 51
306.495605
  0
ARC
  8
0
 10
-457.760559
 20
145.293655
 40
2.187642
 50
308.609619
 51
344.580658
  0
ARC
  8
0
 10
-439.000000
 20
108.582787
 40
11.435830
 50
64.634445
 51
103.112259
  0
ARC
  8
0
 10
-424.100647
 20
124.327408
 40
1.782104
 50
0.000000
 51
14.231613
  0
ARC
  8
0
 10
-424.583160
 20
124.148941
 40
2.294334
 50
15.589443
 51
51.687019
  0
ARC
  8
0
 10
-425.918518
 20
122.180527
 40
4.669886
 50
53.804703
 51
126.195297
  0
ARC
  8
0
 10
-427.253876
 20
124.148941
 40
2.294343
 50
128.312973
 51
164.410553
  0
ARC
  8
0
 10
-427.736389
 20
124.327408
 40
1.782110
 50
165.768387
 51
180.000000
  0
ARC
  8
0
 10
-425.918518
 20
126.191452
 40
4.669887
 50
300.677490
 51
306.195282
  0
ARC
  8
0
 10
-424.583160
 20
124.223038
 40
2.294343
 50
308.312988
 51
344.410553
  0
ARC
  8
0
 10
-424.100647
 20
124.044571
 40
1.782110
 50
345.768372
 51
14.231613
  0
ARC
  8
0
 10
-424.583160
 20
123.866104
 40
2.294334
 50
15.589443
 51
51.687019
  0
ARC
  8
0
 10
-425.918518
 20
121.897690
 40
4.669886
 50
53.804703
 51
126.195297
  0
ARC
  8
0
 10
-427.253876
 20
123.866104
 40
2.294343
 50
128.312973
 51
164.410553
  0
ARC
  8
0
 10
-427.736389
 20
124.044571
 40
1.782110
 50
165.768387
 51
194.231613
  0
ARC
  8
0
 10
-427.253876
 20
124.223038
 40
2.294334
 50
195.589447
 51
231.687027
  0
ARC
  8
0
 10
-425.918518
 20
126.191452
 40
4.669886
 50
233.804703
 51
239.319504
  0
ARC
  8
0
 10
-424.386200
 20
123.547920
 40
1.555671
 50
345.893433
 51
14.106575
  0
ARC
  8
0
 10
-424.792908
 20
123.398811
 40
1.986977
 50
15.418337
 51
51.389256
  0
ARC
  8
0
 10
-425.918518
 20
121.754265
 40
3.977153
 50
53.502899
 51
126.497101
  0
ARC
  8
0
 10
-427.044128
 20
123.398811
 40
1.986983
 50
128.610748
 51
164.581665
  0
ARC
  8
0
 10
-427.450836
 20
123.547920
 40
1.555671
 50
165.893417
 51
194.106583
  0
ARC
  8
0
 10
-427.044128
 20
123.697029
 40
1.986977
 50
195.418335
 51
231.389252
  0
ARC
  8
0
 10
-425.918518
 20
125.341576
 40
3.977153
 50
233.502899
 51
306.497101
  0
ARC
  8
0
 10
-424.792908
 20
123.697029
 40
1.986983
 50
308.610748
 51
344.581665
  0
ARC
  8
0
 10
-424.699615
 20
123.146988
 40
1.237110
 50
345.892456
 51
14.107546
  0
ARC
  8
0
 10
-425.023132
 20
123.028374
 40
1.580195
 50
15.419568
 51
51.392036
  0
ARC
  8
0
 10
-425.918518
 20
121.720108
 40
3.163380
 50
53.505444
 51
126.494560
  0
ARC
  8
0
 10
-426.813904
 20
123.028374
 40
1.580195
 50
128.607971
 51
164.580429
  0
ARC
  8
0
 10
-427.137421
 20
123.146988
 40
1.237110
 50
165.892456
 51
194.107544
  0
ARC
  8
0
 10
-426.813904
 20
123.265602
 40
1.580195
 50
195.419571
 51
231.392029
  0
ARC
  8
0
 10
-425.918518
 20
124.573868
 40
3.163380
 50
233.505447
 51
306.494568
  0
ARC
  8
0
 10
-425.023132
 20
123.265602
 40
1.580195
 50
308.607971
 51
344.580444
  0
ARC
  8
0
 10
-425.212067
 20
122.762756
 40
0.717060
 50
345.892792
 51
14.107213
  0
ARC
  8
0
 10
-425.399567
 20
122.694008
 40
0.915902
 50
15.419416
 51
51.390877
  0
ARC
  8
0
 10
-425.918518
 20
121.935791
 40
1.833474
 50
53.504181
 51
126.495819
  0
ARC
  8
0
 10
-426.437469
 20
122.694008
 40
0.915913
 50
128.609131
 51
164.580582
  0
ARC
  8
0
 10
-426.624969
 20
122.762756
 40
0.717060
 50
165.892792
 51
194.107208
  0
ARC
  8
0
 10
-426.437469
 20
122.831505
 40
0.915902
 50
195.419418
 51
231.390869
  0
ARC
  8
0
 10
-425.918518
 20
123.589722
 40
1.833474
 50
233.504181
 51
306.495819
  0
ARC
  8
0
 10
-425.399567
 20
122.831505
 40
0.915913
 50
308.609131
 51
344.580597
  0
ARC
  8
0
 10
-439.000000
 20
106.390488
 40
23.182585
 50
90.594803
 51
126.094460
  0
ARC
  8
0
 10
-423.437500
 20
126.095169
 40
2.518992
 50
358.277069
 51
14.106447
  0
ARC
  8
0
 10
-424.096008
 20
125.853752
 40
3.217317
 50
15.418029
 51
51.388741
  0
ARC
  8
0
 10
-425.918518
 20
123.191086
 40
6.439620
 50
53.502232
 51
90.281845
  0
ARC
  8
0
 10
-439.000000
 20
123.234100
 40
14.167102
 50
304.302490
 51
306.497833
  0
ARC
  8
0
 10
-434.990540
 20
117.376282
 40
7.078142
 50
308.611542
 51
320.424835
  0
ARC
  8
0
 10
-439.000000
 20
104.622726
 40
23.182585
 50
90.594803
 51
118.293770
  0
ARC
  8
0
 10
-453.903961
 20
105.585991
 40
3.217339
 50
149.183548
 51
164.582123
  0
ARC
  8
0
 10
-454.562500
 20
105.827408
 40
2.518985
 50
165.893555
 51
194.106445
  0
ARC
  8
0
 10
-453.903961
 20
106.068825
 40
3.217347
 50
195.417877
 51
224.400009
  0
ARC
  8
0
 10
-439.000000
 20
125.532104
 40
23.182590
 50
290.103271
 51
306.497803
  0
ARC
  8
0
 10
-432.439026
 20
115.946518
 40
11.582401
 50
308.611511
 51
344.582062
  0
ARC
  8
0
 10
-430.068329
 20
115.077415
 40
9.068319
 50
345.893555
 51
345.927521
  0
ARC
  8
0
 10
-423.437500
 20
124.327408
 40
2.518992
 50
358.277069
 51
14.106447
  0
ARC
  8
0
 10
-424.096008
 20
124.085991
 40
3.217317
 50
15.418029
 51
51.388657
  0
ARC
  8
0
 10
-425.918518
 20
121.423325
 40
6.439613
 50
53.502193
 51
90.281845
  0
ARC
  8
0
 10
-439.000000
 20
121.466347
 40
14.167102
 50
304.302490
 51
306.497833
  0
ARC
  8
0
 10
-434.990540
 20
115.608528
 40
7.078142
 50
308.611542
 51
337.294250
  0
POLYLINE
  8
0
 66
     1
  0
VERTEX
  8
0
 10
-484.500000
 20
81.000000
  0
VERTEX
  8
0
 10
-485.334930
 20
80.786491
  0
VERTEX
  8
0
 10
-486.138611
 20
80.463776
  0
VERTEX
  8
0
 10
-486.881897
 20
80.052849
  0
VERTEX
  8
0
 10
-487.521301
 20
79.592453
  0
VERTEX
  8
0
 10
-488.076630
 20
79.050018
  0
VERTEX
  8
0
 10
-488.503357
 20
78.409973
  0
VERTEX
  8
0
 10
-488.766266
 20
77.685562
  0
VERTEX
  8
0
 10
-488.884064
 20
76.901779
  0
VERTEX
  8
0
 10
-488.923370
 20
76.000412
  0
VERTEX
  8
0
 10
-488.934113
 20
75.171761
  0
VERTEX
  8
0
 10
-488.923889
 20
74.359375
  0
VERTEX
  8
0
 10
-488.886536
 20
73.546066
  0
VERTEX
  8
0
 10
-488.815826
 20
72.714645
  0
VERTEX
  8
0
 10
-488.704468
 20
71.842148
  0
VERTEX
  8
0
 10
-488.556427
 20
70.976692
  0
VERTEX
  8
0
 10
-488.371521
 20
70.104019
  0
VERTEX
  8
0
 10
-488.149536
 20
69.209839
  0
VERTEX
  8
0
 10
-487.871216
 20
68.236893
  0
VERTEX
  8
0
 10
-487.554077
 20
67.259079
  0
VERTEX
  8
0
 10
-487.217743
 20
66.325684
  0
VERTEX
  8
0
 10
-486.881897
 20
65.485977
  0
VERTEX
  8
0
 10
-486.486847
 20
64.606743
  0
VERTEX
  8
0
 10
-486.058411
 20
63.742989
  0
VERTEX
  8
0
 10
-485.634644
 20
62.966896
  0
VERTEX
  8
0
 10
-485.275635
 20
62.368465
  0
VERTEX
  8
0
 10
-484.897064
 20
61.782280
  0
VERTEX
  8
0
 10
-484.500000
 20
61.208668
  0
SEQEND
  0
POLYLINE
  8
0
 66
     1
  0
VERTEX
  8
0
 10
-484.500000
 20
-3.000000
  0
VERTEX
  8
0
 10
-485.334930
 20
-2.786491
  0
VERTEX
  8
0
 10
-486.138611
 20
-2.463772
  0
VERTEX
  8
0
 10
-486.881897
 20
-2.052849
  0
VERTEX
  8
0
 10
-487.521301
 20
-1.592451
  0
VERTEX
  8
0
 10
-488.076630
 20
-1.050017
  0
VERTEX
  8
0
 10
-488.503357
 20
-0.409969
  0
VERTEX
  8
0
 10
-488.766266
 20
0.314442
  0
VERTEX
  8
0
 10
-488.884064
 20
1.098222
  0
VERTEX
  8
0
 10
-488.923370
 20
1.999588
  0
VERTEX
  8
0
 10
-488.934113
 20
2.828241
  0
VERTEX
  8
0
 10
-488.923889
 20
3.640622
  0
VERTEX
  8
0
 10
-488.886536
 20
4.453928
  0
VERTEX
  8
0
 10
-488.815826
 20
5.285351
  0
VERTEX
  8
0
 10
-488.704468
 20
6.157852
  0
VERTEX
  8
0
 10
-488.556427
 20
7.023303
  0
VERTEX
  8
0
 10
-488.371521
 20
7.895981
  0
VERTEX
  8
0
 10
-488.149536
 20
8.790161
  0
VERTEX
  8
0
 10
-487.871216
 20
9.763110
  0
VERTEX
  8
0
 10
-487.554077
 20
10.740923
  0
VERTEX
  8
0
 10
-487.217743
 20
11.674320
  0
VERTEX
  8
0
 10
-486.881897
 20
12.514023
  0
VERTEX
  8
0
 10
-486.486847
 20
13.393254
  0
VERTEX
  8
0
 10
-486.058411
 20
14.257011
  0
VERTEX
  8
0
 10
-485.634644
 20
15.033106
  0
VERTEX
  8
0
 10
-485.275635
 20
15.631536
  0
VERTEX
  8
0
 10
-484.897064
 20
16.217722
  0
VERTEX
  8
0
 10
-484.500000
 20
16.791332
  0
SEQEND
  0
POLYLINE
  8
0
 66
     1
  0
VERTEX
  8
0
 10
-488.954529
 20
111.000000
  0
VERTEX
  8
0
 10
-488.652191
 20
110.431564
  0
VERTEX
  8
0
 10
-488.337280
 20
109.843742
  0
VERTEX
  8
0
 10
-488.005035
 20
109.227577
  0
VERTEX
  8
0
 10
-487.625183
 20
108.529434
  0
VERTEX
  8
0
 10
-487.259827
 20
107.863297
  0
VERTEX
  8
0
 10
-486.892151
 20
107.198418
  0
VERTEX
  8
0
 10
-486.535095
 20
106.557983
  0
VERTEX
  8
0
 10
-486.207275
 20
105.974792
  0
VERTEX
  8
0
 10
-485.877563
 20
105.392700
  0
VERTEX
  8
0
 10
-485.542358
 20
104.805573
  0
VERTEX
  8
0
 10
-485.196960
 20
104.205299
  0
VERTEX
  8
0
 10
-484.849518
 20
103.606216
  0
VERTEX
  8
0
 10
-484.500000
 20
103.008331
  0
SEQEND
  0
POLYLINE
  8
0
 66
     1
  0
VERTEX
  8
0
 10
-488.954529
 20
-33.000000
  0
VERTEX
  8
0
 10
-488.652191
 20
-32.431564
  0
VERTEX
  8
0
 10
-488.337280
 20
-31.843742
  0
VERTEX
  8
0
 10
-488.005035
 20
-31.227573
  0
VERTEX
  8
0
 10
-487.625183
 20
-30.529434
  0
VERTEX
  8
0
 10
-487.259827
 20
-29.863293
  0
VERTEX
  8
0
 10
-486.892151
 20
-29.198416
  0
VERTEX
  8
0
 10
-486.535095
 20
-28.557983
  0
VERTEX
  8
0
 10
-486.207275
 20
-27.974796
  0
VERTEX
  8
0
 10
-485.877563
 20
-27.392698
  0
VERTEX
  8
0
 10
-485.542358
 20
-26.805573
  0
VERTEX
  8
0
 10
-485.196960
 20
-26.205297
  0
VERTEX
  8
0
 10
-484.849518
 20
-25.606215
  0
VERTEX
  8
0
 10
-484.500000
 20
-25.008331
  0
SEQEND
  0
ARC
  8
0
 10
-434.990540
 20
114.546318
 40
7.078148
 50
19.165863
 51
51.388454
  0
ARC
  8
0
 10
-439.000000
 20
108.688499
 40
14.167102
 50
53.502171
 51
124.806152
  0
ARC
  8
0
 10
-437.001099
 20
109.566933
 40
4.039592
 50
125.343689
 51
129.999069
  0
ARC
  8
0
 10
-437.859772
 20
110.658409
 40
2.654414
 50
139.723679
 51
167.021301
  0
ARC
  8
0
 10
-438.170319
 20
110.757584
 40
2.329688
 50
167.682770
 51
192.212494
  0
ARC
  8
0
 10
-437.859589
 20
110.856194
 40
2.654403
 50
192.874039
 51
226.617081
  0
ARC
  8
0
 10
-436.998901
 20
111.946098
 40
4.039595
 50
228.363266
 51
311.531708
  0
ARC
  8
0
 10
-436.140228
 20
110.854622
 40
2.654408
 50
313.278076
 51
347.021301
  0
ARC
  8
0
 10
-435.829681
 20
110.755447
 40
2.329688
 50
347.682770
 51
0.026269
  0
POINT
  8
0
 10
-220.000000
 20
272.000000
  0
POINT
  8
0
 10
-122.000000
 20
272.000000
  0
LINE
  8
0
 10
-215.460892
 20
235.526947
 11
-183.526947
 21
267.460876
  0
LINE
  8
0
 10
-264.901276
 20
275.181976
 11
-244.465897
 21
295.617371
  0
LINE
  8
0
 10
-264.511780
 20
207.207367
 11
-215.460892
 21
235.526932
  0
LINE
  8
0
 10
-276.823822
 20
195.377197
 11
-266.582825
 21
205.618179
  0
LINE
  8
0
 10
-277.407715
 20
226.613098
 11
-266.109222
 21
237.911575
  0
LINE
  8
0
 10
-299.964081
 20
215.345398
 11
-286.175293
 21
226.915573
  0
LINE
  8
0
 10
-259.597992
 20
270.585785
 11
-259.597992
 21
280.485291
  0
LINE
  8
0
 10
-228.485275
 20
311.597992
 11
-218.585785
 21
311.597992
  0
LINE
  8
0
 10
-155.207367
 20
316.511780
 11
-183.526932
 21
267.460876
  0
LINE
  8
0
 10
-143.377197
 20
328.823822
 11
-153.618195
 21
318.582825
  0
LINE
  8
0
 10
-163.345398
 20
351.964081
 11
-174.915588
 21
338.175293
  0
LINE
  8
0
 10
-174.613098
 20
329.407715
 11
-185.911575
 21
318.109253
  0
LINE
  8
0
 10
-221.414215
 20
250.786789
 11
-241.213196
 21
270.585785
  0
LINE
  8
0
 10
-241.213196
 20
273.414215
 11
-231.737976
 21
282.889465
  0
LINE
  8
0
 10
-198.786804
 20
273.414215
 11
-218.585785
 21
293.213196
  0
LINE
  8
0
 10
-218.585785
 20
250.786804
 11
-198.786804
 21
270.585785
  0
LINE
  8
0
 10
-241.920319
 20
273.414215
 11
-232.091537
 21
283.243011
  0
LINE
  8
0
 10
-221.414215
 20
250.079681
 11
-241.920319
 21
270.585785
  0
LINE
  8
0
 10
-218.585785
 20
250.079697
 11
-198.079681
 21
270.585785
  0
LINE
  8
0
 10
-198.079681
 20
273.414215
 11
-218.585785
 21
293.920288
  0
LINE
  8
0
 10
-230.889450
 20
283.737946
 11
-243.617371
 21
296.465881
  0
LINE
  8
0
 10
-231.737976
 20
282.889435
 11
-244.465897
 21
295.617371
  0
LINE
  8
0
 10
-230.889450
 20
283.737976
 11
-221.414215
 21
293.213226
  0
LINE
  8
0
 10
-231.243011
 20
284.091522
 11
-221.414215
 21
293.920319
  0
LINE
  8
0
 10
-243.617371
 20
296.465881
 11
-228.485291
 21
311.597992
  0
LINE
  8
0
 10
-235.273514
 20
286.424988
 11
-234.424988
 21
287.273499
  0
LINE
  8
0
 10
-242.344589
 20
293.496063
 11
-241.496063
 21
294.344574
  0
LINE
  8
0
 10
-264.901245
 20
275.182007
 11
-264.642395
 21
274.216064
  0
LINE
  8
0
 10
-258.775909
 20
268.349487
 11
-264.642456
 21
274.216034
  0
LINE
  8
0
 10
-259.147156
 20
269.427856
 11
-264.901276
 21
275.181976
  0
LINE
  8
0
 10
-154.239044
 20
344.832031
 11
-147.167969
 21
337.760986
  0
LINE
  8
0
 10
-153.178406
 20
345.892670
 11
-146.107330
 21
338.821594
  0
LINE
  8
0
 10
-147.167999
 20
337.760925
 11
-146.107346
 21
338.821594
  0
LINE
  8
0
 10
-154.239075
 20
344.832001
 11
-153.178436
 21
345.892639
  0
LINE
  8
0
 10
-150.718353
 20
346.231415
 11
-151.410645
 21
345.539124
  0
LINE
  8
0
 10
-145.768616
 20
341.281677
 11
-146.460892
 21
340.589386
  0
LINE
  8
0
 10
-151.622772
 20
345.751251
 11
-152.329880
 21
345.044159
  0
LINE
  8
0
 10
-146.248764
 20
340.377258
 11
-146.955872
 21
339.670135
  0
LINE
  8
0
 10
-151.622757
 20
345.751282
 11
-146.248749
 21
340.377258
  0
LINE
  8
0
 10
-148.512375
 20
341.226654
 11
-147.994736
 21
342.123230
  0
LINE
  8
0
 10
-272.999695
 20
296.700012
 11
-311.939331
 21
335.639679
  0
LINE
  8
0
 10
-311.939331
 20
208.360367
 11
-272.999695
 21
247.299988
  0
LINE
  8
0
 10
-311.939331
 20
208.360352
 11
-354.999695
 21
251.420746
  0
LINE
  8
0
 10
-354.999695
 20
292.579285
 11
-311.939331
 21
335.639679
  0
LINE
  8
0
 10
-272.999695
 20
247.299988
 11
-272.999695
 21
296.700012
  0
LINE
  8
0
 10
-354.999695
 20
251.399704
 11
-354.999695
 21
292.600311
  0
LINE
  8
0
 10
-301.686279
 20
328.922119
 11
-286.624908
 21
343.983490
  0
LINE
  8
0
 10
-290.372528
 20
317.608398
 11
-275.311157
 21
332.669739
  0
LINE
  8
0
 10
-300.970734
 20
215.705841
 11
-301.014526
 21
215.749634
  0
LINE
  8
0
 10
-291.000549
 20
225.676056
 11
-291.044342
 21
225.719833
  0
LINE
  8
0
 10
-285.458160
 20
343.806763
 11
-284.353729
 21
344.911194
  0
LINE
  8
0
 10
-275.487976
 20
333.836548
 11
-274.383545
 21
334.940979
  0
LINE
  8
0
 10
-275.101959
 20
333.450531
 11
-285.844116
 21
344.192688
  0
LINE
  8
0
 10
-300.970703
 20
215.705856
 11
-291.000519
 21
225.676056
  0
LINE
  8
0
 10
-284.353699
 20
344.911163
 11
-274.383484
 21
334.940948
  0
LINE
  8
0
 10
-275.311188
 20
332.669769
 11
-275.101990
 21
333.450500
  0
LINE
  8
0
 10
-286.624908
 20
343.983521
 11
-285.844147
 21
344.192719
  0
LINE
  8
0
 10
-275.311157
 20
332.669769
 11
-286.624878
 21
343.983490
  0
LINE
  8
0
 10
-308.757355
 20
208.006805
 11
-283.301514
 21
233.462646
  0
LINE
  8
0
 10
-283.301514
 20
310.537354
 11
-308.757355
 21
335.993225
  0
LINE
  8
0
 10
-307.779419
 20
208.984726
 11
-309.547211
 21
210.752502
  0
LINE
  8
0
 10
-284.279419
 20
232.484756
 11
-286.047180
 21
234.252518
  0
LINE
  8
0
 10
-335.552765
 20
261.535370
 11
-334.949280
 21
267.277252
  0
LINE
  8
0
 10
-345.497986
 20
262.580658
 11
-344.894501
 21
268.322540
  0
LINE
  8
0
 10
-335.552734
 20
261.535431
 11
-340.827087
 21
259.187134
  0
LINE
  8
0
 10
-339.620117
 20
270.670898
 11
-344.894470
 21
268.322601
  0
LINE
  8
0
 10
-340.827148
 20
259.186951
 11
-345.498016
 21
262.580536
  0
LINE
  8
0
 10
-334.949280
 20
267.277130
 11
-339.620148
 21
270.670715
  0
LINE
  8
0
 10
-337.839783
 20
264.175629
 11
-342.711914
 21
264.687714
  0
LINE
  8
0
 10
-337.735229
 20
265.170166
 11
-342.607361
 21
265.682220
  0
LINE
  8
0
 10
-337.513062
 20
273.973419
 11
-334.453583
 21
278.869598
  0
LINE
  8
0
 10
-345.993591
 20
279.272583
 11
-342.934082
 21
284.168793
  0
LINE
  8
0
 10
-337.513062
 20
273.973389
 11
-343.283051
 21
274.174866
  0
LINE
  8
0
 10
-337.164093
 20
283.967316
 11
-342.934082
 21
284.168793
  0
LINE
  8
0
 10
-343.283203
 20
274.174805
 11
-345.993683
 21
279.272522
  0
LINE
  8
0
 10
-334.453705
 20
278.869537
 11
-337.164185
 21
283.967224
  0
LINE
  8
0
 10
-338.411255
 20
277.348999
 11
-342.565857
 21
279.945068
  0
LINE
  8
0
 10
-337.881348
 20
278.197052
 11
-342.035889
 21
280.793121
  0
LINE
  8
0
 10
-273.554535
 20
262.834839
 11
-273.554535
 21
281.165161
  0
LINE
  8
0
 10
-296.615662
 20
246.546402
 11
-307.023193
 21
254.604538
  0
LINE
  8
0
 10
-290.493530
 20
246.546539
 11
-280.085999
 21
254.604675
  0
LINE
  8
0
 10
-280.085999
 20
289.395325
 11
-290.493530
 21
297.453461
  0
LINE
  8
0
 10
-296.615601
 20
297.453583
 11
-307.023132
 21
289.395447
  0
LINE
  8
0
 10
-313.554535
 20
262.834869
 11
-313.554535
 21
281.165161
  0
LINE
  8
0
 10
-307.542145
 20
208.656342
 11
-302.450989
 21
213.747513
  0
LINE
  8
0
 10
-307.542175
 20
208.656296
 11
-307.825012
 21
208.939148
  0
LINE
  8
0
 10
-302.451019
 20
213.747467
 11
-302.733856
 21
214.030319
  0
LINE
  8
0
 10
-289.042145
 20
227.156342
 11
-283.950989
 21
232.247498
  0
LINE
  8
0
 10
-289.042175
 20
227.156326
 11
-289.325012
 21
227.439163
  0
LINE
  8
0
 10
-283.950989
 20
232.247482
 11
-284.233826
 21
232.530319
  0
LINE
  8
0
 10
-283.950958
 20
311.752502
 11
-289.042145
 21
316.843689
  0
LINE
  8
0
 10
-283.950989
 20
311.752533
 11
-284.233826
 21
311.469666
  0
LINE
  8
0
 10
-289.042145
 20
316.843689
 11
-289.324982
 21
316.560852
  0
LINE
  8
0
 10
-302.450958
 20
330.252502
 11
-307.542114
 21
335.343689
  0
LINE
  8
0
 10
-302.451019
 20
330.252533
 11
-302.733856
 21
329.969696
  0
LINE
  8
0
 10
-307.542175
 20
335.343689
 11
-307.825012
 21
335.060852
  0
LINE
  8
0
 10
-237.000000
 20
212.000000
 11
-237.000000
 21
223.091324
  0
LINE
  8
0
 10
-310.600006
 20
337.000000
 11
-293.608398
 21
337.000000
  0
LINE
  8
0
 10
-310.600006
 20
207.000000
 11
-293.341675
 21
207.000000
  0
LINE
  8
0
 10
-237.000000
 20
303.083252
 11
-237.000000
 21
332.000000
  0
LINE
  8
0
 10
-237.000015
 20
212.000015
 11
-242.000015
 21
207.000000
  0
LINE
  8
0
 10
-236.999969
 20
332.000031
 11
-241.999969
 21
337.000031
  0
LINE
  8
0
 10
-285.069275
 20
308.769592
 11
-283.301514
 21
310.537354
  0
LINE
  8
0
 10
-310.525116
 20
334.225433
 11
-308.757355
 21
335.993195
  0
LINE
  8
0
 10
-308.757385
 20
208.006790
 11
-310.525146
 21
209.774551
  0
LINE
  8
0
 10
-283.301514
 20
233.462646
 11
-285.069275
 21
235.230408
  0
LINE
  8
0
 10
-310.600037
 20
206.999969
 11
-354.999756
 21
251.399673
  0
LINE
  8
0
 10
-354.999695
 20
292.600311
 11
-310.600006
 21
337.000000
  0
LINE
  8
0
 10
-275.369019
 20
337.000000
 11
-242.000000
 21
337.000000
  0
LINE
  8
0
 10
-311.939301
 20
240.544662
 11
-311.939301
 21
232.744659
  0
LINE
  8
0
 10
-315.839294
 20
236.644669
 11
-308.039307
 21
236.644669
  0
LINE
  8
0
 10
-247.113251
 20
215.050003
 11
-250.927963
 21
215.050003
  0
LINE
  8
0
 10
-245.205902
 20
218.353638
 11
-247.113251
 21
215.050003
  0
LINE
  8
0
 10
-293.554535
 20
251.943390
 11
-294.804535
 21
251.221695
  0
LINE
  8
0
 10
-294.804535
 20
251.221695
 11
-294.804535
 21
249.778320
  0
LINE
  8
0
 10
-293.554535
 20
249.056625
 11
-294.804535
 21
249.778320
  0
LINE
  8
0
 10
-292.304535
 20
249.778320
 11
-293.554535
 21
249.056625
  0
LINE
  8
0
 10
-292.304535
 20
251.221695
 11
-292.304535
 21
249.778320
  0
LINE
  8
0
 10
-293.554535
 20
251.943390
 11
-292.304535
 21
251.221695
  0
LINE
  8
0
 10
-293.554535
 20
294.943390
 11
-294.804535
 21
294.221680
  0
LINE
  8
0
 10
-294.804535
 20
294.221710
 11
-294.804535
 21
292.778320
  0
LINE
  8
0
 10
-293.554535
 20
292.056641
 11
-294.804535
 21
292.778320
  0
LINE
  8
0
 10
-292.304535
 20
292.778320
 11
-293.554535
 21
292.056641
  0
LINE
  8
0
 10
-292.304535
 20
294.221710
 11
-292.304535
 21
292.778320
  0
LINE
  8
0
 10
-293.554535
 20
294.943390
 11
-292.304535
 21
294.221710
  0
LINE
  8
0
 10
-244.226501
 20
323.950012
 11
-247.113251
 21
328.950012
  0
LINE
  8
0
 10
-247.113251
 20
328.950012
 11
-252.886749
 21
328.950012
  0
LINE
  8
0
 10
-255.773483
 20
323.950012
 11
-252.886734
 21
328.950012
  0
LINE
  8
0
 10
-252.886749
 20
318.950012
 11
-255.773499
 21
323.950012
  0
LINE
  8
0
 10
-247.113251
 20
318.950012
 11
-252.886749
 21
318.950012
  0
LINE
  8
0
 10
-244.226486
 20
323.950012
 11
-247.113251
 21
318.950012
  0
LINE
  8
0
 10
-311.939301
 20
311.255341
 11
-311.939301
 21
303.455353
  0
LINE
  8
0
 10
-315.839294
 20
307.355347
 11
-308.039307
 21
307.355347
  0
LINE
  8
0
 10
-254.847015
 20
210.454742
 11
-253.970367
 21
211.973114
  0
LINE
  8
0
 10
-255.886230
 20
211.054749
 11
-255.009613
 21
212.573120
  0
LINE
  8
0
 10
-255.886230
 20
332.945251
 11
-255.009598
 21
331.426880
  0
LINE
  8
0
 10
-254.847000
 20
333.545258
 11
-253.970367
 21
332.026886
  0
LINE
  8
0
 10
-295.660187
 20
203.410873
 11
-293.892670
 21
205.178391
  0
LINE
  8
0
 10
-288.589111
 20
196.339813
 11
-286.821594
 21
198.107330
  0
LINE
  8
0
 10
-295.660187
 20
340.589111
 11
-292.839722
 21
337.768677
  0
LINE
  8
0
 10
-288.589111
 20
347.660187
 11
-285.096924
 21
344.167999
  0
LINE
  8
0
 10
-261.365509
 20
320.436584
 11
-268.436584
 21
313.365509
  0
LINE
  8
0
 10
-294.599548
 20
204.471527
 11
-294.175232
 21
204.047241
  0
LINE
  8
0
 10
-295.660217
 20
203.410873
 11
-295.235901
 21
202.986572
  0
LINE
  8
0
 10
-287.528473
 20
346.599548
 11
-287.952759
 21
346.175232
  0
LINE
  8
0
 10
-288.589111
 20
347.660217
 11
-289.013428
 21
347.235901
  0
LINE
  8
0
 10
-300.185699
 20
186.864548
 11
-305.135437
 21
191.814301
  0
LINE
  8
0
 10
-305.135406
 20
192.521362
 11
-293.892395
 21
203.764343
  0
LINE
  8
0
 10
-304.923340
 20
192.733566
 11
-305.984009
 21
193.794220
  0
LINE
  8
0
 10
-305.983948
 20
194.501266
 11
-301.953430
 21
198.531784
  0
LINE
  8
0
 10
-300.539276
 20
197.117584
 11
-301.953491
 21
198.531799
  0
LINE
  8
0
 10
-300.822021
 20
197.400421
 11
-293.892395
 21
204.330063
  0
LINE
  8
0
 10
-295.165283
 20
191.177872
 11
-300.822144
 21
196.834717
  0
LINE
  8
0
 10
-299.478577
 20
186.864502
 11
-288.235565
 21
198.107513
  0
LINE
  8
0
 10
-298.205841
 20
186.016052
 11
-299.266510
 21
187.076721
  0
LINE
  8
0
 10
-297.498657
 20
186.015961
 11
-293.468170
 21
190.046478
  0
LINE
  8
0
 10
-293.468201
 20
190.046509
 11
-294.882416
 21
191.460724
  0
LINE
  8
0
 10
-294.599487
 20
191.177872
 11
-287.669861
 21
198.107513
  0
LINE
  8
0
 10
-287.669922
 20
198.107513
 11
-288.094208
 21
198.531799
  0
LINE
  8
0
 10
-288.235596
 20
198.107513
 11
-293.892426
 21
203.764343
  0
LINE
  8
0
 10
-289.720520
 20
196.622620
 11
-290.527435
 21
197.429535
  0
LINE
  8
0
 10
-296.720886
 20
200.935944
 11
-291.064026
 21
195.279114
  0
LINE
  8
0
 10
-294.599579
 20
202.350281
 11
-295.306671
 21
202.350281
  0
LINE
  8
0
 10
-289.649658
 20
197.400467
 11
-289.649658
 21
196.693375
  0
LINE
  8
0
 10
-289.296265
 20
197.046875
 11
-289.726776
 21
197.477386
  0
LINE
  8
0
 10
-305.135468
 20
352.185699
 11
-300.185730
 21
357.135437
  0
LINE
  8
0
 10
-299.478638
 20
357.135406
 11
-288.235657
 21
345.892426
  0
LINE
  8
0
 10
-299.266418
 20
356.923340
 11
-298.205780
 21
357.984009
  0
LINE
  8
0
 10
-297.498718
 20
357.983948
 11
-293.468201
 21
353.953430
  0
LINE
  8
0
 10
-294.882416
 20
352.539276
 11
-293.468201
 21
353.953491
  0
LINE
  8
0
 10
-294.599579
 20
352.822052
 11
-287.669922
 21
345.892395
  0
LINE
  8
0
 10
-300.822113
 20
347.165283
 11
-295.165283
 21
352.822144
  0
LINE
  8
0
 10
-305.135498
 20
351.478577
 11
-293.892487
 21
340.235596
  0
LINE
  8
0
 10
-305.983948
 20
350.205841
 11
-304.923279
 21
351.266510
  0
LINE
  8
0
 10
-305.984009
 20
349.498657
 11
-301.953522
 21
345.468170
  0
LINE
  8
0
 10
-301.953491
 20
345.468201
 11
-300.539276
 21
346.882416
  0
LINE
  8
0
 10
-300.822113
 20
346.599518
 11
-293.892487
 21
339.669861
  0
LINE
  8
0
 10
-293.892487
 20
339.669922
 11
-287.669922
 21
345.892456
  0
LINE
  8
0
 10
-295.377380
 20
341.720520
 11
-289.720520
 21
347.377380
  0
LINE
  8
0
 10
-291.064026
 20
348.720886
 11
-296.720886
 21
343.064056
  0
LINE
  8
0
 10
-289.649719
 20
346.599579
 11
-289.649719
 21
347.306671
  0
LINE
  8
0
 10
-294.599548
 20
341.649658
 11
-295.306641
 21
341.649658
  0
LINE
  8
0
 10
-294.953156
 20
341.296234
 11
-289.296326
 21
346.953064
  0
LINE
  8
0
 10
-295.235962
 20
341.013367
 11
-295.660187
 21
340.589142
  0
LINE
  8
0
 10
-294.175293
 20
339.952698
 11
-294.599548
 21
339.528473
  0
LINE
  8
0
 10
-288.193481
 20
345.934509
 11
-293.892456
 21
340.235535
  0
LINE
  8
0
 10
-287.952698
 20
197.824707
 11
-287.528473
 21
197.400467
  0
LINE
  8
0
 10
-289.013367
 20
196.764038
 11
-288.589142
 21
196.339813
  0
LINE
  8
0
 10
-275.360016
 20
325.260010
 11
-275.360016
 21
329.460022
  0
LINE
  8
0
 10
-277.459991
 20
327.360016
 11
-273.260010
 21
327.360016
  0
LINE
  8
0
 10
-269.000031
 20
318.899994
 11
-269.000031
 21
323.100006
  0
LINE
  8
0
 10
-271.100006
 20
321.000031
 11
-266.899994
 21
321.000031
  0
LINE
  8
0
 10
-292.832031
 20
206.239059
 11
-285.760956
 21
199.167999
  0
LINE
  8
0
 10
-293.892670
 20
205.178406
 11
-286.821594
 21
198.107330
  0
LINE
  8
0
 10
-293.892639
 20
205.178406
 11
-292.741760
 21
206.329315
  0
LINE
  8
0
 10
-286.821594
 20
198.107346
 11
-285.670685
 21
199.258240
  0
LINE
  8
0
 10
-289.281647
 20
197.768616
 11
-288.589355
 21
198.460892
  0
LINE
  8
0
 10
-294.231384
 20
202.718369
 11
-293.539124
 21
203.410645
  0
LINE
  8
0
 10
-288.377228
 20
198.248764
 11
-287.670135
 21
198.955872
  0
LINE
  8
0
 10
-293.751251
 20
203.622772
 11
-293.044128
 21
204.329880
  0
LINE
  8
0
 10
-291.487610
 20
202.773376
 11
-292.005249
 21
201.876801
  0
LINE
  8
0
 10
-281.526001
 20
326.454926
 11
-268.436584
 21
313.365509
  0
LINE
  8
0
 10
-275.126740
 20
334.197815
 11
-261.365509
 21
320.436584
  0
LINE
  8
0
 10
-293.468201
 20
203.905823
 11
-293.892456
 21
204.330078
  0
LINE
  8
0
 10
-294.522614
 20
202.273224
 11
-294.953125
 21
202.703735
  0
LINE
  8
0
 10
-294.570465
 20
201.472565
 11
-295.377380
 21
202.279480
  0
LINE
  8
0
 10
-274.605530
 20
323.635681
 11
-272.724335
 21
321.754486
  0
LINE
  8
0
 10
-271.635651
 20
326.605499
 11
-269.754517
 21
324.724335
  0
LINE
  8
0
 10
-264.870972
 20
207.000000
 11
-242.000000
 21
207.000000
  0
LINE
  8
0
 10
-230.142227
 20
361.217590
 11
-231.376236
 21
356.612244
  0
LINE
  8
0
 10
-209.857773
 20
361.217590
 11
-208.623779
 21
356.612244
  0
LINE
  8
0
 10
-230.142227
 20
182.782410
 11
-231.376221
 21
187.387756
  0
LINE
  8
0
 10
-209.857788
 20
182.782410
 11
-208.623795
 21
187.387756
  0
LINE
  8
0
 10
-152.411804
 20
219.841751
 11
-147.806427
 21
218.607742
  0
LINE
  8
0
 10
-141.035538
 20
239.545929
 11
-137.664215
 21
236.174591
  0
LINE
  8
0
 10
-141.035522
 20
304.453949
 11
-137.664154
 21
307.825317
  0
LINE
  8
0
 10
-201.591156
 20
216.932617
 11
-202.625824
 21
220.794098
  0
LINE
  8
0
 10
-181.514755
 20
228.523727
 11
-184.341522
 21
231.350494
  0
LINE
  8
0
 10
-163.105835
 20
260.408844
 11
-166.967316
 21
261.443512
  0
LINE
  8
0
 10
-163.105835
 20
283.591064
 11
-166.967255
 21
282.556396
  0
LINE
  8
0
 10
-202.625717
 20
323.205902
 11
-201.591049
 21
327.067322
  0
LINE
  8
0
 10
-232.544510
 20
319.500000
 11
-207.455338
 21
319.500000
  0
LINE
  8
0
 10
-232.544617
 20
224.500000
 11
-207.455460
 21
224.500000
  0
LINE
  8
0
 10
-185.136108
 20
237.386017
 11
-172.591522
 21
259.113892
  0
LINE
  8
0
 10
-142.500000
 20
243.081451
 11
-142.500000
 21
300.918427
  0
LINE
  8
0
 10
-172.889969
 20
334.290314
 11
-206.294174
 21
353.576233
  0
LINE
  8
0
 10
-233.705841
 20
190.423767
 11
-262.416687
 21
207.000000
  0
LINE
  8
0
 10
-206.294159
 20
190.423752
 11
-156.205902
 21
219.342224
  0
LINE
  8
0
 10
-262.416748
 20
337.000000
 11
-233.705841
 21
353.576233
  0
LINE
  8
0
 10
-222.511444
 20
253.015396
 11
-238.984604
 21
269.488556
  0
LINE
  8
0
 10
-217.488556
 20
253.015396
 11
-201.015396
 21
269.488556
  0
LINE
  8
0
 10
-238.984604
 20
274.511444
 11
-222.511444
 21
290.984619
  0
LINE
  8
0
 10
-201.015396
 20
274.511444
 11
-217.488556
 21
290.984619
  0
LINE
  8
0
 10
-217.488556
 20
290.984619
 11
-217.112518
 21
291.739929
  0
LINE
  8
0
 10
-222.511444
 20
290.984619
 11
-222.887482
 21
291.739929
  0
LINE
  8
0
 10
-239.739929
 20
274.887482
 11
-238.984604
 21
274.511444
  0
LINE
  8
0
 10
-239.739929
 20
269.112518
 11
-238.984604
 21
269.488556
  0
LINE
  8
0
 10
-222.887482
 20
252.260071
 11
-222.511444
 21
253.015396
  0
LINE
  8
0
 10
-217.112518
 20
252.260071
 11
-217.488556
 21
253.015396
  0
LINE
  8
0
 10
-201.015396
 20
269.488556
 11
-200.260071
 21
269.112518
  0
LINE
  8
0
 10
-200.260071
 20
274.887482
 11
-201.015396
 21
274.511414
  0
ARC
  8
0
 10
-220.000000
 20
272.000000
 40
35.000015
 50
121.270866
 51
148.729126
  0
ARC
  8
0
 10
-220.000000
 20
272.000000
 40
98.000000
 50
215.317642
 51
231.649170
  0
ARC
  8
0
 10
-278.945129
 20
197.498505
 40
2.999995
 50
231.649216
 51
314.999786
  0
ARC
  8
0
 10
-259.511780
 20
198.547119
 40
9.999994
 50
120.000015
 51
134.999878
  0
ARC
  8
0
 10
-281.650360
 20
230.855743
 40
6.000007
 50
221.048447
 51
315.000000
  0
ARC
  8
0
 10
-287.322449
 20
259.124786
 40
30.000000
 50
314.999969
 51
22.459686
  0
ARC
  8
0
 10
-178.855743
 20
333.650360
 40
6.000007
 50
315.000000
 51
48.951561
  0
ARC
  8
0
 10
-145.498520
 20
330.945129
 40
2.999992
 50
315.000214
 51
38.350777
  0
ARC
  8
0
 10
-146.547119
 20
311.511749
 40
10.000000
 50
134.999939
 51
149.999832
  0
ARC
  8
0
 10
-207.124786
 20
339.322449
 40
30.000006
 50
247.540283
 51
314.999969
  0
ARC
  8
0
 10
-220.000000
 20
252.201004
 40
1.999991
 50
224.999695
 51
315.000305
  0
ARC
  8
0
 10
-200.201004
 20
272.000000
 40
2.000002
 50
315.000000
 51
45.000000
  0
ARC
  8
0
 10
-220.000000
 20
291.798981
 40
2.000002
 50
45.000000
 51
135.000000
  0
ARC
  8
0
 10
-239.798996
 20
272.000000
 40
2.000002
 50
135.000000
 51
225.000305
  0
ARC
  8
0
 10
-220.000000
 20
251.493896
 40
2.000002
 50
225.000000
 51
315.000000
  0
ARC
  8
0
 10
-199.493912
 20
272.000000
 40
2.000002
 50
315.000000
 51
45.000000
  0
ARC
  8
0
 10
-220.000000
 20
292.506104
 40
2.000002
 50
45.000000
 51
135.000000
  0
ARC
  8
0
 10
-240.506104
 20
272.000000
 40
2.000002
 50
135.000000
 51
225.000000
  0
ARC
  8
0
 10
-149.799133
 20
345.312164
 40
1.299998
 50
61.601223
 51
134.999054
  0
ARC
  8
0
 10
-153.461243
 20
338.538788
 40
9.000004
 50
28.398378
 51
61.601452
  0
ARC
  8
0
 10
-146.687851
 20
342.200928
 40
1.300006
 50
314.999512
 51
28.398457
  0
ARC
  8
0
 10
-250.000000
 20
220.050003
 40
10.750004
 50
243.199524
 51
8.921789
  0
CIRCLE
  8
0
 10
-250.000000
 20
323.950012
 40
7.800000
  0
ARC
  8
0
 10
-250.000000
 20
323.950012
 40
10.749978
 50
123.199600
 51
116.800446
  0
ARC
  8
0
 10
-250.000000
 20
220.050003
 40
9.000010
 50
235.440384
 51
4.559633
  0
CIRCLE
  8
0
 10
-311.939301
 20
307.355347
 40
7.500000
  0
CIRCLE
  8
0
 10
-293.554535
 20
272.000000
 40
0.500000
  0
CIRCLE
  8
0
 10
-293.554535
 20
272.000000
 40
16.250000
  0
ARC
  8
0
 10
-307.696655
 20
232.402039
 40
18.000011
 50
291.941742
 51
338.058167
  0
ARC
  8
0
 10
-291.079651
 20
328.214996
 40
18.000011
 50
21.941750
 51
68.058212
  0
CIRCLE
  8
0
 10
-340.223572
 20
264.928955
 40
2.500000
  0
CIRCLE
  8
0
 10
-340.223572
 20
264.928955
 40
2.250000
  0
CIRCLE
  8
0
 10
-340.223572
 20
264.928955
 40
5.000000
  0
CIRCLE
  8
0
 10
-340.223572
 20
279.071075
 40
2.500000
  0
CIRCLE
  8
0
 10
-340.223572
 20
279.071075
 40
2.250000
  0
CIRCLE
  8
0
 10
-340.223572
 20
279.071075
 40
5.000000
  0
CIRCLE
  8
0
 10
-311.939301
 20
307.355347
 40
7.000000
  0
CIRCLE
  8
0
 10
-293.554535
 20
272.000000
 40
17.049999
  0
ARC
  8
0
 10
-293.554535
 20
293.500000
 40
5.000003
 50
52.250767
 51
127.749229
  0
ARC
  8
0
 10
-293.554535
 20
272.000000
 40
21.999996
 50
127.749207
 51
155.380005
  0
ARC
  8
0
 10
-293.554535
 20
272.000000
 40
21.999996
 50
307.749207
 51
335.380005
  0
ARC
  8
0
 10
-293.554535
 20
293.500000
 40
5.000003
 50
52.250767
 51
90.000000
  0
ARC
  8
0
 10
-293.554535
 20
272.000000
 40
22.000004
 50
204.619995
 51
232.250793
  0
ARC
  8
0
 10
-293.554535
 20
272.000000
 40
22.000004
 50
24.620001
 51
52.250797
  0
ARC
  8
0
 10
-293.554535
 20
250.500000
 40
5.000003
 50
232.250763
 51
307.749237
  0
ARC
  8
0
 10
-306.481018
 20
212.616638
 40
4.100000
 50
255.000015
 51
315.000305
  0
ARC
  8
0
 10
-306.411285
 20
212.686340
 40
4.100002
 50
315.000000
 51
14.999986
  0
ARC
  8
0
 10
-287.980988
 20
231.116638
 40
4.100000
 50
255.000015
 51
315.000000
  0
ARC
  8
0
 10
-287.911285
 20
231.186340
 40
4.100002
 50
315.000000
 51
14.999986
  0
ARC
  8
0
 10
-287.911285
 20
312.813660
 40
4.100000
 50
345.000000
 51
45.000000
  0
ARC
  8
0
 10
-287.980988
 20
312.883392
 40
4.100002
 50
45.000000
 51
104.999985
  0
ARC
  8
0
 10
-306.411255
 20
331.313660
 40
4.099971
 50
344.999908
 51
45.000301
  0
ARC
  8
0
 10
-306.480988
 20
331.383392
 40
4.100002
 50
45.000000
 51
104.999985
  0
CIRCLE
  8
0
 10
-311.939301
 20
236.644669
 40
7.000000
  0
CIRCLE
  8
0
 10
-311.939301
 20
236.644669
 40
7.500000
  0
CIRCLE
  8
0
 10
-293.554535
 20
250.500000
 40
3.800000
  0
CIRCLE
  8
0
 10
-250.000000
 20
323.950012
 40
9.000000
  0
CIRCLE
  8
0
 10
-293.554535
 20
293.500000
 40
3.800000
  0
ARC
  8
0
 10
-250.000000
 20
220.050003
 40
7.799996
 50
239.713333
 51
0.286715
  0
ARC
  8
0
 10
-301.303284
 20
190.696747
 40
3.519524
 50
168.051285
 51
281.948700
  0
ARC
  8
0
 10
-304.781891
 20
192.167877
 40
0.499990
 50
135.000000
 51
225.001236
  0
ARC
  8
0
 10
-305.630432
 20
194.147766
 40
0.500001
 50
134.998764
 51
225.000000
  0
ARC
  8
0
 10
-299.832153
 20
187.218124
 40
0.500001
 50
225.001236
 51
314.998749
  0
ARC
  8
0
 10
-297.852234
 20
186.369598
 40
0.500011
 50
224.997528
 51
315.000000
  0
ARC
  8
0
 10
-301.303253
 20
353.303284
 40
3.519524
 50
78.051292
 51
191.948715
  0
ARC
  8
0
 10
-299.832123
 20
356.781891
 40
0.499990
 50
45.000000
 51
135.000000
  0
ARC
  8
0
 10
-297.852234
 20
357.630432
 40
0.500011
 50
44.997528
 51
135.000000
  0
ARC
  8
0
 10
-304.781860
 20
351.832153
 40
0.500011
 50
135.002472
 51
224.997528
  0
ARC
  8
0
 10
-305.630402
 20
349.852234
 40
0.500011
 50
134.997528
 51
225.000000
  0
CIRCLE
  8
0
 10
-275.360016
 20
327.360016
 40
3.500000
  0
CIRCLE
  8
0
 10
-269.000000
 20
321.000000
 40
3.800000
  0
CIRCLE
  8
0
 10
-269.000000
 20
321.000000
 40
3.500000
  0
ARC
  8
0
 10
-290.200867
 20
198.687866
 40
1.300012
 50
241.601547
 51
314.999054
  0
ARC
  8
0
 10
-286.538757
 20
205.461243
 40
8.999996
 50
208.398285
 51
241.601410
  0
ARC
  8
0
 10
-293.312134
 20
201.799103
 40
1.300017
 50
135.000000
 51
208.397537
  0
ARC
  8
0
 10
-275.360016
 20
327.360016
 40
3.799994
 50
146.774475
 51
123.225143
  0
ARC
  8
0
 10
-250.000000
 20
220.050003
 40
10.749996
 50
231.078186
 51
236.800446
  0
ARC
  8
0
 10
-220.000000
 20
272.000000
 40
97.999992
 50
38.350834
 51
54.682358
  0
CIRCLE
  8
0
 10
-190.000046
 20
220.038452
 40
6.000000
  0
CIRCLE
  8
0
 10
-160.000000
 20
271.999939
 40
6.000000
  0
CIRCLE
  8
0
 10
-189.999939
 20
323.961487
 40
6.000000
  0
CIRCLE
  8
0
 10
-190.000046
 20
220.038452
 40
5.125000
  0
CIRCLE
  8
0
 10
-160.000000
 20
271.999939
 40
5.125000
  0
CIRCLE
  8
0
 10
-189.999939
 20
323.961487
 40
5.125000
  0
ARC
  8
0
 10
-190.000046
 20
220.038452
 40
12.000002
 50
195.000031
 51
45.000000
  0
ARC
  8
0
 10
-160.000000
 20
271.999939
 40
12.000012
 50
255.000061
 51
105.000008
  0
ARC
  8
0
 10
-189.999939
 20
323.961487
 40
12.000002
 50
9.143640
 51
164.999969
  0
ARC
  8
0
 10
-220.000000
 20
358.500000
 40
10.500003
 50
14.999941
 51
165.000031
  0
ARC
  8
0
 10
-220.000015
 20
185.500000
 40
10.500008
 50
195.000015
 51
344.999969
  0
ARC
  8
0
 10
-145.088821
 20
228.749969
 40
10.500003
 50
255.000061
 51
45.000000
  0
ARC
  8
0
 10
-145.088776
 20
315.249939
 40
10.500001
 50
315.000000
 51
98.020264
  0
ARC
  8
0
 10
-232.544617
 20
219.500000
 40
5.000000
 50
90.000000
 51
153.008774
  0
ARC
  8
0
 10
-207.455460
 20
219.500000
 40
5.000007
 50
15.000010
 51
90.000000
  0
ARC
  8
0
 10
-180.805984
 20
234.886017
 40
4.999997
 50
149.999985
 51
224.999878
  0
ARC
  8
0
 10
-168.261398
 20
256.613892
 40
4.999988
 50
75.000114
 51
149.999985
  0
ARC
  8
0
 10
-168.261353
 20
287.386017
 40
4.999987
 50
199.340637
 51
285.000061
  0
ARC
  8
0
 10
-207.455338
 20
324.500000
 40
5.000000
 50
270.000000
 51
344.999939
  0
ARC
  8
0
 10
-232.544510
 20
324.500000
 40
4.999995
 50
206.988327
 51
270.000000
  0
ARC
  8
0
 10
-220.000000
 20
272.000000
 40
65.000000
 50
252.890152
 51
289.978760
  0
ARC
  8
0
 10
-220.000000
 20
272.000000
 40
65.000000
 50
310.021088
 51
349.978760
  0
ARC
  8
0
 10
-220.000000
 20
272.000000
 40
64.999985
 50
10.021097
 51
28.609760
  0
ARC
  8
0
 10
-236.205841
 20
357.906342
 40
4.999984
 50
300.000092
 51
344.999939
  0
ARC
  8
0
 10
-236.205872
 20
186.093658
 40
5.000007
 50
15.000010
 51
60.000069
  0
ARC
  8
0
 10
-203.794174
 20
186.093658
 40
4.999984
 50
120.000107
 51
164.999939
  0
ARC
  8
0
 10
-153.705902
 20
215.012131
 40
4.999992
 50
74.999947
 51
120.000015
  0
ARC
  8
0
 10
-137.500000
 20
243.081451
 40
5.000000
 50
180.000000
 51
225.000000
  0
ARC
  8
0
 10
-137.500000
 20
300.918427
 40
4.999984
 50
135.000000
 51
180.000000
  0
ARC
  8
0
 10
-203.794144
 20
357.906342
 40
5.000007
 50
195.000015
 51
240.000076
  0
ARC
  8
0
 10
-220.000000
 20
272.000000
 40
98.000008
 50
231.649155
 51
38.350834
  0
ARC
  8
0
 10
-220.000000
 20
272.000000
 40
19.949997
 50
171.678009
 51
188.321991
  0
ARC
  8
0
 10
-220.000000
 20
272.000000
 40
19.150002
 50
172.464188
 51
187.535812
  0
ARC
  8
0
 10
-220.000000
 20
272.000000
 40
19.150000
 50
262.464233
 51
277.535858
  0
ARC
  8
0
 10
-220.000000
 20
272.000000
 40
19.150002
 50
352.464172
 51
7.535724
  0
ARC
  8
0
 10
-220.000000
 20
272.000000
 40
19.149986
 50
82.464180
 51
97.535805
  0
ARC
  8
0
 10
-220.000000
 20
272.000000
 40
75.999992
 50
238.788803
 51
33.546188
  0
ARC
  8
0
 10
-220.000000
 20
272.000000
 40
45.000004
 50
258.795135
 51
11.204825
  0
ARC
  8
0
 10
-220.000000
 20
272.000000
 40
35.000008
 50
280.952209
 51
349.047791
  0
ARC
  8
0
 10
-220.000000
 20
272.000000
 40
65.000000
 50
70.021080
 51
107.109818
  0
ARC
  8
0
 10
-220.000000
 20
272.000000
 40
19.949999
 50
261.677979
 51
278.321991
  0
ARC
  8
0
 10
-220.000000
 20
272.000000
 40
19.949997
 50
81.678009
 51
98.321991
  0
ARC
  8
0
 10
-220.000000
 20
272.000000
 40
19.949997
 50
351.678009
 51
8.321989
  0
ARC
  8
0
 10
-220.000000
 20
272.000000
 40
97.999992
 50
54.682404
 51
132.075516
  0
ARC
  8
0
 10
-220.000000
 20
272.000000
 40
76.000008
 50
51.931072
 51
121.211220
  0
CIRCLE
  8
0
 10
-295.943054
 20
347.943085
 40
2.000000
  0
CIRCLE
  8
0
 10
-295.943054
 20
347.943085
 40
2.500000
  0
CIRCLE
  8
0
 10
-295.943085
 20
196.056915
 40
2.500000
  0
CIRCLE
  8
0
 10
-295.943085
 20
196.056915
 40
2.000000
  0
POINT
  8
0
 10
-250.000000
 20
-54.000000
  0
POINT
  8
0
 10
-177.000000
 20
-54.000000
  0
LINE
  8
0
 10
-244.000000
 20
22.221565
 11
-244.000000
 21
10.999985
  0
LINE
  8
0
 10
-244.000000
 20
15.150566
 11
-241.500000
 21
15.150566
  0
LINE
  8
0
 10
-242.500000
 20
14.089905
 11
-241.500000
 21
14.089905
  0
LINE
  8
0
 10
-227.500000
 20
16.281929
 11
-227.500000
 21
14.796906
  0
LINE
  8
0
 10
-242.500000
 20
14.089905
 11
-242.500000
 21
9.639603
  0
LINE
  8
0
 10
-228.399994
 20
-132.413666
 11
-235.799988
 21
-132.413666
  0
LINE
  8
0
 10
-227.600006
 20
-134.393555
 11
-236.599991
 21
-134.393555
  0
LINE
  8
0
 10
-227.600006
 20
-139.843307
 11
-236.599991
 21
-139.843307
  0
LINE
  8
0
 10
-228.399994
 20
-140.691833
 11
-235.799988
 21
-140.691833
  0
LINE
  8
0
 10
-228.399994
 20
-128.029602
 11
-235.799988
 21
-128.029602
  0
LINE
  8
0
 10
-236.299988
 20
-128.529602
 11
-236.299988
 21
-133.327866
  0
LINE
  8
0
 10
-237.099991
 20
-129.943817
 11
-237.099991
 21
-139.343307
  0
LINE
  8
0
 10
-227.899994
 20
-128.529602
 11
-227.899994
 21
-133.327866
  0
LINE
  8
0
 10
-227.100006
 20
-129.943817
 11
-227.100006
 21
-139.343307
  0
LINE
  8
0
 10
-228.399994
 20
-133.827866
 11
-235.799988
 21
-133.827866
  0
LINE
  8
0
 10
-237.600006
 20
-129.443817
 11
-236.300003
 21
-129.443817
  0
LINE
  8
0
 10
-227.899994
 20
-139.843307
 11
-227.899994
 21
-140.191833
  0
LINE
  8
0
 10
-236.299988
 20
-139.843307
 11
-236.299988
 21
-140.191833
  0
LINE
  8
0
 10
-227.900009
 20
-129.443817
 11
-226.599991
 21
-129.443817
  0
LINE
  8
0
 10
-243.600006
 20
-129.726654
 11
-237.600006
 21
-129.726654
  0
LINE
  8
0
 10
-226.599991
 20
-129.443817
 11
-226.599991
 21
-135.383514
  0
LINE
  8
0
 10
-237.600006
 20
-129.443817
 11
-237.600006
 21
-135.383514
  0
LINE
  8
0
 10
-235.600006
 20
-122.496902
 11
-235.600006
 21
-128.029602
  0
LINE
  8
0
 10
-228.600006
 20
-122.496902
 11
-228.600006
 21
-128.029602
  0
LINE
  8
0
 10
-226.599991
 20
-129.726654
 11
-221.599991
 21
-129.726654
  0
LINE
  8
0
 10
-233.600037
 20
-125.059746
 11
-233.600037
 21
-122.496902
  0
LINE
  8
0
 10
-230.599991
 20
-125.059761
 11
-230.599991
 21
-122.496902
  0
LINE
  8
0
 10
-221.599991
 20
-124.281929
 11
-221.599991
 21
-135.383514
  0
LINE
  8
0
 10
-243.600006
 20
-135.383514
 11
-237.600006
 21
-135.383514
  0
LINE
  8
0
 10
-237.600006
 20
-135.100677
 11
-237.099991
 21
-135.100677
  0
LINE
  8
0
 10
-227.100006
 20
-135.100677
 11
-226.599991
 21
-135.100677
  0
LINE
  8
0
 10
-226.599991
 20
-135.383514
 11
-221.599991
 21
-135.383514
  0
LINE
  8
0
 10
-243.600006
 20
-124.281929
 11
-235.599991
 21
-124.281929
  0
LINE
  8
0
 10
-233.600006
 20
-124.281929
 11
-230.600006
 21
-124.281929
  0
LINE
  8
0
 10
-228.599991
 20
-124.281929
 11
-221.599991
 21
-124.281929
  0
LINE
  8
0
 10
-219.600006
 20
-127.933762
 11
-219.600006
 21
-132.933762
  0
LINE
  8
0
 10
-221.599991
 20
-127.933769
 11
-219.600006
 21
-127.933769
  0
LINE
  8
0
 10
-219.600006
 20
-128.433777
 11
-173.100006
 21
-128.433777
  0
LINE
  8
0
 10
-219.600006
 20
-132.433777
 11
-173.100006
 21
-132.433777
  0
LINE
  8
0
 10
-221.599991
 20
-132.933777
 11
-219.600006
 21
-132.933777
  0
LINE
  8
0
 10
-243.600006
 20
-124.281929
 11
-243.600006
 21
-135.383514
  0
LINE
  8
0
 10
-173.100006
 20
-132.433777
 11
-173.100006
 21
-128.433777
  0
LINE
  8
0
 10
-173.100006
 20
-130.133774
 11
-170.100006
 21
-130.133774
  0
LINE
  8
0
 10
-173.100006
 20
-130.733765
 11
-170.100006
 21
-130.733765
  0
LINE
  8
0
 10
-173.100006
 20
-129.133774
 11
-170.100006
 21
-129.133774
  0
LINE
  8
0
 10
-173.100006
 20
-131.733765
 11
-170.100006
 21
-131.733765
  0
LINE
  8
0
 10
-170.100006
 20
-131.733765
 11
-170.100006
 21
-130.733765
  0
LINE
  8
0
 10
-170.100006
 20
-130.133774
 11
-170.100006
 21
-129.133774
  0
LINE
  8
0
 10
-170.100006
 20
-131.608765
 11
-168.600006
 21
-131.608765
  0
LINE
  8
0
 10
-170.100006
 20
-131.483765
 11
-168.600006
 21
-131.483765
  0
LINE
  8
0
 10
-170.100006
 20
-131.358765
 11
-168.600006
 21
-131.358765
  0
LINE
  8
0
 10
-170.100006
 20
-131.233765
 11
-168.600006
 21
-131.233765
  0
LINE
  8
0
 10
-170.100006
 20
-131.108765
 11
-168.600006
 21
-131.108765
  0
LINE
  8
0
 10
-170.100006
 20
-130.983765
 11
-168.600006
 21
-130.983765
  0
LINE
  8
0
 10
-170.100006
 20
-130.858765
 11
-168.600006
 21
-130.858765
  0
LINE
  8
0
 10
-170.100006
 20
-130.008774
 11
-168.600006
 21
-130.008774
  0
LINE
  8
0
 10
-170.100006
 20
-129.883774
 11
-168.600006
 21
-129.883774
  0
LINE
  8
0
 10
-170.100006
 20
-129.758774
 11
-168.600006
 21
-129.758774
  0
LINE
  8
0
 10
-170.100006
 20
-129.633774
 11
-168.600006
 21
-129.633774
  0
LINE
  8
0
 10
-170.100006
 20
-129.508774
 11
-168.600006
 21
-129.508774
  0
LINE
  8
0
 10
-170.100006
 20
-129.383774
 11
-168.600006
 21
-129.383774
  0
LINE
  8
0
 10
-170.100006
 20
-129.258774
 11
-168.600006
 21
-129.258774
  0
LINE
  8
0
 10
-244.000000
 20
-130.221558
 11
-244.000000
 21
-118.999985
  0
LINE
  8
0
 10
-244.000000
 20
-123.150566
 11
-241.500000
 21
-123.150566
  0
LINE
  8
0
 10
-242.500000
 20
-122.089905
 11
-241.500000
 21
-122.089905
  0
LINE
  8
0
 10
-227.500000
 20
-124.281929
 11
-227.500000
 21
-122.796906
  0
LINE
  8
0
 10
-242.500000
 20
-122.089905
 11
-242.500000
 21
-117.639603
  0
LINE
  8
0
 10
-228.399994
 20
24.413658
 11
-235.799988
 21
24.413658
  0
LINE
  8
0
 10
-227.600006
 20
26.393562
 11
-236.599991
 21
26.393562
  0
LINE
  8
0
 10
-227.600006
 20
31.843300
 11
-236.599991
 21
31.843300
  0
LINE
  8
0
 10
-228.399994
 20
32.691841
 11
-235.799988
 21
32.691841
  0
LINE
  8
0
 10
-228.399994
 20
20.029610
 11
-235.799988
 21
20.029610
  0
LINE
  8
0
 10
-236.299988
 20
20.529602
 11
-236.299988
 21
25.327866
  0
LINE
  8
0
 10
-237.099991
 20
21.943810
 11
-237.099991
 21
31.343307
  0
LINE
  8
0
 10
-227.899994
 20
20.529602
 11
-227.899994
 21
25.327866
  0
LINE
  8
0
 10
-227.100006
 20
21.943810
 11
-227.100006
 21
31.343307
  0
LINE
  8
0
 10
-228.399994
 20
25.827858
 11
-235.799988
 21
25.827858
  0
LINE
  8
0
 10
-237.600006
 20
21.443810
 11
-236.300003
 21
21.443810
  0
LINE
  8
0
 10
-227.899994
 20
31.843307
 11
-227.899994
 21
32.191841
  0
LINE
  8
0
 10
-236.299988
 20
31.843307
 11
-236.299988
 21
32.191841
  0
LINE
  8
0
 10
-227.900009
 20
21.443810
 11
-226.599991
 21
21.443810
  0
LINE
  8
0
 10
-243.600006
 20
21.726662
 11
-237.600006
 21
21.726662
  0
LINE
  8
0
 10
-226.599991
 20
21.443810
 11
-226.599991
 21
27.383507
  0
LINE
  8
0
 10
-237.600006
 20
21.443810
 11
-237.600006
 21
27.383514
  0
LINE
  8
0
 10
-235.600006
 20
14.496902
 11
-235.600006
 21
20.029602
  0
LINE
  8
0
 10
-228.600006
 20
14.496902
 11
-228.600006
 21
20.029602
  0
LINE
  8
0
 10
-226.599991
 20
21.726662
 11
-221.599991
 21
21.726662
  0
LINE
  8
0
 10
-233.600037
 20
17.059746
 11
-233.600037
 21
14.496902
  0
LINE
  8
0
 10
-230.599991
 20
17.059761
 11
-230.599991
 21
14.496902
  0
LINE
  8
0
 10
-221.599991
 20
16.281929
 11
-221.599991
 21
27.383507
  0
LINE
  8
0
 10
-243.600006
 20
27.383522
 11
-237.600006
 21
27.383522
  0
LINE
  8
0
 10
-237.600006
 20
27.100670
 11
-237.099991
 21
27.100670
  0
LINE
  8
0
 10
-227.100006
 20
27.100670
 11
-226.599991
 21
27.100670
  0
LINE
  8
0
 10
-226.599991
 20
27.383522
 11
-221.599991
 21
27.383522
  0
LINE
  8
0
 10
-243.600006
 20
16.281929
 11
-235.599991
 21
16.281929
  0
LINE
  8
0
 10
-233.600006
 20
16.281929
 11
-230.600006
 21
16.281929
  0
LINE
  8
0
 10
-228.599991
 20
16.281929
 11
-221.599991
 21
16.281929
  0
LINE
  8
0
 10
-219.600006
 20
19.933762
 11
-219.600006
 21
24.933762
  0
LINE
  8
0
 10
-221.599991
 20
19.933769
 11
-219.600006
 21
19.933769
  0
LINE
  8
0
 10
-219.600006
 20
20.433769
 11
-173.100006
 21
20.433769
  0
LINE
  8
0
 10
-219.600006
 20
24.433769
 11
-173.100006
 21
24.433769
  0
LINE
  8
0
 10
-221.599991
 20
24.933769
 11
-219.600006
 21
24.933769
  0
LINE
  8
0
 10
-243.600006
 20
16.281929
 11
-243.600006
 21
27.383514
  0
LINE
  8
0
 10
-173.100006
 20
24.433769
 11
-173.100006
 21
20.433769
  0
LINE
  8
0
 10
-173.100006
 20
22.133766
 11
-170.100006
 21
22.133766
  0
LINE
  8
0
 10
-173.100006
 20
22.733772
 11
-170.100006
 21
22.733772
  0
LINE
  8
0
 10
-173.100006
 20
21.133766
 11
-170.100006
 21
21.133766
  0
LINE
  8
0
 10
-173.100006
 20
23.733772
 11
-170.100006
 21
23.733772
  0
LINE
  8
0
 10
-170.100006
 20
23.733765
 11
-170.100006
 21
22.733765
  0
LINE
  8
0
 10
-170.100006
 20
22.133774
 11
-170.100006
 21
21.133774
  0
LINE
  8
0
 10
-170.100006
 20
23.608772
 11
-168.600006
 21
23.608772
  0
LINE
  8
0
 10
-170.100006
 20
23.483772
 11
-168.600006
 21
23.483772
  0
LINE
  8
0
 10
-170.100006
 20
23.358772
 11
-168.600006
 21
23.358772
  0
LINE
  8
0
 10
-170.100006
 20
23.233772
 11
-168.600006
 21
23.233772
  0
LINE
  8
0
 10
-170.100006
 20
23.108772
 11
-168.600006
 21
23.108772
  0
LINE
  8
0
 10
-170.100006
 20
22.983772
 11
-168.600006
 21
22.983772
  0
LINE
  8
0
 10
-170.100006
 20
22.858772
 11
-168.600006
 21
22.858772
  0
LINE
  8
0
 10
-170.100006
 20
22.008766
 11
-168.600006
 21
22.008766
  0
LINE
  8
0
 10
-170.100006
 20
21.883766
 11
-168.600006
 21
21.883766
  0
LINE
  8
0
 10
-170.100006
 20
21.758766
 11
-168.600006
 21
21.758766
  0
LINE
  8
0
 10
-170.100006
 20
21.633766
 11
-168.600006
 21
21.633766
  0
LINE
  8
0
 10
-170.100006
 20
21.508766
 11
-168.600006
 21
21.508766
  0
LINE
  8
0
 10
-170.100006
 20
21.383766
 11
-168.600006
 21
21.383766
  0
LINE
  8
0
 10
-170.100006
 20
21.258766
 11
-168.600006
 21
21.258766
  0
LINE
  8
0
 10
-241.500000
 20
15.150566
 11
-241.500000
 21
14.089905
  0
LINE
  8
0
 10
-240.500000
 20
15.857567
 11
-240.500000
 21
14.796906
  0
LINE
  8
0
 10
-240.500000
 20
14.796906
 11
-241.500000
 21
14.089905
  0
LINE
  8
0
 10
-240.500000
 20
15.857567
 11
-241.500000
 21
15.150566
  0
LINE
  8
0
 10
-240.500000
 20
15.857567
 11
-235.600006
 21
15.857567
  0
LINE
  8
0
 10
-240.500000
 20
14.796906
 11
-235.600006
 21
14.796906
  0
LINE
  8
0
 10
-233.600037
 20
15.857567
 11
-230.599991
 21
15.857567
  0
LINE
  8
0
 10
-233.600037
 20
14.796906
 11
-230.599991
 21
14.796906
  0
LINE
  8
0
 10
-228.600006
 20
15.857567
 11
-227.500000
 21
15.857567
  0
LINE
  8
0
 10
-228.600006
 20
14.796906
 11
-227.500000
 21
14.796906
  0
LINE
  8
0
 10
-228.600006
 20
-122.496902
 11
-230.599991
 21
-122.496902
  0
LINE
  8
0
 10
-233.600037
 20
-122.496902
 11
-235.600006
 21
-122.496902
  0
LINE
  8
0
 10
-241.500000
 20
-123.150566
 11
-241.500000
 21
-122.089905
  0
LINE
  8
0
 10
-240.500000
 20
-123.857567
 11
-240.500000
 21
-122.796906
  0
LINE
  8
0
 10
-241.500000
 20
-122.089905
 11
-240.500000
 21
-122.796906
  0
LINE
  8
0
 10
-240.500000
 20
-122.796906
 11
-235.600006
 21
-122.796906
  0
LINE
  8
0
 10
-233.600037
 20
-122.796906
 11
-230.599991
 21
-122.796906
  0
LINE
  8
0
 10
-228.600006
 20
-122.796906
 11
-227.500000
 21
-122.796906
  0
LINE
  8
0
 10
-227.500000
 20
-123.857567
 11
-228.600006
 21
-123.857567
  0
LINE
  8
0
 10
-230.599991
 20
-123.857567
 11
-233.600037
 21
-123.857567
  0
LINE
  8
0
 10
-235.600006
 20
-123.857567
 11
-240.500000
 21
-123.857567
  0
LINE
  8
0
 10
-240.500000
 20
-123.857567
 11
-241.500000
 21
-123.150566
  0
LINE
  8
0
 10
-228.600006
 20
14.496895
 11
-230.599991
 21
14.496895
  0
LINE
  8
0
 10
-233.600037
 20
14.496895
 11
-235.600006
 21
14.496895
  0
LINE
  8
0
 10
-213.199997
 20
-125.065170
 11
-213.199997
 21
-124.356201
  0
LINE
  8
0
 10
-220.800003
 20
-125.065178
 11
-220.800003
 21
-124.356201
  0
LINE
  8
0
 10
-213.500000
 20
-125.757370
 11
-213.500000
 21
-125.063393
  0
LINE
  8
0
 10
-220.500000
 20
-125.757370
 11
-220.500000
 21
-125.063393
  0
LINE
  8
0
 10
-217.000000
 20
-128.225647
 11
-217.000000
 21
-125.219643
  0
LINE
  8
0
 10
-213.000000
 20
-119.760933
 11
-213.000000
 21
-127.892670
  0
LINE
  8
0
 10
-236.199997
 20
-120.821602
 11
-234.699997
 21
-120.821602
  0
LINE
  8
0
 10
-227.000000
 20
-119.760933
 11
-213.000000
 21
-119.760933
  0
LINE
  8
0
 10
-234.699997
 20
-120.821602
 11
-228.500000
 21
-120.821602
  0
LINE
  8
0
 10
-228.500000
 20
-120.821602
 11
-213.000000
 21
-120.821602
  0
LINE
  8
0
 10
-211.000000
 20
-117.639618
 11
-211.000000
 21
-128.433777
  0
LINE
  8
0
 10
-236.199997
 20
-117.639618
 11
-236.199997
 21
-122.796906
  0
LINE
  8
0
 10
-234.699997
 20
-117.639618
 11
-234.699997
 21
-122.496902
  0
LINE
  8
0
 10
-228.500000
 20
-117.639618
 11
-228.500000
 21
-122.796906
  0
LINE
  8
0
 10
-221.599991
 20
-127.892670
 11
-219.316910
 21
-127.892670
  0
LINE
  8
0
 10
-227.000000
 20
-117.639618
 11
-227.000000
 21
-119.760933
  0
LINE
  8
0
 10
-214.683090
 20
-127.892670
 11
-213.000000
 21
-127.892670
  0
LINE
  8
0
 10
-244.000000
 20
-74.579239
 11
-194.000000
 21
-74.579239
  0
LINE
  8
0
 10
-244.000000
 20
-33.420784
 11
-194.000000
 21
-33.420784
  0
LINE
  8
0
 10
-244.000015
 20
-117.639618
 11
-194.000015
 21
-117.639618
  0
LINE
  8
0
 10
-250.000015
 20
-119.000015
 11
-244.000015
 21
-119.000015
  0
LINE
  8
0
 10
-243.999985
 20
9.639603
 11
-193.999985
 21
9.639603
  0
LINE
  8
0
 10
-249.999985
 20
10.999985
 11
-243.999985
 21
10.999985
  0
LINE
  8
0
 10
-250.000000
 20
10.999985
 11
-250.000000
 21
-119.000015
  0
LINE
  8
0
 10
-194.000000
 20
9.639591
 11
-194.000000
 21
-117.639633
  0
LINE
  8
0
 10
-244.000000
 20
10.999985
 11
-244.000000
 21
-119.000015
  0
LINE
  8
0
 10
-192.000000
 20
-27.500021
 11
-192.000000
 21
-41.831253
  0
LINE
  8
0
 10
-177.000000
 20
-37.950020
 11
-177.000000
 21
-70.050026
  0
LINE
  8
0
 10
-191.500000
 20
-37.750008
 11
-177.199997
 21
-37.750008
  0
LINE
  8
0
 10
-194.000000
 20
-27.500008
 11
-192.000000
 21
-27.500008
  0
LINE
  8
0
 10
-194.000000
 20
-80.499954
 11
-192.000000
 21
-80.499954
  0
LINE
  8
0
 10
-191.500000
 20
-70.250008
 11
-177.199997
 21
-70.250008
  0
LINE
  8
0
 10
-177.200012
 20
-37.750031
 11
-177.000000
 21
-37.950035
  0
LINE
  8
0
 10
-177.199982
 20
-70.250069
 11
-176.999969
 21
-70.050072
  0
LINE
  8
0
 10
-189.000000
 20
-44.279358
 11
-189.000000
 21
-51.925953
  0
LINE
  8
0
 10
-182.000000
 20
-44.728958
 11
-182.000000
 21
-49.128956
  0
LINE
  8
0
 10
-194.000000
 20
-66.812958
 11
-189.449997
 21
-66.812958
  0
LINE
  8
0
 10
-194.000000
 20
-63.419384
 11
-189.449997
 21
-63.419384
  0
LINE
  8
0
 10
-194.000000
 20
-57.677494
 11
-189.449997
 21
-57.677494
  0
LINE
  8
0
 10
-194.000000
 20
-55.329201
 11
-189.449997
 21
-55.329201
  0
LINE
  8
0
 10
-194.000000
 20
-52.026638
 11
-189.449997
 21
-52.026638
  0
LINE
  8
0
 10
-194.000000
 20
-51.825142
 11
-189.449997
 21
-51.825142
  0
LINE
  8
0
 10
-194.000000
 20
-41.831242
 11
-189.449997
 21
-41.831242
  0
LINE
  8
0
 10
-189.000000
 20
-49.428940
 11
-182.299988
 21
-49.428940
  0
LINE
  8
0
 10
-189.000000
 20
-44.428940
 11
-182.300003
 21
-44.428940
  0
LINE
  8
0
 10
-189.000000
 20
-63.571075
 11
-182.300003
 21
-63.571075
  0
LINE
  8
0
 10
-189.000000
 20
-58.571079
 11
-182.300003
 21
-58.571079
  0
LINE
  8
0
 10
-182.000000
 20
-58.871094
 11
-182.000000
 21
-63.271088
  0
LINE
  8
0
 10
-182.300018
 20
-58.571095
 11
-182.000015
 21
-58.871098
  0
LINE
  8
0
 10
-182.300034
 20
-63.571083
 11
-182.000031
 21
-63.271080
  0
LINE
  8
0
 10
-181.999969
 20
-49.128975
 11
-182.299957
 21
-49.428970
  0
LINE
  8
0
 10
-182.300018
 20
-44.428959
 11
-182.000015
 21
-44.728966
  0
LINE
  8
0
 10
-189.000000
 20
-56.503365
 11
-189.000000
 21
-65.116173
  0
LINE
  8
0
 10
-192.000000
 20
-66.812965
 11
-192.000000
 21
-80.500023
  0
LINE
  8
0
 10
-192.000000
 20
-52.026649
 11
-192.000000
 21
-55.329212
  0
LINE
  8
0
 10
-182.050018
 20
-58.821079
 11
-189.000000
 21
-58.821079
  0
LINE
  8
0
 10
-182.050003
 20
-63.321075
 11
-189.000000
 21
-63.321075
  0
LINE
  8
0
 10
-182.049988
 20
-49.178940
 11
-189.000000
 21
-49.178940
  0
LINE
  8
0
 10
-182.050034
 20
-44.678940
 11
-189.000000
 21
-44.678940
  0
LINE
  8
0
 10
-182.299988
 20
-63.571091
 11
-182.299988
 21
-58.571095
  0
LINE
  8
0
 10
-182.300079
 20
-49.428947
 11
-182.300079
 21
-44.428959
  0
LINE
  8
0
 10
-191.599991
 20
-36.100021
 11
-191.599991
 21
-28.900021
  0
LINE
  8
0
 10
-189.550003
 20
-32.549316
 11
-189.550003
 21
-32.450726
  0
LINE
  8
0
 10
-191.599991
 20
-28.900021
 11
-192.000000
 21
-28.900021
  0
LINE
  8
0
 10
-191.599991
 20
-36.100021
 11
-192.000000
 21
-36.100021
  0
LINE
  8
0
 10
-191.600006
 20
-79.100021
 11
-191.600006
 21
-71.900024
  0
LINE
  8
0
 10
-189.550003
 20
-75.549316
 11
-189.550003
 21
-75.450729
  0
LINE
  8
0
 10
-191.600006
 20
-71.900024
 11
-192.000000
 21
-71.900024
  0
LINE
  8
0
 10
-191.600006
 20
-79.100021
 11
-192.000000
 21
-79.100021
  0
LINE
  8
0
 10
-192.041946
 20
-25.644680
 11
-194.000000
 21
-25.644680
  0
LINE
  8
0
 10
-192.041946
 20
-11.644680
 11
-194.000000
 21
-11.644680
  0
LINE
  8
0
 10
-192.041962
 20
-96.355362
 11
-194.000000
 21
-96.355362
  0
LINE
  8
0
 10
-192.041962
 20
-82.355362
 11
-194.000000
 21
-82.355362
  0
LINE
  8
0
 10
-250.000000
 20
-74.599998
 11
-244.000000
 21
-74.599998
  0
LINE
  8
0
 10
-250.000000
 20
-33.400002
 11
-244.000000
 21
-33.400002
  0
LINE
  8
0
 10
-256.000000
 20
-101.349998
 11
-250.600006
 21
-101.349998
  0
LINE
  8
0
 10
-256.000000
 20
-111.349998
 11
-250.600006
 21
-111.349998
  0
LINE
  8
0
 10
-256.000000
 20
-73.050003
 11
-250.600006
 21
-73.050003
  0
LINE
  8
0
 10
-256.000000
 20
-83.050003
 11
-250.600006
 21
-83.050003
  0
LINE
  8
0
 10
-256.000000
 20
-24.950001
 11
-250.600006
 21
-24.950001
  0
LINE
  8
0
 10
-256.000000
 20
-34.950001
 11
-250.600006
 21
-34.950001
  0
LINE
  8
0
 10
-256.000000
 20
3.349998
 11
-250.600006
 21
3.349998
  0
LINE
  8
0
 10
-256.000000
 20
-6.650002
 11
-250.600006
 21
-6.650002
  0
LINE
  8
0
 10
-250.600006
 20
3.599998
 11
-250.000000
 21
3.599998
  0
LINE
  8
0
 10
-250.600006
 20
-6.900002
 11
-250.000000
 21
-6.900002
  0
LINE
  8
0
 10
-250.600006
 20
-24.700001
 11
-250.000000
 21
-24.700001
  0
LINE
  8
0
 10
-250.600006
 20
-35.200001
 11
-250.000000
 21
-35.200001
  0
LINE
  8
0
 10
-250.600006
 20
-83.300003
 11
-250.000000
 21
-83.300003
  0
LINE
  8
0
 10
-250.600006
 20
-72.800003
 11
-250.000000
 21
-72.800003
  0
LINE
  8
0
 10
-250.600006
 20
-101.099998
 11
-250.000000
 21
-101.099998
  0
LINE
  8
0
 10
-250.600006
 20
-111.599998
 11
-250.000000
 21
-111.599998
  0
LINE
  8
0
 10
-250.600006
 20
3.599998
 11
-250.600006
 21
-6.900002
  0
LINE
  8
0
 10
-256.600006
 20
2.750000
 11
-256.600006
 21
-6.049999
  0
LINE
  8
0
 10
-256.000000
 20
3.349998
 11
-256.000000
 21
-6.650002
  0
LINE
  8
0
 10
-256.600006
 20
-73.650002
 11
-256.600006
 21
-82.449997
  0
LINE
  8
0
 10
-256.000000
 20
-73.050003
 11
-256.000000
 21
-83.050003
  0
LINE
  8
0
 10
-250.600006
 20
-72.800003
 11
-250.600006
 21
-83.300003
  0
LINE
  8
0
 10
-256.600006
 20
-101.949997
 11
-256.600006
 21
-110.750000
  0
LINE
  8
0
 10
-250.600006
 20
-101.099998
 11
-250.600006
 21
-111.599998
  0
LINE
  8
0
 10
-256.000000
 20
-101.349998
 11
-256.000000
 21
-111.349998
  0
LINE
  8
0
 10
-256.600006
 20
-25.549999
 11
-256.600006
 21
-34.349998
  0
LINE
  8
0
 10
-256.000000
 20
-24.950001
 11
-256.000000
 21
-34.950001
  0
LINE
  8
0
 10
-250.600006
 20
-24.700001
 11
-250.600006
 21
-35.200001
  0
LINE
  8
0
 10
-256.000000
 20
-111.350006
 11
-256.600006
 21
-110.750000
  0
LINE
  8
0
 10
-256.600006
 20
-101.950012
 11
-256.000000
 21
-101.350006
  0
LINE
  8
0
 10
-256.000000
 20
-83.050003
 11
-256.600006
 21
-82.450005
  0
LINE
  8
0
 10
-256.600006
 20
-73.650009
 11
-256.000000
 21
-73.050003
  0
LINE
  8
0
 10
-256.000000
 20
-34.950005
 11
-256.600006
 21
-34.349998
  0
LINE
  8
0
 10
-256.600006
 20
-25.550005
 11
-256.000000
 21
-24.949995
  0
LINE
  8
0
 10
-256.000000
 20
-6.649998
 11
-256.600006
 21
-6.049999
  0
LINE
  8
0
 10
-256.600006
 20
2.749996
 11
-256.000000
 21
3.349995
  0
LINE
  8
0
 10
-244.000000
 20
-130.221558
 11
-243.600006
 21
-130.221558
  0
LINE
  8
0
 10
-244.000000
 20
22.221565
 11
-243.600006
 21
22.221565
  0
ARC
  8
0
 10
-236.599991
 20
-129.943817
 40
0.500000
 50
90.000000
 51
180.000000
  0
ARC
  8
0
 10
-235.800003
 20
-128.529602
 40
0.500000
 50
90.000000
 51
180.000000
  0
ARC
  8
0
 10
-227.600006
 20
-139.343307
 40
0.500000
 50
270.000000
 51
0.000000
  0
ARC
  8
0
 10
-227.600006
 20
-129.943817
 40
0.500000
 50
0.000000
 51
90.000000
  0
ARC
  8
0
 10
-236.599991
 20
-139.343307
 40
0.500000
 50
180.000000
 51
270.000000
  0
ARC
  8
0
 10
-228.399994
 20
-133.327866
 40
0.500000
 50
270.000000
 51
0.000000
  0
ARC
  8
0
 10
-235.800003
 20
-133.327866
 40
0.500000
 50
180.000000
 51
270.000000
  0
ARC
  8
0
 10
-235.800003
 20
-140.191833
 40
0.500000
 50
180.000000
 51
270.000000
  0
ARC
  8
0
 10
-228.399994
 20
-140.191833
 40
0.500000
 50
270.000000
 51
0.000000
  0
ARC
  8
0
 10
-228.399994
 20
-128.529602
 40
0.500000
 50
0.000000
 51
90.000000
  0
ARC
  8
0
 10
-236.599991
 20
21.943810
 40
0.500000
 50
180.000000
 51
270.000000
  0
ARC
  8
0
 10
-235.800003
 20
20.529610
 40
0.500000
 50
180.000000
 51
270.000000
  0
ARC
  8
0
 10
-227.600006
 20
31.343300
 40
0.500000
 50
0.000000
 51
90.000000
  0
ARC
  8
0
 10
-227.600006
 20
21.943810
 40
0.500000
 50
270.000000
 51
0.000000
  0
ARC
  8
0
 10
-236.599991
 20
31.343300
 40
0.500000
 50
90.000000
 51
180.000000
  0
ARC
  8
0
 10
-228.399994
 20
25.327858
 40
0.500000
 50
0.000000
 51
90.000000
  0
ARC
  8
0
 10
-235.800003
 20
25.327858
 40
0.500000
 50
90.000000
 51
180.000000
  0
ARC
  8
0
 10
-235.800003
 20
32.191841
 40
0.500000
 50
90.000000
 51
180.000000
  0
ARC
  8
0
 10
-228.399994
 20
32.191841
 40
0.500000
 50
0.000000
 51
90.000000
  0
ARC
  8
0
 10
-228.399994
 20
20.529610
 40
0.500000
 50
270.000000
 51
0.000000
  0
CIRCLE
  8
0
 10
-216.350006
 20
21.448311
 40
0.010000
  0
CIRCLE
  8
0
 10
-217.000000
 20
-126.902725
 40
0.010000
  0
ARC
  8
0
 10
-192.041962
 20
-93.755363
 40
2.599998
 50
270.000000
 51
343.398590
  0
ARC
  8
0
 10
-192.041962
 20
-84.955360
 40
2.600005
 50
16.601559
 51
90.000000
  0
ARC
  8
0
 10
-192.424011
 20
-65.116173
 40
3.424013
 50
330.293549
 51
29.706409
  0
ARC
  8
0
 10
-198.383179
 20
-60.548443
 40
9.383178
 50
342.183685
 51
17.816360
  0
ARC
  8
0
 10
-190.756805
 20
-56.503365
 40
1.756803
 50
318.060944
 51
41.939663
  0
ARC
  8
0
 10
-196.443512
 20
-49.276306
 40
7.443512
 50
339.975281
 51
20.024708
  0
ARC
  8
0
 10
-195.884171
 20
-44.279354
 40
6.884170
 50
339.168976
 51
20.831144
  0
CIRCLE
  8
0
 10
-237.000000
 20
-54.000004
 40
2.700000
  0
ARC
  8
0
 10
-193.649994
 20
-32.549316
 40
4.100002
 50
300.000031
 51
0.000000
  0
ARC
  8
0
 10
-193.649994
 20
-32.450726
 40
4.100006
 50
359.999939
 51
59.999969
  0
ARC
  8
0
 10
-193.650009
 20
-75.549316
 40
4.100002
 50
300.000031
 51
0.000000
  0
ARC
  8
0
 10
-193.650009
 20
-75.450729
 40
4.099991
 50
0.000000
 51
59.999969
  0
ARC
  8
0
 10
-206.799988
 20
-18.644676
 40
17.999996
 50
343.398468
 51
16.601528
  0
ARC
  8
0
 10
-192.041946
 20
-23.044682
 40
2.600000
 50
270.000000
 51
343.398468
  0
ARC
  8
0
 10
-192.041946
 20
-14.244678
 40
2.600003
 50
16.601479
 51
90.000000
  0
ARC
  8
0
 10
-206.800018
 20
-89.355362
 40
17.999996
 50
343.398468
 51
16.601540
  0
ARC
  8
0
 10
-232.844315
 20
-125.059761
 40
0.755692
 50
180.000580
 51
194.106384
  0
ARC
  8
0
 10
-232.646759
 20
-124.987335
 40
0.965201
 50
195.417969
 51
231.388992
  0
ARC
  8
0
 10
-232.100006
 20
-124.188530
 40
1.931886
 50
233.502457
 51
306.497528
  0
ARC
  8
0
 10
-231.553253
 20
-124.987335
 40
0.965195
 50
308.610992
 51
344.582031
  0
ARC
  8
0
 10
-231.355698
 20
-125.059761
 40
0.755698
 50
345.893616
 51
0.000000
  0
ARC
  8
0
 10
-230.636215
 20
-137.221985
 40
1.486205
 50
354.646179
 51
14.106581
  0
ARC
  8
0
 10
-231.024750
 20
-137.364410
 40
1.898237
 50
15.417706
 51
51.388241
  0
ARC
  8
0
 10
-232.100006
 20
-138.935364
 40
3.799348
 50
53.502098
 51
126.498039
  0
ARC
  8
0
 10
-233.175262
 20
-137.364426
 40
1.898228
 50
128.611755
 51
164.582291
  0
ARC
  8
0
 10
-233.563797
 20
-137.221985
 40
1.486205
 50
165.893997
 51
185.331360
  0
ARC
  8
0
 10
-232.099976
 20
-133.820480
 40
4.532871
 50
245.111389
 51
294.901825
  0
ARC
  8
0
 10
-239.555679
 20
-132.555084
 40
0.755696
 50
345.894165
 51
14.106952
  0
ARC
  8
0
 10
-239.753235
 20
-132.627502
 40
0.965201
 50
15.417976
 51
51.388714
  0
ARC
  8
0
 10
-240.299988
 20
-133.426315
 40
1.931886
 50
53.502457
 51
126.497543
  0
ARC
  8
0
 10
-240.846741
 20
-132.627502
 40
0.965189
 50
128.611282
 51
164.582901
  0
ARC
  8
0
 10
-241.044296
 20
-132.555084
 40
0.755696
 50
165.894165
 51
194.106949
  0
ARC
  8
0
 10
-240.846741
 20
-132.482666
 40
0.965201
 50
195.417969
 51
231.388718
  0
ARC
  8
0
 10
-240.299988
 20
-131.683853
 40
1.931886
 50
233.502457
 51
306.497528
  0
ARC
  8
0
 10
-239.753235
 20
-132.482666
 40
0.965189
 50
308.611298
 51
344.582886
  0
ARC
  8
0
 10
-232.919708
 20
-137.221985
 40
2.130295
 50
183.763168
 51
191.773605
  0
ARC
  8
0
 10
-232.702148
 20
-137.155518
 40
2.356934
 50
192.276260
 51
225.305832
  0
ARC
  8
0
 10
-232.100006
 20
-136.422424
 40
3.302730
 50
226.824921
 51
313.175262
  0
ARC
  8
0
 10
-231.497864
 20
-137.155518
 40
2.356923
 50
314.694427
 51
347.724091
  0
ARC
  8
0
 10
-231.280304
 20
-137.221985
 40
2.130295
 50
348.226776
 51
3.762753
  0
ARC
  8
0
 10
-239.881317
 20
-132.555084
 40
0.425078
 50
345.894928
 51
14.107077
  0
ARC
  8
0
 10
-239.992447
 20
-132.595825
 40
0.542932
 50
15.418522
 51
51.388477
  0
ARC
  8
0
 10
-240.299988
 20
-133.045151
 40
1.086684
 50
53.502438
 51
126.497559
  0
ARC
  8
0
 10
-240.607529
 20
-132.595825
 40
0.542927
 50
128.611526
 51
164.583038
  0
ARC
  8
0
 10
-240.718658
 20
-132.555084
 40
0.425078
 50
165.894913
 51
194.107071
  0
ARC
  8
0
 10
-240.607529
 20
-132.514343
 40
0.542932
 50
195.418518
 51
231.388474
  0
ARC
  8
0
 10
-240.299988
 20
-132.065018
 40
1.086684
 50
233.502441
 51
306.497559
  0
ARC
  8
0
 10
-239.992447
 20
-132.514343
 40
0.542927
 50
308.611511
 51
344.583038
  0
ARC
  8
0
 10
-231.355698
 20
17.059759
 40
0.755692
 50
0.000145
 51
14.106391
  0
ARC
  8
0
 10
-231.553253
 20
16.987335
 40
0.965201
 50
15.417867
 51
51.388924
  0
ARC
  8
0
 10
-232.100006
 20
16.188534
 40
1.931881
 50
53.502357
 51
126.497574
  0
ARC
  8
0
 10
-232.646759
 20
16.987337
 40
0.965195
 50
128.611008
 51
164.582031
  0
ARC
  8
0
 10
-232.844315
 20
17.059763
 40
0.755698
 50
165.893616
 51
179.999573
  0
ARC
  8
0
 10
-233.563797
 20
29.221998
 40
1.486211
 50
174.669006
 51
194.106293
  0
ARC
  8
0
 10
-233.175262
 20
29.364429
 40
1.898236
 50
195.417648
 51
231.388275
  0
ARC
  8
0
 10
-232.100006
 20
30.935371
 40
3.799340
 50
233.502014
 51
306.497864
  0
ARC
  8
0
 10
-231.024750
 20
29.364422
 40
1.898236
 50
308.611572
 51
344.582031
  0
ARC
  8
0
 10
-230.636215
 20
29.221987
 40
1.486209
 50
345.893433
 51
5.354196
  0
ARC
  8
0
 10
-232.099976
 20
25.820477
 40
4.532881
 50
65.098045
 51
114.888565
  0
ARC
  8
0
 10
-239.555679
 20
24.555092
 40
0.755699
 50
345.893463
 51
14.106391
  0
ARC
  8
0
 10
-239.753235
 20
24.482668
 40
0.965201
 50
15.417867
 51
51.388924
  0
ARC
  8
0
 10
-240.299988
 20
23.683868
 40
1.931880
 50
53.502323
 51
126.497643
  0
ARC
  8
0
 10
-240.846741
 20
24.482668
 40
0.965195
 50
128.611008
 51
164.582031
  0
ARC
  8
0
 10
-241.044296
 20
24.555092
 40
0.755699
 50
165.893463
 51
194.106384
  0
ARC
  8
0
 10
-240.846741
 20
24.627516
 40
0.965201
 50
195.417862
 51
231.388931
  0
ARC
  8
0
 10
-240.299988
 20
25.426315
 40
1.931880
 50
233.502319
 51
306.497650
  0
ARC
  8
0
 10
-239.753235
 20
24.627516
 40
0.965195
 50
308.610992
 51
344.582031
  0
ARC
  8
0
 10
-231.280304
 20
29.221991
 40
2.130295
 50
356.237030
 51
11.773361
  0
ARC
  8
0
 10
-231.497864
 20
29.155523
 40
2.356932
 50
12.276036
 51
45.305668
  0
ARC
  8
0
 10
-232.100006
 20
28.422424
 40
3.302727
 50
46.824875
 51
133.175034
  0
ARC
  8
0
 10
-232.702148
 20
29.155525
 40
2.356931
 50
134.694229
 51
167.723831
  0
ARC
  8
0
 10
-232.919708
 20
29.221994
 40
2.130297
 50
168.226532
 51
176.237091
  0
ARC
  8
0
 10
-239.881317
 20
24.555088
 40
0.425081
 50
345.893158
 51
14.106079
  0
ARC
  8
0
 10
-239.992447
 20
24.514351
 40
0.542929
 50
15.417357
 51
51.388226
  0
ARC
  8
0
 10
-240.299988
 20
24.065027
 40
1.086679
 50
53.502258
 51
126.497444
  0
ARC
  8
0
 10
-240.607529
 20
24.514355
 40
0.542928
 50
128.611404
 51
164.581665
  0
ARC
  8
0
 10
-240.718658
 20
24.555096
 40
0.425081
 50
165.893173
 51
194.106079
  0
ARC
  8
0
 10
-240.607529
 20
24.595833
 40
0.542929
 50
195.417358
 51
231.388229
  0
ARC
  8
0
 10
-240.299988
 20
25.045156
 40
1.086679
 50
233.502258
 51
306.497437
  0
ARC
  8
0
 10
-239.992447
 20
24.595829
 40
0.542928
 50
308.611389
 51
344.581665
  0
POLYLINE
  8
0
 66
     1
  0
VERTEX
  8
0
 10
-214.874985
 20
-126.722794
  0
VERTEX
  8
0
 10
-215.585617
 20
-126.816696
  0
VERTEX
  8
0
 10
-216.293457
 20
-126.879707
  0
VERTEX
  8
0
 10
-217.000000
 20
-126.902725
  0
VERTEX
  8
0
 10
-217.706802
 20
-126.879684
  0
VERTEX
  8
0
 10
-218.415009
 20
-126.816635
  0
VERTEX
  8
0
 10
-219.126007
 20
-126.722649
  0
SEQEND
  0
ARC
  8
0
 10
-215.114426
 20
-124.357132
 40
1.914413
 50
0.000000
 51
14.106465
  0
ARC
  8
0
 10
-215.614899
 20
-124.540611
 40
2.445160
 50
15.418061
 51
51.388718
  0
ARC
  8
0
 10
-217.000000
 20
-126.564240
 40
4.894101
 50
53.502293
 51
126.497650
  0
ARC
  8
0
 10
-218.385101
 20
-124.540611
 40
2.445169
 50
128.611176
 51
164.581940
  0
ARC
  8
0
 10
-218.885574
 20
-124.357132
 40
1.914420
 50
165.893539
 51
180.000000
  0
ARC
  8
0
 10
-218.170334
 20
-125.757584
 40
2.329666
 50
179.973724
 51
192.317307
  0
ARC
  8
0
 10
-217.859787
 20
-125.658409
 40
2.654405
 50
192.978775
 51
226.721817
  0
ARC
  8
0
 10
-217.001083
 20
-124.566933
 40
4.039587
 50
228.467896
 51
252.765182
  0
ARC
  8
0
 10
-215.614899
 20
-124.880768
 40
2.445165
 50
327.737427
 51
344.581940
  0
ARC
  8
0
 10
-215.114426
 20
-125.064247
 40
1.914420
 50
345.893524
 51
14.106465
  0
ARC
  8
0
 10
-215.614899
 20
-125.247726
 40
2.445160
 50
15.418061
 51
51.388718
  0
ARC
  8
0
 10
-217.000000
 20
-127.271362
 40
4.894106
 50
53.502346
 51
126.497597
  0
ARC
  8
0
 10
-218.385101
 20
-125.247726
 40
2.445169
 50
128.611176
 51
164.581940
  0
ARC
  8
0
 10
-218.885574
 20
-125.064247
 40
1.914420
 50
165.893539
 51
194.106461
  0
ARC
  8
0
 10
-218.385101
 20
-124.880768
 40
2.445160
 50
195.418060
 51
211.651123
  0
ARC
  8
0
 10
-215.263458
 20
-125.064247
 40
1.763458
 50
0.000000
 51
14.105864
  0
ARC
  8
0
 10
-215.724380
 20
-125.233215
 40
2.252249
 50
15.417123
 51
51.386932
  0
ARC
  8
0
 10
-217.000000
 20
-127.096802
 40
4.507541
 50
53.500561
 51
126.499382
  0
ARC
  8
0
 10
-218.275620
 20
-125.233215
 40
2.252254
 50
128.612946
 51
164.582870
  0
ARC
  8
0
 10
-218.736542
 20
-125.064247
 40
1.763455
 50
165.894135
 51
180.000000
  0
ARC
  8
0
 10
-237.312714
 20
-103.497505
 40
1.712696
 50
345.892456
 51
14.107307
  0
ARC
  8
0
 10
-237.760559
 20
-103.661697
 40
2.187627
 50
15.419139
 51
51.390560
  0
ARC
  8
0
 10
-239.000015
 20
-105.472656
 40
4.379152
 50
53.504333
 51
126.495445
  0
ARC
  8
0
 10
-240.239471
 20
-103.661697
 40
2.187623
 50
128.609009
 51
164.580673
  0
ARC
  8
0
 10
-240.687317
 20
-103.497505
 40
1.712696
 50
165.892441
 51
194.107315
  0
ARC
  8
0
 10
-240.239471
 20
-103.333313
 40
2.187627
 50
195.419144
 51
231.390564
  0
ARC
  8
0
 10
-239.000015
 20
-101.522354
 40
4.379152
 50
233.504333
 51
306.495453
  0
ARC
  8
0
 10
-237.760559
 20
-103.333313
 40
2.187623
 50
308.609009
 51
344.580658
  0
ARC
  8
0
 10
-237.312683
 20
-4.502504
 40
1.712695
 50
345.892578
 51
14.107292
  0
ARC
  8
0
 10
-237.760544
 20
-4.666695
 40
2.187641
 50
15.418984
 51
51.390347
  0
ARC
  8
0
 10
-238.999985
 20
-6.477636
 40
4.379143
 50
53.504246
 51
126.495552
  0
ARC
  8
0
 10
-240.239426
 20
-4.666692
 40
2.187633
 50
128.609299
 51
164.580902
  0
ARC
  8
0
 10
-240.687286
 20
-4.502501
 40
1.712695
 50
165.892578
 51
194.107285
  0
ARC
  8
0
 10
-240.239426
 20
-4.338310
 40
2.187641
 50
195.418991
 51
231.390350
  0
ARC
  8
0
 10
-238.999985
 20
-2.527368
 40
4.379143
 50
233.504242
 51
306.495544
  0
ARC
  8
0
 10
-237.760544
 20
-4.338313
 40
2.187633
 50
308.609283
 51
344.580902
  0
ARC
  8
0
 10
-189.449997
 20
-50.353333
 40
1.673065
 50
270.000000
 51
281.890137
  0
ARC
  8
0
 10
-189.138306
 20
-51.795177
 40
0.198095
 50
279.595276
 51
311.580750
  0
ARC
  8
0
 10
-189.025696
 20
-51.925903
 40
0.025696
 50
317.219940
 51
42.780064
  0
ARC
  8
0
 10
-189.138306
 20
-52.056629
 40
0.198094
 50
48.419239
 51
80.404724
  0
ARC
  8
0
 10
-189.449997
 20
-53.498474
 40
1.673065
 50
78.109863
 51
90.000000
  0
ARC
  8
0
 10
-217.001083
 20
-124.566933
 40
4.039583
 50
287.195648
 51
311.636566
  0
ARC
  8
0
 10
-216.140396
 20
-125.656837
 40
2.654407
 50
313.382690
 51
347.125793
  0
ARC
  8
0
 10
-215.829666
 20
-125.755447
 40
2.329669
 50
347.787323
 51
359.973724
  0
POINT
  8
0
 10
-205.500000
 20
-291.000000
  0
POINT
  8
0
 10
-250.000000
 20
-291.000000
  0
LINE
  8
0
 10
-240.500000
 20
-251.402023
 11
-240.500000
 21
-252.000000
  0
LINE
  8
0
 10
-225.000000
 20
-232.313782
 11
-213.000000
 21
-232.313782
  0
LINE
  8
0
 10
-225.000000
 20
-245.348099
 11
-213.000000
 21
-245.348099
  0
LINE
  8
0
 10
-224.999985
 20
-349.686157
 11
-212.999985
 21
-349.686157
  0
LINE
  8
0
 10
-224.999985
 20
-370.964050
 11
-212.999985
 21
-370.964050
  0
LINE
  8
0
 10
-240.500000
 20
-251.402023
 11
-227.000000
 21
-251.402023
  0
LINE
  8
0
 10
-240.500000
 20
-286.050262
 11
-231.995789
 21
-286.050262
  0
LINE
  8
0
 10
-240.500000
 20
-295.539124
 11
-231.997040
 21
-295.539124
  0
LINE
  8
0
 10
-240.500000
 20
-327.062439
 11
-232.000031
 21
-327.062439
  0
LINE
  8
0
 10
-227.000000
 20
-228.774597
 11
-227.000000
 21
-356.760925
  0
LINE
  8
0
 10
-227.000000
 20
-364.892639
 11
-227.000000
 21
-368.964050
  0
LINE
  8
0
 10
-234.699997
 20
-357.821594
 11
-236.199997
 21
-357.821594
  0
LINE
  8
0
 10
-236.199982
 20
-364.892670
 11
-236.199982
 21
-353.225403
  0
LINE
  8
0
 10
-213.000000
 20
-364.892670
 11
-213.000000
 21
-356.760925
  0
LINE
  8
0
 10
-213.000000
 20
-364.892670
 11
-214.683060
 21
-364.892670
  0
LINE
  8
0
 10
-213.000000
 20
-357.821594
 11
-228.500000
 21
-357.821594
  0
LINE
  8
0
 10
-213.000000
 20
-356.760925
 11
-227.000000
 21
-356.760925
  0
LINE
  8
0
 10
-228.500000
 20
-357.821594
 11
-234.699997
 21
-357.821594
  0
LINE
  8
0
 10
-228.500000
 20
-364.892670
 11
-234.699997
 21
-364.892670
  0
LINE
  8
0
 10
-228.500000
 20
-364.892670
 11
-228.500000
 21
-354.286072
  0
LINE
  8
0
 10
-234.699997
 20
-364.892670
 11
-236.199997
 21
-364.892670
  0
LINE
  8
0
 10
-227.000000
 20
-353.225403
 11
-236.199997
 21
-353.225403
  0
LINE
  8
0
 10
-228.500000
 20
-354.286072
 11
-234.699997
 21
-354.286072
  0
LINE
  8
0
 10
-234.699982
 20
-364.892670
 11
-234.699982
 21
-354.286072
  0
LINE
  8
0
 10
-213.199982
 20
-362.065186
 11
-213.199982
 21
-361.356201
  0
LINE
  8
0
 10
-220.799988
 20
-362.065186
 11
-220.799988
 21
-361.356201
  0
LINE
  8
0
 10
-213.499985
 20
-362.757385
 11
-213.499985
 21
-362.063416
  0
LINE
  8
0
 10
-220.499985
 20
-362.757385
 11
-220.499985
 21
-362.063416
  0
LINE
  8
0
 10
-216.999985
 20
-365.225647
 11
-216.999985
 21
-362.219666
  0
LINE
  8
0
 10
-219.316910
 20
-364.892670
 11
-228.500000
 21
-364.892670
  0
LINE
  8
0
 10
-211.000000
 20
-217.127472
 11
-211.000000
 21
-368.964050
  0
LINE
  8
0
 10
-240.500000
 20
-270.000000
 11
-240.500000
 21
-327.062439
  0
LINE
  8
0
 10
-244.000000
 20
-249.634491
 11
-242.500000
 21
-249.634491
  0
LINE
  8
0
 10
-244.000000
 20
-222.410873
 11
-241.500000
 21
-222.410873
  0
LINE
  8
0
 10
-242.500000
 20
-223.471527
 11
-241.500000
 21
-223.471527
  0
LINE
  8
0
 10
-242.500000
 20
-223.471527
 11
-242.500000
 21
-249.634491
  0
LINE
  8
0
 10
-228.399994
 20
-213.147583
 11
-235.799988
 21
-213.147583
  0
LINE
  8
0
 10
-227.600006
 20
-211.167679
 11
-236.599991
 21
-211.167679
  0
LINE
  8
0
 10
-227.600006
 20
-205.717926
 11
-236.599991
 21
-205.717926
  0
LINE
  8
0
 10
-228.399994
 20
-204.869400
 11
-235.799988
 21
-204.869400
  0
LINE
  8
0
 10
-228.399994
 20
-217.531647
 11
-235.799988
 21
-217.531647
  0
LINE
  8
0
 10
-236.299988
 20
-217.031647
 11
-236.299988
 21
-212.233368
  0
LINE
  8
0
 10
-237.099991
 20
-215.617432
 11
-237.099991
 21
-206.217926
  0
LINE
  8
0
 10
-227.899994
 20
-217.031647
 11
-227.899994
 21
-212.233368
  0
LINE
  8
0
 10
-227.100006
 20
-215.617432
 11
-227.100006
 21
-206.217926
  0
LINE
  8
0
 10
-228.399994
 20
-211.733368
 11
-235.799988
 21
-211.733368
  0
LINE
  8
0
 10
-237.600006
 20
-216.117432
 11
-236.300003
 21
-216.117432
  0
LINE
  8
0
 10
-227.899994
 20
-205.717926
 11
-227.899994
 21
-205.369400
  0
LINE
  8
0
 10
-236.299988
 20
-205.717926
 11
-236.299988
 21
-205.369400
  0
LINE
  8
0
 10
-227.900009
 20
-216.117432
 11
-226.599991
 21
-216.117432
  0
LINE
  8
0
 10
-243.600006
 20
-215.834595
 11
-237.600006
 21
-215.834595
  0
LINE
  8
0
 10
-226.599991
 20
-216.117432
 11
-226.599991
 21
-210.177734
  0
LINE
  8
0
 10
-237.600006
 20
-216.117432
 11
-237.600006
 21
-210.177734
  0
LINE
  8
0
 10
-235.600006
 20
-223.064331
 11
-235.600006
 21
-217.531647
  0
LINE
  8
0
 10
-228.600006
 20
-223.064331
 11
-228.600006
 21
-217.531647
  0
LINE
  8
0
 10
-226.599991
 20
-215.834595
 11
-221.599991
 21
-215.834595
  0
LINE
  8
0
 10
-233.600037
 20
-220.501495
 11
-233.600037
 21
-223.064331
  0
LINE
  8
0
 10
-230.599991
 20
-220.501495
 11
-230.599991
 21
-223.064331
  0
LINE
  8
0
 10
-221.599991
 20
-221.279297
 11
-221.599991
 21
-210.177734
  0
LINE
  8
0
 10
-243.600006
 20
-210.177734
 11
-237.600006
 21
-210.177734
  0
LINE
  8
0
 10
-237.600006
 20
-210.460571
 11
-237.099991
 21
-210.460571
  0
LINE
  8
0
 10
-227.100006
 20
-210.460571
 11
-226.599991
 21
-210.460571
  0
LINE
  8
0
 10
-226.599991
 20
-210.177734
 11
-221.599991
 21
-210.177734
  0
LINE
  8
0
 10
-243.600006
 20
-221.279297
 11
-235.599991
 21
-221.279297
  0
LINE
  8
0
 10
-228.599991
 20
-221.279297
 11
-221.599991
 21
-221.279297
  0
LINE
  8
0
 10
-219.600006
 20
-217.627472
 11
-219.600006
 21
-212.627472
  0
LINE
  8
0
 10
-221.599991
 20
-217.627472
 11
-219.600006
 21
-217.627472
  0
LINE
  8
0
 10
-219.600006
 20
-217.127472
 11
-173.100006
 21
-217.127472
  0
LINE
  8
0
 10
-219.600006
 20
-213.127472
 11
-173.100006
 21
-213.127472
  0
LINE
  8
0
 10
-221.599991
 20
-212.627472
 11
-219.600006
 21
-212.627472
  0
LINE
  8
0
 10
-243.600006
 20
-221.279297
 11
-243.600006
 21
-210.177734
  0
LINE
  8
0
 10
-227.500000
 20
-222.764526
 11
-227.500000
 21
-221.279495
  0
LINE
  8
0
 10
-173.100006
 20
-213.127472
 11
-173.100006
 21
-217.127472
  0
LINE
  8
0
 10
-173.100006
 20
-215.427490
 11
-170.100006
 21
-215.427490
  0
LINE
  8
0
 10
-173.100006
 20
-214.827484
 11
-170.100006
 21
-214.827484
  0
LINE
  8
0
 10
-173.100006
 20
-216.427490
 11
-170.100006
 21
-216.427490
  0
LINE
  8
0
 10
-173.100006
 20
-213.827484
 11
-170.100006
 21
-213.827484
  0
LINE
  8
0
 10
-170.100006
 20
-213.827484
 11
-170.100006
 21
-214.827484
  0
LINE
  8
0
 10
-170.100006
 20
-215.427490
 11
-170.100006
 21
-216.427490
  0
LINE
  8
0
 10
-170.100006
 20
-213.952484
 11
-168.600006
 21
-213.952484
  0
LINE
  8
0
 10
-170.100006
 20
-214.077484
 11
-168.600006
 21
-214.077484
  0
LINE
  8
0
 10
-170.100006
 20
-214.202484
 11
-168.600006
 21
-214.202484
  0
LINE
  8
0
 10
-170.100006
 20
-214.327484
 11
-168.600006
 21
-214.327484
  0
LINE
  8
0
 10
-170.100006
 20
-214.452484
 11
-168.600006
 21
-214.452484
  0
LINE
  8
0
 10
-170.100006
 20
-214.577484
 11
-168.600006
 21
-214.577484
  0
LINE
  8
0
 10
-170.100006
 20
-214.702484
 11
-168.600006
 21
-214.702484
  0
LINE
  8
0
 10
-170.100006
 20
-215.552490
 11
-168.600006
 21
-215.552490
  0
LINE
  8
0
 10
-170.100006
 20
-215.677490
 11
-168.600006
 21
-215.677490
  0
LINE
  8
0
 10
-170.100006
 20
-215.802490
 11
-168.600006
 21
-215.802490
  0
LINE
  8
0
 10
-170.100006
 20
-215.927490
 11
-168.600006
 21
-215.927490
  0
LINE
  8
0
 10
-170.100006
 20
-216.052490
 11
-168.600006
 21
-216.052490
  0
LINE
  8
0
 10
-170.100006
 20
-216.177490
 11
-168.600006
 21
-216.177490
  0
LINE
  8
0
 10
-170.100006
 20
-216.302490
 11
-168.600006
 21
-216.302490
  0
LINE
  8
0
 10
-241.500000
 20
-223.471527
 11
-241.500000
 21
-222.410873
  0
LINE
  8
0
 10
-240.500000
 20
-222.764526
 11
-240.500000
 21
-221.703873
  0
LINE
  8
0
 10
-240.500000
 20
-221.703873
 11
-241.500000
 21
-222.410873
  0
LINE
  8
0
 10
-240.500000
 20
-222.764526
 11
-241.500000
 21
-223.471527
  0
LINE
  8
0
 10
-240.500000
 20
-221.703873
 11
-235.600006
 21
-221.703873
  0
LINE
  8
0
 10
-240.500000
 20
-222.764526
 11
-235.600006
 21
-222.764526
  0
LINE
  8
0
 10
-233.600037
 20
-221.703873
 11
-230.599991
 21
-221.703873
  0
LINE
  8
0
 10
-233.600037
 20
-222.764526
 11
-230.599991
 21
-222.764526
  0
LINE
  8
0
 10
-228.600006
 20
-221.703873
 11
-227.500000
 21
-221.703873
  0
LINE
  8
0
 10
-228.600006
 20
-222.764526
 11
-227.500000
 21
-222.764526
  0
LINE
  8
0
 10
-228.600006
 20
-223.064331
 11
-230.599991
 21
-223.064331
  0
LINE
  8
0
 10
-233.600037
 20
-223.064331
 11
-235.600006
 21
-223.064331
  0
LINE
  8
0
 10
-240.520966
 20
-232.139999
 11
-241.500000
 21
-232.139999
  0
LINE
  8
0
 10
-240.520966
 20
-239.139999
 11
-241.500000
 21
-239.139999
  0
LINE
  8
0
 10
-241.500000
 20
-231.839996
 11
-242.500000
 21
-231.839996
  0
LINE
  8
0
 10
-241.500000
 20
-239.440002
 11
-242.500000
 21
-239.440002
  0
LINE
  8
0
 10
-241.500000
 20
-231.839996
 11
-241.500000
 21
-245.800003
  0
LINE
  8
0
 10
-242.500000
 20
-237.238739
 11
-241.500000
 21
-236.970795
  0
LINE
  8
0
 10
-240.520966
 20
-245.500000
 11
-241.500000
 21
-245.500000
  0
LINE
  8
0
 10
-241.500000
 20
-245.800003
 11
-242.500000
 21
-245.800003
  0
LINE
  8
0
 10
-242.500000
 20
-243.598755
 11
-241.500000
 21
-243.330795
  0
LINE
  8
0
 10
-213.000000
 20
-224.178406
 11
-228.500000
 21
-224.178406
  0
LINE
  8
0
 10
-213.000000
 20
-225.239075
 11
-227.000000
 21
-225.239075
  0
LINE
  8
0
 10
-228.500000
 20
-227.713943
 11
-234.699997
 21
-227.713943
  0
LINE
  8
0
 10
-227.000000
 20
-228.774597
 11
-236.199997
 21
-228.774597
  0
LINE
  8
0
 10
-228.500000
 20
-224.178406
 11
-234.699997
 21
-224.178406
  0
LINE
  8
0
 10
-227.000000
 20
-225.239075
 11
-227.000000
 21
-228.774597
  0
LINE
  8
0
 10
-234.699997
 20
-224.178406
 11
-236.199997
 21
-224.178406
  0
LINE
  8
0
 10
-220.800003
 20
-219.934830
 11
-220.800003
 21
-220.643799
  0
LINE
  8
0
 10
-213.199997
 20
-219.934814
 11
-213.199997
 21
-220.643799
  0
LINE
  8
0
 10
-220.500000
 20
-219.242630
 11
-220.500000
 21
-219.936615
  0
LINE
  8
0
 10
-213.500000
 20
-219.242630
 11
-213.500000
 21
-219.936615
  0
LINE
  8
0
 10
-217.000000
 20
-216.774353
 11
-217.000000
 21
-219.780365
  0
LINE
  8
0
 10
-236.199997
 20
-222.764526
 11
-236.199997
 21
-228.774597
  0
LINE
  8
0
 10
-234.699997
 20
-223.064331
 11
-234.699997
 21
-227.713943
  0
LINE
  8
0
 10
-228.500000
 20
-222.764526
 11
-228.500000
 21
-227.713943
  0
LINE
  8
0
 10
-213.000000
 20
-217.127472
 11
-213.000000
 21
-225.239075
  0
LINE
  8
0
 10
-233.600006
 20
-221.279297
 11
-230.599960
 21
-221.279297
  0
LINE
  8
0
 10
-244.000015
 20
-155.952301
 11
-194.000015
 21
-155.952301
  0
LINE
  8
0
 10
-239.202103
 20
-237.952301
 11
-227.000000
 21
-237.952301
  0
LINE
  8
0
 10
-194.000000
 20
-165.454071
 11
-189.450012
 21
-165.454071
  0
LINE
  8
0
 10
-194.000000
 20
-170.124924
 11
-189.450012
 21
-170.124924
  0
LINE
  8
0
 10
-194.000000
 20
-175.399292
 11
-189.450012
 21
-175.399292
  0
LINE
  8
0
 10
-192.000000
 20
-233.647461
 11
-177.300018
 21
-233.647461
  0
LINE
  8
0
 10
-188.921371
 20
-201.147461
 11
-177.300003
 21
-201.147461
  0
LINE
  8
0
 10
-194.000000
 20
-237.397461
 11
-192.000000
 21
-237.397461
  0
LINE
  8
0
 10
-194.000000
 20
-176.002777
 11
-189.450012
 21
-176.002777
  0
LINE
  8
0
 10
-250.000000
 20
-274.000000
 11
-244.000000
 21
-274.000000
  0
LINE
  8
0
 10
-250.000000
 20
-200.399994
 11
-244.000000
 21
-200.399994
  0
LINE
  8
0
 10
-244.000000
 20
-155.952301
 11
-244.000000
 21
-274.000000
  0
LINE
  8
0
 10
-194.000000
 20
-155.952301
 11
-194.000000
 21
-213.127472
  0
LINE
  8
0
 10
-192.000000
 20
-206.060699
 11
-192.000000
 21
-213.127472
  0
LINE
  8
0
 10
-177.000000
 20
-201.447449
 11
-177.000000
 21
-213.127472
  0
LINE
  8
0
 10
-189.000000
 20
-167.325195
 11
-189.000000
 21
-175.701019
  0
LINE
  8
0
 10
-182.000000
 20
-168.528412
 11
-182.000000
 21
-172.928406
  0
LINE
  8
0
 10
-189.000000
 20
-168.228424
 11
-182.300018
 21
-168.228424
  0
LINE
  8
0
 10
-189.000000
 20
-173.228424
 11
-182.300018
 21
-173.228424
  0
LINE
  8
0
 10
-181.999969
 20
-168.528381
 11
-182.299973
 21
-168.228394
  0
LINE
  8
0
 10
-182.000015
 20
-172.928375
 11
-182.300018
 21
-173.228378
  0
LINE
  8
0
 10
-177.299988
 20
-233.647461
 11
-177.000000
 21
-233.347473
  0
LINE
  8
0
 10
-176.999954
 20
-201.447449
 11
-177.299957
 21
-201.147430
  0
LINE
  8
0
 10
-189.000000
 20
-172.978424
 11
-182.050049
 21
-172.978424
  0
LINE
  8
0
 10
-189.000000
 20
-168.478424
 11
-182.049988
 21
-168.478424
  0
LINE
  8
0
 10
-182.300095
 20
-173.228424
 11
-182.300095
 21
-168.228424
  0
LINE
  8
0
 10
-250.000015
 20
-156.000000
 11
-244.000015
 21
-156.000000
  0
LINE
  8
0
 10
-209.518524
 20
-205.672592
 11
-209.518524
 21
-205.955429
  0
LINE
  8
0
 10
-202.318527
 20
-205.672592
 11
-202.318527
 21
-205.955429
  0
LINE
  8
0
 10
-200.918701
 20
-203.873047
 11
-201.001358
 21
-213.312469
  0
LINE
  8
0
 10
-219.225784
 20
-200.427979
 11
-205.949875
 21
-200.369110
  0
LINE
  8
0
 10
-219.225769
 20
-202.195663
 11
-205.949890
 21
-202.136795
  0
LINE
  8
0
 10
-200.918640
 20
-205.640793
 11
-200.984192
 21
-213.127472
  0
LINE
  8
0
 10
-191.600006
 20
-220.997467
 11
-191.600006
 21
-217.127472
  0
LINE
  8
0
 10
-191.600006
 20
-220.997467
 11
-192.000000
 21
-220.997467
  0
LINE
  8
0
 10
-244.000000
 20
-199.060699
 11
-194.000000
 21
-199.060699
  0
LINE
  8
0
 10
-192.041962
 20
-206.060699
 11
-194.000000
 21
-206.060699
  0
LINE
  8
0
 10
-192.041962
 20
-192.060699
 11
-194.000000
 21
-192.060699
  0
LINE
  8
0
 10
-229.000000
 20
-269.673584
 11
-229.000000
 21
-252.326416
  0
LINE
  8
0
 10
-229.699997
 20
-270.000000
 11
-229.699997
 21
-252.000000
  0
LINE
  8
0
 10
-229.700012
 20
-270.000000
 11
-241.000000
 21
-270.000000
  0
LINE
  8
0
 10
-229.699997
 20
-252.000000
 11
-241.000000
 21
-252.000000
  0
LINE
  8
0
 10
-229.000015
 20
-269.673584
 11
-229.700012
 21
-270.000000
  0
LINE
  8
0
 10
-229.000000
 20
-252.326401
 11
-229.699997
 21
-251.999985
  0
LINE
  8
0
 10
-229.700012
 20
-268.000000
 11
-237.020294
 21
-268.000000
  0
LINE
  8
0
 10
-229.700012
 20
-266.000000
 11
-235.865601
 21
-266.000000
  0
LINE
  8
0
 10
-229.700012
 20
-264.000000
 11
-234.710892
 21
-264.000000
  0
LINE
  8
0
 10
-229.700012
 20
-262.000000
 11
-233.556198
 21
-262.000000
  0
LINE
  8
0
 10
-229.700012
 20
-260.000000
 11
-232.401489
 21
-260.000000
  0
LINE
  8
0
 10
-229.700012
 20
-258.000000
 11
-231.246796
 21
-258.000000
  0
LINE
  8
0
 10
-229.700012
 20
-256.000000
 11
-230.092087
 21
-256.000000
  0
LINE
  8
0
 10
-250.600006
 20
-162.649994
 11
-250.600006
 21
-173.149994
  0
LINE
  8
0
 10
-256.600006
 20
-163.500000
 11
-256.600006
 21
-172.299988
  0
LINE
  8
0
 10
-256.000000
 20
-162.899994
 11
-256.000000
 21
-172.899994
  0
LINE
  8
0
 10
-256.000000
 20
-218.799988
 11
-250.600006
 21
-218.799988
  0
LINE
  8
0
 10
-256.000000
 20
-228.799988
 11
-250.600006
 21
-228.799988
  0
LINE
  8
0
 10
-256.000000
 20
-191.199997
 11
-250.600006
 21
-191.199997
  0
LINE
  8
0
 10
-256.000000
 20
-201.199997
 11
-250.600006
 21
-201.199997
  0
LINE
  8
0
 10
-256.000000
 20
-162.899994
 11
-250.600006
 21
-162.899994
  0
LINE
  8
0
 10
-256.000000
 20
-172.899994
 11
-250.600006
 21
-172.899994
  0
LINE
  8
0
 10
-250.600006
 20
-173.149994
 11
-250.000000
 21
-173.149994
  0
LINE
  8
0
 10
-250.600006
 20
-162.649994
 11
-250.000000
 21
-162.649994
  0
LINE
  8
0
 10
-250.600006
 20
-190.949997
 11
-250.000000
 21
-190.949997
  0
LINE
  8
0
 10
-250.600006
 20
-201.449997
 11
-250.000000
 21
-201.449997
  0
LINE
  8
0
 10
-250.600006
 20
-229.049988
 11
-250.000000
 21
-229.049988
  0
LINE
  8
0
 10
-250.600006
 20
-218.549988
 11
-250.000000
 21
-218.549988
  0
LINE
  8
0
 10
-256.000000
 20
-218.799988
 11
-256.000000
 21
-228.799988
  0
LINE
  8
0
 10
-256.600006
 20
-219.399994
 11
-256.600006
 21
-228.199997
  0
LINE
  8
0
 10
-250.600006
 20
-218.549988
 11
-250.600006
 21
-229.049988
  0
LINE
  8
0
 10
-256.600006
 20
-191.799988
 11
-256.600006
 21
-200.600006
  0
LINE
  8
0
 10
-256.000000
 20
-191.199997
 11
-256.000000
 21
-201.199997
  0
LINE
  8
0
 10
-250.600006
 20
-190.949997
 11
-250.600006
 21
-201.449997
  0
LINE
  8
0
 10
-256.000000
 20
-228.799988
 11
-256.600006
 21
-228.199997
  0
LINE
  8
0
 10
-256.600006
 20
-219.399994
 11
-256.000000
 21
-218.799988
  0
LINE
  8
0
 10
-256.000000
 20
-201.199997
 11
-256.600006
 21
-200.600006
  0
LINE
  8
0
 10
-256.600006
 20
-191.799988
 11
-256.000000
 21
-191.199982
  0
LINE
  8
0
 10
-256.000000
 20
-172.899994
 11
-256.600006
 21
-172.299988
  0
LINE
  8
0
 10
-256.600006
 20
-163.499985
 11
-256.000000
 21
-162.899994
  0
LINE
  8
0
 10
-241.000000
 20
-250.250000
 11
-241.000000
 21
-271.750000
  0
LINE
  8
0
 10
-241.000000
 20
-250.250000
 11
-244.000000
 21
-250.250000
  0
LINE
  8
0
 10
-241.000000
 20
-271.750000
 11
-244.000000
 21
-271.750000
  0
LINE
  8
0
 10
-244.000000
 20
-262.732056
 11
-241.000000
 21
-261.000000
  0
LINE
  8
0
 10
-244.000000
 20
-261.346405
 11
-241.000000
 21
-259.614349
  0
LINE
  8
0
 10
-211.000000
 20
-237.952301
 11
-194.000000
 21
-237.952301
  0
LINE
  8
0
 10
-250.000000
 20
-156.000000
 11
-250.000000
 21
-360.000000
  0
LINE
  8
0
 10
-221.599991
 20
-211.035919
 11
-213.000000
 21
-211.035919
  0
LINE
  8
0
 10
-224.999985
 20
-336.652161
 11
-212.999985
 21
-336.652161
  0
LINE
  8
0
 10
-245.500000
 20
-274.000000
 11
-245.500000
 21
-325.500000
  0
LINE
  8
0
 10
-205.500000
 20
-271.850006
 11
-205.500000
 21
-310.149994
  0
LINE
  8
0
 10
-271.500000
 20
-215.000000
 11
-271.500000
 21
-367.000000
  0
LINE
  8
0
 10
-268.954529
 20
-363.000000
 11
-253.000000
 21
-363.000000
  0
LINE
  8
0
 10
-264.500000
 20
-333.000000
 11
-250.000000
 21
-333.000000
  0
LINE
  8
0
 10
-249.600006
 20
-326.000000
 11
-246.000000
 21
-326.000000
  0
LINE
  8
0
 10
-245.500000
 20
-311.000000
 11
-241.550003
 21
-311.000000
  0
LINE
  8
0
 10
-264.500000
 20
-249.000000
 11
-250.000000
 21
-249.000000
  0
LINE
  8
0
 10
-268.954529
 20
-219.000000
 11
-256.200012
 21
-219.000000
  0
LINE
  8
0
 10
-245.999954
 20
-326.000031
 11
-245.499954
 21
-325.500031
  0
LINE
  8
0
 10
-241.500000
 20
-271.750000
 11
-241.500000
 21
-310.950012
  0
LINE
  8
0
 10
-241.500000
 20
-310.950012
 11
-240.500000
 21
-310.950012
  0
LINE
  8
0
 10
-241.000000
 20
-271.049988
 11
-240.500000
 21
-271.049988
  0
LINE
  8
0
 10
-206.299911
 20
-310.950104
 11
-205.499908
 21
-310.150085
  0
LINE
  8
0
 10
-206.299942
 20
-271.049957
 11
-205.499954
 21
-271.849945
  0
LINE
  8
0
 10
-206.299988
 20
-271.049988
 11
-206.299988
 21
-310.950012
  0
LINE
  8
0
 10
-241.549988
 20
-311.000000
 11
-241.499985
 21
-310.950012
  0
LINE
  8
0
 10
-271.500000
 20
-367.000000
 11
-268.954559
 21
-363.000031
  0
LINE
  8
0
 10
-271.500000
 20
-215.000000
 11
-268.954559
 21
-218.999969
  0
LINE
  8
0
 10
-211.000000
 20
-271.260071
 11
-206.299988
 21
-271.260071
  0
LINE
  8
0
 10
-211.000000
 20
-288.112518
 11
-206.299988
 21
-288.112518
  0
LINE
  8
0
 10
-211.000000
 20
-293.887482
 11
-206.299988
 21
-293.887482
  0
LINE
  8
0
 10
-211.000000
 20
-310.739929
 11
-206.299988
 21
-310.739929
  0
LINE
  8
0
 10
-206.300110
 20
-310.739746
 11
-205.500122
 21
-309.984436
  0
LINE
  8
0
 10
-206.299988
 20
-293.887451
 11
-205.500015
 21
-293.511444
  0
LINE
  8
0
 10
-210.999985
 20
-285.796448
 11
-206.299988
 21
-288.112427
  0
LINE
  8
0
 10
-206.299957
 20
-271.260071
 11
-211.000000
 21
-273.576080
  0
LINE
  8
0
 10
-211.000000
 20
-308.423920
 11
-206.299957
 21
-310.739929
  0
LINE
  8
0
 10
-206.299957
 20
-293.887451
 11
-210.999985
 21
-296.203461
  0
LINE
  8
0
 10
-206.300049
 20
-288.112640
 11
-205.500061
 21
-288.488678
  0
LINE
  8
0
 10
-205.499985
 20
-272.015411
 11
-206.299973
 21
-271.260101
  0
LINE
  8
0
 10
-264.500000
 20
-226.991669
 11
-264.500000
 21
-249.000000
  0
LINE
  8
0
 10
-264.500000
 20
-268.791321
 11
-264.500000
 21
-313.208679
  0
LINE
  8
0
 10
-264.500000
 20
-333.000000
 11
-264.500000
 21
-355.008331
  0
LINE
  8
0
 10
-211.000000
 20
-271.049988
 11
-206.300003
 21
-271.049988
  0
LINE
  8
0
 10
-211.000000
 20
-310.950012
 11
-206.300003
 21
-310.950012
  0
LINE
  8
0
 10
-194.000000
 20
-217.127472
 11
-194.000000
 21
-237.952301
  0
LINE
  8
0
 10
-192.000000
 20
-217.127472
 11
-192.000000
 21
-237.397461
  0
LINE
  8
0
 10
-177.000000
 20
-217.127472
 11
-177.000000
 21
-233.347458
  0
LINE
  8
0
 10
-264.500000
 20
-291.000000
 11
-250.000000
 21
-291.000000
  0
LINE
  8
0
 10
-211.000000
 20
-213.035919
 11
-211.000000
 21
-213.127472
  0
LINE
  8
0
 10
-244.000000
 20
-215.339874
 11
-243.600006
 21
-215.339874
  0
ARC
  8
0
 10
-213.000000
 20
-234.313782
 40
2.000000
 50
0.000000
 51
90.000000
  0
ARC
  8
0
 10
-225.000000
 20
-234.313782
 40
2.000000
 50
90.000000
 51
180.000000
  0
ARC
  8
0
 10
-212.999985
 20
-347.686157
 40
2.000000
 50
270.000000
 51
0.000000
  0
ARC
  8
0
 10
-224.999985
 20
-347.686157
 40
2.000000
 50
180.000000
 51
270.000000
  0
ARC
  8
0
 10
-212.999985
 20
-368.964050
 40
2.000000
 50
270.000000
 51
0.000000
  0
ARC
  8
0
 10
-224.999985
 20
-368.964050
 40
2.000000
 50
180.000000
 51
270.000000
  0
CIRCLE
  8
0
 10
-216.999985
 20
-363.902740
 40
0.010000
  0
CIRCLE
  8
0
 10
-218.100006
 20
-215.983063
 40
0.010000
  0
CIRCLE
  8
0
 10
-231.081482
 20
-225.904785
 40
0.010000
  0
ARC
  8
0
 10
-235.800003
 20
-217.031647
 40
0.500000
 50
180.000000
 51
270.000000
  0
ARC
  8
0
 10
-227.600006
 20
-206.217926
 40
0.500000
 50
0.000000
 51
90.000000
  0
ARC
  8
0
 10
-227.600006
 20
-215.617432
 40
0.500000
 50
270.000000
 51
0.000000
  0
ARC
  8
0
 10
-236.599991
 20
-206.217926
 40
0.500000
 50
90.000000
 51
180.000000
  0
ARC
  8
0
 10
-228.399994
 20
-212.233368
 40
0.500000
 50
0.000000
 51
90.000000
  0
ARC
  8
0
 10
-235.800003
 20
-212.233368
 40
0.500000
 50
90.000000
 51
180.000000
  0
ARC
  8
0
 10
-235.800003
 20
-205.369400
 40
0.500000
 50
90.000000
 51
180.000000
  0
ARC
  8
0
 10
-228.399994
 20
-205.369400
 40
0.500000
 50
0.000000
 51
90.000000
  0
ARC
  8
0
 10
-228.399994
 20
-217.031647
 40
0.500000
 50
270.000000
 51
0.000000
  0
ARC
  8
0
 10
-240.520966
 20
-233.440002
 40
1.299995
 50
16.601656
 51
90.000000
  0
ARC
  8
0
 10
-247.899994
 20
-235.639984
 40
9.000007
 50
343.398285
 51
16.601418
  0
ARC
  8
0
 10
-240.520966
 20
-237.839981
 40
1.300003
 50
270.000000
 51
343.398529
  0
ARC
  8
0
 10
-240.520966
 20
-239.800003
 40
1.299995
 50
16.601656
 51
48.925293
  0
ARC
  8
0
 10
-247.899994
 20
-241.999985
 40
9.000007
 50
343.398285
 51
16.601418
  0
ARC
  8
0
 10
-240.520966
 20
-244.199982
 40
1.300003
 50
270.000000
 51
343.398529
  0
CIRCLE
  8
0
 10
-217.000000
 20
-218.097275
 40
0.010000
  0
ARC
  8
0
 10
-236.599991
 20
-215.617432
 40
0.500000
 50
180.000000
 51
270.000000
  0
ARC
  8
0
 10
-195.045822
 20
-167.789490
 40
6.063608
 50
337.346588
 51
22.653360
  0
ARC
  8
0
 10
-189.326172
 20
-175.701019
 40
0.326181
 50
247.686935
 51
112.315109
  0
ARC
  8
0
 10
-196.952515
 20
-172.762085
 40
7.952518
 50
340.633026
 51
19.366858
  0
CIRCLE
  8
0
 10
-219.000000
 20
-215.983246
 40
0.010000
  0
CIRCLE
  8
0
 10
-232.081482
 20
-225.904785
 40
0.010000
  0
CIRCLE
  8
0
 10
-205.918533
 20
-207.404785
 40
0.010000
  0
ARC
  8
0
 10
-193.650009
 20
-217.446747
 40
4.100016
 50
299.999939
 51
4.466249
  0
ARC
  8
0
 10
-206.800003
 20
-199.060699
 40
17.999996
 50
343.398468
 51
16.601540
  0
ARC
  8
0
 10
-192.041962
 20
-203.460693
 40
2.600006
 50
270.000000
 51
343.398437
  0
ARC
  8
0
 10
-192.041962
 20
-194.660690
 40
2.600005
 50
16.601559
 51
90.000000
  0
ARC
  8
0
 10
-213.000000
 20
-213.035919
 40
2.000000
 50
0.000000
 51
90.000000
  0
ARC
  8
0
 10
-253.000000
 20
-360.000000
 40
3.000000
 50
270.000000
 51
0.000000
  0
ARC
  8
0
 10
-249.600006
 20
-326.399994
 40
0.399994
 50
90.000000
 51
180.000000
  0
ARC
  8
0
 10
-227.457993
 20
-252.302261
 40
2.573867
 50
159.558487
 51
164.582077
  0
ARC
  8
0
 10
-227.984802
 20
-252.109131
 40
2.015191
 50
165.893570
 51
176.873962
  0
ARC
  8
0
 10
-227.822495
 20
-252.350540
 40
3.217316
 50
162.878784
 51
164.582169
  0
ARC
  8
0
 10
-228.481018
 20
-252.109131
 40
2.518985
 50
165.893555
 51
177.522186
  0
ARC
  8
0
 10
-229.519012
 20
-299.074677
 40
2.518982
 50
0.000000
 51
14.106026
  0
ARC
  8
0
 10
-230.177536
 20
-299.316101
 40
3.217345
 50
15.417753
 51
51.388233
  0
ARC
  8
0
 10
-232.000031
 20
-301.978729
 40
6.439592
 50
53.501881
 51
90.000000
  0
ARC
  8
0
 10
-229.519012
 20
-330.597961
 40
2.518982
 50
0.000000
 51
14.106026
  0
ARC
  8
0
 10
-230.177536
 20
-330.839386
 40
3.217345
 50
15.417753
 51
51.388233
  0
ARC
  8
0
 10
-232.000031
 20
-333.502014
 40
6.439592
 50
53.501881
 51
90.000000
  0
ARC
  8
0
 10
-232.000015
 20
-279.610657
 40
6.439606
 50
270.000000
 51
306.497620
  0
ARC
  8
0
 10
-230.177551
 20
-282.273315
 40
3.217334
 50
308.611542
 51
344.582184
  0
ARC
  8
0
 10
-229.519028
 20
-282.514709
 40
2.518988
 50
345.893219
 51
0.000000
  0
POLYLINE
  8
0
 66
     1
  0
VERTEX
  8
0
 10
-214.874985
 20
-363.722809
  0
VERTEX
  8
0
 10
-215.585617
 20
-363.816711
  0
VERTEX
  8
0
 10
-216.293442
 20
-363.879730
  0
VERTEX
  8
0
 10
-216.999985
 20
-363.902740
  0
VERTEX
  8
0
 10
-217.706787
 20
-363.879700
  0
VERTEX
  8
0
 10
-218.414993
 20
-363.816650
  0
VERTEX
  8
0
 10
-219.125992
 20
-363.722656
  0
SEQEND
  0
ARC
  8
0
 10
-215.114410
 20
-361.355103
 40
1.914430
 50
359.938812
 51
14.169265
  0
ARC
  8
0
 10
-215.614685
 20
-361.539124
 40
2.445170
 50
15.480684
 51
51.451256
  0
ARC
  8
0
 10
-216.997574
 20
-363.564270
 40
4.894123
 50
53.564907
 51
126.560143
  0
ARC
  8
0
 10
-218.384888
 20
-361.542145
 40
2.445181
 50
128.673660
 51
164.644653
  0
ARC
  8
0
 10
-218.885559
 20
-361.359192
 40
1.914424
 50
165.956894
 51
179.938812
  0
ARC
  8
0
 10
-218.170319
 20
-362.756531
 40
2.329666
 50
180.000000
 51
192.265121
  0
ARC
  8
0
 10
-217.859680
 20
-362.657654
 40
2.654393
 50
192.926285
 51
226.669403
  0
ARC
  8
0
 10
-216.999985
 20
-361.566956
 40
4.039570
 50
228.415634
 51
311.584351
  0
ARC
  8
0
 10
-216.140289
 20
-362.657654
 40
2.654385
 50
313.330597
 51
347.073730
  0
ARC
  8
0
 10
-215.829651
 20
-362.756531
 40
2.329664
 50
347.734863
 51
0.000000
  0
ARC
  8
0
 10
-215.615082
 20
-361.879272
 40
2.445174
 50
327.710297
 51
344.644653
  0
ARC
  8
0
 10
-215.114410
 20
-362.062225
 40
1.914424
 50
345.956879
 51
14.169265
  0
ARC
  8
0
 10
-215.614685
 20
-362.246246
 40
2.445170
 50
15.480684
 51
51.451256
  0
ARC
  8
0
 10
-216.997574
 20
-364.271393
 40
4.894123
 50
53.564907
 51
126.560143
  0
ARC
  8
0
 10
-218.384888
 20
-362.249268
 40
2.445181
 50
128.673660
 51
164.644653
  0
ARC
  8
0
 10
-218.885559
 20
-362.066315
 40
1.914424
 50
165.956894
 51
194.169266
  0
ARC
  8
0
 10
-218.385284
 20
-361.882294
 40
2.445170
 50
195.480682
 51
211.623199
  0
ARC
  8
0
 10
-215.263443
 20
-362.064270
 40
1.763458
 50
0.000000
 51
14.105864
  0
ARC
  8
0
 10
-215.724365
 20
-362.233246
 40
2.252250
 50
15.417310
 51
51.386932
  0
ARC
  8
0
 10
-216.999985
 20
-364.096832
 40
4.507541
 50
53.500561
 51
126.499435
  0
ARC
  8
0
 10
-218.275604
 20
-362.233246
 40
2.252248
 50
128.613068
 51
164.582687
  0
ARC
  8
0
 10
-218.736526
 20
-362.064270
 40
1.763455
 50
165.894135
 51
180.000000
  0
ARC
  8
0
 10
-231.355698
 20
-220.501495
 40
0.755707
 50
0.000000
 51
14.105829
  0
ARC
  8
0
 10
-231.553253
 20
-220.573914
 40
0.965197
 50
15.417103
 51
51.388714
  0
ARC
  8
0
 10
-232.100006
 20
-221.372726
 40
1.931886
 50
53.502457
 51
126.497543
  0
ARC
  8
0
 10
-232.646759
 20
-220.573914
 40
0.965189
 50
128.611282
 51
164.582031
  0
ARC
  8
0
 10
-232.844315
 20
-220.501495
 40
0.755700
 50
165.893051
 51
179.998840
  0
ARC
  8
0
 10
-233.563797
 20
-208.339249
 40
1.486210
 50
174.669235
 51
194.107147
  0
ARC
  8
0
 10
-233.175262
 20
-208.196823
 40
1.898241
 50
195.418152
 51
231.388535
  0
ARC
  8
0
 10
-232.100006
 20
-206.625870
 40
3.799360
 50
233.502243
 51
306.498047
  0
ARC
  8
0
 10
-231.024750
 20
-208.196808
 40
1.898228
 50
308.611755
 51
344.582306
  0
ARC
  8
0
 10
-230.636215
 20
-208.339249
 40
1.486205
 50
345.893982
 51
5.353830
  0
ARC
  8
0
 10
-232.099976
 20
-211.740753
 40
4.532875
 50
65.098007
 51
114.888535
  0
ARC
  8
0
 10
-239.555679
 20
-213.006165
 40
0.755700
 50
345.893036
 51
14.105829
  0
ARC
  8
0
 10
-239.753235
 20
-213.078583
 40
0.965197
 50
15.417103
 51
51.388714
  0
ARC
  8
0
 10
-240.299988
 20
-213.877396
 40
1.931886
 50
53.502457
 51
126.497543
  0
ARC
  8
0
 10
-240.846741
 20
-213.078583
 40
0.965189
 50
128.611282
 51
164.582031
  0
ARC
  8
0
 10
-241.044296
 20
-213.006165
 40
0.755700
 50
165.893051
 51
194.105835
  0
ARC
  8
0
 10
-240.846741
 20
-212.933746
 40
0.965197
 50
195.417099
 51
231.388718
  0
ARC
  8
0
 10
-240.299988
 20
-212.134933
 40
1.931886
 50
233.502457
 51
306.497528
  0
ARC
  8
0
 10
-239.753235
 20
-212.933746
 40
0.965189
 50
308.611298
 51
344.582031
  0
ARC
  8
0
 10
-231.280304
 20
-208.339249
 40
2.130295
 50
356.236847
 51
11.773211
  0
ARC
  8
0
 10
-231.497864
 20
-208.405716
 40
2.356930
 50
12.275900
 51
45.305569
  0
ARC
  8
0
 10
-232.100006
 20
-209.138809
 40
3.302718
 50
46.824738
 51
133.175079
  0
ARC
  8
0
 10
-232.702148
 20
-208.405716
 40
2.356934
 50
134.694168
 51
167.723740
  0
ARC
  8
0
 10
-232.919708
 20
-208.339249
 40
2.130298
 50
168.226395
 51
176.236832
  0
ARC
  8
0
 10
-239.881317
 20
-213.006165
 40
0.425082
 50
345.892914
 51
14.105082
  0
ARC
  8
0
 10
-239.992447
 20
-213.046906
 40
0.542928
 50
15.416969
 51
51.388477
  0
ARC
  8
0
 10
-240.299988
 20
-213.496231
 40
1.086684
 50
53.502438
 51
126.497559
  0
ARC
  8
0
 10
-240.607529
 20
-213.046906
 40
0.542927
 50
128.611526
 51
164.581482
  0
ARC
  8
0
 10
-240.718658
 20
-213.006165
 40
0.425082
 50
165.892929
 51
194.105087
  0
ARC
  8
0
 10
-240.607529
 20
-212.965424
 40
0.542928
 50
195.416962
 51
231.388474
  0
ARC
  8
0
 10
-240.299988
 20
-212.516098
 40
1.086684
 50
233.502441
 51
306.497559
  0
ARC
  8
0
 10
-239.992447
 20
-212.965424
 40
0.542927
 50
308.611511
 51
344.581482
  0
POLYLINE
  8
0
 66
     1
  0
VERTEX
  8
0
 10
-219.125015
 20
-218.277191
  0
VERTEX
  8
0
 10
-218.414383
 20
-218.183289
  0
VERTEX
  8
0
 10
-217.706543
 20
-218.120285
  0
VERTEX
  8
0
 10
-217.000000
 20
-218.097275
  0
VERTEX
  8
0
 10
-216.293198
 20
-218.120316
  0
VERTEX
  8
0
 10
-215.584991
 20
-218.183365
  0
VERTEX
  8
0
 10
-214.873993
 20
-218.277344
  0
SEQEND
  0
ARC
  8
0
 10
-218.885574
 20
-220.642868
 40
1.914429
 50
180.000000
 51
194.106689
  0
ARC
  8
0
 10
-218.385101
 20
-220.459396
 40
2.445160
 50
195.418060
 51
231.388718
  0
ARC
  8
0
 10
-217.000000
 20
-218.435760
 40
4.894106
 50
233.502350
 51
306.497650
  0
ARC
  8
0
 10
-215.614899
 20
-220.459396
 40
2.445163
 50
308.611298
 51
344.581940
  0
ARC
  8
0
 10
-215.114426
 20
-220.642868
 40
1.914422
 50
345.893311
 51
0.000000
  0
ARC
  8
0
 10
-215.829666
 20
-219.244553
 40
2.329666
 50
0.026269
 51
12.212494
  0
ARC
  8
0
 10
-216.140396
 20
-219.343155
 40
2.654401
 50
12.873873
 51
46.617207
  0
ARC
  8
0
 10
-217.001083
 20
-220.433060
 40
4.039579
 50
48.363350
 51
54.623516
  0
ARC
  8
0
 10
-218.385101
 20
-220.119232
 40
2.445161
 50
147.737579
 51
164.581940
  0
ARC
  8
0
 10
-218.885574
 20
-219.935760
 40
1.914422
 50
165.893311
 51
194.106689
  0
ARC
  8
0
 10
-218.385101
 20
-219.752289
 40
2.445160
 50
195.418060
 51
231.388718
  0
ARC
  8
0
 10
-217.000000
 20
-217.728653
 40
4.894106
 50
233.502350
 51
306.497650
  0
ARC
  8
0
 10
-215.614899
 20
-219.752289
 40
2.445163
 50
308.611298
 51
344.581940
  0
ARC
  8
0
 10
-215.114426
 20
-219.935760
 40
1.914422
 50
345.893311
 51
14.106687
  0
ARC
  8
0
 10
-215.614899
 20
-220.119232
 40
2.445160
 50
15.418061
 51
31.651281
  0
ARC
  8
0
 10
-218.736542
 20
-219.935760
 40
1.763458
 50
180.000000
 51
194.105865
  0
ARC
  8
0
 10
-218.275620
 20
-219.766800
 40
2.252246
 50
195.416931
 51
231.386932
  0
ARC
  8
0
 10
-217.000000
 20
-217.903198
 40
4.507553
 50
233.500671
 51
306.499329
  0
ARC
  8
0
 10
-215.724380
 20
-219.766800
 40
2.252248
 50
308.613068
 51
344.583069
  0
ARC
  8
0
 10
-215.263458
 20
-219.935760
 40
1.763455
 50
345.894135
 51
0.000000
  0
ARC
  8
0
 10
-215.829666
 20
-219.244553
 40
2.329666
 50
0.026269
 51
12.212494
  0
ARC
  8
0
 10
-216.140396
 20
-219.343155
 40
2.654401
 50
12.873873
 51
46.617207
  0
ARC
  8
0
 10
-217.001083
 20
-220.433060
 40
4.039579
 50
48.363350
 51
54.641052
  0
ARC
  8
0
 10
-237.312698
 20
-184.870544
 40
1.712695
 50
345.892700
 51
14.107307
  0
ARC
  8
0
 10
-237.760544
 20
-185.034744
 40
2.187629
 50
15.419332
 51
51.390682
  0
ARC
  8
0
 10
-239.000000
 20
-186.845703
 40
4.379158
 50
53.504395
 51
126.495605
  0
ARC
  8
0
 10
-240.239456
 20
-185.034744
 40
2.187632
 50
128.609314
 51
164.580673
  0
ARC
  8
0
 10
-240.687302
 20
-184.870544
 40
1.712695
 50
165.892685
 51
194.107315
  0
ARC
  8
0
 10
-240.239456
 20
-184.706345
 40
2.187629
 50
195.419327
 51
231.390686
  0
ARC
  8
0
 10
-239.000000
 20
-182.895386
 40
4.379158
 50
233.504395
 51
306.495605
  0
ARC
  8
0
 10
-237.760544
 20
-184.706345
 40
2.187632
 50
308.609314
 51
344.580658
  0
ARC
  8
0
 10
-219.000000
 20
-221.417221
 40
11.435843
 50
64.634392
 51
103.112251
  0
ARC
  8
0
 10
-204.100662
 20
-205.672592
 40
1.782120
 50
0.000000
 51
14.231255
  0
ARC
  8
0
 10
-204.583176
 20
-205.851059
 40
2.294347
 50
15.589158
 51
51.686901
  0
ARC
  8
0
 10
-205.918533
 20
-207.819473
 40
4.669879
 50
53.804649
 51
126.195351
  0
ARC
  8
0
 10
-207.253891
 20
-205.851059
 40
2.294338
 50
128.313095
 51
164.410843
  0
ARC
  8
0
 10
-207.736404
 20
-205.672592
 40
1.782123
 50
165.768738
 51
180.000000
  0
ARC
  8
0
 10
-205.918533
 20
-203.808548
 40
4.669875
 50
300.677765
 51
306.195343
  0
ARC
  8
0
 10
-204.583176
 20
-205.776962
 40
2.294338
 50
308.313110
 51
344.410828
  0
ARC
  8
0
 10
-204.100662
 20
-205.955429
 40
1.782123
 50
345.768738
 51
14.231255
  0
ARC
  8
0
 10
-204.583176
 20
-206.133896
 40
2.294347
 50
15.589158
 51
51.686901
  0
ARC
  8
0
 10
-205.918533
 20
-208.102310
 40
4.669879
 50
53.804649
 51
126.195351
  0
ARC
  8
0
 10
-207.253891
 20
-206.133896
 40
2.294338
 50
128.313095
 51
164.410843
  0
ARC
  8
0
 10
-207.736404
 20
-205.955429
 40
1.782123
 50
165.768738
 51
194.231262
  0
ARC
  8
0
 10
-207.253891
 20
-205.776962
 40
2.294347
 50
195.589157
 51
231.686905
  0
ARC
  8
0
 10
-205.918533
 20
-203.808548
 40
4.669879
 50
233.804642
 51
239.319870
  0
ARC
  8
0
 10
-204.386200
 20
-206.452087
 40
1.555673
 50
345.893158
 51
14.106848
  0
ARC
  8
0
 10
-204.792923
 20
-206.601196
 40
1.986994
 50
15.418431
 51
51.389393
  0
ARC
  8
0
 10
-205.918533
 20
-208.245743
 40
3.977160
 50
53.502964
 51
126.497032
  0
ARC
  8
0
 10
-207.044144
 20
-206.601196
 40
1.986989
 50
128.610611
 51
164.581573
  0
ARC
  8
0
 10
-207.450867
 20
-206.452087
 40
1.555673
 50
165.893158
 51
194.106842
  0
ARC
  8
0
 10
-207.044144
 20
-206.302979
 40
1.986994
 50
195.418427
 51
231.389389
  0
ARC
  8
0
 10
-205.918533
 20
-204.658432
 40
3.977160
 50
233.502960
 51
306.497040
  0
ARC
  8
0
 10
-204.792923
 20
-206.302979
 40
1.986989
 50
308.610596
 51
344.581573
  0
ARC
  8
0
 10
-204.699631
 20
-206.853012
 40
1.237112
 50
345.892120
 51
14.107888
  0
ARC
  8
0
 10
-205.023163
 20
-206.971634
 40
1.580214
 50
15.419954
 51
51.391602
  0
ARC
  8
0
 10
-205.918533
 20
-208.279892
 40
3.163373
 50
53.505360
 51
126.494637
  0
ARC
  8
0
 10
-206.813904
 20
-206.971634
 40
1.580204
 50
128.608398
 51
164.580048
  0
ARC
  8
0
 10
-207.137436
 20
-206.853012
 40
1.237112
 50
165.892105
 51
194.107895
  0
ARC
  8
0
 10
-206.813904
 20
-206.734390
 40
1.580214
 50
195.419952
 51
231.391602
  0
ARC
  8
0
 10
-205.918533
 20
-205.426132
 40
3.163373
 50
233.505356
 51
306.494629
  0
ARC
  8
0
 10
-205.023163
 20
-206.734390
 40
1.580204
 50
308.608398
 51
344.580048
  0
ARC
  8
0
 10
-205.212082
 20
-207.237244
 40
0.717060
 50
345.892792
 51
14.107213
  0
ARC
  8
0
 10
-205.399597
 20
-207.305984
 40
0.915915
 50
15.418703
 51
51.390877
  0
ARC
  8
0
 10
-205.918533
 20
-208.064209
 40
1.833471
 50
53.504707
 51
126.495293
  0
ARC
  8
0
 10
-206.437469
 20
-207.305984
 40
0.915913
 50
128.609131
 51
164.581299
  0
ARC
  8
0
 10
-206.624985
 20
-207.237244
 40
0.717060
 50
165.892792
 51
194.107208
  0
ARC
  8
0
 10
-206.437469
 20
-207.168503
 40
0.915915
 50
195.418701
 51
231.390869
  0
ARC
  8
0
 10
-205.918533
 20
-206.410278
 40
1.833471
 50
233.504700
 51
306.495300
  0
ARC
  8
0
 10
-205.399597
 20
-207.168503
 40
0.915913
 50
308.609131
 51
344.581299
  0
ARC
  8
0
 10
-219.000000
 20
-223.609497
 40
23.182585
 50
90.594803
 51
126.094482
  0
ARC
  8
0
 10
-203.437515
 20
-203.904831
 40
2.518991
 50
358.277222
 51
14.106447
  0
ARC
  8
0
 10
-204.096039
 20
-204.146240
 40
3.217330
 50
15.417826
 51
51.388657
  0
ARC
  8
0
 10
-205.918533
 20
-206.808914
 40
6.439610
 50
53.502342
 51
90.281708
  0
ARC
  8
0
 10
-219.000000
 20
-206.765884
 40
14.167108
 50
304.302460
 51
306.497803
  0
ARC
  8
0
 10
-214.990540
 20
-212.623703
 40
7.078154
 50
308.611481
 51
320.424866
  0
ARC
  8
0
 10
-219.000000
 20
-225.377258
 40
23.182585
 50
90.594803
 51
118.293777
  0
ARC
  8
0
 10
-233.903976
 20
-224.414001
 40
3.217326
 50
149.183411
 51
164.582169
  0
ARC
  8
0
 10
-234.562500
 20
-224.172592
 40
2.518985
 50
165.893555
 51
194.106445
  0
ARC
  8
0
 10
-233.903976
 20
-223.931183
 40
3.217330
 50
195.417831
 51
224.400116
  0
ARC
  8
0
 10
-219.000000
 20
-204.467896
 40
23.182583
 50
290.103302
 51
306.497772
  0
ARC
  8
0
 10
-212.439041
 20
-214.053467
 40
11.582414
 50
308.611481
 51
344.582001
  0
ARC
  8
0
 10
-210.068329
 20
-214.922577
 40
9.068321
 50
345.893524
 51
345.927521
  0
ARC
  8
0
 10
-203.437515
 20
-205.672592
 40
2.518991
 50
358.277222
 51
14.106447
  0
ARC
  8
0
 10
-204.096039
 20
-205.914001
 40
3.217330
 50
15.417826
 51
51.388657
  0
ARC
  8
0
 10
-205.918533
 20
-208.576675
 40
6.439610
 50
53.502342
 51
90.281708
  0
ARC
  8
0
 10
-219.000000
 20
-208.533646
 40
14.167108
 50
304.302460
 51
306.497803
  0
ARC
  8
0
 10
-214.990540
 20
-214.391464
 40
7.078154
 50
308.611481
 51
337.294312
  0
ARC
  8
0
 10
-226.000000
 20
-249.205063
 40
6.439605
 50
242.383911
 51
261.074280
  0
ARC
  8
0
 10
-226.000000
 20
-249.785889
 40
5.151678
 50
234.410965
 51
258.825165
  0
POLYLINE
  8
0
 66
     1
  0
VERTEX
  8
0
 10
-264.500000
 20
-249.000000
  0
VERTEX
  8
0
 10
-265.334930
 20
-249.213501
  0
VERTEX
  8
0
 10
-266.138611
 20
-249.536224
  0
VERTEX
  8
0
 10
-266.881897
 20
-249.947144
  0
VERTEX
  8
0
 10
-267.521301
 20
-250.407547
  0
VERTEX
  8
0
 10
-268.076630
 20
-250.949982
  0
VERTEX
  8
0
 10
-268.503357
 20
-251.590027
  0
VERTEX
  8
0
 10
-268.766266
 20
-252.314438
  0
VERTEX
  8
0
 10
-268.884064
 20
-253.098221
  0
VERTEX
  8
0
 10
-268.923370
 20
-253.999588
  0
VERTEX
  8
0
 10
-268.934113
 20
-254.828232
  0
VERTEX
  8
0
 10
-268.923889
 20
-255.640610
  0
VERTEX
  8
0
 10
-268.886536
 20
-256.453918
  0
VERTEX
  8
0
 10
-268.815826
 20
-257.285339
  0
VERTEX
  8
0
 10
-268.704468
 20
-258.157837
  0
VERTEX
  8
0
 10
-268.556427
 20
-259.023285
  0
VERTEX
  8
0
 10
-268.371521
 20
-259.895966
  0
VERTEX
  8
0
 10
-268.149536
 20
-260.790161
  0
VERTEX
  8
0
 10
-267.871216
 20
-261.763123
  0
VERTEX
  8
0
 10
-267.554077
 20
-262.740936
  0
VERTEX
  8
0
 10
-267.217743
 20
-263.674347
  0
VERTEX
  8
0
 10
-266.881897
 20
-264.514038
  0
VERTEX
  8
0
 10
-266.486847
 20
-265.393280
  0
VERTEX
  8
0
 10
-266.058411
 20
-266.257019
  0
VERTEX
  8
0
 10
-265.634644
 20
-267.033112
  0
VERTEX
  8
0
 10
-265.275635
 20
-267.631531
  0
VERTEX
  8
0
 10
-264.897064
 20
-268.217712
  0
VERTEX
  8
0
 10
-264.500000
 20
-268.791321
  0
SEQEND
  0
POLYLINE
  8
0
 66
     1
  0
VERTEX
  8
0
 10
-264.500000
 20
-333.000000
  0
VERTEX
  8
0
 10
-265.334930
 20
-332.786499
  0
VERTEX
  8
0
 10
-266.138611
 20
-332.463776
  0
VERTEX
  8
0
 10
-266.881897
 20
-332.052856
  0
VERTEX
  8
0
 10
-267.521301
 20
-331.592468
  0
VERTEX
  8
0
 10
-268.076630
 20
-331.050018
  0
VERTEX
  8
0
 10
-268.503357
 20
-330.409973
  0
VERTEX
  8
0
 10
-268.766266
 20
-329.685577
  0
VERTEX
  8
0
 10
-268.884064
 20
-328.901794
  0
VERTEX
  8
0
 10
-268.923370
 20
-328.000427
  0
VERTEX
  8
0
 10
-268.934113
 20
-327.171783
  0
VERTEX
  8
0
 10
-268.923889
 20
-326.359406
  0
VERTEX
  8
0
 10
-268.886536
 20
-325.546082
  0
VERTEX
  8
0
 10
-268.815826
 20
-324.714661
  0
VERTEX
  8
0
 10
-268.704468
 20
-323.842163
  0
VERTEX
  8
0
 10
-268.556427
 20
-322.976715
  0
VERTEX
  8
0
 10
-268.371521
 20
-322.104034
  0
VERTEX
  8
0
 10
-268.149536
 20
-321.209839
  0
VERTEX
  8
0
 10
-267.871216
 20
-320.236877
  0
VERTEX
  8
0
 10
-267.554077
 20
-319.259064
  0
VERTEX
  8
0
 10
-267.217743
 20
-318.325653
  0
VERTEX
  8
0
 10
-266.881897
 20
-317.485962
  0
VERTEX
  8
0
 10
-266.486847
 20
-316.606720
  0
VERTEX
  8
0
 10
-266.058411
 20
-315.742981
  0
VERTEX
  8
0
 10
-265.634644
 20
-314.966888
  0
VERTEX
  8
0
 10
-265.275635
 20
-314.368469
  0
VERTEX
  8
0
 10
-264.897064
 20
-313.782288
  0
VERTEX
  8
0
 10
-264.500000
 20
-313.208679
  0
SEQEND
  0
POLYLINE
  8
0
 66
     1
  0
VERTEX
  8
0
 10
-268.954529
 20
-219.000000
  0
VERTEX
  8
0
 10
-268.652191
 20
-219.568436
  0
VERTEX
  8
0
 10
-268.337280
 20
-220.156250
  0
VERTEX
  8
0
 10
-268.005035
 20
-220.772430
  0
VERTEX
  8
0
 10
-267.625183
 20
-221.470566
  0
VERTEX
  8
0
 10
-267.259827
 20
-222.136703
  0
VERTEX
  8
0
 10
-266.892151
 20
-222.801590
  0
VERTEX
  8
0
 10
-266.535095
 20
-223.442017
  0
VERTEX
  8
0
 10
-266.207275
 20
-224.025208
  0
VERTEX
  8
0
 10
-265.877563
 20
-224.607300
  0
VERTEX
  8
0
 10
-265.542358
 20
-225.194427
  0
VERTEX
  8
0
 10
-265.196960
 20
-225.794708
  0
VERTEX
  8
0
 10
-264.849518
 20
-226.393784
  0
VERTEX
  8
0
 10
-264.500000
 20
-226.991669
  0
SEQEND
  0
POLYLINE
  8
0
 66
     1
  0
VERTEX
  8
0
 10
-268.954529
 20
-363.000000
  0
VERTEX
  8
0
 10
-268.652191
 20
-362.431580
  0
VERTEX
  8
0
 10
-268.337280
 20
-361.843750
  0
VERTEX
  8
0
 10
-268.005035
 20
-361.227570
  0
VERTEX
  8
0
 10
-267.625183
 20
-360.529419
  0
VERTEX
  8
0
 10
-267.259827
 20
-359.863281
  0
VERTEX
  8
0
 10
-266.892151
 20
-359.198425
  0
VERTEX
  8
0
 10
-266.535095
 20
-358.557983
  0
VERTEX
  8
0
 10
-266.207275
 20
-357.974792
  0
VERTEX
  8
0
 10
-265.877563
 20
-357.392700
  0
VERTEX
  8
0
 10
-265.542358
 20
-356.805573
  0
VERTEX
  8
0
 10
-265.196960
 20
-356.205292
  0
VERTEX
  8
0
 10
-264.849518
 20
-355.606201
  0
VERTEX
  8
0
 10
-264.500000
 20
-355.008331
  0
SEQEND
  0
ARC
  8
0
 10
-217.859787
 20
-219.341583
 40
2.654386
 50
139.723373
 51
167.021378
  0
ARC
  8
0
 10
-218.170334
 20
-219.242416
 40
2.329673
 50
167.682693
 51
192.212494
  0
ARC
  8
0
 10
-217.859604
 20
-219.143814
 40
2.654401
 50
192.873871
 51
226.617203
  0
ARC
  8
0
 10
-216.998917
 20
-218.053909
 40
4.039579
 50
228.363358
 51
311.531952
  0
ARC
  8
0
 10
-216.140213
 20
-219.145386
 40
2.654392
 50
313.277924
 51
347.021393
  0
ARC
  8
0
 10
-215.829666
 20
-219.244553
 40
2.329673
 50
347.682678
 51
0.026269
  0
ARC
  8
0
 10
-214.990540
 20
-215.453690
 40
7.078151
 50
19.165922
 51
51.388531
  0
ARC
  8
0
 10
-219.000000
 20
-221.311508
 40
14.167114
 50
53.502209
 51
124.806137
  0
POINT
  8
0
 10
0.000000
 20
-54.000000
  0
POINT
  8
0
 10
98.000000
 20
-54.000000
  0
LINE
  8
0
 10
-39.597973
 20
-45.514740
 11
-24.465885
 21
-30.382650
  0
LINE
  8
0
 10
36.062431
 20
-49.050247
 11
1.414197
 21
-14.402016
  0
LINE
  8
0
 10
-8.485283
 20
-14.402020
 11
1.414214
 21
-14.402020
  0
LINE
  8
0
 10
36.062439
 20
-49.050262
 11
36.062439
 21
-58.949753
  0
LINE
  8
0
 10
-39.598000
 20
-55.414215
 11
-39.598000
 21
-45.514709
  0
LINE
  8
0
 10
-57.407692
 20
-99.386917
 11
-46.109219
 21
-88.088440
  0
LINE
  8
0
 10
-56.823811
 20
-130.622803
 11
-46.582825
 21
-120.381821
  0
LINE
  8
0
 10
-44.511757
 20
-118.792648
 11
-15.000021
 21
-101.754028
  0
LINE
  8
0
 10
-79.964081
 20
-110.654633
 11
-66.175278
 21
-99.084450
  0
LINE
  8
0
 10
79.964066
 20
-110.654625
 11
66.175285
 21
-99.084427
  0
LINE
  8
0
 10
44.511730
 20
-118.792618
 11
15.000015
 21
-101.753983
  0
LINE
  8
0
 10
57.407692
 20
-99.386917
 11
44.233002
 21
-86.212227
  0
LINE
  8
0
 10
56.823784
 20
-130.622833
 11
46.582809
 21
-120.381851
  0
LINE
  8
0
 10
-1.414202
 20
-75.213211
 11
-21.213194
 21
-55.414223
  0
LINE
  8
0
 10
1.414210
 20
-75.213203
 11
21.213200
 21
-55.414211
  0
LINE
  8
0
 10
21.213196
 20
-52.585785
 11
1.414205
 21
-32.786797
  0
LINE
  8
0
 10
-21.213203
 20
-52.585796
 11
-11.737971
 21
-43.110565
  0
LINE
  8
0
 10
-21.920298
 20
-52.585808
 11
-12.091513
 21
-42.757023
  0
LINE
  8
0
 10
21.920305
 20
-52.585781
 11
1.414207
 21
-32.079685
  0
LINE
  8
0
 10
1.414214
 20
-75.920319
 11
21.920311
 21
-55.414223
  0
LINE
  8
0
 10
-1.414231
 20
-75.920326
 11
-21.920328
 21
-55.414230
  0
LINE
  8
0
 10
-11.737971
 20
-43.110573
 11
-24.465895
 21
-30.382652
  0
LINE
  8
0
 10
-10.889467
 20
-42.262039
 11
-23.617390
 21
-29.534117
  0
LINE
  8
0
 10
-10.889446
 20
-42.262039
 11
-1.414214
 21
-32.786804
  0
LINE
  8
0
 10
-11.242987
 20
-41.908497
 11
-1.414202
 21
-32.079712
  0
LINE
  8
0
 10
-23.617359
 20
-29.534124
 11
-3.181973
 21
-9.098736
  0
LINE
  8
0
 10
-21.496044
 20
-31.655430
 11
-22.344570
 21
-32.503956
  0
LINE
  8
0
 10
-14.424972
 20
-38.726490
 11
-15.273498
 21
-39.575016
  0
LINE
  8
0
 10
7.872891
 20
-19.446526
 11
-2.216071
 21
-9.357567
  0
LINE
  8
0
 10
8.131708
 20
-20.412437
 11
-3.182003
 21
-9.098728
  0
LINE
  8
0
 10
-3.181989
 20
-9.098732
 11
-2.216063
 21
-9.357552
  0
LINE
  8
0
 10
8.131713
 20
-20.412434
 11
7.872895
 21
-19.446510
  0
LINE
  8
0
 10
7.778175
 20
-20.765980
 11
8.131728
 21
-20.412430
  0
LINE
  8
0
 10
66.821617
 20
-127.892654
 11
65.760963
 21
-126.831993
  0
LINE
  8
0
 10
66.821632
 20
-127.892670
 11
73.892700
 21
-120.821602
  0
LINE
  8
0
 10
65.760979
 20
-126.832024
 11
72.832047
 21
-119.760956
  0
LINE
  8
0
 10
73.892654
 20
-120.821587
 11
72.831993
 21
-119.760933
  0
LINE
  8
0
 10
74.231407
 20
-123.281670
 11
73.539131
 21
-122.589394
  0
LINE
  8
0
 10
69.281654
 20
-128.231415
 11
68.589371
 21
-127.539139
  0
LINE
  8
0
 10
73.751259
 20
-122.377266
 11
73.044151
 21
-121.670158
  0
LINE
  8
0
 10
68.377243
 20
-127.751266
 11
67.670135
 21
-127.044159
  0
LINE
  8
0
 10
73.751266
 20
-122.377258
 11
68.377251
 21
-127.751266
  0
LINE
  8
0
 10
69.226646
 20
-125.487648
 11
70.123222
 21
-126.005287
  0
LINE
  8
0
 10
-52.999702
 20
-29.299976
 11
-91.939339
 21
9.639668
  0
LINE
  8
0
 10
-91.939339
 20
-117.639633
 11
-52.999702
 21
-78.700012
  0
LINE
  8
0
 10
-91.939346
 20
-117.639648
 11
-134.999710
 21
-74.579262
  0
LINE
  8
0
 10
-134.999710
 20
-33.420700
 11
-91.939323
 21
9.639668
  0
LINE
  8
0
 10
-52.999699
 20
-78.700012
 11
-52.999699
 21
-29.299978
  0
LINE
  8
0
 10
-134.999695
 20
-74.600288
 11
-134.999695
 21
-33.399689
  0
LINE
  8
0
 10
-81.686279
 20
2.922127
 11
-66.624901
 21
17.983490
  0
LINE
  8
0
 10
-70.372528
 20
-8.391609
 11
-55.311161
 21
6.669754
  0
LINE
  8
0
 10
-80.970741
 20
-110.294151
 11
-81.014534
 21
-110.250366
  0
LINE
  8
0
 10
-71.000565
 20
-100.323952
 11
-71.044350
 21
-100.280167
  0
LINE
  8
0
 10
-65.458176
 20
17.806740
 11
-64.353729
 21
18.911186
  0
LINE
  8
0
 10
-55.487984
 20
7.836533
 11
-54.383533
 21
8.940983
  0
LINE
  8
0
 10
-55.101959
 20
7.450531
 11
-65.844116
 21
18.192688
  0
LINE
  8
0
 10
-80.970711
 20
-110.294144
 11
-71.000511
 21
-100.323944
  0
LINE
  8
0
 10
-64.353683
 20
18.911171
 11
-54.383476
 21
8.940956
  0
LINE
  8
0
 10
-55.311195
 20
6.669762
 11
-55.101990
 21
7.450516
  0
LINE
  8
0
 10
-66.624901
 20
17.983528
 11
-65.844147
 21
18.192726
  0
LINE
  8
0
 10
-55.311169
 20
6.669765
 11
-66.624878
 21
17.983482
  0
LINE
  8
0
 10
-88.757362
 20
-117.993195
 11
-63.301514
 21
-92.537346
  0
LINE
  8
0
 10
-63.301498
 20
-15.462643
 11
-88.757347
 21
9.993210
  0
LINE
  8
0
 10
-87.779442
 20
-117.015274
 11
-89.547203
 21
-115.247498
  0
LINE
  8
0
 10
-64.279419
 20
-93.515244
 11
-66.047180
 21
-91.747475
  0
LINE
  8
0
 10
-115.552795
 20
-64.464630
 11
-114.949303
 21
-58.722759
  0
LINE
  8
0
 10
-125.498024
 20
-63.419338
 11
-124.894531
 21
-57.677467
  0
LINE
  8
0
 10
-115.552742
 20
-64.464584
 11
-120.827095
 21
-66.812874
  0
LINE
  8
0
 10
-119.620117
 20
-55.329102
 11
-124.894478
 21
-57.677399
  0
LINE
  8
0
 10
-120.827148
 20
-66.813049
 11
-125.498009
 21
-63.419472
  0
LINE
  8
0
 10
-114.949295
 20
-58.722870
 11
-119.620155
 21
-55.329292
  0
LINE
  8
0
 10
-117.839775
 20
-61.824364
 11
-122.711922
 21
-61.312279
  0
LINE
  8
0
 10
-117.735229
 20
-60.829849
 11
-122.607376
 21
-60.317764
  0
LINE
  8
0
 10
-117.513077
 20
-52.026592
 11
-114.453583
 21
-47.130390
  0
LINE
  8
0
 10
-125.993584
 20
-46.727406
 11
-122.934097
 21
-41.831203
  0
LINE
  8
0
 10
-117.513077
 20
-52.026619
 11
-123.283058
 21
-51.825127
  0
LINE
  8
0
 10
-117.164085
 20
-42.032696
 11
-122.934082
 21
-41.831203
  0
LINE
  8
0
 10
-123.283195
 20
-51.825195
 11
-125.993690
 21
-46.727493
  0
LINE
  8
0
 10
-114.453705
 20
-47.130463
 11
-117.164192
 21
-42.032772
  0
LINE
  8
0
 10
-118.411263
 20
-48.651005
 11
-122.565842
 21
-46.054935
  0
LINE
  8
0
 10
-117.881340
 20
-47.802940
 11
-122.035896
 21
-45.206879
  0
LINE
  8
0
 10
-53.554531
 20
-63.165146
 11
-53.554531
 21
-44.834843
  0
LINE
  8
0
 10
-76.615677
 20
-79.453598
 11
-87.023193
 21
-71.395462
  0
LINE
  8
0
 10
-70.493515
 20
-79.453461
 11
-60.085999
 21
-71.395332
  0
LINE
  8
0
 10
-60.086002
 20
-36.604664
 11
-70.493515
 21
-28.546526
  0
LINE
  8
0
 10
-76.615616
 20
-28.546427
 11
-87.023132
 21
-36.604568
  0
LINE
  8
0
 10
-93.554535
 20
-63.165142
 11
-93.554535
 21
-44.834839
  0
LINE
  8
0
 10
-87.542152
 20
-117.343658
 11
-82.450981
 21
-112.252487
  0
LINE
  8
0
 10
-87.542183
 20
-117.343697
 11
-87.825027
 21
-117.060852
  0
LINE
  8
0
 10
-82.451012
 20
-112.252518
 11
-82.733856
 21
-111.969681
  0
LINE
  8
0
 10
-69.042145
 20
-98.843658
 11
-63.950981
 21
-93.752495
  0
LINE
  8
0
 10
-69.042160
 20
-98.843674
 11
-69.325005
 21
-98.560837
  0
LINE
  8
0
 10
-63.950996
 20
-93.752518
 11
-64.233841
 21
-93.469673
  0
LINE
  8
0
 10
-63.950966
 20
-14.247486
 11
-69.042137
 21
-9.156322
  0
LINE
  8
0
 10
-63.950993
 20
-14.247471
 11
-64.233833
 21
-14.530315
  0
LINE
  8
0
 10
-69.042145
 20
-9.156303
 11
-69.324989
 21
-9.439144
  0
LINE
  8
0
 10
-82.450966
 20
4.252514
 11
-87.542130
 21
9.343681
  0
LINE
  8
0
 10
-82.451004
 20
4.252533
 11
-82.733849
 21
3.969692
  0
LINE
  8
0
 10
-87.542175
 20
9.343708
 11
-87.825020
 21
9.060863
  0
LINE
  8
0
 10
-17.000000
 20
-114.000000
 11
-17.000000
 21
-103.016335
  0
LINE
  8
0
 10
-90.599998
 20
11.000000
 11
-73.608406
 21
11.000000
  0
LINE
  8
0
 10
-90.600014
 20
-119.000000
 11
-73.341667
 21
-119.000000
  0
LINE
  8
0
 10
-17.000000
 20
-22.916765
 11
-17.000000
 21
6.000000
  0
LINE
  8
0
 10
-17.000015
 20
-113.999985
 11
-22.000021
 21
-118.999992
  0
LINE
  8
0
 10
-16.999979
 20
6.000019
 11
-21.999981
 21
11.000023
  0
LINE
  8
0
 10
-65.069275
 20
-17.230400
 11
-63.301514
 21
-15.462639
  0
LINE
  8
0
 10
-90.525116
 20
8.225441
 11
-88.757355
 21
9.993202
  0
LINE
  8
0
 10
-88.757385
 20
-117.993210
 11
-90.525146
 21
-116.225449
  0
LINE
  8
0
 10
-63.301514
 20
-92.537354
 11
-65.069275
 21
-90.769592
  0
LINE
  8
0
 10
-90.600029
 20
-119.000015
 11
-134.999725
 21
-74.600311
  0
LINE
  8
0
 10
-134.999710
 20
-33.399681
 11
-90.600006
 21
11.000015
  0
LINE
  8
0
 10
-55.369022
 20
11.000000
 11
-21.999994
 21
11.000000
  0
LINE
  8
0
 10
-91.939308
 20
-85.455330
 11
-91.939308
 21
-93.255333
  0
LINE
  8
0
 10
-95.839310
 20
-89.355331
 11
-88.039307
 21
-89.355331
  0
LINE
  8
0
 10
-27.113253
 20
-110.949997
 11
-30.927900
 21
-110.949997
  0
LINE
  8
0
 10
-25.205927
 20
-107.646408
 11
-27.113253
 21
-110.949997
  0
LINE
  8
0
 10
-73.554527
 20
-74.056618
 11
-74.804535
 21
-74.778305
  0
LINE
  8
0
 10
-74.804535
 20
-74.778305
 11
-74.804535
 21
-76.221680
  0
LINE
  8
0
 10
-73.554535
 20
-76.943367
 11
-74.804535
 21
-76.221680
  0
LINE
  8
0
 10
-72.304535
 20
-76.221680
 11
-73.554535
 21
-76.943367
  0
LINE
  8
0
 10
-72.304535
 20
-74.778305
 11
-72.304535
 21
-76.221680
  0
LINE
  8
0
 10
-73.554535
 20
-74.056610
 11
-72.304535
 21
-74.778305
  0
LINE
  8
0
 10
-73.554535
 20
-31.056620
 11
-74.804543
 21
-31.778309
  0
LINE
  8
0
 10
-74.804543
 20
-31.778303
 11
-74.804543
 21
-33.221680
  0
LINE
  8
0
 10
-73.554543
 20
-33.943367
 11
-74.804543
 21
-33.221676
  0
LINE
  8
0
 10
-72.304543
 20
-33.221680
 11
-73.554543
 21
-33.943367
  0
LINE
  8
0
 10
-72.304543
 20
-31.778303
 11
-72.304543
 21
-33.221680
  0
LINE
  8
0
 10
-73.554543
 20
-31.056612
 11
-72.304543
 21
-31.778303
  0
LINE
  8
0
 10
-24.226494
 20
-2.049995
 11
-27.113245
 21
2.950005
  0
LINE
  8
0
 10
-27.113245
 20
2.950005
 11
-32.886749
 21
2.950005
  0
LINE
  8
0
 10
-35.773495
 20
-2.049999
 11
-32.886742
 21
2.950005
  0
LINE
  8
0
 10
-32.886749
 20
-7.049995
 11
-35.773499
 21
-2.049995
  0
LINE
  8
0
 10
-27.113245
 20
-7.049995
 11
-32.886749
 21
-7.049995
  0
LINE
  8
0
 10
-24.226492
 20
-2.049995
 11
-27.113245
 21
-7.049995
  0
LINE
  8
0
 10
-91.939308
 20
-14.744652
 11
-91.939308
 21
-22.544653
  0
LINE
  8
0
 10
-95.839310
 20
-18.644653
 11
-88.039307
 21
-18.644653
  0
LINE
  8
0
 10
-34.847008
 20
-115.545258
 11
-33.970375
 21
-114.026886
  0
LINE
  8
0
 10
-35.886238
 20
-114.945251
 11
-35.009605
 21
-113.426880
  0
LINE
  8
0
 10
-35.886234
 20
6.945267
 11
-35.009602
 21
5.426895
  0
LINE
  8
0
 10
-34.847004
 20
7.545265
 11
-33.970371
 21
6.026894
  0
LINE
  8
0
 10
-75.660187
 20
-122.589127
 11
-73.892677
 21
-120.821609
  0
LINE
  8
0
 10
-68.589119
 20
-129.660187
 11
-66.821602
 21
-127.892677
  0
LINE
  8
0
 10
-75.660194
 20
14.589119
 11
-72.839737
 21
11.768661
  0
LINE
  8
0
 10
-68.589127
 20
21.660187
 11
-65.096924
 21
18.167992
  0
LINE
  8
0
 10
-41.365501
 20
-5.563423
 11
-48.436569
 21
-12.634491
  0
LINE
  8
0
 10
-74.599541
 20
-121.528458
 11
-74.175240
 21
-121.952766
  0
LINE
  8
0
 10
-75.660202
 20
-122.589119
 11
-75.235901
 21
-123.013428
  0
LINE
  8
0
 10
-67.528458
 20
20.599541
 11
-67.952766
 21
20.175240
  0
LINE
  8
0
 10
-68.589119
 20
21.660202
 11
-69.013428
 21
21.235901
  0
LINE
  8
0
 10
-80.185699
 20
-139.135452
 11
-85.135452
 21
-134.185699
  0
LINE
  8
0
 10
-85.135399
 20
-133.478638
 11
-73.892410
 21
-122.235657
  0
LINE
  8
0
 10
-84.923355
 20
-133.266434
 11
-85.984016
 21
-132.205780
  0
LINE
  8
0
 10
-85.983948
 20
-131.498734
 11
-81.953438
 21
-127.468216
  0
LINE
  8
0
 10
-80.539276
 20
-128.882416
 11
-81.953491
 21
-127.468201
  0
LINE
  8
0
 10
-80.822037
 20
-128.599579
 11
-73.892387
 21
-121.669937
  0
LINE
  8
0
 10
-75.165283
 20
-134.822128
 11
-80.822136
 21
-129.165283
  0
LINE
  8
0
 10
-79.478569
 20
-139.135498
 11
-68.235573
 21
-127.892494
  0
LINE
  8
0
 10
-78.205841
 20
-139.983948
 11
-79.266502
 21
-138.923279
  0
LINE
  8
0
 10
-77.498665
 20
-139.984039
 11
-73.468163
 21
-135.953522
  0
LINE
  8
0
 10
-73.468208
 20
-135.953476
 11
-74.882423
 21
-134.539276
  0
LINE
  8
0
 10
-74.599503
 20
-134.822128
 11
-67.669876
 21
-127.892494
  0
LINE
  8
0
 10
-67.669914
 20
-127.892479
 11
-68.094200
 21
-127.468185
  0
LINE
  8
0
 10
-68.235596
 20
-127.892479
 11
-73.892433
 21
-122.235649
  0
LINE
  8
0
 10
-69.720535
 20
-129.377380
 11
-70.527443
 21
-128.570465
  0
LINE
  8
0
 10
-76.720879
 20
-125.064049
 11
-71.064041
 21
-130.720886
  0
LINE
  8
0
 10
-74.599579
 20
-123.649719
 11
-75.306671
 21
-123.649719
  0
LINE
  8
0
 10
-69.649673
 20
-128.599533
 11
-69.649673
 21
-129.306625
  0
LINE
  8
0
 10
-69.296272
 20
-128.953125
 11
-69.726776
 21
-128.522614
  0
LINE
  8
0
 10
-85.135460
 20
26.185692
 11
-80.185715
 21
31.135437
  0
LINE
  8
0
 10
-79.478638
 20
31.135406
 11
-68.235649
 21
19.892418
  0
LINE
  8
0
 10
-79.266434
 20
30.923355
 11
-78.205772
 21
31.984016
  0
LINE
  8
0
 10
-77.498726
 20
31.983955
 11
-73.468216
 21
27.953445
  0
LINE
  8
0
 10
-74.882416
 20
26.539276
 11
-73.468201
 21
27.953491
  0
LINE
  8
0
 10
-74.599586
 20
26.822044
 11
-67.669937
 21
19.892395
  0
LINE
  8
0
 10
-80.822105
 20
21.165283
 11
-75.165253
 21
26.822136
  0
LINE
  8
0
 10
-85.135483
 20
25.478577
 11
-73.892487
 21
14.235580
  0
LINE
  8
0
 10
-85.983948
 20
24.205841
 11
-84.923286
 21
25.266502
  0
LINE
  8
0
 10
-85.984024
 20
23.498672
 11
-81.953522
 21
19.468170
  0
LINE
  8
0
 10
-81.953484
 20
19.468208
 11
-80.539268
 21
20.882416
  0
LINE
  8
0
 10
-80.822121
 20
20.599510
 11
-73.892487
 21
13.669876
  0
LINE
  8
0
 10
-73.892479
 20
13.669914
 11
-67.669922
 21
19.892464
  0
LINE
  8
0
 10
-75.377380
 20
15.720535
 11
-69.720520
 21
21.377388
  0
LINE
  8
0
 10
-71.064034
 20
22.720886
 11
-76.720863
 21
17.064056
  0
LINE
  8
0
 10
-69.649719
 20
20.599579
 11
-69.649719
 21
21.306671
  0
LINE
  8
0
 10
-74.599533
 20
15.649673
 11
-75.306625
 21
15.649673
  0
LINE
  8
0
 10
-74.953140
 20
15.296242
 11
-69.296303
 21
20.953079
  0
LINE
  8
0
 10
-75.235962
 20
15.013359
 11
-75.660187
 21
14.589134
  0
LINE
  8
0
 10
-74.175301
 20
13.952705
 11
-74.599525
 21
13.528473
  0
LINE
  8
0
 10
-68.193481
 20
19.934517
 11
-73.892448
 21
14.235558
  0
LINE
  8
0
 10
-67.952705
 20
-128.175293
 11
-67.528473
 21
-128.599518
  0
LINE
  8
0
 10
-69.013359
 20
-129.235962
 11
-68.589134
 21
-129.660187
  0
LINE
  8
0
 10
-55.360020
 20
-0.739990
 11
-55.360020
 21
3.460007
  0
LINE
  8
0
 10
-57.459995
 20
1.360020
 11
-53.259998
 21
1.360020
  0
LINE
  8
0
 10
-49.000023
 20
-7.100002
 11
-49.000023
 21
-2.900005
  0
LINE
  8
0
 10
-51.100002
 20
-4.999977
 11
-46.900005
 21
-4.999977
  0
LINE
  8
0
 10
-72.832016
 20
-119.760941
 11
-65.760948
 21
-126.832008
  0
LINE
  8
0
 10
-73.892677
 20
-120.821602
 11
-66.821609
 21
-127.892670
  0
LINE
  8
0
 10
-73.892654
 20
-120.821587
 11
-72.741760
 21
-119.670685
  0
LINE
  8
0
 10
-66.821587
 20
-127.892654
 11
-65.670692
 21
-126.741753
  0
LINE
  8
0
 10
-69.281647
 20
-128.231384
 11
-68.589363
 21
-127.539108
  0
LINE
  8
0
 10
-74.231400
 20
-123.281631
 11
-73.539116
 21
-122.589355
  0
LINE
  8
0
 10
-68.377235
 20
-127.751236
 11
-67.670128
 21
-127.044128
  0
LINE
  8
0
 10
-73.751244
 20
-122.377228
 11
-73.044136
 21
-121.670120
  0
LINE
  8
0
 10
-71.487617
 20
-123.226624
 11
-72.005257
 21
-124.123199
  0
LINE
  8
0
 10
-61.525997
 20
0.454926
 11
-48.436581
 21
-12.634491
  0
LINE
  8
0
 10
-55.126740
 20
8.197803
 11
-41.365513
 21
-5.563423
  0
LINE
  8
0
 10
-73.468208
 20
-122.094177
 11
-73.892471
 21
-121.669922
  0
LINE
  8
0
 10
-74.522614
 20
-123.726776
 11
-74.953125
 21
-123.296257
  0
LINE
  8
0
 10
-74.570480
 20
-124.527435
 11
-75.377388
 21
-123.720520
  0
LINE
  8
0
 10
-54.605522
 20
-2.364334
 11
-52.724346
 21
-4.245510
  0
LINE
  8
0
 10
-51.635662
 20
0.605507
 11
-49.754501
 21
-1.275654
  0
LINE
  8
0
 10
-44.854874
 20
-119.000000
 11
-22.000006
 21
-119.000000
  0
LINE
  8
0
 10
-10.142232
 20
35.217606
 11
-11.376233
 21
30.612251
  0
LINE
  8
0
 10
10.142227
 20
35.217598
 11
11.376228
 21
30.612244
  0
LINE
  8
0
 10
-10.142220
 20
-143.217590
 11
-11.376223
 21
-138.612244
  0
LINE
  8
0
 10
10.142204
 20
-143.217590
 11
11.376202
 21
-138.612244
  0
LINE
  8
0
 10
78.964462
 20
-86.454079
 11
82.335793
 21
-89.825409
  0
LINE
  8
0
 10
78.964478
 20
-21.546047
 11
82.335854
 21
-18.174671
  0
LINE
  8
0
 10
67.588303
 20
-1.841816
 11
72.193626
 21
-0.607822
  0
LINE
  8
0
 10
18.408846
 20
-109.067375
 11
17.374170
 21
-105.205910
  0
LINE
  8
0
 10
56.894173
 20
-65.591171
 11
53.032692
 21
-64.556488
  0
LINE
  8
0
 10
56.894173
 20
-42.408951
 11
53.032749
 21
-43.443615
  0
LINE
  8
0
 10
35.658543
 20
-13.350594
 11
38.485344
 21
-10.523792
  0
LINE
  8
0
 10
17.374289
 20
-2.794098
 11
18.408951
 21
1.067314
  0
LINE
  8
0
 10
-12.544503
 20
-6.500000
 11
12.544661
 21
-6.500000
  0
LINE
  8
0
 10
-12.544623
 20
-101.500000
 11
12.544540
 21
-101.500000
  0
LINE
  8
0
 10
39.652912
 20
-80.319153
 11
47.408478
 21
-66.886124
  0
LINE
  8
0
 10
47.408543
 20
-41.113976
 11
34.863960
 21
-19.386120
  0
LINE
  8
0
 10
77.500000
 20
-82.918549
 11
77.500000
 21
-25.081583
  0
LINE
  8
0
 10
63.794186
 20
-1.342304
 11
13.705833
 21
27.576233
  0
LINE
  8
0
 10
-13.705847
 20
-135.576233
 11
-42.416691
 21
-119.000000
  0
LINE
  8
0
 10
13.705838
 20
-135.576248
 11
43.643833
 21
-118.291534
  0
LINE
  8
0
 10
-42.416740
 20
11.000000
 11
-13.705853
 21
27.576241
  0
LINE
  8
0
 10
-2.511446
 20
-72.984604
 11
-18.984604
 21
-56.511440
  0
LINE
  8
0
 10
2.511441
 20
-72.984604
 11
18.984604
 21
-56.511448
  0
LINE
  8
0
 10
-18.984604
 20
-51.488552
 11
-2.511441
 21
-35.015396
  0
LINE
  8
0
 10
18.984604
 20
-51.488560
 11
2.511446
 21
-35.015396
  0
LINE
  8
0
 10
2.511441
 20
-35.015396
 11
2.887483
 21
-34.260063
  0
LINE
  8
0
 10
-2.511436
 20
-35.015396
 11
-2.887478
 21
-34.260063
  0
LINE
  8
0
 10
-19.739935
 20
-51.112518
 11
-18.984604
 21
-51.488560
  0
LINE
  8
0
 10
-19.739935
 20
-56.887478
 11
-18.984606
 21
-56.511436
  0
LINE
  8
0
 10
-2.887486
 20
-73.739929
 11
-2.511438
 21
-72.984604
  0
LINE
  8
0
 10
2.887476
 20
-73.739937
 11
2.511442
 21
-72.984604
  0
LINE
  8
0
 10
18.984604
 20
-56.511452
 11
19.739935
 21
-56.887486
  0
LINE
  8
0
 10
19.739935
 20
-51.112522
 11
18.984604
 21
-51.488575
  0
ARC
  8
0
 10
0.000000
 20
-54.000000
 40
98.000000
 50
215.317596
 51
231.649155
  0
ARC
  8
0
 10
-58.945133
 20
-128.501495
 40
2.999985
 50
231.648987
 51
315.000153
  0
ARC
  8
0
 10
-39.511765
 20
-127.452881
 40
9.999996
 50
120.000038
 51
135.000015
  0
ARC
  8
0
 10
-61.650352
 20
-95.144257
 40
5.999997
 50
221.048325
 51
315.000000
  0
ARC
  8
0
 10
-67.322433
 20
-66.875214
 40
30.000002
 50
314.999969
 51
22.459679
  0
ARC
  8
0
 10
39.511707
 20
-127.452911
 40
10.000003
 50
45.000046
 51
60.000023
  0
ARC
  8
0
 10
58.945087
 20
-128.501526
 40
3.000011
 50
225.000259
 51
308.350647
  0
ARC
  8
0
 10
61.650330
 20
-95.144302
 40
5.999999
 50
225.000076
 51
318.951599
  0
ARC
  8
0
 10
0.000000
 20
-54.000000
 40
98.000000
 50
308.350830
 51
324.682434
  0
ARC
  8
0
 10
65.446213
 20
-64.999046
 40
30.000002
 50
168.366943
 51
224.999985
  0
ARC
  8
0
 10
-0.000032
 20
-127.734772
 40
30.000002
 50
59.999950
 51
120.000031
  0
ARC
  8
0
 10
0.000000
 20
-73.798988
 40
2.000001
 50
225.000031
 51
314.999969
  0
ARC
  8
0
 10
19.798998
 20
-54.000000
 40
2.000001
 50
314.999969
 51
44.999962
  0
ARC
  8
0
 10
0.000001
 20
-34.201004
 40
2.000000
 50
45.000046
 51
134.999985
  0
ARC
  8
0
 10
-19.798990
 20
-54.000000
 40
2.000002
 50
135.000000
 51
224.999954
  0
ARC
  8
0
 10
-20.506098
 20
-54.000000
 40
2.000002
 50
135.000000
 51
224.999954
  0
ARC
  8
0
 10
0.000000
 20
-74.506096
 40
2.000001
 50
225.000046
 51
314.999969
  0
ARC
  8
0
 10
20.506105
 20
-54.000000
 40
2.000001
 50
314.999969
 51
45.000038
  0
ARC
  8
0
 10
-0.000000
 20
-33.493896
 40
2.000000
 50
45.000046
 51
134.999985
  0
ARC
  8
0
 10
73.312164
 20
-124.200905
 40
1.300001
 50
331.601685
 51
44.999763
  0
ARC
  8
0
 10
66.538780
 20
-120.538780
 40
9.000007
 50
298.398315
 51
331.601440
  0
ARC
  8
0
 10
70.200920
 20
-127.312180
 40
1.300000
 50
224.999756
 51
298.398163
  0
ARC
  8
0
 10
-30.000004
 20
-105.949997
 40
10.749999
 50
243.199570
 51
8.921664
  0
CIRCLE
  8
0
 10
-29.999996
 20
-2.049995
 40
7.800000
  0
ARC
  8
0
 10
-29.999996
 20
-2.049995
 40
10.750000
 50
123.199554
 51
116.800423
  0
ARC
  8
0
 10
-30.000004
 20
-105.949997
 40
9.000000
 50
235.440628
 51
4.559435
  0
CIRCLE
  8
0
 10
-91.939308
 20
-18.644653
 40
7.500000
  0
CIRCLE
  8
0
 10
-73.554535
 20
-53.999992
 40
0.500000
  0
CIRCLE
  8
0
 10
-73.554535
 20
-53.999992
 40
16.250000
  0
ARC
  8
0
 10
-87.696671
 20
-93.597969
 40
17.999998
 50
291.941772
 51
338.058197
  0
ARC
  8
0
 10
-71.079643
 20
2.214993
 40
18.000002
 50
21.941736
 51
68.058235
  0
CIRCLE
  8
0
 10
-120.223579
 20
-61.071056
 40
2.500000
  0
CIRCLE
  8
0
 10
-120.223579
 20
-61.071056
 40
2.250000
  0
CIRCLE
  8
0
 10
-120.223579
 20
-61.071056
 40
5.000000
  0
CIRCLE
  8
0
 10
-120.223579
 20
-46.928921
 40
2.500000
  0
CIRCLE
  8
0
 10
-120.223579
 20
-46.928921
 40
2.250000
  0
CIRCLE
  8
0
 10
-120.223579
 20
-46.928921
 40
5.000000
  0
CIRCLE
  8
0
 10
-91.939308
 20
-18.644653
 40
7.000000
  0
CIRCLE
  8
0
 10
-73.554535
 20
-53.999992
 40
17.049999
  0
ARC
  8
0
 10
-73.554527
 20
-32.499992
 40
5.000001
 50
52.250755
 51
127.749229
  0
ARC
  8
0
 10
-73.554535
 20
-53.999992
 40
22.000000
 50
127.749245
 51
155.380020
  0
ARC
  8
0
 10
-73.554535
 20
-53.999992
 40
22.000002
 50
307.749207
 51
335.380005
  0
ARC
  8
0
 10
-73.554527
 20
-32.499992
 40
5.000001
 50
52.250755
 51
90.000000
  0
ARC
  8
0
 10
-73.554535
 20
-53.999992
 40
21.999998
 50
204.620010
 51
232.250793
  0
ARC
  8
0
 10
-73.554535
 20
-53.999992
 40
22.000000
 50
24.619974
 51
52.250751
  0
ARC
  8
0
 10
-73.554535
 20
-75.499992
 40
5.000003
 50
232.250763
 51
307.749237
  0
ARC
  8
0
 10
-86.481003
 20
-113.383362
 40
4.100000
 50
255.000015
 51
315.000000
  0
ARC
  8
0
 10
-86.411285
 20
-113.313652
 40
4.100002
 50
315.000000
 51
14.999986
  0
ARC
  8
0
 10
-67.980995
 20
-94.883369
 40
4.100000
 50
255.000015
 51
315.000000
  0
ARC
  8
0
 10
-67.911278
 20
-94.813652
 40
4.100002
 50
315.000000
 51
14.999986
  0
ARC
  8
0
 10
-67.911278
 20
-13.186337
 40
4.100000
 50
345.000000
 51
44.999962
  0
ARC
  8
0
 10
-67.980995
 20
-13.116619
 40
4.099999
 50
44.999962
 51
104.999985
  0
ARC
  8
0
 10
-86.411270
 20
5.313671
 40
4.100000
 50
345.000000
 51
44.999962
  0
ARC
  8
0
 10
-86.480980
 20
5.383381
 40
4.099999
 50
44.999962
 51
104.999985
  0
ARC
  8
0
 10
0.000000
 20
-54.000000
 40
35.000000
 50
121.270729
 51
148.729263
  0
CIRCLE
  8
0
 10
-91.939308
 20
-89.355331
 40
7.000000
  0
CIRCLE
  8
0
 10
-91.939308
 20
-89.355331
 40
7.500000
  0
CIRCLE
  8
0
 10
-73.554535
 20
-75.499992
 40
3.800000
  0
CIRCLE
  8
0
 10
-29.999996
 20
-2.049995
 40
9.000000
  0
CIRCLE
  8
0
 10
-73.554543
 20
-32.499992
 40
3.800000
  0
ARC
  8
0
 10
-30.000004
 20
-105.949997
 40
7.799998
 50
239.713531
 51
0.286491
  0
ARC
  8
0
 10
-81.303268
 20
-135.303253
 40
3.519532
 50
168.051315
 51
281.948456
  0
ARC
  8
0
 10
-84.781898
 20
-133.832123
 40
0.499995
 50
135.000626
 51
225.000626
  0
ARC
  8
0
 10
-85.630432
 20
-131.852234
 40
0.500006
 50
134.999374
 51
224.999374
  0
ARC
  8
0
 10
-79.832153
 20
-138.781876
 40
0.500006
 50
225.000626
 51
314.999390
  0
ARC
  8
0
 10
-77.852249
 20
-139.630402
 40
0.499995
 50
224.999374
 51
315.000610
  0
ARC
  8
0
 10
-81.303246
 20
27.303268
 40
3.519529
 50
78.051559
 51
191.948441
  0
ARC
  8
0
 10
-79.832130
 20
30.781898
 40
0.500001
 50
45.000000
 51
135.000000
  0
ARC
  8
0
 10
-77.852226
 20
31.630432
 40
0.500001
 50
45.000000
 51
135.000000
  0
ARC
  8
0
 10
-84.781876
 20
25.832153
 40
0.500001
 50
135.000000
 51
225.000000
  0
ARC
  8
0
 10
-85.630394
 20
23.852249
 40
0.500001
 50
135.000000
 51
225.000000
  0
CIRCLE
  8
0
 10
-55.360004
 20
1.360012
 40
3.500000
  0
CIRCLE
  8
0
 10
-48.999996
 20
-4.999996
 40
3.800000
  0
CIRCLE
  8
0
 10
-48.999996
 20
-4.999996
 40
3.500000
  0
ARC
  8
0
 10
-70.200882
 20
-127.312141
 40
1.300001
 50
241.601685
 51
314.999756
  0
ARC
  8
0
 10
-66.538757
 20
-120.538757
 40
8.999996
 50
208.398285
 51
241.601440
  0
ARC
  8
0
 10
-73.312149
 20
-124.200890
 40
1.300000
 50
134.999756
 51
208.398315
  0
ARC
  8
0
 10
-55.360004
 20
1.360012
 40
3.800001
 50
146.774612
 51
123.225380
  0
ARC
  8
0
 10
-30.000004
 20
-105.949997
 40
10.750003
 50
231.078400
 51
236.800446
  0
ARC
  8
0
 10
29.999958
 20
-105.961548
 40
6.000000
 50
189.992493
 51
290.007416
  0
CIRCLE
  8
0
 10
60.000000
 20
-54.000061
 40
6.000000
  0
CIRCLE
  8
0
 10
30.000063
 20
-2.038513
 40
6.000000
  0
ARC
  8
0
 10
29.999958
 20
-105.961548
 40
5.125004
 50
198.799988
 51
281.199951
  0
CIRCLE
  8
0
 10
60.000000
 20
-54.000061
 40
5.125000
  0
CIRCLE
  8
0
 10
30.000063
 20
-2.038513
 40
5.125000
  0
ARC
  8
0
 10
29.999958
 20
-105.961548
 40
12.000000
 50
195.000031
 51
311.255737
  0
ARC
  8
0
 10
60.000000
 20
-54.000061
 40
11.999998
 50
255.000046
 51
105.000015
  0
ARC
  8
0
 10
30.000063
 20
-2.038513
 40
12.000001
 50
314.999969
 51
164.999985
  0
ARC
  8
0
 10
0.000007
 20
32.500000
 40
10.500000
 50
14.999989
 51
165.000015
  0
ARC
  8
0
 10
-0.000020
 20
-140.500000
 40
10.500000
 50
195.000031
 51
344.999969
  0
ARC
  8
0
 10
74.911179
 20
-97.250031
 40
10.500000
 50
278.038910
 51
45.000000
  0
ARC
  8
0
 10
74.911224
 20
-10.750046
 40
10.500003
 50
315.000000
 51
104.999985
  0
ARC
  8
0
 10
-12.544623
 20
-106.500000
 40
5.000000
 50
90.000000
 51
153.008743
  0
ARC
  8
0
 10
12.544540
 20
-106.500000
 40
5.000001
 50
15.000028
 51
90.000000
  0
ARC
  8
0
 10
51.738598
 20
-69.386116
 40
4.999999
 50
75.000008
 51
150.000000
  0
ARC
  8
0
 10
51.738655
 20
-38.613983
 40
4.999999
 50
210.000061
 51
284.999939
  0
ARC
  8
0
 10
39.194077
 20
-16.886131
 40
5.000000
 50
135.000000
 51
210.000000
  0
ARC
  8
0
 10
12.544661
 20
-1.500000
 40
5.000000
 50
269.999969
 51
344.999969
  0
ARC
  8
0
 10
-12.544503
 20
-1.500000
 40
5.000001
 50
206.988297
 51
269.999969
  0
ARC
  8
0
 10
0.000000
 20
-54.000000
 40
65.000000
 50
252.890137
 51
289.978760
  0
ARC
  8
0
 10
0.000000
 20
-54.000000
 40
65.000000
 50
322.514008
 51
349.978760
  0
ARC
  8
0
 10
0.000000
 20
-54.000000
 40
65.000000
 50
10.021103
 51
49.978775
  0
ARC
  8
0
 10
-16.205845
 20
31.906342
 40
4.999997
 50
300.000031
 51
344.999969
  0
ARC
  8
0
 10
-16.205870
 20
-139.906342
 40
5.000000
 50
15.000033
 51
60.000050
  0
ARC
  8
0
 10
16.205830
 20
-139.906342
 40
4.999984
 50
120.000107
 51
164.999969
  0
ARC
  8
0
 10
82.500000
 20
-82.918549
 40
5.000000
 50
179.999908
 51
225.000000
  0
ARC
  8
0
 10
82.500000
 20
-25.081583
 40
4.999999
 50
134.999954
 51
179.999985
  0
ARC
  8
0
 10
66.294212
 20
2.987812
 40
5.000000
 50
240.000000
 51
285.000031
  0
ARC
  8
0
 10
16.205856
 20
31.906342
 40
5.000000
 50
195.000031
 51
240.000046
  0
ARC
  8
0
 10
0.000000
 20
-54.000000
 40
98.000008
 50
231.649155
 51
308.350800
  0
ARC
  8
0
 10
0.000000
 20
-54.000000
 40
19.950001
 50
171.678024
 51
188.321945
  0
ARC
  8
0
 10
0.000000
 20
-54.000000
 40
19.150002
 50
172.464188
 51
187.535797
  0
ARC
  8
0
 10
0.000000
 20
-54.000000
 40
19.149998
 50
262.464233
 51
277.535858
  0
ARC
  8
0
 10
0.000000
 20
-54.000000
 40
19.150000
 50
352.464172
 51
7.535769
  0
ARC
  8
0
 10
0.000000
 20
-54.000000
 40
19.150002
 50
82.464180
 51
97.535805
  0
ARC
  8
0
 10
0.000000
 20
-54.000000
 40
76.000000
 50
238.788803
 51
303.546204
  0
ARC
  8
0
 10
0.000000
 20
-54.000000
 40
44.999996
 50
261.417358
 51
278.582581
  0
ARC
  8
0
 10
0.000000
 20
-54.000000
 40
65.000000
 50
70.021088
 51
107.109810
  0
ARC
  8
0
 10
0.000000
 20
-54.000000
 40
19.949999
 50
261.677979
 51
278.321991
  0
ARC
  8
0
 10
0.000000
 20
-54.000000
 40
19.950001
 50
81.678001
 51
98.322006
  0
ARC
  8
0
 10
0.000000
 20
-54.000000
 40
19.950001
 50
351.678009
 51
8.321987
  0
ARC
  8
0
 10
0.000000
 20
-54.000000
 40
76.000000
 50
321.931030
 51
121.211212
  0
ARC
  8
0
 10
0.000000
 20
-54.000000
 40
98.000000
 50
324.682404
 51
132.075500
  0
CIRCLE
  8
0
 10
-75.943069
 20
21.943085
 40
2.000000
  0
CIRCLE
  8
0
 10
-75.943069
 20
21.943085
 40
2.500000
  0
CIRCLE
  8
0
 10
-75.943085
 20
-129.943085
 40
2.500000
  0
CIRCLE
  8
0
 10
-75.943085
 20
-129.943085
 40
2.000000
  0
POINT
  8
0
 10
180.000000
 20
272.000000
  0
POINT
  8
0
 10
253.000000
 20
272.000000
  0
LINE
  8
0
 10
186.000000
 20
348.221558
 11
186.000000
 21
337.000000
  0
LINE
  8
0
 10
186.000000
 20
341.150574
 11
188.500000
 21
341.150574
  0
LINE
  8
0
 10
187.500000
 20
340.089905
 11
188.500000
 21
340.089905
  0
LINE
  8
0
 10
202.500000
 20
342.281921
 11
202.500000
 21
340.796906
  0
LINE
  8
0
 10
187.500000
 20
340.089905
 11
187.500000
 21
335.639587
  0
LINE
  8
0
 10
201.600006
 20
193.586334
 11
194.200012
 21
193.586334
  0
LINE
  8
0
 10
202.399994
 20
191.606445
 11
193.400009
 21
191.606445
  0
LINE
  8
0
 10
202.399994
 20
186.156693
 11
193.400009
 21
186.156693
  0
LINE
  8
0
 10
201.600006
 20
185.308167
 11
194.200012
 21
185.308167
  0
LINE
  8
0
 10
201.600006
 20
197.970398
 11
194.200012
 21
197.970398
  0
LINE
  8
0
 10
193.700012
 20
197.470398
 11
193.700012
 21
192.672134
  0
LINE
  8
0
 10
192.900009
 20
196.056183
 11
192.900009
 21
186.656693
  0
LINE
  8
0
 10
202.100006
 20
197.470398
 11
202.100006
 21
192.672134
  0
LINE
  8
0
 10
202.899994
 20
196.056183
 11
202.899994
 21
186.656693
  0
LINE
  8
0
 10
201.600006
 20
192.172134
 11
194.200012
 21
192.172134
  0
LINE
  8
0
 10
192.399994
 20
196.556183
 11
193.699997
 21
196.556183
  0
LINE
  8
0
 10
202.100006
 20
186.156693
 11
202.100006
 21
185.808167
  0
LINE
  8
0
 10
193.700012
 20
186.156693
 11
193.700012
 21
185.808167
  0
LINE
  8
0
 10
202.099991
 20
196.556183
 11
203.400009
 21
196.556183
  0
LINE
  8
0
 10
186.399994
 20
196.273346
 11
192.399994
 21
196.273346
  0
LINE
  8
0
 10
203.400009
 20
196.556183
 11
203.400009
 21
190.616486
  0
LINE
  8
0
 10
192.399994
 20
196.556183
 11
192.399994
 21
190.616486
  0
LINE
  8
0
 10
194.399994
 20
203.503098
 11
194.399994
 21
197.970398
  0
LINE
  8
0
 10
201.399994
 20
203.503098
 11
201.399994
 21
197.970398
  0
LINE
  8
0
 10
203.400009
 20
196.273346
 11
208.400009
 21
196.273346
  0
LINE
  8
0
 10
196.399963
 20
200.940247
 11
196.399963
 21
203.503098
  0
LINE
  8
0
 10
199.400009
 20
200.940247
 11
199.400009
 21
203.503098
  0
LINE
  8
0
 10
208.400009
 20
201.718079
 11
208.400009
 21
190.616486
  0
LINE
  8
0
 10
186.399994
 20
190.616486
 11
192.399994
 21
190.616486
  0
LINE
  8
0
 10
192.399994
 20
190.899323
 11
192.900009
 21
190.899323
  0
LINE
  8
0
 10
202.899994
 20
190.899323
 11
203.400009
 21
190.899323
  0
LINE
  8
0
 10
203.400009
 20
190.616486
 11
208.400009
 21
190.616486
  0
LINE
  8
0
 10
186.399994
 20
201.718079
 11
194.400009
 21
201.718079
  0
LINE
  8
0
 10
196.399994
 20
201.718079
 11
199.399994
 21
201.718079
  0
LINE
  8
0
 10
201.400009
 20
201.718079
 11
208.400009
 21
201.718079
  0
LINE
  8
0
 10
210.399994
 20
198.066238
 11
210.399994
 21
193.066238
  0
LINE
  8
0
 10
208.400009
 20
198.066223
 11
210.399994
 21
198.066223
  0
LINE
  8
0
 10
210.399994
 20
197.566223
 11
257.649994
 21
197.566223
  0
LINE
  8
0
 10
210.399994
 20
193.566223
 11
257.649994
 21
193.566223
  0
LINE
  8
0
 10
208.400009
 20
193.066223
 11
210.399994
 21
193.066223
  0
LINE
  8
0
 10
186.399994
 20
201.718079
 11
186.399994
 21
190.616486
  0
LINE
  8
0
 10
257.649994
 20
193.566223
 11
257.649994
 21
197.566223
  0
LINE
  8
0
 10
257.649994
 20
195.866226
 11
260.649994
 21
195.866226
  0
LINE
  8
0
 10
257.649994
 20
195.266235
 11
260.649994
 21
195.266235
  0
LINE
  8
0
 10
257.649994
 20
196.866226
 11
260.649994
 21
196.866226
  0
LINE
  8
0
 10
257.649994
 20
194.266235
 11
260.649994
 21
194.266235
  0
LINE
  8
0
 10
260.649994
 20
194.266235
 11
260.649994
 21
195.266235
  0
LINE
  8
0
 10
260.649994
 20
195.866226
 11
260.649994
 21
196.866226
  0
LINE
  8
0
 10
260.649994
 20
194.391235
 11
262.149994
 21
194.391235
  0
LINE
  8
0
 10
260.649994
 20
194.516235
 11
262.149994
 21
194.516235
  0
LINE
  8
0
 10
260.649994
 20
194.641235
 11
262.149994
 21
194.641235
  0
LINE
  8
0
 10
260.649994
 20
194.766235
 11
262.149994
 21
194.766235
  0
LINE
  8
0
 10
260.649994
 20
194.891235
 11
262.149994
 21
194.891235
  0
LINE
  8
0
 10
260.649994
 20
195.016235
 11
262.149994
 21
195.016235
  0
LINE
  8
0
 10
260.649994
 20
195.141235
 11
262.149994
 21
195.141235
  0
LINE
  8
0
 10
260.649994
 20
195.991226
 11
262.149994
 21
195.991226
  0
LINE
  8
0
 10
260.649994
 20
196.116226
 11
262.149994
 21
196.116226
  0
LINE
  8
0
 10
260.649994
 20
196.241226
 11
262.149994
 21
196.241226
  0
LINE
  8
0
 10
260.649994
 20
196.366226
 11
262.149994
 21
196.366226
  0
LINE
  8
0
 10
260.649994
 20
196.491226
 11
262.149994
 21
196.491226
  0
LINE
  8
0
 10
260.649994
 20
196.616226
 11
262.149994
 21
196.616226
  0
LINE
  8
0
 10
260.649994
 20
196.741226
 11
262.149994
 21
196.741226
  0
LINE
  8
0
 10
186.000000
 20
195.778442
 11
186.000000
 21
207.000015
  0
LINE
  8
0
 10
186.000000
 20
202.849426
 11
188.500000
 21
202.849426
  0
LINE
  8
0
 10
187.500000
 20
203.910095
 11
188.500000
 21
203.910095
  0
LINE
  8
0
 10
202.500000
 20
201.718079
 11
202.500000
 21
203.203094
  0
LINE
  8
0
 10
187.500000
 20
203.910095
 11
187.500000
 21
208.360397
  0
LINE
  8
0
 10
201.600006
 20
350.413666
 11
194.200012
 21
350.413666
  0
LINE
  8
0
 10
202.399994
 20
352.393555
 11
193.400009
 21
352.393555
  0
LINE
  8
0
 10
202.399994
 20
357.843292
 11
193.400009
 21
357.843292
  0
LINE
  8
0
 10
201.600006
 20
358.691833
 11
194.200012
 21
358.691833
  0
LINE
  8
0
 10
201.600006
 20
346.029602
 11
194.200012
 21
346.029602
  0
LINE
  8
0
 10
193.700012
 20
346.529602
 11
193.700012
 21
351.327881
  0
LINE
  8
0
 10
192.900009
 20
347.943817
 11
192.900009
 21
357.343323
  0
LINE
  8
0
 10
202.100006
 20
346.529602
 11
202.100006
 21
351.327881
  0
LINE
  8
0
 10
202.899994
 20
347.943817
 11
202.899994
 21
357.343323
  0
LINE
  8
0
 10
201.600006
 20
351.827850
 11
194.200012
 21
351.827850
  0
LINE
  8
0
 10
192.399994
 20
347.443817
 11
193.699997
 21
347.443817
  0
LINE
  8
0
 10
202.100006
 20
357.843323
 11
202.100006
 21
358.191833
  0
LINE
  8
0
 10
193.700012
 20
357.843323
 11
193.700012
 21
358.191833
  0
LINE
  8
0
 10
202.099991
 20
347.443817
 11
203.400009
 21
347.443817
  0
LINE
  8
0
 10
186.399994
 20
347.726654
 11
192.399994
 21
347.726654
  0
LINE
  8
0
 10
203.400009
 20
347.443817
 11
203.400009
 21
353.383514
  0
LINE
  8
0
 10
192.399994
 20
347.443817
 11
192.399994
 21
353.383514
  0
LINE
  8
0
 10
194.399994
 20
340.496887
 11
194.399994
 21
346.029602
  0
LINE
  8
0
 10
201.399994
 20
340.496887
 11
201.399994
 21
346.029602
  0
LINE
  8
0
 10
203.400009
 20
347.726654
 11
208.400009
 21
347.726654
  0
LINE
  8
0
 10
196.399963
 20
343.059753
 11
196.399963
 21
340.496887
  0
LINE
  8
0
 10
199.400009
 20
343.059753
 11
199.400009
 21
340.496887
  0
LINE
  8
0
 10
208.400009
 20
342.281921
 11
208.400009
 21
353.383514
  0
LINE
  8
0
 10
186.399994
 20
353.383514
 11
192.399994
 21
353.383514
  0
LINE
  8
0
 10
192.399994
 20
353.100677
 11
192.900009
 21
353.100677
  0
LINE
  8
0
 10
202.899994
 20
353.100677
 11
203.400009
 21
353.100677
  0
LINE
  8
0
 10
203.400009
 20
353.383514
 11
208.400009
 21
353.383514
  0
LINE
  8
0
 10
186.399994
 20
342.281921
 11
194.400009
 21
342.281921
  0
LINE
  8
0
 10
196.399994
 20
342.281921
 11
199.399994
 21
342.281921
  0
LINE
  8
0
 10
201.400009
 20
342.281921
 11
208.400009
 21
342.281921
  0
LINE
  8
0
 10
210.399994
 20
345.933777
 11
210.399994
 21
350.933777
  0
LINE
  8
0
 10
208.400009
 20
345.933777
 11
210.399994
 21
345.933777
  0
LINE
  8
0
 10
210.399994
 20
346.433777
 11
257.649994
 21
346.433777
  0
LINE
  8
0
 10
210.399994
 20
350.433777
 11
257.649994
 21
350.433777
  0
LINE
  8
0
 10
208.400009
 20
350.933777
 11
210.399994
 21
350.933777
  0
LINE
  8
0
 10
186.399994
 20
342.281921
 11
186.399994
 21
353.383514
  0
LINE
  8
0
 10
257.649994
 20
350.433777
 11
257.649994
 21
346.433777
  0
LINE
  8
0
 10
257.649994
 20
348.133759
 11
260.649994
 21
348.133759
  0
LINE
  8
0
 10
257.649994
 20
348.733765
 11
260.649994
 21
348.733765
  0
LINE
  8
0
 10
257.649994
 20
347.133759
 11
260.649994
 21
347.133759
  0
LINE
  8
0
 10
257.649994
 20
349.733765
 11
260.649994
 21
349.733765
  0
LINE
  8
0
 10
260.649994
 20
349.733765
 11
260.649994
 21
348.733765
  0
LINE
  8
0
 10
260.649994
 20
348.133789
 11
260.649994
 21
347.133789
  0
LINE
  8
0
 10
260.649994
 20
349.608765
 11
262.149994
 21
349.608765
  0
LINE
  8
0
 10
260.649994
 20
349.483765
 11
262.149994
 21
349.483765
  0
LINE
  8
0
 10
260.649994
 20
349.358765
 11
262.149994
 21
349.358765
  0
LINE
  8
0
 10
260.649994
 20
349.233765
 11
262.149994
 21
349.233765
  0
LINE
  8
0
 10
260.649994
 20
349.108765
 11
262.149994
 21
349.108765
  0
LINE
  8
0
 10
260.649994
 20
348.983765
 11
262.149994
 21
348.983765
  0
LINE
  8
0
 10
260.649994
 20
348.858765
 11
262.149994
 21
348.858765
  0
LINE
  8
0
 10
260.649994
 20
348.008759
 11
262.149994
 21
348.008759
  0
LINE
  8
0
 10
260.649994
 20
347.883759
 11
262.149994
 21
347.883759
  0
LINE
  8
0
 10
260.649994
 20
347.758759
 11
262.149994
 21
347.758759
  0
LINE
  8
0
 10
260.649994
 20
347.633759
 11
262.149994
 21
347.633759
  0
LINE
  8
0
 10
260.649994
 20
347.508759
 11
262.149994
 21
347.508759
  0
LINE
  8
0
 10
260.649994
 20
347.383759
 11
262.149994
 21
347.383759
  0
LINE
  8
0
 10
260.649994
 20
347.258759
 11
262.149994
 21
347.258759
  0
LINE
  8
0
 10
188.500000
 20
341.150574
 11
188.500000
 21
340.089905
  0
LINE
  8
0
 10
189.500000
 20
341.857574
 11
189.500000
 21
340.796906
  0
LINE
  8
0
 10
189.500000
 20
340.796906
 11
188.500000
 21
340.089905
  0
LINE
  8
0
 10
189.500000
 20
341.857574
 11
188.500000
 21
341.150574
  0
LINE
  8
0
 10
189.500000
 20
341.857574
 11
194.399994
 21
341.857574
  0
LINE
  8
0
 10
189.500000
 20
340.796906
 11
194.399994
 21
340.796906
  0
LINE
  8
0
 10
196.399963
 20
341.857574
 11
199.400009
 21
341.857574
  0
LINE
  8
0
 10
196.399963
 20
340.796906
 11
199.400009
 21
340.796906
  0
LINE
  8
0
 10
201.399994
 20
341.857574
 11
202.500000
 21
341.857574
  0
LINE
  8
0
 10
201.399994
 20
340.796906
 11
202.500000
 21
340.796906
  0
LINE
  8
0
 10
201.399994
 20
203.503098
 11
199.400009
 21
203.503098
  0
LINE
  8
0
 10
196.399963
 20
203.503098
 11
194.399994
 21
203.503098
  0
LINE
  8
0
 10
188.500000
 20
202.849426
 11
188.500000
 21
203.910095
  0
LINE
  8
0
 10
189.500000
 20
202.142426
 11
189.500000
 21
203.203094
  0
LINE
  8
0
 10
188.500000
 20
203.910095
 11
189.500000
 21
203.203094
  0
LINE
  8
0
 10
189.500000
 20
203.203094
 11
194.399994
 21
203.203094
  0
LINE
  8
0
 10
196.399963
 20
203.203094
 11
199.400009
 21
203.203094
  0
LINE
  8
0
 10
201.399994
 20
203.203094
 11
202.500000
 21
203.203094
  0
LINE
  8
0
 10
202.500000
 20
202.142426
 11
201.399994
 21
202.142426
  0
LINE
  8
0
 10
199.400009
 20
202.142426
 11
196.399963
 21
202.142426
  0
LINE
  8
0
 10
194.399994
 20
202.142426
 11
189.500000
 21
202.142426
  0
LINE
  8
0
 10
189.500000
 20
202.142426
 11
188.500000
 21
202.849426
  0
LINE
  8
0
 10
201.399994
 20
340.496887
 11
199.400009
 21
340.496887
  0
LINE
  8
0
 10
196.399963
 20
340.496887
 11
194.399994
 21
340.496887
  0
LINE
  8
0
 10
216.800003
 20
200.934830
 11
216.800003
 21
201.643799
  0
LINE
  8
0
 10
209.199997
 20
200.934814
 11
209.199997
 21
201.643799
  0
LINE
  8
0
 10
216.500000
 20
200.242630
 11
216.500000
 21
200.936615
  0
LINE
  8
0
 10
209.500000
 20
200.242630
 11
209.500000
 21
200.936615
  0
LINE
  8
0
 10
213.000000
 20
197.774353
 11
213.000000
 21
200.780365
  0
LINE
  8
0
 10
217.000000
 20
206.239075
 11
217.000000
 21
198.107330
  0
LINE
  8
0
 10
193.800003
 20
205.178406
 11
195.300003
 21
205.178406
  0
LINE
  8
0
 10
203.000000
 20
206.239075
 11
217.000000
 21
206.239075
  0
LINE
  8
0
 10
195.300003
 20
205.178406
 11
201.500000
 21
205.178406
  0
LINE
  8
0
 10
201.500000
 20
205.178406
 11
217.000000
 21
205.178406
  0
LINE
  8
0
 10
219.000000
 20
208.360382
 11
219.000000
 21
197.566223
  0
LINE
  8
0
 10
193.800003
 20
208.360382
 11
193.800003
 21
203.203094
  0
LINE
  8
0
 10
195.300003
 20
208.360382
 11
195.300003
 21
203.503098
  0
LINE
  8
0
 10
201.500000
 20
208.360382
 11
201.500000
 21
203.203094
  0
LINE
  8
0
 10
208.400009
 20
198.107330
 11
210.683090
 21
198.107330
  0
LINE
  8
0
 10
203.000000
 20
208.360382
 11
203.000000
 21
206.239075
  0
LINE
  8
0
 10
215.316910
 20
198.107330
 11
217.000000
 21
198.107330
  0
LINE
  8
0
 10
186.000000
 20
251.420761
 11
236.000000
 21
251.420761
  0
LINE
  8
0
 10
186.000000
 20
292.579224
 11
236.000000
 21
292.579224
  0
LINE
  8
0
 10
185.999985
 20
208.360382
 11
235.999985
 21
208.360382
  0
LINE
  8
0
 10
179.999985
 20
206.999985
 11
185.999985
 21
206.999985
  0
LINE
  8
0
 10
186.000015
 20
335.639587
 11
236.000015
 21
335.639587
  0
LINE
  8
0
 10
180.000015
 20
337.000000
 11
186.000015
 21
337.000000
  0
LINE
  8
0
 10
180.000000
 20
337.000000
 11
180.000000
 21
206.999985
  0
LINE
  8
0
 10
236.000000
 20
335.639587
 11
236.000000
 21
208.360367
  0
LINE
  8
0
 10
186.000000
 20
337.000000
 11
186.000000
 21
206.999985
  0
LINE
  8
0
 10
238.000000
 20
298.499969
 11
238.000000
 21
284.168732
  0
LINE
  8
0
 10
253.000000
 20
288.049988
 11
253.000000
 21
255.949982
  0
LINE
  8
0
 10
238.500000
 20
288.250000
 11
252.800003
 21
288.250000
  0
LINE
  8
0
 10
236.000000
 20
298.500000
 11
238.000000
 21
298.500000
  0
LINE
  8
0
 10
236.000000
 20
245.500046
 11
238.000000
 21
245.500046
  0
LINE
  8
0
 10
238.500000
 20
255.750000
 11
252.800003
 21
255.750000
  0
LINE
  8
0
 10
252.799988
 20
288.249969
 11
253.000000
 21
288.049957
  0
LINE
  8
0
 10
252.800018
 20
255.749924
 11
253.000031
 21
255.949921
  0
LINE
  8
0
 10
241.000000
 20
281.720642
 11
241.000000
 21
274.074036
  0
LINE
  8
0
 10
248.000000
 20
281.271057
 11
248.000000
 21
276.871033
  0
LINE
  8
0
 10
236.000000
 20
259.187042
 11
240.550003
 21
259.187042
  0
LINE
  8
0
 10
236.000000
 20
262.580627
 11
240.550003
 21
262.580627
  0
LINE
  8
0
 10
236.000000
 20
268.322510
 11
240.550003
 21
268.322510
  0
LINE
  8
0
 10
236.000000
 20
270.670807
 11
240.550003
 21
270.670807
  0
LINE
  8
0
 10
236.000000
 20
273.973358
 11
240.550003
 21
273.973358
  0
LINE
  8
0
 10
236.000000
 20
274.174866
 11
240.550003
 21
274.174866
  0
LINE
  8
0
 10
236.000000
 20
284.168762
 11
240.550003
 21
284.168762
  0
LINE
  8
0
 10
241.000000
 20
276.571045
 11
247.700012
 21
276.571045
  0
LINE
  8
0
 10
241.000000
 20
281.571045
 11
247.699997
 21
281.571045
  0
LINE
  8
0
 10
241.000000
 20
262.428925
 11
247.699997
 21
262.428925
  0
LINE
  8
0
 10
241.000000
 20
267.428925
 11
247.699997
 21
267.428925
  0
LINE
  8
0
 10
248.000000
 20
267.128906
 11
248.000000
 21
262.728912
  0
LINE
  8
0
 10
247.699982
 20
267.428894
 11
247.999985
 21
267.128906
  0
LINE
  8
0
 10
247.699966
 20
262.428925
 11
247.999969
 21
262.728912
  0
LINE
  8
0
 10
248.000031
 20
276.871033
 11
247.700043
 21
276.571014
  0
LINE
  8
0
 10
247.699982
 20
281.571045
 11
247.999985
 21
281.271027
  0
LINE
  8
0
 10
241.000000
 20
269.496643
 11
241.000000
 21
260.883820
  0
LINE
  8
0
 10
238.000000
 20
259.187042
 11
238.000000
 21
245.499969
  0
LINE
  8
0
 10
238.000000
 20
273.973358
 11
238.000000
 21
270.670776
  0
LINE
  8
0
 10
247.949982
 20
267.178925
 11
241.000000
 21
267.178925
  0
LINE
  8
0
 10
247.949997
 20
262.678925
 11
241.000000
 21
262.678925
  0
LINE
  8
0
 10
247.950012
 20
276.821045
 11
241.000000
 21
276.821045
  0
LINE
  8
0
 10
247.949966
 20
281.321045
 11
241.000000
 21
281.321045
  0
LINE
  8
0
 10
247.700012
 20
262.428925
 11
247.700012
 21
267.428894
  0
LINE
  8
0
 10
247.699921
 20
276.571045
 11
247.699921
 21
281.571045
  0
LINE
  8
0
 10
238.400009
 20
289.899963
 11
238.400009
 21
297.099976
  0
LINE
  8
0
 10
240.449997
 20
293.450684
 11
240.449997
 21
293.549286
  0
LINE
  8
0
 10
238.400009
 20
297.099976
 11
238.000000
 21
297.099976
  0
LINE
  8
0
 10
238.400009
 20
289.899963
 11
238.000000
 21
289.899963
  0
LINE
  8
0
 10
238.399994
 20
246.899979
 11
238.399994
 21
254.099976
  0
LINE
  8
0
 10
240.449997
 20
250.450684
 11
240.449997
 21
250.549271
  0
LINE
  8
0
 10
238.399994
 20
254.099976
 11
238.000000
 21
254.099976
  0
LINE
  8
0
 10
238.399994
 20
246.899979
 11
238.000000
 21
246.899979
  0
LINE
  8
0
 10
237.958054
 20
300.355316
 11
236.000000
 21
300.355316
  0
LINE
  8
0
 10
237.958054
 20
314.355316
 11
236.000000
 21
314.355316
  0
LINE
  8
0
 10
237.958038
 20
229.644638
 11
236.000000
 21
229.644638
  0
LINE
  8
0
 10
237.958038
 20
243.644638
 11
236.000000
 21
243.644638
  0
LINE
  8
0
 10
180.000000
 20
251.399994
 11
186.000000
 21
251.399994
  0
LINE
  8
0
 10
180.000000
 20
292.600006
 11
186.000000
 21
292.600006
  0
LINE
  8
0
 10
174.000000
 20
224.649994
 11
179.399994
 21
224.649994
  0
LINE
  8
0
 10
174.000000
 20
214.649994
 11
179.399994
 21
214.649994
  0
LINE
  8
0
 10
174.000000
 20
252.949997
 11
179.399994
 21
252.949997
  0
LINE
  8
0
 10
174.000000
 20
242.949997
 11
179.399994
 21
242.949997
  0
LINE
  8
0
 10
174.000000
 20
301.049988
 11
179.399994
 21
301.049988
  0
LINE
  8
0
 10
174.000000
 20
291.049988
 11
179.399994
 21
291.049988
  0
LINE
  8
0
 10
174.000000
 20
329.350006
 11
179.399994
 21
329.350006
  0
LINE
  8
0
 10
174.000000
 20
319.350006
 11
179.399994
 21
319.350006
  0
LINE
  8
0
 10
179.399994
 20
329.600006
 11
180.000000
 21
329.600006
  0
LINE
  8
0
 10
179.399994
 20
319.100006
 11
180.000000
 21
319.100006
  0
LINE
  8
0
 10
179.399994
 20
301.299988
 11
180.000000
 21
301.299988
  0
LINE
  8
0
 10
179.399994
 20
290.799988
 11
180.000000
 21
290.799988
  0
LINE
  8
0
 10
179.399994
 20
242.699997
 11
180.000000
 21
242.699997
  0
LINE
  8
0
 10
179.399994
 20
253.199997
 11
180.000000
 21
253.199997
  0
LINE
  8
0
 10
179.399994
 20
224.899994
 11
180.000000
 21
224.899994
  0
LINE
  8
0
 10
179.399994
 20
214.399994
 11
180.000000
 21
214.399994
  0
LINE
  8
0
 10
179.399994
 20
329.600006
 11
179.399994
 21
319.100006
  0
LINE
  8
0
 10
173.399994
 20
328.750000
 11
173.399994
 21
319.950012
  0
LINE
  8
0
 10
174.000000
 20
329.350006
 11
174.000000
 21
319.350006
  0
LINE
  8
0
 10
173.399994
 20
252.350006
 11
173.399994
 21
243.550003
  0
LINE
  8
0
 10
174.000000
 20
252.949997
 11
174.000000
 21
242.949997
  0
LINE
  8
0
 10
179.399994
 20
253.199997
 11
179.399994
 21
242.699997
  0
LINE
  8
0
 10
173.399994
 20
224.050003
 11
173.399994
 21
215.250000
  0
LINE
  8
0
 10
179.399994
 20
224.899994
 11
179.399994
 21
214.399994
  0
LINE
  8
0
 10
174.000000
 20
224.649994
 11
174.000000
 21
214.649994
  0
LINE
  8
0
 10
173.399994
 20
300.450012
 11
173.399994
 21
291.649994
  0
LINE
  8
0
 10
174.000000
 20
301.049988
 11
174.000000
 21
291.049988
  0
LINE
  8
0
 10
179.399994
 20
301.299988
 11
179.399994
 21
290.799988
  0
LINE
  8
0
 10
174.000000
 20
214.649994
 11
173.399994
 21
215.250000
  0
LINE
  8
0
 10
173.400009
 20
224.049988
 11
174.000000
 21
224.649994
  0
LINE
  8
0
 10
174.000000
 20
242.949997
 11
173.399994
 21
243.550003
  0
LINE
  8
0
 10
173.400009
 20
252.349991
 11
174.000000
 21
252.949997
  0
LINE
  8
0
 10
174.000000
 20
291.049988
 11
173.399994
 21
291.649994
  0
LINE
  8
0
 10
173.399994
 20
300.449982
 11
174.000000
 21
301.050018
  0
LINE
  8
0
 10
174.000000
 20
319.350006
 11
173.400009
 21
319.950012
  0
LINE
  8
0
 10
173.399994
 20
328.750000
 11
174.000000
 21
329.350006
  0
LINE
  8
0
 10
186.000000
 20
195.778442
 11
186.399994
 21
195.778442
  0
LINE
  8
0
 10
186.000000
 20
348.221558
 11
186.399994
 21
348.221558
  0
ARC
  8
0
 10
193.400009
 20
196.056183
 40
0.500000
 50
90.000000
 51
180.000000
  0
ARC
  8
0
 10
194.199997
 20
197.470398
 40
0.500000
 50
90.000000
 51
180.000000
  0
ARC
  8
0
 10
202.399994
 20
186.656693
 40
0.500000
 50
270.000000
 51
0.000000
  0
ARC
  8
0
 10
202.399994
 20
196.056183
 40
0.500000
 50
0.000000
 51
90.000000
  0
ARC
  8
0
 10
193.400009
 20
186.656693
 40
0.500000
 50
180.000000
 51
270.000000
  0
ARC
  8
0
 10
201.600006
 20
192.672134
 40
0.500000
 50
270.000000
 51
0.000000
  0
ARC
  8
0
 10
194.199997
 20
192.672134
 40
0.500000
 50
180.000000
 51
270.000000
  0
ARC
  8
0
 10
194.199997
 20
185.808167
 40
0.500000
 50
180.000000
 51
270.000000
  0
ARC
  8
0
 10
201.600006
 20
185.808167
 40
0.500000
 50
270.000000
 51
0.000000
  0
ARC
  8
0
 10
201.600006
 20
197.470398
 40
0.500000
 50
0.000000
 51
90.000000
  0
ARC
  8
0
 10
193.400009
 20
347.943817
 40
0.500000
 50
180.000000
 51
270.000000
  0
ARC
  8
0
 10
194.199997
 20
346.529602
 40
0.500000
 50
180.000000
 51
270.000000
  0
ARC
  8
0
 10
202.399994
 20
357.343292
 40
0.500000
 50
0.000000
 51
90.000000
  0
ARC
  8
0
 10
202.399994
 20
347.943817
 40
0.500000
 50
270.000000
 51
0.000000
  0
ARC
  8
0
 10
193.400009
 20
357.343292
 40
0.500000
 50
90.000000
 51
180.000000
  0
ARC
  8
0
 10
201.600006
 20
351.327850
 40
0.500000
 50
0.000000
 51
90.000000
  0
ARC
  8
0
 10
194.199997
 20
351.327850
 40
0.500000
 50
90.000000
 51
180.000000
  0
ARC
  8
0
 10
194.199997
 20
358.191833
 40
0.500000
 50
90.000000
 51
180.000000
  0
ARC
  8
0
 10
201.600006
 20
358.191833
 40
0.500000
 50
0.000000
 51
90.000000
  0
ARC
  8
0
 10
201.600006
 20
346.529602
 40
0.500000
 50
270.000000
 51
0.000000
  0
CIRCLE
  8
0
 10
213.649994
 20
347.448303
 40
0.010000
  0
CIRCLE
  8
0
 10
213.000000
 20
199.097275
 40
0.010000
  0
ARC
  8
0
 10
237.958038
 20
232.244629
 40
2.599991
 50
270.000000
 51
343.398773
  0
ARC
  8
0
 10
237.958038
 20
241.044647
 40
2.600000
 50
16.601236
 51
90.000000
  0
ARC
  8
0
 10
237.575989
 20
260.883820
 40
3.424006
 50
330.293762
 51
29.706688
  0
ARC
  8
0
 10
231.616821
 20
265.451569
 40
9.383179
 50
342.183655
 51
17.816339
  0
ARC
  8
0
 10
239.243195
 20
269.496643
 40
1.756818
 50
318.060394
 51
41.939201
  0
ARC
  8
0
 10
233.556488
 20
276.723694
 40
7.443516
 50
339.975220
 51
20.024790
  0
ARC
  8
0
 10
234.115829
 20
281.720642
 40
6.884165
 50
339.169067
 51
20.831175
  0
CIRCLE
  8
0
 10
193.000000
 20
272.000000
 40
2.700000
  0
ARC
  8
0
 10
236.350006
 20
293.450684
 40
4.100016
 50
299.999939
 51
0.000000
  0
ARC
  8
0
 10
236.350006
 20
293.549286
 40
4.100006
 50
0.000000
 51
59.999863
  0
ARC
  8
0
 10
236.349991
 20
250.450684
 40
4.100002
 50
300.000031
 51
0.000000
  0
ARC
  8
0
 10
236.349991
 20
250.549271
 40
4.099991
 50
0.000000
 51
59.999969
  0
ARC
  8
0
 10
223.200012
 20
307.355316
 40
17.999996
 50
343.398468
 51
16.601540
  0
ARC
  8
0
 10
237.958054
 20
302.955322
 40
2.600006
 50
270.000000
 51
343.398437
  0
ARC
  8
0
 10
237.958054
 20
311.755310
 40
2.600005
 50
16.601559
 51
90.000000
  0
ARC
  8
0
 10
223.199982
 20
236.644638
 40
17.999996
 50
343.398468
 51
16.601540
  0
ARC
  8
0
 10
197.155685
 20
200.940247
 40
0.755692
 50
180.001160
 51
194.106949
  0
ARC
  8
0
 10
197.353241
 20
201.012665
 40
0.965201
 50
195.417969
 51
231.388718
  0
ARC
  8
0
 10
197.899994
 20
201.811478
 40
1.931886
 50
233.502457
 51
306.497528
  0
ARC
  8
0
 10
198.446747
 20
201.012665
 40
0.965189
 50
308.611298
 51
344.582886
  0
ARC
  8
0
 10
198.644302
 20
200.940247
 40
0.755696
 50
345.894165
 51
0.000000
  0
ARC
  8
0
 10
199.363785
 20
188.778015
 40
1.486205
 50
354.646179
 51
14.106581
  0
ARC
  8
0
 10
198.975250
 20
188.635590
 40
1.898237
 50
15.417706
 51
51.388241
  0
ARC
  8
0
 10
197.899994
 20
187.064636
 40
3.799348
 50
53.502098
 51
126.498039
  0
ARC
  8
0
 10
196.824738
 20
188.635574
 40
1.898228
 50
128.611755
 51
164.582291
  0
ARC
  8
0
 10
196.436203
 20
188.778015
 40
1.486205
 50
165.893997
 51
185.331360
  0
ARC
  8
0
 10
197.900024
 20
192.179520
 40
4.532871
 50
245.111389
 51
294.901825
  0
ARC
  8
0
 10
190.444321
 20
193.444916
 40
0.755696
 50
345.894165
 51
14.106952
  0
ARC
  8
0
 10
190.246765
 20
193.372498
 40
0.965201
 50
15.417976
 51
51.388714
  0
ARC
  8
0
 10
189.700012
 20
192.573685
 40
1.931886
 50
53.502457
 51
126.497543
  0
ARC
  8
0
 10
189.153259
 20
193.372498
 40
0.965189
 50
128.611282
 51
164.582901
  0
ARC
  8
0
 10
188.955704
 20
193.444916
 40
0.755696
 50
165.894165
 51
194.106949
  0
ARC
  8
0
 10
189.153259
 20
193.517334
 40
0.965201
 50
195.417969
 51
231.388718
  0
ARC
  8
0
 10
189.700012
 20
194.316147
 40
1.931886
 50
233.502457
 51
306.497528
  0
ARC
  8
0
 10
190.246765
 20
193.517334
 40
0.965189
 50
308.611298
 51
344.582886
  0
ARC
  8
0
 10
197.080292
 20
188.778015
 40
2.130295
 50
183.763168
 51
191.773605
  0
ARC
  8
0
 10
197.297852
 20
188.844482
 40
2.356934
 50
192.276260
 51
225.305832
  0
ARC
  8
0
 10
197.899994
 20
189.577576
 40
3.302730
 50
226.824921
 51
313.175262
  0
ARC
  8
0
 10
198.502136
 20
188.844482
 40
2.356923
 50
314.694427
 51
347.724091
  0
ARC
  8
0
 10
198.719696
 20
188.778015
 40
2.130295
 50
348.226776
 51
3.762753
  0
ARC
  8
0
 10
190.118683
 20
193.444916
 40
0.425078
 50
345.894928
 51
14.107077
  0
ARC
  8
0
 10
190.007553
 20
193.404175
 40
0.542932
 50
15.418522
 51
51.388477
  0
ARC
  8
0
 10
189.700012
 20
192.954849
 40
1.086684
 50
53.502438
 51
126.497559
  0
ARC
  8
0
 10
189.392471
 20
193.404175
 40
0.542927
 50
128.611526
 51
164.583038
  0
ARC
  8
0
 10
189.281342
 20
193.444916
 40
0.425078
 50
165.894913
 51
194.107071
  0
ARC
  8
0
 10
189.392471
 20
193.485657
 40
0.542932
 50
195.418518
 51
231.388474
  0
ARC
  8
0
 10
189.700012
 20
193.934982
 40
1.086684
 50
233.502441
 51
306.497559
  0
ARC
  8
0
 10
190.007553
 20
193.485657
 40
0.542927
 50
308.611511
 51
344.583038
  0
ARC
  8
0
 10
198.644302
 20
343.059753
 40
0.755692
 50
0.000000
 51
14.105829
  0
ARC
  8
0
 10
198.446747
 20
342.987335
 40
0.965197
 50
15.417103
 51
51.388149
  0
ARC
  8
0
 10
197.899994
 20
342.188538
 40
1.931861
 50
53.501919
 51
126.497543
  0
ARC
  8
0
 10
197.353241
 20
342.987335
 40
0.965201
 50
128.610718
 51
164.582901
  0
ARC
  8
0
 10
197.155685
 20
343.059753
 40
0.755696
 50
165.894165
 51
180.000000
  0
ARC
  8
0
 10
196.436203
 20
355.221985
 40
1.486211
 50
174.668640
 51
194.106003
  0
ARC
  8
0
 10
196.824738
 20
355.364410
 40
1.898233
 50
195.417267
 51
231.387955
  0
ARC
  8
0
 10
197.899994
 20
356.935364
 40
3.799335
 50
233.501968
 51
306.497772
  0
ARC
  8
0
 10
198.975250
 20
355.364410
 40
1.898240
 50
308.611481
 51
344.581848
  0
ARC
  8
0
 10
199.363785
 20
355.221985
 40
1.486213
 50
345.892853
 51
5.353830
  0
ARC
  8
0
 10
197.900024
 20
351.820465
 40
4.532868
 50
65.098183
 51
114.888535
  0
ARC
  8
0
 10
190.444321
 20
350.555084
 40
0.755696
 50
345.894165
 51
14.105829
  0
ARC
  8
0
 10
190.246765
 20
350.482666
 40
0.965197
 50
15.417103
 51
51.389278
  0
ARC
  8
0
 10
189.700012
 20
349.683868
 40
1.931886
 50
53.502457
 51
126.497543
  0
ARC
  8
0
 10
189.153259
 20
350.482666
 40
0.965201
 50
128.610718
 51
164.582901
  0
ARC
  8
0
 10
188.955704
 20
350.555084
 40
0.755696
 50
165.894165
 51
194.105835
  0
ARC
  8
0
 10
189.153259
 20
350.627502
 40
0.965197
 50
195.417099
 51
231.389282
  0
ARC
  8
0
 10
189.700012
 20
351.426300
 40
1.931886
 50
233.502457
 51
306.497528
  0
ARC
  8
0
 10
190.246765
 20
350.627502
 40
0.965201
 50
308.610718
 51
344.582886
  0
ARC
  8
0
 10
198.719696
 20
355.221985
 40
2.130294
 50
356.237244
 51
11.773211
  0
ARC
  8
0
 10
198.502136
 20
355.155518
 40
2.356930
 50
12.275900
 51
45.305832
  0
ARC
  8
0
 10
197.899994
 20
354.422424
 40
3.302730
 50
46.824921
 51
133.175079
  0
ARC
  8
0
 10
197.297852
 20
355.155518
 40
2.356934
 50
134.694168
 51
167.724106
  0
ARC
  8
0
 10
197.080292
 20
355.221985
 40
2.130295
 50
168.226791
 51
176.236435
  0
ARC
  8
0
 10
190.118683
 20
350.555084
 40
0.425082
 50
345.892914
 51
14.107077
  0
ARC
  8
0
 10
190.007553
 20
350.514343
 40
0.542932
 50
15.418522
 51
51.387470
  0
ARC
  8
0
 10
189.700012
 20
350.065033
 40
1.086659
 50
53.501484
 51
126.497559
  0
ARC
  8
0
 10
189.392471
 20
350.514343
 40
0.542939
 50
128.610519
 51
164.581482
  0
ARC
  8
0
 10
189.281342
 20
350.555084
 40
0.425082
 50
165.892929
 51
194.107071
  0
ARC
  8
0
 10
189.392471
 20
350.595825
 40
0.542932
 50
195.418518
 51
231.387466
  0
ARC
  8
0
 10
189.700012
 20
351.045135
 40
1.086659
 50
233.501480
 51
306.497559
  0
ARC
  8
0
 10
190.007553
 20
350.595825
 40
0.542939
 50
308.610504
 51
344.581482
  0
POLYLINE
  8
0
 66
     1
  0
VERTEX
  8
0
 10
215.125015
 20
199.277191
  0
VERTEX
  8
0
 10
214.414383
 20
199.183289
  0
VERTEX
  8
0
 10
213.706543
 20
199.120285
  0
VERTEX
  8
0
 10
213.000000
 20
199.097275
  0
VERTEX
  8
0
 10
212.293198
 20
199.120316
  0
VERTEX
  8
0
 10
211.584991
 20
199.183365
  0
VERTEX
  8
0
 10
210.873993
 20
199.277344
  0
SEQEND
  0
ARC
  8
0
 10
214.885574
 20
201.642868
 40
1.914429
 50
0.000000
 51
14.106243
  0
ARC
  8
0
 10
214.385101
 20
201.459396
 40
2.445156
 50
15.417716
 51
51.388718
  0
ARC
  8
0
 10
213.000000
 20
199.435760
 40
4.894106
 50
53.502346
 51
126.497650
  0
ARC
  8
0
 10
211.614899
 20
201.459396
 40
2.445163
 50
128.611282
 51
164.581940
  0
ARC
  8
0
 10
211.114426
 20
201.642868
 40
1.914422
 50
165.893311
 51
180.000000
  0
ARC
  8
0
 10
211.829666
 20
200.242416
 40
2.329666
 50
179.973724
 51
192.317307
  0
ARC
  8
0
 10
212.140213
 20
200.341583
 40
2.654403
 50
192.978622
 51
226.721817
  0
ARC
  8
0
 10
212.998917
 20
201.433060
 40
4.039587
 50
228.467896
 51
252.765152
  0
ARC
  8
0
 10
214.385101
 20
201.119232
 40
2.445161
 50
327.737579
 51
344.581940
  0
ARC
  8
0
 10
214.885574
 20
200.935760
 40
1.914422
 50
345.893311
 51
14.106243
  0
ARC
  8
0
 10
214.385101
 20
200.752289
 40
2.445156
 50
15.417716
 51
51.388718
  0
ARC
  8
0
 10
213.000000
 20
198.728653
 40
4.894106
 50
53.502346
 51
126.497650
  0
ARC
  8
0
 10
211.614899
 20
200.752289
 40
2.445163
 50
128.611282
 51
164.581940
  0
ARC
  8
0
 10
211.114426
 20
200.935760
 40
1.914422
 50
165.893311
 51
194.106247
  0
ARC
  8
0
 10
211.614899
 20
201.119232
 40
2.445156
 50
195.417709
 51
211.651474
  0
ARC
  8
0
 10
214.736542
 20
200.935760
 40
1.763458
 50
0.000000
 51
14.105864
  0
ARC
  8
0
 10
214.275620
 20
200.766800
 40
2.252246
 50
15.416936
 51
51.386932
  0
ARC
  8
0
 10
213.000000
 20
198.903198
 40
4.507553
 50
53.500675
 51
126.499321
  0
ARC
  8
0
 10
211.724380
 20
200.766800
 40
2.252248
 50
128.613068
 51
164.583069
  0
ARC
  8
0
 10
211.263458
 20
200.935760
 40
1.763455
 50
165.894135
 51
180.000000
  0
ARC
  8
0
 10
192.687286
 20
222.502502
 40
1.712695
 50
345.892700
 51
14.107307
  0
ARC
  8
0
 10
192.239441
 20
222.338303
 40
2.187629
 50
15.419332
 51
51.390682
  0
ARC
  8
0
 10
190.999985
 20
220.527344
 40
4.379158
 50
53.504395
 51
126.495445
  0
ARC
  8
0
 10
189.760529
 20
222.338318
 40
2.187611
 50
128.609253
 51
164.581055
  0
ARC
  8
0
 10
189.312683
 20
222.502502
 40
1.712695
 50
165.892685
 51
194.107315
  0
ARC
  8
0
 10
189.760529
 20
222.666702
 40
2.187629
 50
195.419327
 51
231.390686
  0
ARC
  8
0
 10
190.999985
 20
224.477661
 40
4.379158
 50
233.504395
 51
306.495453
  0
ARC
  8
0
 10
192.239441
 20
222.666687
 40
2.187611
 50
308.609253
 51
344.581055
  0
ARC
  8
0
 10
192.687317
 20
321.497498
 40
1.712695
 50
345.892700
 51
14.107307
  0
ARC
  8
0
 10
192.239456
 20
321.333313
 40
2.187639
 50
15.418840
 51
51.390121
  0
ARC
  8
0
 10
191.000015
 20
319.522369
 40
4.379134
 50
53.504158
 51
126.495682
  0
ARC
  8
0
 10
189.760574
 20
321.333313
 40
2.187620
 50
128.609558
 51
164.581161
  0
ARC
  8
0
 10
189.312714
 20
321.497498
 40
1.712695
 50
165.892685
 51
194.107315
  0
ARC
  8
0
 10
189.760574
 20
321.661682
 40
2.187639
 50
195.418839
 51
231.390121
  0
ARC
  8
0
 10
191.000015
 20
323.472626
 40
4.379134
 50
233.504150
 51
306.495697
  0
ARC
  8
0
 10
192.239456
 20
321.661682
 40
2.187620
 50
308.609558
 51
344.581146
  0
ARC
  8
0
 10
240.550003
 20
275.646667
 40
1.673065
 50
270.000000
 51
281.890076
  0
ARC
  8
0
 10
240.861694
 20
274.204834
 40
0.198114
 50
279.594360
 51
311.577820
  0
ARC
  8
0
 10
240.974304
 20
274.074097
 40
0.025698
 50
317.213684
 51
42.786308
  0
ARC
  8
0
 10
240.861694
 20
273.943359
 40
0.198105
 50
48.422169
 51
80.405640
  0
ARC
  8
0
 10
240.550003
 20
272.501526
 40
1.673073
 50
78.109917
 51
90.000000
  0
ARC
  8
0
 10
212.998917
 20
201.433060
 40
4.039590
 50
287.195618
 51
311.636658
  0
ARC
  8
0
 10
213.859604
 20
200.343155
 40
2.654402
 50
313.382782
 51
347.126129
  0
ARC
  8
0
 10
214.170334
 20
200.244553
 40
2.329668
 50
347.787506
 51
359.973724
  0
POINT
  8
0
 10
224.500000
 20
39.000000
  0
POINT
  8
0
 10
180.000000
 20
39.000000
  0
LINE
  8
0
 10
189.500000
 20
60.000000
 11
189.500000
 21
-0.597977
  0
LINE
  8
0
 10
205.000000
 20
95.654617
 11
217.000000
 21
95.654617
  0
LINE
  8
0
 10
203.000000
 20
84.084435
 11
219.000000
 21
84.084435
  0
LINE
  8
0
 10
189.500000
 20
35.464466
 11
219.000000
 21
35.464466
  0
LINE
  8
0
 10
189.500000
 20
-0.597977
 11
219.000015
 21
-0.597977
  0
LINE
  8
0
 10
205.000000
 20
69.405594
 11
217.000000
 21
69.405594
  0
LINE
  8
0
 10
189.500000
 20
42.528419
 11
197.984955
 21
42.528419
  0
LINE
  8
0
 10
203.000000
 20
101.225395
 11
203.000000
 21
48.315426
  0
LINE
  8
0
 10
219.000000
 20
116.964088
 11
219.000000
 21
116.872520
  0
LINE
  8
0
 10
186.000000
 20
80.365517
 11
187.500000
 21
80.365517
  0
LINE
  8
0
 10
186.000000
 20
107.589127
 11
188.500000
 21
107.589127
  0
LINE
  8
0
 10
187.500000
 20
106.528481
 11
188.500000
 21
106.528481
  0
LINE
  8
0
 10
187.500000
 20
106.528481
 11
187.500000
 21
80.365517
  0
LINE
  8
0
 10
201.600021
 20
116.852417
 11
194.200027
 21
116.852417
  0
LINE
  8
0
 10
202.400009
 20
118.832321
 11
193.400024
 21
118.832321
  0
LINE
  8
0
 10
202.400009
 20
124.282066
 11
193.400024
 21
124.282066
  0
LINE
  8
0
 10
201.600021
 20
125.130600
 11
194.200027
 21
125.130600
  0
LINE
  8
0
 10
201.600021
 20
112.468361
 11
194.200027
 21
112.468361
  0
LINE
  8
0
 10
193.700027
 20
112.968361
 11
193.700027
 21
117.766624
  0
LINE
  8
0
 10
192.900024
 20
114.382576
 11
192.900024
 21
123.782066
  0
LINE
  8
0
 10
202.100021
 20
112.968361
 11
202.100021
 21
117.766624
  0
LINE
  8
0
 10
202.900009
 20
114.382576
 11
202.900009
 21
123.782066
  0
LINE
  8
0
 10
201.600021
 20
118.266624
 11
194.200027
 21
118.266624
  0
LINE
  8
0
 10
192.399994
 20
113.882576
 11
193.699997
 21
113.882576
  0
LINE
  8
0
 10
202.100021
 20
124.282066
 11
202.100021
 21
124.630600
  0
LINE
  8
0
 10
193.700027
 20
124.282066
 11
193.700027
 21
124.630600
  0
LINE
  8
0
 10
202.099991
 20
113.882576
 11
203.400009
 21
113.882576
  0
LINE
  8
0
 10
186.399994
 20
114.165413
 11
192.399994
 21
114.165413
  0
LINE
  8
0
 10
203.400009
 20
113.882576
 11
203.400009
 21
119.822273
  0
LINE
  8
0
 10
192.399994
 20
113.882576
 11
192.399994
 21
119.822273
  0
LINE
  8
0
 10
194.400009
 20
106.935669
 11
194.400009
 21
112.468361
  0
LINE
  8
0
 10
201.400009
 20
106.935669
 11
201.400009
 21
112.468361
  0
LINE
  8
0
 10
203.400009
 20
114.165413
 11
208.400009
 21
114.165413
  0
LINE
  8
0
 10
196.399979
 20
109.498512
 11
196.399979
 21
106.935669
  0
LINE
  8
0
 10
199.400024
 20
109.498512
 11
199.400024
 21
106.935669
  0
LINE
  8
0
 10
208.400009
 20
108.720695
 11
208.400009
 21
119.822273
  0
LINE
  8
0
 10
186.399994
 20
119.822273
 11
192.399994
 21
119.822273
  0
LINE
  8
0
 10
192.399994
 20
119.539429
 11
192.900009
 21
119.539429
  0
LINE
  8
0
 10
202.899994
 20
119.539429
 11
203.400009
 21
119.539429
  0
LINE
  8
0
 10
203.400009
 20
119.822273
 11
208.400009
 21
119.822273
  0
LINE
  8
0
 10
186.399994
 20
108.720695
 11
194.400009
 21
108.720695
  0
LINE
  8
0
 10
201.400009
 20
108.720695
 11
208.400009
 21
108.720695
  0
LINE
  8
0
 10
210.399994
 20
112.372520
 11
210.399994
 21
117.372520
  0
LINE
  8
0
 10
208.400009
 20
112.372520
 11
210.399994
 21
112.372520
  0
LINE
  8
0
 10
210.399994
 20
112.872520
 11
256.899994
 21
112.872520
  0
LINE
  8
0
 10
210.399994
 20
116.872520
 11
256.899994
 21
116.872520
  0
LINE
  8
0
 10
208.400009
 20
117.372520
 11
210.399994
 21
117.372520
  0
LINE
  8
0
 10
186.399994
 20
108.720695
 11
186.399994
 21
119.822273
  0
LINE
  8
0
 10
202.500000
 20
107.235481
 11
202.500000
 21
108.720505
  0
LINE
  8
0
 10
256.899994
 20
116.872520
 11
256.899994
 21
112.872520
  0
LINE
  8
0
 10
256.899994
 20
114.572517
 11
259.899994
 21
114.572517
  0
LINE
  8
0
 10
256.899994
 20
115.172523
 11
259.899994
 21
115.172523
  0
LINE
  8
0
 10
256.899994
 20
113.572517
 11
259.899994
 21
113.572517
  0
LINE
  8
0
 10
256.899994
 20
116.172523
 11
259.899994
 21
116.172523
  0
LINE
  8
0
 10
259.899994
 20
116.172523
 11
259.899994
 21
115.172523
  0
LINE
  8
0
 10
259.899994
 20
114.572517
 11
259.899994
 21
113.572517
  0
LINE
  8
0
 10
259.899994
 20
116.047523
 11
261.399994
 21
116.047523
  0
LINE
  8
0
 10
259.899994
 20
115.922523
 11
261.399994
 21
115.922523
  0
LINE
  8
0
 10
259.899994
 20
115.797523
 11
261.399994
 21
115.797523
  0
LINE
  8
0
 10
259.899994
 20
115.672523
 11
261.399994
 21
115.672523
  0
LINE
  8
0
 10
259.899994
 20
115.547523
 11
261.399994
 21
115.547523
  0
LINE
  8
0
 10
259.899994
 20
115.422523
 11
261.399994
 21
115.422523
  0
LINE
  8
0
 10
259.899994
 20
115.297523
 11
261.399994
 21
115.297523
  0
LINE
  8
0
 10
259.899994
 20
114.447517
 11
261.399994
 21
114.447517
  0
LINE
  8
0
 10
259.899994
 20
114.322517
 11
261.399994
 21
114.322517
  0
LINE
  8
0
 10
259.899994
 20
114.197517
 11
261.399994
 21
114.197517
  0
LINE
  8
0
 10
259.899994
 20
114.072517
 11
261.399994
 21
114.072517
  0
LINE
  8
0
 10
259.899994
 20
113.947517
 11
261.399994
 21
113.947517
  0
LINE
  8
0
 10
259.899994
 20
113.822517
 11
261.399994
 21
113.822517
  0
LINE
  8
0
 10
259.899994
 20
113.697517
 11
261.399994
 21
113.697517
  0
LINE
  8
0
 10
188.500000
 20
106.528481
 11
188.500000
 21
107.589127
  0
LINE
  8
0
 10
189.500000
 20
107.235481
 11
189.500000
 21
108.296127
  0
LINE
  8
0
 10
189.500000
 20
108.296127
 11
188.500000
 21
107.589127
  0
LINE
  8
0
 10
189.500000
 20
107.235474
 11
188.500000
 21
106.528473
  0
LINE
  8
0
 10
189.500000
 20
108.296127
 11
194.400009
 21
108.296127
  0
LINE
  8
0
 10
189.500000
 20
107.235481
 11
194.400009
 21
107.235481
  0
LINE
  8
0
 10
196.399979
 20
108.296127
 11
199.400024
 21
108.296127
  0
LINE
  8
0
 10
196.399979
 20
107.235481
 11
199.400024
 21
107.235481
  0
LINE
  8
0
 10
201.400009
 20
108.296127
 11
202.500000
 21
108.296127
  0
LINE
  8
0
 10
201.400009
 20
107.235481
 11
202.500000
 21
107.235481
  0
LINE
  8
0
 10
201.400009
 20
106.935669
 11
199.400024
 21
106.935669
  0
LINE
  8
0
 10
196.399979
 20
106.935669
 11
194.400009
 21
106.935669
  0
LINE
  8
0
 10
189.479034
 20
97.860001
 11
188.500000
 21
97.860001
  0
LINE
  8
0
 10
189.479034
 20
90.860001
 11
188.500000
 21
90.860001
  0
LINE
  8
0
 10
188.500000
 20
98.160004
 11
187.500000
 21
98.160004
  0
LINE
  8
0
 10
188.500000
 20
90.559998
 11
187.500000
 21
90.559998
  0
LINE
  8
0
 10
188.500000
 20
98.160004
 11
188.500000
 21
84.199997
  0
LINE
  8
0
 10
187.500000
 20
92.761253
 11
188.500000
 21
93.029205
  0
LINE
  8
0
 10
189.479034
 20
84.500000
 11
188.500000
 21
84.500000
  0
LINE
  8
0
 10
188.500000
 20
84.199997
 11
187.500000
 21
84.199997
  0
LINE
  8
0
 10
187.500000
 20
86.401253
 11
188.500000
 21
86.669205
  0
LINE
  8
0
 10
217.000000
 20
105.821594
 11
201.500000
 21
105.821594
  0
LINE
  8
0
 10
217.000000
 20
104.760933
 11
203.000000
 21
104.760933
  0
LINE
  8
0
 10
201.500000
 20
102.286057
 11
195.300003
 21
102.286057
  0
LINE
  8
0
 10
203.000000
 20
101.225395
 11
193.800003
 21
101.225395
  0
LINE
  8
0
 10
201.500000
 20
105.821594
 11
195.300003
 21
105.821594
  0
LINE
  8
0
 10
203.000000
 20
104.760933
 11
203.000000
 21
101.225395
  0
LINE
  8
0
 10
195.300003
 20
105.821594
 11
193.800003
 21
105.821594
  0
LINE
  8
0
 10
209.199997
 20
110.065170
 11
209.199997
 21
109.356201
  0
LINE
  8
0
 10
216.800003
 20
110.065178
 11
216.800003
 21
109.356201
  0
LINE
  8
0
 10
209.500000
 20
110.757370
 11
209.500000
 21
110.063393
  0
LINE
  8
0
 10
216.500000
 20
110.757370
 11
216.500000
 21
110.063393
  0
LINE
  8
0
 10
213.000000
 20
112.872520
 11
213.000000
 21
110.219643
  0
LINE
  8
0
 10
193.800003
 20
107.235481
 11
193.800003
 21
101.225395
  0
LINE
  8
0
 10
195.300003
 20
106.935669
 11
195.300003
 21
102.286057
  0
LINE
  8
0
 10
201.500000
 20
107.235481
 11
201.500000
 21
102.286057
  0
LINE
  8
0
 10
217.000000
 20
112.872520
 11
217.000000
 21
104.760933
  0
LINE
  8
0
 10
196.399994
 20
108.720695
 11
199.400040
 21
108.720695
  0
LINE
  8
0
 10
185.999985
 20
174.047699
 11
235.999985
 21
174.047699
  0
LINE
  8
0
 10
190.797897
 20
92.047691
 11
203.000000
 21
92.047691
  0
LINE
  8
0
 10
236.000000
 20
164.545929
 11
240.549988
 21
164.545929
  0
LINE
  8
0
 10
236.000000
 20
159.875076
 11
240.549988
 21
159.875076
  0
LINE
  8
0
 10
236.000000
 20
154.600708
 11
240.549988
 21
154.600708
  0
LINE
  8
0
 10
238.000000
 20
96.352531
 11
252.699982
 21
96.352531
  0
LINE
  8
0
 10
241.078629
 20
128.852539
 11
252.699997
 21
128.852539
  0
LINE
  8
0
 10
236.000000
 20
92.602531
 11
238.000000
 21
92.602531
  0
LINE
  8
0
 10
236.000000
 20
153.997223
 11
240.549988
 21
153.997223
  0
LINE
  8
0
 10
180.000000
 20
56.000000
 11
186.000000
 21
56.000000
  0
LINE
  8
0
 10
180.000000
 20
129.600006
 11
186.000000
 21
129.600006
  0
LINE
  8
0
 10
180.000000
 20
174.000000
 11
180.000000
 21
-30.000000
  0
LINE
  8
0
 10
186.000000
 20
174.047699
 11
186.000000
 21
56.000000
  0
LINE
  8
0
 10
236.000000
 20
174.047699
 11
236.000000
 21
116.872520
  0
LINE
  8
0
 10
238.000000
 20
123.939308
 11
238.000000
 21
116.872520
  0
LINE
  8
0
 10
253.000000
 20
128.552551
 11
253.000000
 21
116.872520
  0
LINE
  8
0
 10
241.000000
 20
162.674805
 11
241.000000
 21
154.298981
  0
LINE
  8
0
 10
248.000000
 20
161.471588
 11
248.000000
 21
157.071594
  0
LINE
  8
0
 10
241.000000
 20
161.771576
 11
247.699982
 21
161.771576
  0
LINE
  8
0
 10
241.000000
 20
156.771576
 11
247.699982
 21
156.771576
  0
LINE
  8
0
 10
248.000031
 20
161.471619
 11
247.700027
 21
161.771606
  0
LINE
  8
0
 10
247.999985
 20
157.071625
 11
247.699982
 21
156.771622
  0
LINE
  8
0
 10
252.700012
 20
96.352531
 11
253.000000
 21
96.652534
  0
LINE
  8
0
 10
253.000046
 20
128.552551
 11
252.700043
 21
128.852570
  0
LINE
  8
0
 10
241.000000
 20
157.021576
 11
247.949951
 21
157.021576
  0
LINE
  8
0
 10
241.000000
 20
161.521576
 11
247.950012
 21
161.521576
  0
LINE
  8
0
 10
247.699905
 20
156.771576
 11
247.699905
 21
161.771576
  0
LINE
  8
0
 10
179.999985
 20
174.000000
 11
185.999985
 21
174.000000
  0
LINE
  8
0
 10
220.481476
 20
124.327408
 11
220.481476
 21
124.044571
  0
LINE
  8
0
 10
227.681473
 20
124.327408
 11
227.681473
 21
124.044571
  0
LINE
  8
0
 10
229.081299
 20
126.126961
 11
229.000259
 21
116.872520
  0
LINE
  8
0
 10
210.774216
 20
129.572021
 11
224.050125
 21
129.630890
  0
LINE
  8
0
 10
210.774231
 20
127.804337
 11
224.050110
 21
127.863205
  0
LINE
  8
0
 10
229.081360
 20
124.359207
 11
229.015808
 21
116.872520
  0
LINE
  8
0
 10
238.399994
 20
109.002541
 11
238.399994
 21
112.872520
  0
LINE
  8
0
 10
240.449997
 20
112.553246
 11
240.449997
 21
112.651833
  0
LINE
  8
0
 10
238.399994
 20
109.002541
 11
238.000000
 21
109.002541
  0
LINE
  8
0
 10
186.000000
 20
130.939301
 11
236.000000
 21
130.939301
  0
LINE
  8
0
 10
237.958038
 20
123.939308
 11
236.000000
 21
123.939308
  0
LINE
  8
0
 10
237.958038
 20
137.939301
 11
236.000000
 21
137.939301
  0
LINE
  8
0
 10
201.000000
 20
60.326412
 11
201.000000
 21
77.673584
  0
LINE
  8
0
 10
200.300003
 20
60.000000
 11
200.300003
 21
78.000000
  0
LINE
  8
0
 10
200.299988
 20
60.000000
 11
189.000000
 21
60.000000
  0
LINE
  8
0
 10
200.300003
 20
78.000000
 11
189.000000
 21
78.000000
  0
LINE
  8
0
 10
200.999985
 20
60.326408
 11
200.299988
 21
59.999992
  0
LINE
  8
0
 10
201.000000
 20
77.673599
 11
200.300003
 21
78.000015
  0
LINE
  8
0
 10
200.299988
 20
62.000000
 11
192.979706
 21
62.000000
  0
LINE
  8
0
 10
200.299988
 20
64.000000
 11
194.134399
 21
64.000000
  0
LINE
  8
0
 10
200.299988
 20
66.000000
 11
195.289108
 21
66.000000
  0
LINE
  8
0
 10
200.299988
 20
68.000000
 11
196.443802
 21
68.000000
  0
LINE
  8
0
 10
200.299988
 20
70.000000
 11
197.598511
 21
70.000000
  0
LINE
  8
0
 10
200.299988
 20
72.000000
 11
198.753204
 21
72.000000
  0
LINE
  8
0
 10
200.299988
 20
74.000000
 11
199.907913
 21
74.000000
  0
LINE
  8
0
 10
179.399994
 20
167.350006
 11
179.399994
 21
156.850006
  0
LINE
  8
0
 10
173.399994
 20
166.500000
 11
173.399994
 21
157.700012
  0
LINE
  8
0
 10
174.000000
 20
167.100006
 11
174.000000
 21
157.100006
  0
LINE
  8
0
 10
174.000000
 20
111.200005
 11
179.399994
 21
111.200005
  0
LINE
  8
0
 10
174.000000
 20
101.200005
 11
179.399994
 21
101.200005
  0
LINE
  8
0
 10
174.000000
 20
138.800003
 11
179.399994
 21
138.800003
  0
LINE
  8
0
 10
174.000000
 20
128.800003
 11
179.399994
 21
128.800003
  0
LINE
  8
0
 10
174.000000
 20
167.100006
 11
179.399994
 21
167.100006
  0
LINE
  8
0
 10
174.000000
 20
157.100006
 11
179.399994
 21
157.100006
  0
LINE
  8
0
 10
179.399994
 20
156.850006
 11
180.000000
 21
156.850006
  0
LINE
  8
0
 10
179.399994
 20
167.350006
 11
180.000000
 21
167.350006
  0
LINE
  8
0
 10
179.399994
 20
139.050003
 11
180.000000
 21
139.050003
  0
LINE
  8
0
 10
179.399994
 20
128.550003
 11
180.000000
 21
128.550003
  0
LINE
  8
0
 10
179.399994
 20
100.950005
 11
180.000000
 21
100.950005
  0
LINE
  8
0
 10
179.399994
 20
111.450005
 11
180.000000
 21
111.450005
  0
LINE
  8
0
 10
174.000000
 20
111.200005
 11
174.000000
 21
101.200005
  0
LINE
  8
0
 10
173.399994
 20
110.600006
 11
173.399994
 21
101.800003
  0
LINE
  8
0
 10
179.399994
 20
111.450005
 11
179.399994
 21
100.950005
  0
LINE
  8
0
 10
173.399994
 20
138.200012
 11
173.399994
 21
129.399994
  0
LINE
  8
0
 10
174.000000
 20
138.800003
 11
174.000000
 21
128.800003
  0
LINE
  8
0
 10
179.399994
 20
139.050003
 11
179.399994
 21
128.550003
  0
LINE
  8
0
 10
174.000000
 20
101.200005
 11
173.400009
 21
101.800003
  0
LINE
  8
0
 10
173.399994
 20
110.600014
 11
174.000000
 21
111.200012
  0
LINE
  8
0
 10
174.000000
 20
128.800003
 11
173.399994
 21
129.399994
  0
LINE
  8
0
 10
173.399994
 20
138.200012
 11
174.000000
 21
138.800018
  0
LINE
  8
0
 10
174.000000
 20
157.100006
 11
173.399994
 21
157.700012
  0
LINE
  8
0
 10
173.399994
 20
166.500015
 11
174.000000
 21
167.100006
  0
LINE
  8
0
 10
189.000000
 20
79.750000
 11
189.000000
 21
58.250000
  0
LINE
  8
0
 10
189.000000
 20
79.750000
 11
186.000000
 21
79.750000
  0
LINE
  8
0
 10
189.000000
 20
58.250000
 11
186.000000
 21
58.250000
  0
LINE
  8
0
 10
186.000000
 20
67.267944
 11
189.000000
 21
69.000000
  0
LINE
  8
0
 10
186.000000
 20
68.653595
 11
189.000000
 21
70.385643
  0
LINE
  8
0
 10
219.000000
 20
92.047691
 11
236.000000
 21
92.047691
  0
LINE
  8
0
 10
208.400009
 20
118.964088
 11
217.000000
 21
118.964088
  0
LINE
  8
0
 10
184.500000
 20
73.500000
 11
184.500000
 21
4.500004
  0
LINE
  8
0
 10
224.500000
 20
58.150002
 11
224.500000
 21
19.850000
  0
LINE
  8
0
 10
158.500000
 20
115.000000
 11
158.500000
 21
-37.000000
  0
LINE
  8
0
 10
161.045456
 20
-33.000000
 11
177.000000
 21
-33.000000
  0
LINE
  8
0
 10
165.500000
 20
-3.000000
 11
180.000000
 21
-3.000000
  0
LINE
  8
0
 10
180.399994
 20
4.000000
 11
184.000000
 21
4.000000
  0
LINE
  8
0
 10
184.500000
 20
19.000000
 11
188.449997
 21
19.000000
  0
LINE
  8
0
 10
180.399994
 20
74.000000
 11
184.000000
 21
74.000000
  0
LINE
  8
0
 10
165.500000
 20
81.000000
 11
180.000000
 21
81.000000
  0
LINE
  8
0
 10
161.045456
 20
111.000000
 11
173.800003
 21
111.000000
  0
LINE
  8
0
 10
184.000046
 20
3.999977
 11
184.500046
 21
4.499977
  0
LINE
  8
0
 10
183.999985
 20
73.999985
 11
184.499985
 21
73.499985
  0
LINE
  8
0
 10
188.500000
 20
58.250000
 11
188.500000
 21
19.050003
  0
LINE
  8
0
 10
188.500000
 20
19.049999
 11
189.500000
 21
19.049999
  0
LINE
  8
0
 10
189.000000
 20
58.950001
 11
189.500000
 21
58.950001
  0
LINE
  8
0
 10
223.700089
 20
19.049896
 11
224.500092
 21
19.849901
  0
LINE
  8
0
 10
223.700058
 20
58.950035
 11
224.500046
 21
58.150040
  0
LINE
  8
0
 10
223.700012
 20
58.950001
 11
223.700012
 21
19.049995
  0
LINE
  8
0
 10
188.450012
 20
18.999994
 11
188.500015
 21
19.049997
  0
LINE
  8
0
 10
158.499985
 20
-37.000015
 11
161.045441
 21
-33.000023
  0
LINE
  8
0
 10
158.500000
 20
115.000000
 11
161.045441
 21
111.000023
  0
LINE
  8
0
 10
219.000000
 20
58.739929
 11
223.700012
 21
58.739929
  0
LINE
  8
0
 10
219.000000
 20
41.887482
 11
223.700012
 21
41.887482
  0
LINE
  8
0
 10
219.000000
 20
36.112518
 11
223.700012
 21
36.112518
  0
LINE
  8
0
 10
219.000000
 20
19.260071
 11
223.700012
 21
19.260071
  0
LINE
  8
0
 10
223.699890
 20
19.260244
 11
224.499878
 21
20.015566
  0
LINE
  8
0
 10
223.700012
 20
36.112534
 11
224.499985
 21
36.488567
  0
LINE
  8
0
 10
219.000015
 20
44.203541
 11
223.700012
 21
41.887566
  0
LINE
  8
0
 10
223.700043
 20
58.739922
 11
219.000000
 21
56.423927
  0
LINE
  8
0
 10
219.000000
 20
21.576080
 11
223.700043
 21
19.260082
  0
LINE
  8
0
 10
223.700043
 20
36.112537
 11
219.000015
 21
33.796547
  0
LINE
  8
0
 10
223.699951
 20
41.887367
 11
224.499939
 21
41.511333
  0
LINE
  8
0
 10
224.500015
 20
57.984577
 11
223.700027
 21
58.739891
  0
LINE
  8
0
 10
165.500000
 20
103.008331
 11
165.500000
 21
81.000000
  0
LINE
  8
0
 10
165.500000
 20
61.208668
 11
165.500000
 21
16.791332
  0
LINE
  8
0
 10
165.500000
 20
-3.000000
 11
165.500000
 21
-25.008331
  0
LINE
  8
0
 10
219.000000
 20
58.950001
 11
223.699997
 21
58.950001
  0
LINE
  8
0
 10
219.000000
 20
19.049999
 11
223.699997
 21
19.049999
  0
LINE
  8
0
 10
186.000000
 20
114.660126
 11
186.399994
 21
114.660126
  0
LINE
  8
0
 10
236.000000
 20
112.872520
 11
236.000000
 21
92.047699
  0
LINE
  8
0
 10
238.000000
 20
112.872520
 11
238.000000
 21
92.602539
  0
LINE
  8
0
 10
253.000000
 20
112.872520
 11
253.000000
 21
96.652542
  0
LINE
  8
0
 10
219.000000
 20
112.872520
 11
219.000000
 21
-0.597973
  0
ARC
  8
0
 10
217.000000
 20
93.654617
 40
2.000000
 50
0.000000
 51
90.000000
  0
ARC
  8
0
 10
205.000000
 20
93.654617
 40
2.000000
 50
90.000000
 51
180.000000
  0
CIRCLE
  8
0
 10
198.918518
 20
104.095207
 40
0.010000
  0
ARC
  8
0
 10
194.200012
 20
112.968361
 40
0.500000
 50
180.000000
 51
270.000000
  0
ARC
  8
0
 10
202.400009
 20
123.782066
 40
0.500000
 50
0.000000
 51
90.000000
  0
ARC
  8
0
 10
202.400009
 20
114.382576
 40
0.500000
 50
270.000000
 51
0.000000
  0
ARC
  8
0
 10
193.400024
 20
123.782066
 40
0.500000
 50
90.000000
 51
180.000000
  0
ARC
  8
0
 10
201.600021
 20
117.766624
 40
0.500000
 50
0.000000
 51
90.000000
  0
ARC
  8
0
 10
194.200012
 20
117.766624
 40
0.500000
 50
90.000000
 51
180.000000
  0
ARC
  8
0
 10
194.200012
 20
124.630600
 40
0.500000
 50
90.000000
 51
180.000000
  0
ARC
  8
0
 10
201.600021
 20
124.630600
 40
0.500000
 50
0.000000
 51
90.000000
  0
ARC
  8
0
 10
201.600021
 20
112.968361
 40
0.500000
 50
270.000000
 51
0.000000
  0
ARC
  8
0
 10
189.479034
 20
96.559998
 40
1.299995
 50
16.601656
 51
90.000000
  0
ARC
  8
0
 10
182.100006
 20
94.360016
 40
9.000007
 50
343.398285
 51
16.601418
  0
ARC
  8
0
 10
189.479034
 20
92.160019
 40
1.300003
 50
270.000000
 51
343.398529
  0
ARC
  8
0
 10
189.479034
 20
90.199997
 40
1.299995
 50
16.601656
 51
48.925293
  0
ARC
  8
0
 10
182.100006
 20
88.000015
 40
9.000007
 50
343.398285
 51
16.601418
  0
ARC
  8
0
 10
189.479034
 20
85.800018
 40
1.300003
 50
270.000000
 51
343.398529
  0
CIRCLE
  8
0
 10
213.000000
 20
111.902725
 40
0.010000
  0
ARC
  8
0
 10
193.400024
 20
114.382576
 40
0.500000
 50
180.000000
 51
270.000000
  0
ARC
  8
0
 10
234.954178
 20
162.210510
 40
6.063608
 50
337.346588
 51
22.653360
  0
ARC
  8
0
 10
240.673828
 20
154.298981
 40
0.326181
 50
247.686935
 51
112.315109
  0
ARC
  8
0
 10
233.047485
 20
157.237915
 40
7.952518
 50
340.633026
 51
19.366858
  0
CIRCLE
  8
0
 10
197.918518
 20
104.095207
 40
0.010000
  0
CIRCLE
  8
0
 10
224.081467
 20
122.595215
 40
0.010000
  0
ARC
  8
0
 10
236.349991
 20
112.553246
 40
4.100002
 50
300.000031
 51
0.000000
  0
ARC
  8
0
 10
236.349991
 20
112.651833
 40
4.099991
 50
0.000000
 51
3.085512
  0
ARC
  8
0
 10
223.199997
 20
130.939301
 40
17.999994
 50
343.398499
 51
16.601540
  0
ARC
  8
0
 10
237.958038
 20
126.539307
 40
2.599998
 50
270.000000
 51
343.398437
  0
ARC
  8
0
 10
237.958038
 20
135.339310
 40
2.600005
 50
16.601559
 51
90.000000
  0
ARC
  8
0
 10
217.000000
 20
116.964088
 40
2.000000
 50
0.000000
 51
90.000000
  0
ARC
  8
0
 10
177.000000
 20
-30.000000
 40
3.000000
 50
270.000000
 51
0.000000
  0
ARC
  8
0
 10
180.399994
 20
3.599998
 40
0.400002
 50
90.000000
 51
180.000000
  0
ARC
  8
0
 10
180.399994
 20
74.400002
 40
0.399994
 50
180.000000
 51
270.000000
  0
ARC
  8
0
 10
205.822495
 20
0.350542
 40
3.217333
 50
342.847351
 51
344.581970
  0
ARC
  8
0
 10
206.481003
 20
0.109127
 40
2.519001
 50
345.893524
 51
14.106314
  0
ARC
  8
0
 10
205.822479
 20
-0.132286
 40
3.217345
 50
15.417777
 51
51.388237
  0
ARC
  8
0
 10
204.000000
 20
-2.794934
 40
6.439600
 50
53.502098
 51
126.497726
  0
ARC
  8
0
 10
202.177505
 20
-0.132280
 40
3.217330
 50
128.611267
 51
164.581985
  0
ARC
  8
0
 10
201.518997
 20
0.109135
 40
2.519001
 50
165.893509
 51
194.106308
  0
ARC
  8
0
 10
202.177521
 20
0.350548
 40
3.217345
 50
195.417770
 51
197.152542
  0
ARC
  8
0
 10
205.457977
 20
0.302256
 40
2.573887
 50
339.566101
 51
344.582031
  0
ARC
  8
0
 10
205.984802
 20
0.109126
 40
2.015193
 50
345.893372
 51
14.106353
  0
ARC
  8
0
 10
205.457977
 20
-0.084001
 40
2.573872
 50
15.417708
 51
51.388229
  0
ARC
  8
0
 10
204.000000
 20
-2.214106
 40
5.151664
 50
53.502056
 51
126.497841
  0
ARC
  8
0
 10
202.542023
 20
-0.083994
 40
2.573881
 50
128.611664
 51
164.582016
  0
ARC
  8
0
 10
202.015198
 20
0.109136
 40
2.015193
 50
165.893372
 51
194.106354
  0
ARC
  8
0
 10
202.542023
 20
0.302263
 40
2.573872
 50
195.417709
 51
200.433350
  0
ARC
  8
0
 10
198.000000
 20
92.726822
 40
16.243067
 50
280.631470
 51
283.639160
  0
ARC
  8
0
 10
201.405243
 20
79.009743
 40
2.111148
 50
281.612946
 51
316.006500
  0
ARC
  8
0
 10
202.635651
 20
77.766060
 40
0.364352
 50
322.327667
 51
0.000000
  0
ARC
  8
0
 10
198.001419
 20
46.858250
 40
4.329849
 50
269.981232
 51
281.623688
  0
ARC
  8
0
 10
197.884827
 20
47.245380
 40
4.732672
 50
282.061951
 51
314.776733
  0
ARC
  8
0
 10
196.601959
 20
48.315834
 40
6.398037
 50
316.179993
 51
0.051071
  0
ARC
  8
0
 10
198.644333
 20
109.498512
 40
0.755692
 50
0.000000
 51
14.106391
  0
ARC
  8
0
 10
198.446777
 20
109.426086
 40
0.965201
 50
15.417976
 51
51.388996
  0
ARC
  8
0
 10
197.900024
 20
108.627281
 40
1.931886
 50
53.502457
 51
126.497543
  0
ARC
  8
0
 10
197.353271
 20
109.426086
 40
0.965195
 50
128.611008
 51
164.582031
  0
ARC
  8
0
 10
197.155716
 20
109.498512
 40
0.755698
 50
165.893616
 51
179.999420
  0
ARC
  8
0
 10
196.436203
 20
121.660744
 40
1.486212
 50
174.668350
 51
194.106583
  0
ARC
  8
0
 10
196.824738
 20
121.803177
 40
1.898239
 50
195.417923
 51
231.388382
  0
ARC
  8
0
 10
197.899994
 20
123.374130
 40
3.799354
 50
233.502167
 51
306.497955
  0
ARC
  8
0
 10
198.975250
 20
121.803192
 40
1.898234
 50
308.611603
 51
344.582306
  0
ARC
  8
0
 10
199.363785
 20
121.660759
 40
1.486207
 50
345.893707
 51
5.353537
  0
ARC
  8
0
 10
197.900024
 20
118.259239
 40
4.532881
 50
65.097832
 51
114.888359
  0
ARC
  8
0
 10
190.444321
 20
116.993843
 40
0.755698
 50
345.893616
 51
14.106391
  0
ARC
  8
0
 10
190.246765
 20
116.921417
 40
0.965201
 50
15.417976
 51
51.388996
  0
ARC
  8
0
 10
189.700012
 20
116.122620
 40
1.931880
 50
53.502323
 51
126.497673
  0
ARC
  8
0
 10
189.153259
 20
116.921417
 40
0.965195
 50
128.611008
 51
164.582031
  0
ARC
  8
0
 10
188.955704
 20
116.993843
 40
0.755698
 50
165.893616
 51
194.106384
  0
ARC
  8
0
 10
189.153259
 20
117.066269
 40
0.965201
 50
195.417969
 51
231.388992
  0
ARC
  8
0
 10
189.700012
 20
117.865067
 40
1.931880
 50
233.502319
 51
306.497681
  0
ARC
  8
0
 10
190.246765
 20
117.066269
 40
0.965195
 50
308.610992
 51
344.582031
  0
ARC
  8
0
 10
198.719696
 20
121.660751
 40
2.130295
 50
356.237030
 51
11.773211
  0
ARC
  8
0
 10
198.502136
 20
121.594284
 40
2.356930
 50
12.275900
 51
45.305698
  0
ARC
  8
0
 10
197.899994
 20
120.861183
 40
3.302730
 50
46.824921
 51
133.175079
  0
ARC
  8
0
 10
197.297852
 20
121.594284
 40
2.356929
 50
134.694305
 51
167.723740
  0
ARC
  8
0
 10
197.080292
 20
121.660751
 40
2.130298
 50
168.226395
 51
176.237045
  0
ARC
  8
0
 10
190.118683
 20
116.993843
 40
0.425082
 50
345.892914
 51
14.106079
  0
ARC
  8
0
 10
190.007553
 20
116.953102
 40
0.542930
 50
15.417746
 51
51.388477
  0
ARC
  8
0
 10
189.700012
 20
116.503777
 40
1.086684
 50
53.502438
 51
126.497322
  0
ARC
  8
0
 10
189.392471
 20
116.953110
 40
0.542927
 50
128.611526
 51
164.582260
  0
ARC
  8
0
 10
189.281342
 20
116.993843
 40
0.425082
 50
165.892929
 51
194.106079
  0
ARC
  8
0
 10
189.392471
 20
117.034584
 40
0.542930
 50
195.417740
 51
231.388474
  0
ARC
  8
0
 10
189.700012
 20
117.483910
 40
1.086684
 50
233.502441
 51
306.497314
  0
ARC
  8
0
 10
190.007553
 20
117.034576
 40
0.542927
 50
308.611511
 51
344.582245
  0
POLYLINE
  8
0
 66
     1
  0
VERTEX
  8
0
 10
210.874985
 20
111.722794
  0
VERTEX
  8
0
 10
211.585617
 20
111.816696
  0
VERTEX
  8
0
 10
212.293457
 20
111.879707
  0
VERTEX
  8
0
 10
213.000000
 20
111.902725
  0
VERTEX
  8
0
 10
213.706802
 20
111.879684
  0
VERTEX
  8
0
 10
214.415009
 20
111.816635
  0
VERTEX
  8
0
 10
215.126007
 20
111.722649
  0
SEQEND
  0
ARC
  8
0
 10
211.114426
 20
109.357132
 40
1.914413
 50
180.000000
 51
194.106461
  0
ARC
  8
0
 10
211.614899
 20
109.540611
 40
2.445160
 50
195.418060
 51
231.388718
  0
ARC
  8
0
 10
213.000000
 20
111.564240
 40
4.894101
 50
233.502289
 51
306.497711
  0
ARC
  8
0
 10
214.385101
 20
109.540611
 40
2.445163
 50
308.611298
 51
344.581940
  0
ARC
  8
0
 10
214.885574
 20
109.357132
 40
1.914420
 50
345.893524
 51
0.000000
  0
ARC
  8
0
 10
214.170334
 20
110.755447
 40
2.329666
 50
0.026269
 51
12.212494
  0
ARC
  8
0
 10
213.859604
 20
110.656837
 40
2.654403
 50
12.874034
 51
46.617321
  0
ARC
  8
0
 10
212.998917
 20
109.566933
 40
4.039585
 50
48.363422
 51
54.623577
  0
ARC
  8
0
 10
211.614899
 20
109.880768
 40
2.445165
 50
147.737427
 51
164.581940
  0
ARC
  8
0
 10
211.114426
 20
110.064247
 40
1.914420
 50
165.893539
 51
194.106461
  0
ARC
  8
0
 10
211.614899
 20
110.247726
 40
2.445160
 50
195.418060
 51
231.388718
  0
ARC
  8
0
 10
213.000000
 20
112.271362
 40
4.894106
 50
233.502350
 51
306.497650
  0
ARC
  8
0
 10
214.385101
 20
110.247726
 40
2.445163
 50
308.611298
 51
344.581940
  0
ARC
  8
0
 10
214.885574
 20
110.064247
 40
1.914420
 50
345.893524
 51
14.106465
  0
ARC
  8
0
 10
214.385101
 20
109.880768
 40
2.445160
 50
15.418061
 51
31.651129
  0
ARC
  8
0
 10
211.263458
 20
110.064247
 40
1.763458
 50
180.000000
 51
194.105865
  0
ARC
  8
0
 10
211.724380
 20
110.233215
 40
2.252249
 50
195.417130
 51
231.387054
  0
ARC
  8
0
 10
213.000000
 20
112.096802
 40
4.507546
 50
233.500626
 51
306.499390
  0
ARC
  8
0
 10
214.275620
 20
110.233215
 40
2.252254
 50
308.612946
 51
344.582886
  0
ARC
  8
0
 10
214.736542
 20
110.064247
 40
1.763455
 50
345.894135
 51
0.000000
  0
ARC
  8
0
 10
214.170334
 20
110.755447
 40
2.329666
 50
0.026269
 51
12.212494
  0
ARC
  8
0
 10
213.859604
 20
110.656837
 40
2.654403
 50
12.874034
 51
46.617321
  0
ARC
  8
0
 10
212.998917
 20
109.566933
 40
4.039585
 50
48.363422
 51
54.641113
  0
ARC
  8
0
 10
192.687302
 20
145.129456
 40
1.712695
 50
345.892700
 51
14.107307
  0
ARC
  8
0
 10
192.239456
 20
144.965256
 40
2.187629
 50
15.419332
 51
51.390682
  0
ARC
  8
0
 10
191.000000
 20
143.154297
 40
4.379158
 50
53.504395
 51
126.495605
  0
ARC
  8
0
 10
189.760544
 20
144.965256
 40
2.187632
 50
128.609314
 51
164.580673
  0
ARC
  8
0
 10
189.312698
 20
145.129456
 40
1.712695
 50
165.892685
 51
194.107315
  0
ARC
  8
0
 10
189.760544
 20
145.293655
 40
2.187629
 50
195.419327
 51
231.390686
  0
ARC
  8
0
 10
191.000000
 20
147.104614
 40
4.379158
 50
233.504395
 51
306.495605
  0
ARC
  8
0
 10
192.239456
 20
145.293655
 40
2.187632
 50
308.609314
 51
344.580658
  0
ARC
  8
0
 10
211.000000
 20
108.582787
 40
11.435836
 50
64.634377
 51
103.112259
  0
ARC
  8
0
 10
225.899338
 20
124.327408
 40
1.782120
 50
0.000000
 51
14.231493
  0
ARC
  8
0
 10
225.416824
 20
124.148941
 40
2.294349
 50
15.589341
 51
51.687019
  0
ARC
  8
0
 10
224.081467
 20
122.180527
 40
4.669886
 50
53.804703
 51
126.195297
  0
ARC
  8
0
 10
222.746109
 20
124.148941
 40
2.294343
 50
128.312973
 51
164.410660
  0
ARC
  8
0
 10
222.263596
 20
124.327408
 40
1.782125
 50
165.768509
 51
180.000000
  0
ARC
  8
0
 10
224.081467
 20
126.191452
 40
4.669888
 50
300.677673
 51
306.195282
  0
ARC
  8
0
 10
225.416824
 20
124.223038
 40
2.294343
 50
308.312988
 51
344.410645
  0
ARC
  8
0
 10
225.899338
 20
124.044571
 40
1.782125
 50
345.768494
 51
14.231493
  0
ARC
  8
0
 10
225.416824
 20
123.866104
 40
2.294349
 50
15.589341
 51
51.687019
  0
ARC
  8
0
 10
224.081467
 20
121.897690
 40
4.669886
 50
53.804703
 51
126.195297
  0
ARC
  8
0
 10
222.746109
 20
123.866104
 40
2.294343
 50
128.312973
 51
164.410660
  0
ARC
  8
0
 10
222.263596
 20
124.044571
 40
1.782125
 50
165.768509
 51
194.231491
  0
ARC
  8
0
 10
222.746109
 20
124.223038
 40
2.294349
 50
195.589340
 51
231.687027
  0
ARC
  8
0
 10
224.081467
 20
126.191452
 40
4.669886
 50
233.804703
 51
239.319717
  0
ARC
  8
0
 10
225.613800
 20
123.547920
 40
1.555671
 50
345.893433
 51
14.106575
  0
ARC
  8
0
 10
225.207077
 20
123.398811
 40
1.986992
 50
15.418220
 51
51.389256
  0
ARC
  8
0
 10
224.081467
 20
121.754265
 40
3.977153
 50
53.502899
 51
126.497101
  0
ARC
  8
0
 10
222.955856
 20
123.398811
 40
1.986983
 50
128.610748
 51
164.581787
  0
ARC
  8
0
 10
222.549133
 20
123.547920
 40
1.555671
 50
165.893417
 51
194.106583
  0
ARC
  8
0
 10
222.955856
 20
123.697029
 40
1.986992
 50
195.418213
 51
231.389252
  0
ARC
  8
0
 10
224.081467
 20
125.341576
 40
3.977153
 50
233.502899
 51
306.497101
  0
ARC
  8
0
 10
225.207077
 20
123.697029
 40
1.986983
 50
308.610748
 51
344.581787
  0
ARC
  8
0
 10
225.300369
 20
123.146988
 40
1.237110
 50
345.892456
 51
14.107546
  0
ARC
  8
0
 10
224.976837
 20
123.028374
 40
1.580210
 50
15.419421
 51
51.391602
  0
ARC
  8
0
 10
224.081467
 20
121.720108
 40
3.163380
 50
53.505444
 51
126.494560
  0
ARC
  8
0
 10
223.186096
 20
123.028374
 40
1.580204
 50
128.608398
 51
164.580582
  0
ARC
  8
0
 10
222.862564
 20
123.146988
 40
1.237110
 50
165.892456
 51
194.107544
  0
ARC
  8
0
 10
223.186096
 20
123.265602
 40
1.580210
 50
195.419418
 51
231.391602
  0
ARC
  8
0
 10
224.081467
 20
124.573868
 40
3.163380
 50
233.505447
 51
306.494568
  0
ARC
  8
0
 10
224.976837
 20
123.265602
 40
1.580204
 50
308.608398
 51
344.580566
  0
ARC
  8
0
 10
224.787918
 20
122.762756
 40
0.717060
 50
345.892792
 51
14.107213
  0
ARC
  8
0
 10
224.600403
 20
122.694008
 40
0.915917
 50
15.419163
 51
51.390877
  0
ARC
  8
0
 10
224.081467
 20
121.935791
 40
1.833465
 50
53.504566
 51
126.495438
  0
ARC
  8
0
 10
223.562531
 20
122.694008
 40
0.915913
 50
128.609131
 51
164.580841
  0
ARC
  8
0
 10
223.375015
 20
122.762756
 40
0.717060
 50
165.892792
 51
194.107208
  0
ARC
  8
0
 10
223.562531
 20
122.831505
 40
0.915917
 50
195.419159
 51
231.390869
  0
ARC
  8
0
 10
224.081467
 20
123.589722
 40
1.833465
 50
233.504562
 51
306.495422
  0
ARC
  8
0
 10
224.600403
 20
122.831505
 40
0.915913
 50
308.609131
 51
344.580841
  0
ARC
  8
0
 10
211.000000
 20
106.390488
 40
23.182600
 50
90.594803
 51
126.094460
  0
ARC
  8
0
 10
226.562485
 20
126.095169
 40
2.518992
 50
358.277069
 51
14.106447
  0
ARC
  8
0
 10
225.903961
 20
125.853752
 40
3.217332
 50
15.417956
 51
51.388741
  0
ARC
  8
0
 10
224.081467
 20
123.191086
 40
6.439610
 50
53.502342
 51
90.281708
  0
ARC
  8
0
 10
211.000000
 20
123.234100
 40
14.167102
 50
304.302490
 51
306.497833
  0
ARC
  8
0
 10
215.009460
 20
117.376282
 40
7.078142
 50
308.611542
 51
320.424927
  0
ARC
  8
0
 10
211.000000
 20
104.622726
 40
23.182600
 50
90.594803
 51
118.293762
  0
ARC
  8
0
 10
196.096024
 20
105.585991
 40
3.217330
 50
149.183304
 51
164.582047
  0
ARC
  8
0
 10
195.437500
 20
105.827408
 40
2.518985
 50
165.893555
 51
194.106445
  0
ARC
  8
0
 10
196.096024
 20
106.068825
 40
3.217332
 50
195.417953
 51
224.400497
  0
ARC
  8
0
 10
211.000000
 20
125.532104
 40
23.182596
 50
290.103271
 51
306.497772
  0
ARC
  8
0
 10
217.560959
 20
115.946518
 40
11.582401
 50
308.611511
 51
344.582062
  0
ARC
  8
0
 10
219.931671
 20
115.077415
 40
9.068319
 50
345.893555
 51
345.927521
  0
ARC
  8
0
 10
226.562485
 20
124.327408
 40
2.518992
 50
358.277069
 51
14.106447
  0
ARC
  8
0
 10
225.903961
 20
124.085991
 40
3.217332
 50
15.417956
 51
51.388657
  0
ARC
  8
0
 10
224.081467
 20
121.423325
 40
6.439604
 50
53.502300
 51
90.281708
  0
ARC
  8
0
 10
211.000000
 20
121.466347
 40
14.167102
 50
304.302490
 51
306.497833
  0
ARC
  8
0
 10
215.009460
 20
115.608528
 40
7.078142
 50
308.611542
 51
337.294312
  0
POLYLINE
  8
0
 66
     1
  0
VERTEX
  8
0
 10
165.500000
 20
81.000000
  0
VERTEX
  8
0
 10
164.665085
 20
80.786491
  0
VERTEX
  8
0
 10
163.861404
 20
80.463776
  0
VERTEX
  8
0
 10
163.118103
 20
80.052849
  0
VERTEX
  8
0
 10
162.478714
 20
79.592453
  0
VERTEX
  8
0
 10
161.923370
 20
79.050018
  0
VERTEX
  8
0
 10
161.496643
 20
78.409973
  0
VERTEX
  8
0
 10
161.233749
 20
77.685562
  0
VERTEX
  8
0
 10
161.115936
 20
76.901779
  0
VERTEX
  8
0
 10
161.076630
 20
76.000412
  0
VERTEX
  8
0
 10
161.065903
 20
75.171761
  0
VERTEX
  8
0
 10
161.076111
 20
74.359375
  0
VERTEX
  8
0
 10
161.113464
 20
73.546066
  0
VERTEX
  8
0
 10
161.184174
 20
72.714645
  0
VERTEX
  8
0
 10
161.295547
 20
71.842148
  0
VERTEX
  8
0
 10
161.443573
 20
70.976692
  0
VERTEX
  8
0
 10
161.628479
 20
70.104019
  0
VERTEX
  8
0
 10
161.850464
 20
69.209839
  0
VERTEX
  8
0
 10
162.128784
 20
68.236893
  0
VERTEX
  8
0
 10
162.445923
 20
67.259079
  0
VERTEX
  8
0
 10
162.782257
 20
66.325684
  0
VERTEX
  8
0
 10
163.118103
 20
65.485977
  0
VERTEX
  8
0
 10
163.513168
 20
64.606743
  0
VERTEX
  8
0
 10
163.941589
 20
63.742989
  0
VERTEX
  8
0
 10
164.365356
 20
62.966896
  0
VERTEX
  8
0
 10
164.724380
 20
62.368465
  0
VERTEX
  8
0
 10
165.102936
 20
61.782280
  0
VERTEX
  8
0
 10
165.500000
 20
61.208668
  0
SEQEND
  0
POLYLINE
  8
0
 66
     1
  0
VERTEX
  8
0
 10
165.500000
 20
-3.000000
  0
VERTEX
  8
0
 10
164.665085
 20
-2.786491
  0
VERTEX
  8
0
 10
163.861404
 20
-2.463772
  0
VERTEX
  8
0
 10
163.118103
 20
-2.052849
  0
VERTEX
  8
0
 10
162.478714
 20
-1.592451
  0
VERTEX
  8
0
 10
161.923370
 20
-1.050017
  0
VERTEX
  8
0
 10
161.496643
 20
-0.409969
  0
VERTEX
  8
0
 10
161.233749
 20
0.314442
  0
VERTEX
  8
0
 10
161.115936
 20
1.098222
  0
VERTEX
  8
0
 10
161.076630
 20
1.999588
  0
VERTEX
  8
0
 10
161.065903
 20
2.828241
  0
VERTEX
  8
0
 10
161.076111
 20
3.640622
  0
VERTEX
  8
0
 10
161.113464
 20
4.453928
  0
VERTEX
  8
0
 10
161.184174
 20
5.285351
  0
VERTEX
  8
0
 10
161.295547
 20
6.157852
  0
VERTEX
  8
0
 10
161.443573
 20
7.023303
  0
VERTEX
  8
0
 10
161.628479
 20
7.895981
  0
VERTEX
  8
0
 10
161.850464
 20
8.790161
  0
VERTEX
  8
0
 10
162.128784
 20
9.763110
  0
VERTEX
  8
0
 10
162.445923
 20
10.740923
  0
VERTEX
  8
0
 10
162.782257
 20
11.674320
  0
VERTEX
  8
0
 10
163.118103
 20
12.514023
  0
VERTEX
  8
0
 10
163.513168
 20
13.393254
  0
VERTEX
  8
0
 10
163.941589
 20
14.257011
  0
VERTEX
  8
0
 10
164.365356
 20
15.033106
  0
VERTEX
  8
0
 10
164.724380
 20
15.631536
  0
VERTEX
  8
0
 10
165.102936
 20
16.217722
  0
VERTEX
  8
0
 10
165.500000
 20
16.791332
  0
SEQEND
  0
POLYLINE
  8
0
 66
     1
  0
VERTEX
  8
0
 10
161.045456
 20
111.000000
  0
VERTEX
  8
0
 10
161.347809
 20
110.431564
  0
VERTEX
  8
0
 10
161.662720
 20
109.843742
  0
VERTEX
  8
0
 10
161.994980
 20
109.227577
  0
VERTEX
  8
0
 10
162.374817
 20
108.529434
  0
VERTEX
  8
0
 10
162.740189
 20
107.863297
  0
VERTEX
  8
0
 10
163.107849
 20
107.198418
  0
VERTEX
  8
0
 10
163.464905
 20
106.557983
  0
VERTEX
  8
0
 10
163.792709
 20
105.974792
  0
VERTEX
  8
0
 10
164.122452
 20
105.392700
  0
VERTEX
  8
0
 10
164.457642
 20
104.805573
  0
VERTEX
  8
0
 10
164.803040
 20
104.205299
  0
VERTEX
  8
0
 10
165.150482
 20
103.606216
  0
VERTEX
  8
0
 10
165.500000
 20
103.008331
  0
SEQEND
  0
POLYLINE
  8
0
 66
     1
  0
VERTEX
  8
0
 10
161.045456
 20
-33.000000
  0
VERTEX
  8
0
 10
161.347809
 20
-32.431564
  0
VERTEX
  8
0
 10
161.662720
 20
-31.843742
  0
VERTEX
  8
0
 10
161.994980
 20
-31.227573
  0
VERTEX
  8
0
 10
162.374817
 20
-30.529434
  0
VERTEX
  8
0
 10
162.740189
 20
-29.863293
  0
VERTEX
  8
0
 10
163.107849
 20
-29.198416
  0
VERTEX
  8
0
 10
163.464905
 20
-28.557983
  0
VERTEX
  8
0
 10
163.792709
 20
-27.974796
  0
VERTEX
  8
0
 10
164.122452
 20
-27.392698
  0
VERTEX
  8
0
 10
164.457642
 20
-26.805573
  0
VERTEX
  8
0
 10
164.803040
 20
-26.205297
  0
VERTEX
  8
0
 10
165.150482
 20
-25.606215
  0
VERTEX
  8
0
 10
165.500000
 20
-25.008331
  0
SEQEND
  0
ARC
  8
0
 10
212.998917
 20
109.566933
 40
4.039586
 50
125.343750
 51
129.999283
  0
ARC
  8
0
 10
212.140213
 20
110.658409
 40
2.654390
 50
139.723251
 51
167.021225
  0
ARC
  8
0
 10
211.829666
 20
110.757584
 40
2.329673
 50
167.682693
 51
192.212494
  0
ARC
  8
0
 10
212.140396
 20
110.856194
 40
2.654403
 50
192.874039
 51
226.617325
  0
ARC
  8
0
 10
213.001083
 20
111.946098
 40
4.039585
 50
228.363419
 51
311.531860
  0
ARC
  8
0
 10
213.859787
 20
110.854622
 40
2.654398
 50
313.277832
 51
347.021210
  0
ARC
  8
0
 10
214.170334
 20
110.755447
 40
2.329673
 50
347.682678
 51
0.026269
  0
ARC
  8
0
 10
215.009460
 20
114.546318
 40
7.078148
 50
19.165863
 51
51.388454
  0
ARC
  8
0
 10
211.000000
 20
108.688499
 40
14.167102
 50
53.502171
 51
124.806107
  0
POINT
  8
0
 10
420.000000
 20
272.000000
  0
POINT
  8
0
 10
518.000000
 20
272.000000
  0
LINE
  8
0
 10
382.523346
 20
275.535522
 11
418.585785
 21
311.597992
  0
LINE
  8
0
 10
459.597992
 20
280.485260
 11
444.465881
 21
295.617371
  0
LINE
  8
0
 10
356.269745
 20
228.068710
 11
368.864502
 21
240.663483
  0
LINE
  8
0
 10
340.035919
 20
215.345398
 11
353.824707
 21
226.915573
  0
LINE
  8
0
 10
370.453705
 20
242.734528
 11
378.709229
 21
257.033539
  0
LINE
  8
0
 10
418.585785
 20
311.597992
 11
428.485291
 21
311.597992
  0
LINE
  8
0
 10
423.535522
 20
234.523331
 11
459.597961
 21
270.585785
  0
LINE
  8
0
 10
376.068726
 20
208.269730
 11
388.663483
 21
220.864487
  0
LINE
  8
0
 10
363.345398
 20
192.035919
 11
374.915558
 21
205.824707
  0
LINE
  8
0
 10
390.734558
 20
222.453659
 11
405.033569
 21
230.709183
  0
LINE
  8
0
 10
459.597992
 20
270.585785
 11
459.597992
 21
280.485291
  0
LINE
  8
0
 10
418.585785
 20
250.786804
 11
398.786774
 21
270.585785
  0
LINE
  8
0
 10
421.414215
 20
250.786804
 11
441.213226
 21
270.585785
  0
LINE
  8
0
 10
441.213196
 20
273.414215
 11
431.737976
 21
282.889435
  0
LINE
  8
0
 10
398.786804
 20
273.414215
 11
418.585785
 21
293.213196
  0
LINE
  8
0
 10
398.079712
 20
273.414215
 11
418.585785
 21
293.920319
  0
LINE
  8
0
 10
441.920319
 20
273.414215
 11
432.091522
 21
283.243011
  0
LINE
  8
0
 10
421.414215
 20
250.079697
 11
441.920319
 21
270.585785
  0
LINE
  8
0
 10
418.585785
 20
250.079697
 11
398.079681
 21
270.585785
  0
LINE
  8
0
 10
430.889435
 20
283.737976
 11
443.617371
 21
296.465881
  0
LINE
  8
0
 10
431.737976
 20
282.889435
 11
444.465912
 21
295.617371
  0
LINE
  8
0
 10
430.889435
 20
283.737976
 11
421.414215
 21
293.213196
  0
LINE
  8
0
 10
431.242981
 20
284.091522
 11
421.414215
 21
293.920319
  0
LINE
  8
0
 10
443.617371
 20
296.465881
 11
423.181976
 21
316.901276
  0
LINE
  8
0
 10
435.273499
 20
286.424988
 11
434.424957
 21
287.273499
  0
LINE
  8
0
 10
442.344574
 20
293.496033
 11
441.496033
 21
294.344574
  0
LINE
  8
0
 10
412.127106
 20
306.553497
 11
422.216064
 21
316.642456
  0
LINE
  8
0
 10
411.868286
 20
305.587585
 11
423.181976
 21
316.901276
  0
LINE
  8
0
 10
423.181976
 20
316.901276
 11
422.216064
 21
316.642456
  0
LINE
  8
0
 10
411.868317
 20
305.587555
 11
412.127136
 21
306.553467
  0
LINE
  8
0
 10
412.221832
 20
305.234009
 11
411.868256
 21
305.587585
  0
LINE
  8
0
 10
367.000305
 20
296.700012
 11
328.060669
 21
335.639679
  0
LINE
  8
0
 10
328.060669
 20
208.360367
 11
367.000305
 21
247.299988
  0
LINE
  8
0
 10
328.060669
 20
208.360352
 11
285.000305
 21
251.420746
  0
LINE
  8
0
 10
285.000305
 20
292.579285
 11
328.060669
 21
335.639679
  0
LINE
  8
0
 10
367.000305
 20
247.299988
 11
367.000305
 21
296.700012
  0
LINE
  8
0
 10
285.000305
 20
251.399704
 11
285.000305
 21
292.600311
  0
LINE
  8
0
 10
338.313721
 20
328.922119
 11
353.375092
 21
343.983490
  0
LINE
  8
0
 10
349.627472
 20
317.608398
 11
364.688843
 21
332.669739
  0
LINE
  8
0
 10
339.029266
 20
215.705841
 11
338.985474
 21
215.749634
  0
LINE
  8
0
 10
348.999451
 20
225.676056
 11
348.955658
 21
225.719833
  0
LINE
  8
0
 10
354.541809
 20
343.806732
 11
355.646271
 21
344.911194
  0
LINE
  8
0
 10
364.512024
 20
333.836548
 11
365.616455
 21
334.940979
  0
LINE
  8
0
 10
364.898041
 20
333.450531
 11
354.155884
 21
344.192688
  0
LINE
  8
0
 10
339.029297
 20
215.705856
 11
348.999481
 21
225.676056
  0
LINE
  8
0
 10
355.646301
 20
344.911163
 11
365.616516
 21
334.940948
  0
LINE
  8
0
 10
364.688812
 20
332.669769
 11
364.898010
 21
333.450500
  0
LINE
  8
0
 10
353.375092
 20
343.983521
 11
354.155853
 21
344.192719
  0
LINE
  8
0
 10
364.688843
 20
332.669769
 11
353.375122
 21
343.983490
  0
LINE
  8
0
 10
331.242645
 20
208.006805
 11
356.698486
 21
233.462646
  0
LINE
  8
0
 10
356.698486
 20
310.537354
 11
331.242645
 21
335.993225
  0
LINE
  8
0
 10
332.220581
 20
208.984726
 11
330.452789
 21
210.752502
  0
LINE
  8
0
 10
355.720581
 20
232.484756
 11
353.952820
 21
234.252533
  0
LINE
  8
0
 10
304.447205
 20
261.535370
 11
305.050720
 21
267.277252
  0
LINE
  8
0
 10
294.501984
 20
262.580658
 11
295.105469
 21
268.322540
  0
LINE
  8
0
 10
304.447266
 20
261.535431
 11
299.172913
 21
259.187134
  0
LINE
  8
0
 10
300.379883
 20
270.670898
 11
295.105530
 21
268.322601
  0
LINE
  8
0
 10
299.172852
 20
259.186951
 11
294.501984
 21
262.580536
  0
LINE
  8
0
 10
305.050720
 20
267.277130
 11
300.379852
 21
270.670715
  0
LINE
  8
0
 10
302.160217
 20
264.175629
 11
297.288086
 21
264.687714
  0
LINE
  8
0
 10
302.264771
 20
265.170166
 11
297.392639
 21
265.682220
  0
LINE
  8
0
 10
302.486938
 20
273.973419
 11
305.546417
 21
278.869598
  0
LINE
  8
0
 10
294.006409
 20
279.272583
 11
297.065918
 21
284.168793
  0
LINE
  8
0
 10
302.486938
 20
273.973389
 11
296.716949
 21
274.174866
  0
LINE
  8
0
 10
302.835907
 20
283.967316
 11
297.065918
 21
284.168793
  0
LINE
  8
0
 10
296.716797
 20
274.174805
 11
294.006317
 21
279.272522
  0
LINE
  8
0
 10
305.546295
 20
278.869537
 11
302.835815
 21
283.967224
  0
LINE
  8
0
 10
301.588745
 20
277.348999
 11
297.434143
 21
279.945068
  0
LINE
  8
0
 10
302.118652
 20
278.197052
 11
297.964111
 21
280.793121
  0
LINE
  8
0
 10
366.445465
 20
262.834839
 11
366.445465
 21
281.165161
  0
LINE
  8
0
 10
343.384338
 20
246.546402
 11
332.976807
 21
254.604538
  0
LINE
  8
0
 10
349.506470
 20
246.546539
 11
359.914001
 21
254.604675
  0
LINE
  8
0
 10
359.914001
 20
289.395325
 11
349.506470
 21
297.453461
  0
LINE
  8
0
 10
343.384399
 20
297.453583
 11
332.976868
 21
289.395447
  0
LINE
  8
0
 10
326.445465
 20
262.834869
 11
326.445465
 21
281.165161
  0
LINE
  8
0
 10
332.457855
 20
208.656342
 11
337.549011
 21
213.747513
  0
LINE
  8
0
 10
332.457825
 20
208.656311
 11
332.174988
 21
208.939148
  0
LINE
  8
0
 10
337.548981
 20
213.747467
 11
337.266144
 21
214.030319
  0
LINE
  8
0
 10
350.957855
 20
227.156342
 11
356.049011
 21
232.247498
  0
LINE
  8
0
 10
350.957825
 20
227.156326
 11
350.674988
 21
227.439163
  0
LINE
  8
0
 10
356.049011
 20
232.247482
 11
355.766174
 21
232.530319
  0
LINE
  8
0
 10
356.049042
 20
311.752502
 11
350.957855
 21
316.843689
  0
LINE
  8
0
 10
356.049011
 20
311.752533
 11
355.766174
 21
311.469696
  0
LINE
  8
0
 10
350.957855
 20
316.843689
 11
350.675018
 21
316.560852
  0
LINE
  8
0
 10
337.549042
 20
330.252502
 11
332.457886
 21
335.343689
  0
LINE
  8
0
 10
337.548981
 20
330.252533
 11
337.266144
 21
329.969696
  0
LINE
  8
0
 10
332.457825
 20
335.343719
 11
332.174988
 21
335.060852
  0
LINE
  8
0
 10
403.000000
 20
212.000000
 11
403.000000
 21
229.535095
  0
LINE
  8
0
 10
329.399994
 20
337.000000
 11
346.391602
 21
337.000000
  0
LINE
  8
0
 10
329.399994
 20
207.000000
 11
346.658325
 21
207.000000
  0
LINE
  8
0
 10
403.000000
 20
302.594116
 11
403.000000
 21
332.000000
  0
LINE
  8
0
 10
403.000000
 20
212.000015
 11
397.999969
 21
207.000000
  0
LINE
  8
0
 10
403.000031
 20
332.000031
 11
398.000031
 21
337.000031
  0
LINE
  8
0
 10
354.930725
 20
308.769592
 11
356.698486
 21
310.537354
  0
LINE
  8
0
 10
329.474884
 20
334.225433
 11
331.242645
 21
335.993195
  0
LINE
  8
0
 10
331.242615
 20
208.006790
 11
329.474854
 21
209.774551
  0
LINE
  8
0
 10
356.698486
 20
233.462646
 11
354.930725
 21
235.230408
  0
LINE
  8
0
 10
329.399963
 20
206.999969
 11
285.000275
 21
251.399689
  0
LINE
  8
0
 10
285.000305
 20
292.600311
 11
329.399994
 21
337.000000
  0
LINE
  8
0
 10
364.630981
 20
337.000000
 11
398.000000
 21
337.000000
  0
LINE
  8
0
 10
328.060699
 20
240.544662
 11
328.060699
 21
232.744659
  0
LINE
  8
0
 10
324.160706
 20
236.644669
 11
331.960693
 21
236.644669
  0
LINE
  8
0
 10
395.773499
 20
220.050003
 11
393.472961
 21
224.034668
  0
LINE
  8
0
 10
387.113251
 20
215.050003
 11
385.552429
 21
217.753418
  0
LINE
  8
0
 10
392.886749
 20
215.050003
 11
387.113251
 21
215.050003
  0
LINE
  8
0
 10
395.773499
 20
220.050003
 11
392.886749
 21
215.050003
  0
LINE
  8
0
 10
346.445465
 20
251.943390
 11
345.195465
 21
251.221695
  0
LINE
  8
0
 10
345.195465
 20
251.221695
 11
345.195465
 21
249.778320
  0
LINE
  8
0
 10
346.445465
 20
249.056625
 11
345.195465
 21
249.778320
  0
LINE
  8
0
 10
347.695465
 20
249.778320
 11
346.445465
 21
249.056625
  0
LINE
  8
0
 10
347.695465
 20
251.221695
 11
347.695465
 21
249.778320
  0
LINE
  8
0
 10
346.445465
 20
251.943390
 11
347.695465
 21
251.221695
  0
LINE
  8
0
 10
346.445465
 20
294.943390
 11
345.195465
 21
294.221680
  0
LINE
  8
0
 10
345.195465
 20
294.221710
 11
345.195465
 21
292.778320
  0
LINE
  8
0
 10
346.445465
 20
292.056641
 11
345.195465
 21
292.778320
  0
LINE
  8
0
 10
347.695465
 20
292.778320
 11
346.445465
 21
292.056641
  0
LINE
  8
0
 10
347.695465
 20
294.221710
 11
347.695465
 21
292.778320
  0
LINE
  8
0
 10
346.445465
 20
294.943390
 11
347.695465
 21
294.221710
  0
LINE
  8
0
 10
395.773499
 20
323.950012
 11
392.886749
 21
328.950012
  0
LINE
  8
0
 10
392.886749
 20
328.950012
 11
387.113251
 21
328.950012
  0
LINE
  8
0
 10
384.226501
 20
323.950012
 11
387.113251
 21
328.950012
  0
LINE
  8
0
 10
387.113251
 20
318.950012
 11
384.226501
 21
323.950012
  0
LINE
  8
0
 10
392.886749
 20
318.950012
 11
387.113251
 21
318.950012
  0
LINE
  8
0
 10
395.773499
 20
323.950012
 11
392.886749
 21
318.950012
  0
LINE
  8
0
 10
328.060699
 20
311.255341
 11
328.060699
 21
303.455353
  0
LINE
  8
0
 10
324.160706
 20
307.355347
 11
331.960693
 21
307.355347
  0
LINE
  8
0
 10
385.152985
 20
210.454742
 11
386.029633
 21
211.973114
  0
LINE
  8
0
 10
384.113770
 20
211.054749
 11
384.990387
 21
212.573120
  0
LINE
  8
0
 10
384.113770
 20
332.945251
 11
384.990387
 21
331.426880
  0
LINE
  8
0
 10
385.152985
 20
333.545258
 11
386.029633
 21
332.026886
  0
LINE
  8
0
 10
344.339813
 20
203.410873
 11
346.107330
 21
205.178391
  0
LINE
  8
0
 10
351.410889
 20
196.339813
 11
353.178406
 21
198.107330
  0
LINE
  8
0
 10
344.339813
 20
340.589111
 11
347.160278
 21
337.768677
  0
LINE
  8
0
 10
351.410889
 20
347.660187
 11
354.903076
 21
344.167999
  0
LINE
  8
0
 10
378.634491
 20
320.436584
 11
371.563416
 21
313.365509
  0
LINE
  8
0
 10
345.400452
 20
204.471542
 11
345.824768
 21
204.047241
  0
LINE
  8
0
 10
344.339783
 20
203.410889
 11
344.764099
 21
202.986572
  0
LINE
  8
0
 10
352.471558
 20
346.599548
 11
352.047241
 21
346.175232
  0
LINE
  8
0
 10
351.410889
 20
347.660217
 11
350.986572
 21
347.235901
  0
LINE
  8
0
 10
339.814301
 20
186.864548
 11
334.864563
 21
191.814301
  0
LINE
  8
0
 10
334.864594
 20
192.521362
 11
346.107605
 21
203.764343
  0
LINE
  8
0
 10
335.076660
 20
192.733566
 11
334.015991
 21
193.794220
  0
LINE
  8
0
 10
334.016052
 20
194.501266
 11
338.046570
 21
198.531784
  0
LINE
  8
0
 10
339.460724
 20
197.117584
 11
338.046509
 21
198.531799
  0
LINE
  8
0
 10
339.177979
 20
197.400421
 11
346.107605
 21
204.330063
  0
LINE
  8
0
 10
344.834717
 20
191.177872
 11
339.177856
 21
196.834717
  0
LINE
  8
0
 10
340.521423
 20
186.864502
 11
351.764435
 21
198.107513
  0
LINE
  8
0
 10
341.794159
 20
186.016052
 11
340.733490
 21
187.076721
  0
LINE
  8
0
 10
342.501343
 20
186.015961
 11
346.531830
 21
190.046478
  0
LINE
  8
0
 10
346.531799
 20
190.046509
 11
345.117584
 21
191.460724
  0
LINE
  8
0
 10
345.400513
 20
191.177872
 11
352.330139
 21
198.107513
  0
LINE
  8
0
 10
352.330078
 20
198.107513
 11
351.905792
 21
198.531799
  0
LINE
  8
0
 10
351.764404
 20
198.107513
 11
346.107574
 21
203.764343
  0
LINE
  8
0
 10
350.279480
 20
196.622620
 11
349.472565
 21
197.429535
  0
LINE
  8
0
 10
343.279114
 20
200.935944
 11
348.935974
 21
195.279114
  0
LINE
  8
0
 10
345.400421
 20
202.350281
 11
344.693329
 21
202.350281
  0
LINE
  8
0
 10
350.350342
 20
197.400467
 11
350.350342
 21
196.693375
  0
LINE
  8
0
 10
350.703735
 20
197.046875
 11
350.273224
 21
197.477386
  0
LINE
  8
0
 10
334.864532
 20
352.185699
 11
339.814270
 21
357.135437
  0
LINE
  8
0
 10
340.521362
 20
357.135406
 11
351.764343
 21
345.892426
  0
LINE
  8
0
 10
340.733582
 20
356.923340
 11
341.794220
 21
357.984009
  0
LINE
  8
0
 10
342.501282
 20
357.983948
 11
346.531799
 21
353.953430
  0
LINE
  8
0
 10
345.117584
 20
352.539276
 11
346.531799
 21
353.953491
  0
LINE
  8
0
 10
345.400421
 20
352.822052
 11
352.330078
 21
345.892395
  0
LINE
  8
0
 10
339.177887
 20
347.165283
 11
344.834747
 21
352.822144
  0
LINE
  8
0
 10
334.864502
 20
351.478577
 11
346.107513
 21
340.235596
  0
LINE
  8
0
 10
334.016052
 20
350.205841
 11
335.076721
 21
351.266510
  0
LINE
  8
0
 10
334.015991
 20
349.498657
 11
338.046478
 21
345.468170
  0
LINE
  8
0
 10
338.046509
 20
345.468201
 11
339.460724
 21
346.882416
  0
LINE
  8
0
 10
339.177887
 20
346.599518
 11
346.107513
 21
339.669861
  0
LINE
  8
0
 10
346.107513
 20
339.669922
 11
352.330078
 21
345.892456
  0
LINE
  8
0
 10
344.622620
 20
341.720520
 11
350.279480
 21
347.377380
  0
LINE
  8
0
 10
348.935974
 20
348.720886
 11
343.279144
 21
343.064056
  0
LINE
  8
0
 10
350.350281
 20
346.599579
 11
350.350281
 21
347.306671
  0
LINE
  8
0
 10
345.400452
 20
341.649658
 11
344.693359
 21
341.649658
  0
LINE
  8
0
 10
345.046875
 20
341.296234
 11
350.703705
 21
346.953064
  0
LINE
  8
0
 10
344.764038
 20
341.013367
 11
344.339813
 21
340.589142
  0
LINE
  8
0
 10
345.824707
 20
339.952698
 11
345.400482
 21
339.528473
  0
LINE
  8
0
 10
351.806519
 20
345.934509
 11
346.107544
 21
340.235565
  0
LINE
  8
0
 10
352.047302
 20
197.824707
 11
352.471527
 21
197.400482
  0
LINE
  8
0
 10
350.986633
 20
196.764038
 11
351.410858
 21
196.339813
  0
LINE
  8
0
 10
364.639984
 20
325.260010
 11
364.639984
 21
329.460022
  0
LINE
  8
0
 10
362.540009
 20
327.360016
 11
366.739990
 21
327.360016
  0
LINE
  8
0
 10
370.999969
 20
318.899994
 11
370.999969
 21
323.100006
  0
LINE
  8
0
 10
368.899994
 20
321.000031
 11
373.100006
 21
321.000031
  0
LINE
  8
0
 10
347.167969
 20
206.239059
 11
354.239044
 21
199.167999
  0
LINE
  8
0
 10
346.107330
 20
205.178406
 11
353.178406
 21
198.107330
  0
LINE
  8
0
 10
346.107361
 20
205.178406
 11
347.258240
 21
206.329315
  0
LINE
  8
0
 10
353.178406
 20
198.107346
 11
354.329315
 21
199.258240
  0
LINE
  8
0
 10
350.718353
 20
197.768616
 11
351.410645
 21
198.460892
  0
LINE
  8
0
 10
345.768616
 20
202.718369
 11
346.460876
 21
203.410645
  0
LINE
  8
0
 10
351.622772
 20
198.248764
 11
352.329865
 21
198.955872
  0
LINE
  8
0
 10
346.248749
 20
203.622772
 11
346.955872
 21
204.329880
  0
LINE
  8
0
 10
348.512390
 20
202.773376
 11
347.994751
 21
201.876801
  0
LINE
  8
0
 10
358.473999
 20
326.454926
 11
371.563416
 21
313.365509
  0
LINE
  8
0
 10
364.873260
 20
334.197815
 11
378.634491
 21
320.436584
  0
LINE
  8
0
 10
346.531799
 20
203.905823
 11
346.107544
 21
204.330078
  0
LINE
  8
0
 10
345.477386
 20
202.273224
 11
345.046875
 21
202.703735
  0
LINE
  8
0
 10
345.429535
 20
201.472565
 11
344.622620
 21
202.279480
  0
LINE
  8
0
 10
365.394470
 20
323.635681
 11
367.275665
 21
321.754486
  0
LINE
  8
0
 10
368.364349
 20
326.605499
 11
370.245483
 21
324.724335
  0
LINE
  8
0
 10
375.213318
 20
207.000000
 11
398.000000
 21
207.000000
  0
LINE
  8
0
 10
409.857758
 20
361.217590
 11
408.623779
 21
356.612244
  0
LINE
  8
0
 10
430.142212
 20
361.217590
 11
431.376221
 21
356.612244
  0
LINE
  8
0
 10
409.857788
 20
182.782410
 11
408.623779
 21
187.387756
  0
LINE
  8
0
 10
430.142212
 20
182.782410
 11
431.376190
 21
187.387756
  0
LINE
  8
0
 10
487.588196
 20
219.841751
 11
492.193573
 21
218.607742
  0
LINE
  8
0
 10
498.964478
 20
239.545929
 11
502.335785
 21
236.174591
  0
LINE
  8
0
 10
498.964478
 20
304.453949
 11
502.335846
 21
307.825317
  0
LINE
  8
0
 10
487.588318
 20
324.158173
 11
492.193634
 21
325.392181
  0
LINE
  8
0
 10
438.408844
 20
216.932617
 11
437.374176
 21
220.794098
  0
LINE
  8
0
 10
458.485229
 20
228.523727
 11
455.658478
 21
231.350494
  0
LINE
  8
0
 10
476.894165
 20
260.408844
 11
473.032684
 21
261.443512
  0
LINE
  8
0
 10
476.894165
 20
283.591064
 11
473.032745
 21
282.556396
  0
LINE
  8
0
 10
455.658539
 20
312.649414
 11
458.485352
 21
315.476196
  0
LINE
  8
0
 10
437.374298
 20
323.205902
 11
438.408936
 21
327.067322
  0
LINE
  8
0
 10
407.455505
 20
319.500000
 11
432.544647
 21
319.500000
  0
LINE
  8
0
 10
407.455383
 20
224.500000
 11
432.544556
 21
224.500000
  0
LINE
  8
0
 10
454.863892
 20
237.386017
 11
467.408478
 21
259.113892
  0
LINE
  8
0
 10
467.408539
 20
284.886017
 11
454.863953
 21
306.613892
  0
LINE
  8
0
 10
497.500000
 20
243.081451
 11
497.500000
 21
300.918427
  0
LINE
  8
0
 10
483.794189
 20
324.657684
 11
433.705841
 21
353.576233
  0
LINE
  8
0
 10
406.294159
 20
190.423767
 11
377.583313
 21
207.000000
  0
LINE
  8
0
 10
433.705841
 20
190.423752
 11
483.794098
 21
219.342224
  0
LINE
  8
0
 10
377.583252
 20
337.000000
 11
406.294159
 21
353.576233
  0
LINE
  8
0
 10
417.488556
 20
253.015396
 11
401.015381
 21
269.488556
  0
LINE
  8
0
 10
422.511444
 20
253.015396
 11
438.984619
 21
269.488556
  0
LINE
  8
0
 10
401.015381
 20
274.511444
 11
417.488556
 21
290.984619
  0
LINE
  8
0
 10
438.984619
 20
274.511444
 11
422.511444
 21
290.984619
  0
LINE
  8
0
 10
422.511444
 20
290.984619
 11
422.887482
 21
291.739929
  0
LINE
  8
0
 10
417.488556
 20
290.984619
 11
417.112518
 21
291.739929
  0
LINE
  8
0
 10
400.260071
 20
274.887482
 11
401.015381
 21
274.511444
  0
LINE
  8
0
 10
400.260071
 20
269.112518
 11
401.015381
 21
269.488556
  0
LINE
  8
0
 10
417.112518
 20
252.260071
 11
417.488556
 21
253.015396
  0
LINE
  8
0
 10
422.887482
 20
252.260071
 11
422.511444
 21
253.015396
  0
LINE
  8
0
 10
438.984619
 20
269.488556
 11
439.739929
 21
269.112518
  0
LINE
  8
0
 10
439.739929
 20
274.887482
 11
438.984619
 21
274.511414
  0
ARC
  8
0
 10
420.000000
 20
272.000000
 40
98.000008
 50
215.317581
 51
234.682358
  0
ARC
  8
0
 10
353.441284
 20
230.897141
 40
4.000002
 50
275.500580
 51
315.000153
  0
ARC
  8
0
 10
352.728455
 20
272.033539
 40
29.999969
 50
330.000031
 51
6.703582
  0
ARC
  8
0
 10
361.793427
 20
247.734543
 40
10.000000
 50
315.000061
 51
329.999969
  0
ARC
  8
0
 10
420.033539
 20
204.728439
 40
30.000006
 50
83.296425
 51
119.999939
  0
ARC
  8
0
 10
395.734558
 20
213.793427
 40
9.999994
 50
120.000015
 51
135.000000
  0
ARC
  8
0
 10
378.897156
 20
205.441315
 40
3.999994
 50
135.000153
 51
174.499664
  0
ARC
  8
0
 10
420.000000
 20
252.201004
 40
1.999991
 50
224.999695
 51
315.000305
  0
ARC
  8
0
 10
400.201019
 20
272.000000
 40
2.000002
 50
135.000000
 51
225.000000
  0
ARC
  8
0
 10
420.000000
 20
291.799011
 40
2.000002
 50
45.000000
 51
135.000626
  0
ARC
  8
0
 10
439.798981
 20
272.000000
 40
2.000002
 50
315.000000
 51
45.000000
  0
ARC
  8
0
 10
420.000000
 20
251.493896
 40
1.999991
 50
224.999695
 51
315.000305
  0
ARC
  8
0
 10
399.493896
 20
272.000000
 40
2.000002
 50
135.000000
 51
225.000000
  0
ARC
  8
0
 10
420.000000
 20
292.506104
 40
2.000002
 50
45.000000
 51
135.000000
  0
ARC
  8
0
 10
440.506104
 20
272.000000
 40
2.000002
 50
315.000000
 51
45.000000
  0
ARC
  8
0
 10
390.000000
 20
220.050003
 40
10.750004
 50
243.199524
 51
39.176331
  0
CIRCLE
  8
0
 10
390.000000
 20
323.950012
 40
7.800000
  0
ARC
  8
0
 10
390.000000
 20
323.950012
 40
10.749978
 50
123.199600
 51
116.800369
  0
ARC
  8
0
 10
390.000000
 20
220.050003
 40
9.000010
 50
215.270416
 51
40.980953
  0
CIRCLE
  8
0
 10
328.060699
 20
307.355347
 40
7.500000
  0
CIRCLE
  8
0
 10
346.445465
 20
272.000000
 40
0.500000
  0
CIRCLE
  8
0
 10
346.445465
 20
272.000000
 40
16.250000
  0
ARC
  8
0
 10
332.303345
 20
232.402039
 40
18.000011
 50
291.941742
 51
338.058167
  0
ARC
  8
0
 10
348.920349
 20
328.214996
 40
18.000011
 50
21.941750
 51
68.058212
  0
CIRCLE
  8
0
 10
299.776428
 20
264.928955
 40
2.500000
  0
CIRCLE
  8
0
 10
299.776428
 20
264.928955
 40
2.250000
  0
CIRCLE
  8
0
 10
299.776428
 20
264.928955
 40
5.000000
  0
CIRCLE
  8
0
 10
299.776428
 20
279.071075
 40
2.500000
  0
CIRCLE
  8
0
 10
299.776428
 20
279.071075
 40
2.250000
  0
CIRCLE
  8
0
 10
299.776428
 20
279.071075
 40
5.000000
  0
CIRCLE
  8
0
 10
328.060699
 20
307.355347
 40
7.000000
  0
CIRCLE
  8
0
 10
346.445465
 20
272.000000
 40
17.049999
  0
ARC
  8
0
 10
346.445465
 20
293.500000
 40
5.000003
 50
52.250767
 51
127.749229
  0
ARC
  8
0
 10
346.445465
 20
272.000000
 40
21.999996
 50
127.749207
 51
155.380005
  0
ARC
  8
0
 10
346.445465
 20
272.000000
 40
21.999996
 50
307.749207
 51
335.380005
  0
ARC
  8
0
 10
346.445465
 20
293.500000
 40
5.000003
 50
52.250767
 51
90.000000
  0
ARC
  8
0
 10
346.445465
 20
272.000000
 40
22.000004
 50
204.619995
 51
232.250793
  0
ARC
  8
0
 10
346.445465
 20
272.000000
 40
22.000004
 50
24.620001
 51
52.250797
  0
ARC
  8
0
 10
346.445465
 20
250.500000
 40
5.000003
 50
232.250763
 51
307.749237
  0
ARC
  8
0
 10
333.518982
 20
212.616638
 40
4.100000
 50
255.000015
 51
315.000305
  0
ARC
  8
0
 10
333.588715
 20
212.686340
 40
4.100002
 50
315.000000
 51
14.999986
  0
ARC
  8
0
 10
352.019012
 20
231.116638
 40
4.100000
 50
255.000015
 51
315.000000
  0
ARC
  8
0
 10
352.088715
 20
231.186340
 40
4.100002
 50
315.000000
 51
14.999986
  0
ARC
  8
0
 10
352.088715
 20
312.813660
 40
4.100000
 50
345.000000
 51
45.000000
  0
ARC
  8
0
 10
352.019012
 20
312.883392
 40
4.100002
 50
45.000000
 51
104.999985
  0
ARC
  8
0
 10
333.588745
 20
331.313660
 40
4.099971
 50
344.999908
 51
45.000301
  0
ARC
  8
0
 10
333.519012
 20
331.383392
 40
4.100002
 50
45.000000
 51
104.999985
  0
ARC
  8
0
 10
420.000000
 20
272.000000
 40
35.000000
 50
119.059280
 51
169.047745
  0
CIRCLE
  8
0
 10
328.060699
 20
236.644669
 40
7.000000
  0
CIRCLE
  8
0
 10
328.060699
 20
236.644669
 40
7.500000
  0
CIRCLE
  8
0
 10
346.445465
 20
250.500000
 40
3.800000
  0
CIRCLE
  8
0
 10
390.000000
 20
323.950012
 40
9.000000
  0
CIRCLE
  8
0
 10
346.445465
 20
293.500000
 40
3.800000
  0
ARC
  8
0
 10
390.000000
 20
220.050003
 40
7.799994
 50
213.755447
 51
42.696434
  0
ARC
  8
0
 10
338.696716
 20
190.696747
 40
3.519524
 50
168.051285
 51
281.948700
  0
ARC
  8
0
 10
335.218109
 20
192.167877
 40
0.499990
 50
135.000000
 51
225.001236
  0
ARC
  8
0
 10
334.369568
 20
194.147766
 40
0.500001
 50
134.998764
 51
225.000000
  0
ARC
  8
0
 10
340.167847
 20
187.218124
 40
0.500001
 50
225.001236
 51
314.998749
  0
ARC
  8
0
 10
342.147766
 20
186.369598
 40
0.500011
 50
224.997528
 51
315.000000
  0
ARC
  8
0
 10
338.696747
 20
353.303284
 40
3.519524
 50
78.051292
 51
191.948715
  0
ARC
  8
0
 10
340.167877
 20
356.781891
 40
0.499990
 50
45.000000
 51
135.000000
  0
ARC
  8
0
 10
342.147766
 20
357.630432
 40
0.500011
 50
44.997528
 51
135.000000
  0
ARC
  8
0
 10
335.218140
 20
351.832153
 40
0.500011
 50
135.002472
 51
224.997528
  0
ARC
  8
0
 10
334.369598
 20
349.852234
 40
0.500011
 50
134.997528
 51
225.000000
  0
CIRCLE
  8
0
 10
364.639984
 20
327.360016
 40
3.500000
  0
CIRCLE
  8
0
 10
371.000000
 20
321.000000
 40
3.800000
  0
CIRCLE
  8
0
 10
371.000000
 20
321.000000
 40
3.500000
  0
ARC
  8
0
 10
349.799133
 20
198.687866
 40
1.300012
 50
241.601547
 51
314.999054
  0
ARC
  8
0
 10
353.461243
 20
205.461243
 40
8.999996
 50
208.398285
 51
241.601410
  0
ARC
  8
0
 10
346.687866
 20
201.799103
 40
1.300017
 50
135.000000
 51
208.397537
  0
ARC
  8
0
 10
364.639984
 20
327.360016
 40
3.799994
 50
146.774475
 51
123.225143
  0
ARC
  8
0
 10
390.000000
 20
220.050003
 40
10.750006
 50
216.866089
 51
236.800446
  0
CIRCLE
  8
0
 10
449.999969
 20
220.038452
 40
6.000000
  0
CIRCLE
  8
0
 10
480.000000
 20
271.999939
 40
6.000000
  0
CIRCLE
  8
0
 10
450.000061
 20
323.961487
 40
6.000000
  0
CIRCLE
  8
0
 10
449.999969
 20
220.038452
 40
5.125000
  0
CIRCLE
  8
0
 10
480.000000
 20
271.999939
 40
5.125000
  0
CIRCLE
  8
0
 10
450.000061
 20
323.961487
 40
5.125000
  0
ARC
  8
0
 10
449.999969
 20
220.038452
 40
12.000017
 50
195.000015
 51
45.000053
  0
ARC
  8
0
 10
480.000000
 20
271.999939
 40
12.000017
 50
254.999985
 51
105.000008
  0
ARC
  8
0
 10
450.000061
 20
323.961487
 40
12.000013
 50
315.000000
 51
164.999954
  0
ARC
  8
0
 10
420.000000
 20
358.500000
 40
10.500018
 50
14.999919
 51
165.000031
  0
ARC
  8
0
 10
419.999969
 20
185.500000
 40
10.499992
 50
195.000046
 51
345.000000
  0
ARC
  8
0
 10
494.911194
 20
228.749969
 40
10.500003
 50
255.000061
 51
45.000000
  0
ARC
  8
0
 10
494.911224
 20
315.249939
 40
10.500001
 50
315.000000
 51
104.999916
  0
ARC
  8
0
 10
407.455383
 20
219.500000
 40
5.000000
 50
90.000000
 51
153.008774
  0
ARC
  8
0
 10
432.544556
 20
219.500000
 40
4.999992
 50
15.000055
 51
90.000000
  0
ARC
  8
0
 10
459.194000
 20
234.886017
 40
4.999984
 50
149.999893
 51
225.000000
  0
ARC
  8
0
 10
471.738586
 20
256.613892
 40
4.999992
 50
74.999947
 51
149.999893
  0
ARC
  8
0
 10
471.738647
 20
287.386017
 40
4.999984
 50
210.000107
 51
285.000061
  0
ARC
  8
0
 10
459.194092
 20
309.113861
 40
5.000027
 50
135.000000
 51
209.999924
  0
ARC
  8
0
 10
432.544647
 20
324.500000
 40
5.000000
 50
270.000000
 51
345.000031
  0
ARC
  8
0
 10
407.455505
 20
324.500000
 40
5.000009
 50
206.988251
 51
270.000000
  0
ARC
  8
0
 10
420.000000
 20
272.000000
 40
65.000008
 50
252.890137
 51
289.978760
  0
ARC
  8
0
 10
420.000000
 20
272.000000
 40
65.000008
 50
310.021088
 51
349.978760
  0
ARC
  8
0
 10
420.000000
 20
272.000000
 40
64.999985
 50
10.021097
 51
49.978764
  0
ARC
  8
0
 10
403.794159
 20
357.906342
 40
4.999984
 50
300.000092
 51
344.999939
  0
ARC
  8
0
 10
403.794128
 20
186.093658
 40
4.999992
 50
15.000055
 51
60.000069
  0
ARC
  8
0
 10
436.205841
 20
186.093658
 40
4.999984
 50
120.000107
 51
165.000031
  0
ARC
  8
0
 10
486.294098
 20
215.012131
 40
4.999992
 50
74.999947
 51
120.000015
  0
ARC
  8
0
 10
502.500000
 20
243.081451
 40
5.000000
 50
180.000000
 51
225.000000
  0
ARC
  8
0
 10
502.500000
 20
300.918427
 40
4.999984
 50
135.000000
 51
180.000000
  0
ARC
  8
0
 10
486.294220
 20
328.987823
 40
5.000010
 50
240.000076
 51
284.999969
  0
ARC
  8
0
 10
436.205872
 20
357.906342
 40
5.000022
 50
194.999969
 51
240.000076
  0
ARC
  8
0
 10
420.000000
 20
272.000000
 40
97.999992
 50
234.682388
 51
132.075516
  0
ARC
  8
0
 10
420.000000
 20
272.000000
 40
19.949997
 50
171.678009
 51
188.321991
  0
ARC
  8
0
 10
420.000000
 20
272.000000
 40
19.150017
 50
172.464188
 51
187.535812
  0
ARC
  8
0
 10
420.000000
 20
272.000000
 40
19.149998
 50
262.464264
 51
277.535828
  0
ARC
  8
0
 10
420.000000
 20
272.000000
 40
19.149986
 50
352.464172
 51
7.535718
  0
ARC
  8
0
 10
420.000000
 20
272.000000
 40
19.149986
 50
82.464180
 51
97.535805
  0
ARC
  8
0
 10
420.000000
 20
272.000000
 40
75.999992
 50
238.788803
 51
121.211220
  0
ARC
  8
0
 10
420.000000
 20
272.000000
 40
45.000004
 50
248.979904
 51
112.196129
  0
ARC
  8
0
 10
420.000000
 20
272.000000
 40
35.000000
 50
280.952271
 51
349.047729
  0
ARC
  8
0
 10
420.000000
 20
272.000000
 40
65.000000
 50
70.021080
 51
107.109818
  0
ARC
  8
0
 10
420.000000
 20
272.000000
 40
19.949997
 50
261.678009
 51
278.321991
  0
ARC
  8
0
 10
420.000000
 20
272.000000
 40
19.949997
 50
81.678009
 51
98.321991
  0
ARC
  8
0
 10
420.000000
 20
272.000000
 40
19.949997
 50
351.678009
 51
8.321989
  0
CIRCLE
  8
0
 10
344.056915
 20
196.056915
 40
2.500000
  0
CIRCLE
  8
0
 10
344.056915
 20
196.056915
 40
2.000000
  0
CIRCLE
  8
0
 10
344.056946
 20
347.943115
 40
2.000000
  0
CIRCLE
  8
0
 10
344.056946
 20
347.943115
 40
2.500000
  0
ENDSEC
  0
EOF
