  0
SECTION
  2
HEADER
  0
ENDSEC
  0
SECTION
  2
TABLES
  0
TABLE
  2
LTYPE
 70
     4
  0
LTYPE
  2
CONTINUOUS
 70
    64
  3
Solid line
 72
    65
 73
     0
 40
0.000000
  0
LTYPE
  2
DASHED
 70
    64
  3
__ __ __ __ __ __ __ __ __ __ __ __ __ __ __
 72
    65
 73
     2
 40
3.500000
 49
2.000000
 49
-1.500000
  0
LTYPE
  2
CENTER
 70
    64
  3
____ _ ____ _ ____ _ ____ _ ____ _ ____ _ ____
 72
    65
 73
     4
 40
17.500000
 49
13.000000
 49
-1.500000
 49
1.500000
 49
-1.500000
  0
LTYPE
  2
PHANTOM
 70
    64
  3
_____ _ _ _____ _ _ _____ _ _ _____ _ _ ____  
 72
    65
 73
     6
 40
15.500000
 49
8.000000
 49
-1.500000
 49
1.500000
 49
-1.500000
 49
1.500000
 49
-1.500000
  0
LTYPE
  2
DASHED1
 70
    64
  3
__ __ __ __ __ __ __ __ __ __ __ __ __ __ __
 72
    65
 73
     2
 40
1.500000
 49
1.000000
 49
-0.500000
  0
LTYPE
  2
DASHED2
 70
    64
  3
__ __ __ __ __ __ __ __ __ __ __ __ __ __ __
 72
    65
 73
     2
 40
3.500000
 49
2.500000
 49
-1.000000
  0
LTYPE
  2
DASHED3
 70
    64
  3
__ __ __ __ __ __ __ __ __ __ __ __ __ __ __
 72
    65
 73
     2
 40
6.000000
 49
4.000000
 49
-2.000000
  0
LTYPE
  2
DASHED4
 70
    64
  3
__ __ __ __ __ __ __ __ __ __ __ __ __ __ __
 72
    65
 73
     2
 40
12.000000
 49
10.000000
 49
-2.000000
  0
LTYPE
  2
DASHED5
 70
    64
  3
__ __ __ __ __ __ __ __ __ __ __ __ __ __ __
 72
    65
 73
     2
 40
17.000000
 49
15.000000
 49
-2.000000
  0
LTYPE
  2
DASHED6
 70
    64
  3
__ __ __ __ __ __ __ __ __ __ __ __ __ __ __
 72
    65
 73
     2
 40
29.000000
 49
27.000000
 49
-2.000000
  0
LTYPE
  2
PHANTOM1
 70
    64
  3
_____ _ _ _____ _ _ _____ _ _ _____ _ _ ____  
 72
    65
 73
     6
 40
31.000000
 49
25.000000
 49
-1.500000
 49
1.000000
 49
-1.000000
 49
1.000000
 49
-1.500000
  0
LTYPE
  2
PHANTOM2
 70
    64
  3
_____ _ _ _____ _ _ _____ _ _ _____ _ _ ____  
 72
    65
 73
     6
 40
36.000000
 49
27.000000
 49
-1.500000
 49
2.500000
 49
-1.000000
 49
2.500000
 49
-1.500000
  0
LTYPE
  2
PHANTOM3
 70
    64
  3
_____ _ _ _____ _ _ _____ _ _ _____ _ _ ____  
 72
    65
 73
     6
 40
78.000000
 49
64.000000
 49
-2.000000
 49
4.000000
 49
-2.000000
 49
4.000000
 49
-2.000000
  0
LTYPE
  2
CENTER1
 70
    64
  3
____ _ ____ _ ____ _ ____ _ ____ _ ____ _ ____
 72
    65
 73
     4
 40
19.000000
 49
14.000000
 49
-1.000000
 49
3.000000
 49
-1.000000
  0
LTYPE
  2
CENTER2
 70
    64
  3
____ _ ____ _ ____ _ ____ _ ____ _ ____ _ ____
 72
    65
 73
     4
 40
28.500000
 49
25.000000
 49
-1.000000
 49
1.500000
 49
-1.000000
  0
LTYPE
  2
CENTER3
 70
    64
  3
____ _ ____ _ ____ _ ____ _ ____ _ ____ _ ____
 72
    65
 73
     4
 40
31.500000
 49
27.000000
 49
-1.000000
 49
2.500000
 49
-1.000000
  0
LTYPE
  2
CENTER4
 70
    64
  3
____ _ ____ _ ____ _ ____ _ ____ _ ____ _ ____
 72
    65
 73
     4
 40
50.000000
 49
45.000000
 49
-1.000000
 49
3.000000
 49
-1.000000
  0
LTYPE
  2
CENTER5
 70
    64
  3
____ _ ____ _ ____ _ ____ _ ____ _ ____ _ ____
 72
    65
 73
     4
 40
100.000000
 49
92.000000
 49
-2.000000
 49
4.000000
 49
-2.000000
  0
LTYPE
  2
SBK1
 70
    64
  3
______ _ _ _ ______ _ _ _ ______ _ _ _ _____  
 72
    65
 73
     8
 40
60.500000
 49
45.000000
 49
-2.000000
 49
2.500000
 49
-2.000000
 49
2.500000
 49
-2.000000
 49
2.500000
 49
-2.000000
  0
LTYPE
  2
SBK2
 70
    64
  3
______ _ _ _ ______ _ _ _ ______ _ _ _ _____  
 72
    65
 73
     8
 40
84.000000
 49
64.000000
 49
-2.000000
 49
4.000000
 49
-2.000000
 49
4.000000
 49
-2.000000
 49
4.000000
 49
-2.000000
  0
LTYPE
  2
STCH
 70
    64
  3
__ __ __ __ __ __ __ __ __ __ __ __ __ __ __
 72
    65
 73
     2
 40
3.000000
 49
1.000000
 49
-2.000000
  0
LTYPE
  2
MTCH
 70
    64
  3
_____ _ _ _____ _ _ _____ _ _ _____ _ _ ____  
 72
    65
 73
     6
 40
80.000000
 49
66.000000
 49
-2.000000
 49
4.000000
 49
-2.000000
 49
4.000000
 49
-2.000000
  0
ENDTAB
  0
TABLE
  2
LAYER
 70
     1
  0
LAYER
  2
0
 70
     0
 62
     7
  6
CONTINUOUS
  0
ENDTAB
  0
TABLE
  2
STYLE
 70
     1
  0
STYLE
  2
STANDARD
 70
     0
 40
0.000000
 41
1.000000
 50
0.000000
 71
     0
 42
0.200000
  3
txt
  4
BIGFONT
  0
ENDTAB
  0
TABLE
  2
VIEW
 70
     0
  0
ENDTAB
  0
ENDSEC
  0
SECTION
  2
BLOCKS
  0
ENDSEC
  0
SECTION
  2
ENTITIES
  0
POINT
  8
0
 10
60.436775
 20
77.279236
  0
POINT
  8
0
 10
76.936760
 20
77.279236
  0
POINT
  8
0
 10
168.936783
 20
77.279221
  0
POINT
  8
0
 10
197.936768
 20
77.279221
  0
POINT
  8
0
 10
168.936798
 20
177.279251
  0
POINT
  8
0
 10
197.936783
 20
177.279251
  0
POINT
  8
0
 10
295.436768
 20
77.279236
  0
POINT
  8
0
 10
311.936768
 20
77.279236
  0
LINE
  8
0
 62
     3
 10
0.000000
 20
0.000000
 11
0.000000
 21
254.558472
  0
LINE
  8
0
 62
     3
 10
370.873566
 20
254.558472
 11
370.873566
 21
0.000000
  0
LINE
  8
0
 62
     3
 10
0.000000
 20
0.000000
 11
370.873566
 21
0.000000
  0
LINE
  8
0
 62
     3
 10
0.000000
 20
254.558472
 11
370.873566
 21
254.558472
  0
LINE
  8
0
 62
     3
 10
0.000000
 20
240.257431
 11
76.272194
 21
240.257431
  0
LINE
  8
0
 62
     3
 10
76.272194
 20
240.257431
 11
76.272194
 21
254.558472
  0
LINE
  8
0
 62
     3
 10
294.601379
 20
14.301025
 11
370.873566
 21
14.301025
  0
LINE
  8
0
 62
     3
 10
294.601379
 20
240.257431
 11
370.873566
 21
240.257431
  0
LINE
  8
0
 62
     3
 10
294.601379
 20
254.558472
 11
294.601379
 21
240.257431
  0
LINE
  8
0
 62
     3
 10
294.601379
 20
14.301025
 11
294.601379
 21
0.000000
  0
LINE
  8
0
 10
197.436768
 20
75.279221
 11
197.436768
 21
77.404465
  0
LINE
  8
0
 10
157.436783
 20
75.279221
 11
157.436783
 21
77.404465
  0
LINE
  8
0
 10
189.436768
 20
61.029221
 11
189.436768
 21
93.529221
  0
LINE
  8
0
 10
197.936768
 20
75.779221
 11
197.936768
 21
79.279221
  0
LINE
  8
0
 10
156.936783
 20
75.779221
 11
156.936783
 21
79.279221
  0
LINE
  8
0
 10
179.436768
 20
60.779221
 11
168.936783
 21
60.779221
  0
LINE
  8
0
 10
189.436752
 20
61.029221
 11
179.436768
 21
61.029221
  0
LINE
  8
0
 10
189.436752
 20
93.529221
 11
179.436768
 21
93.529221
  0
LINE
  8
0
 10
179.436768
 20
93.779221
 11
168.936783
 21
93.779221
  0
LINE
  8
0
 10
189.436752
 20
67.529221
 11
179.436768
 21
67.529221
  0
LINE
  8
0
 10
189.436752
 20
87.029221
 11
179.436768
 21
87.029221
  0
LINE
  8
0
 10
179.436768
 20
60.779221
 11
179.436768
 21
93.779221
  0
LINE
  8
0
 10
168.936783
 20
60.779221
 11
168.936783
 21
93.779221
  0
LINE
  8
0
 10
191.436768
 20
67.279221
 11
191.436768
 21
87.279221
  0
LINE
  8
0
 10
191.436752
 20
87.279221
 11
189.436752
 21
87.279221
  0
LINE
  8
0
 10
191.436752
 20
67.279221
 11
189.436752
 21
67.279221
  0
LINE
  8
0
 10
197.436768
 20
75.279221
 11
191.436752
 21
75.279221
  0
LINE
  8
0
 10
197.936768
 20
79.279221
 11
191.436768
 21
79.279221
  0
LINE
  8
0
 10
168.936768
 20
75.279221
 11
157.436783
 21
75.279221
  0
LINE
  8
0
 10
168.936768
 20
79.279221
 11
156.936783
 21
79.279221
  0
LINE
  8
0
 10
197.936752
 20
75.779236
 11
197.436752
 21
75.279236
  0
LINE
  8
0
 10
165.936737
 20
77.404465
 11
165.936737
 21
79.279221
  0
LINE
  8
0
 10
156.936783
 20
77.404465
 11
165.936737
 21
77.404465
  0
LINE
  8
0
 10
165.936768
 20
77.404556
 11
156.936813
 21
79.279305
  0
LINE
  8
0
 10
165.936707
 20
79.279266
 11
156.936752
 21
77.404518
  0
LINE
  8
0
 10
192.936813
 20
77.404465
 11
192.936813
 21
79.279221
  0
LINE
  8
0
 10
197.936768
 20
77.404465
 11
192.936813
 21
77.404465
  0
LINE
  8
0
 10
192.936737
 20
77.404625
 11
197.936691
 21
79.279373
  0
LINE
  8
0
 10
192.936783
 20
79.279259
 11
197.936783
 21
77.404518
  0
LINE
  8
0
 10
156.936813
 20
75.779251
 11
157.436813
 21
75.279251
  0
LINE
  8
0
  6
CENTER
 10
171.436783
 20
89.279221
 11
171.436783
 21
83.279221
  0
LINE
  8
0
  6
CENTER
 10
168.436783
 20
86.279221
 11
174.436783
 21
86.279221
  0
LINE
  8
0
  6
CENTER
 10
200.936752
 20
77.279221
 11
153.936768
 21
77.279221
  0
LINE
  8
0
  6
CENTER
 10
171.436783
 20
71.279221
 11
171.436783
 21
65.279221
  0
LINE
  8
0
  6
CENTER
 10
168.436783
 20
68.279221
 11
174.436783
 21
68.279221
  0
LINE
  8
0
 10
156.936829
 20
178.779221
 11
157.436813
 21
179.279221
  0
LINE
  8
0
 10
189.436783
 20
161.029251
 11
189.436783
 21
193.529251
  0
LINE
  8
0
 10
197.936783
 20
175.279251
 11
197.936783
 21
178.779236
  0
LINE
  8
0
 10
156.936798
 20
175.279251
 11
156.936798
 21
178.779251
  0
LINE
  8
0
 10
179.436783
 20
160.779251
 11
168.936798
 21
160.779251
  0
LINE
  8
0
 10
189.436768
 20
161.029251
 11
179.436783
 21
161.029251
  0
LINE
  8
0
 10
189.436768
 20
193.529251
 11
179.436783
 21
193.529251
  0
LINE
  8
0
 10
179.436783
 20
193.779251
 11
168.936798
 21
193.779251
  0
LINE
  8
0
 10
189.436768
 20
167.529251
 11
179.436783
 21
167.529251
  0
LINE
  8
0
 10
189.436768
 20
187.029251
 11
179.436783
 21
187.029251
  0
LINE
  8
0
 10
179.436783
 20
160.779251
 11
179.436783
 21
193.779251
  0
LINE
  8
0
 10
168.936798
 20
160.779251
 11
168.936798
 21
193.779251
  0
LINE
  8
0
 10
191.436783
 20
167.279251
 11
191.436783
 21
187.279251
  0
LINE
  8
0
 10
191.436768
 20
187.279251
 11
189.436768
 21
187.279251
  0
LINE
  8
0
 10
191.436768
 20
167.279251
 11
189.436768
 21
167.279251
  0
LINE
  8
0
 10
197.936783
 20
175.279251
 11
191.436768
 21
175.279251
  0
LINE
  8
0
 10
197.436783
 20
179.279251
 11
191.436783
 21
179.279251
  0
LINE
  8
0
 10
197.436783
 20
177.153992
 11
197.436783
 21
179.279251
  0
LINE
  8
0
 10
168.936783
 20
175.279251
 11
156.936798
 21
175.279251
  0
LINE
  8
0
 10
168.936783
 20
179.279251
 11
157.436798
 21
179.279251
  0
LINE
  8
0
 10
157.436798
 20
177.153992
 11
157.436798
 21
179.279251
  0
LINE
  8
0
 10
156.936798
 20
177.153992
 11
165.936752
 21
177.153992
  0
LINE
  8
0
 10
165.936752
 20
177.153992
 11
165.936752
 21
175.279251
  0
LINE
  8
0
 10
165.936722
 20
175.279129
 11
156.936768
 21
177.153870
  0
LINE
  8
0
 10
165.936768
 20
177.153839
 11
156.936829
 21
175.279099
  0
LINE
  8
0
 10
192.936829
 20
177.153992
 11
192.936829
 21
175.279251
  0
LINE
  8
0
 10
197.936783
 20
177.153992
 11
192.936829
 21
177.153992
  0
LINE
  8
0
 10
197.436600
 20
179.279053
 11
197.936600
 21
178.779053
  0
LINE
  8
0
 10
192.936752
 20
177.153763
 11
197.936722
 21
175.279022
  0
LINE
  8
0
 10
192.936813
 20
175.279160
 11
197.936829
 21
177.153915
  0
LINE
  8
0
  6
CENTER
 10
171.436798
 20
189.279251
 11
171.436798
 21
183.279251
  0
LINE
  8
0
  6
CENTER
 10
168.436798
 20
186.279251
 11
174.436798
 21
186.279251
  0
LINE
  8
0
  6
CENTER
 10
200.936768
 20
177.279251
 11
153.936783
 21
177.279251
  0
LINE
  8
0
  6
CENTER
 10
171.436798
 20
171.279251
 11
171.436798
 21
165.279251
  0
LINE
  8
0
  6
CENTER
 10
168.436798
 20
168.279251
 11
174.436798
 21
168.279251
  0
LINE
  8
0
  6
CENTER
 10
187.936798
 20
171.779251
 11
180.436798
 21
171.779251
  0
LINE
  8
0
  6
CENTER
 10
183.936798
 20
168.279266
 11
183.936798
 21
175.279266
  0
LINE
  8
0
  6
CENTER
 10
187.936798
 20
182.779251
 11
180.436798
 21
182.779251
  0
LINE
  8
0
  6
CENTER
 10
183.936798
 20
186.279266
 11
183.936798
 21
179.279266
  0
LINE
  8
0
 10
76.936760
 20
91.779213
 11
76.936760
 21
62.779213
  0
LINE
  8
0
 10
43.936783
 20
91.779213
 11
43.936783
 21
62.779213
  0
LINE
  8
0
 10
74.936806
 20
93.779243
 11
45.936813
 21
93.779243
  0
LINE
  8
0
 10
74.936806
 20
60.779243
 11
45.936813
 21
60.779243
  0
LINE
  8
0
 10
62.432777
 20
77.404358
 11
60.561947
 21
79.275185
  0
LINE
  8
0
 62
     3
 10
59.859459
 20
62.679237
 11
61.014153
 21
62.679237
  0
LINE
  8
0
 62
     3
 10
59.859459
 20
64.679237
 11
61.014153
 21
64.679237
  0
LINE
  8
0
 62
     3
 10
59.859020
 20
62.678967
 11
59.281666
 21
63.678974
  0
LINE
  8
0
 62
     3
 10
61.591034
 20
63.678955
 11
61.013687
 21
64.678947
  0
LINE
  8
0
 62
     3
 10
59.282059
 20
63.679234
 11
59.859406
 21
64.679230
  0
LINE
  8
0
 62
     3
 10
61.014122
 20
62.679253
 11
61.591469
 21
63.679249
  0
LINE
  8
0
 62
     3
 10
75.036484
 20
77.856079
 11
74.036476
 21
78.433434
  0
LINE
  8
0
 62
     3
 10
74.036453
 20
76.123962
 11
73.036461
 21
76.701309
  0
LINE
  8
0
 62
     3
 10
75.036751
 20
76.701866
 11
75.036751
 21
77.856560
  0
LINE
  8
0
 62
     3
 10
73.036751
 20
76.701866
 11
73.036751
 21
77.856560
  0
LINE
  8
0
 62
     3
 10
75.036835
 20
76.701874
 11
74.036827
 21
76.124519
  0
LINE
  8
0
 62
     3
 10
74.036781
 20
78.433952
 11
73.036789
 21
77.856606
  0
LINE
  8
0
 62
     3
 10
59.859356
 20
91.879303
 11
59.282009
 21
90.879311
  0
LINE
  8
0
 62
     3
 10
61.591404
 20
90.879295
 11
61.014057
 21
89.879303
  0
LINE
  8
0
 62
     3
 10
61.014153
 20
91.879250
 11
59.859459
 21
91.879250
  0
LINE
  8
0
 62
     3
 10
61.014153
 20
89.879250
 11
59.859459
 21
89.879250
  0
LINE
  8
0
 62
     3
 10
61.014118
 20
91.879234
 11
61.591473
 21
90.879227
  0
LINE
  8
0
 62
     3
 10
59.282066
 20
90.879189
 11
59.859413
 21
89.879196
  0
LINE
  8
0
 62
     3
 10
45.836731
 20
76.701752
 11
46.836727
 21
76.124405
  0
LINE
  8
0
 62
     3
 10
46.836708
 20
78.433807
 11
47.836700
 21
77.856461
  0
LINE
  8
0
 62
     3
 10
45.836777
 20
77.856560
 11
45.836777
 21
76.701866
  0
LINE
  8
0
 62
     3
 10
47.836777
 20
77.856560
 11
47.836777
 21
76.701866
  0
LINE
  8
0
 62
     3
 10
45.836887
 20
77.856422
 11
46.836910
 21
78.433784
  0
LINE
  8
0
 62
     3
 10
46.836876
 20
76.124298
 11
47.836868
 21
76.701645
  0
LINE
  8
0
  6
CENTER
 10
63.936806
 20
63.679237
 11
56.936813
 21
63.679237
  0
LINE
  8
0
  6
CENTER
 10
79.936806
 20
77.279236
 11
40.936813
 21
77.279236
  0
LINE
  8
0
  6
CENTER
 10
60.436775
 20
96.779213
 11
60.436775
 21
57.779213
  0
LINE
  8
0
  6
CENTER
 10
56.936813
 20
90.879250
 11
63.936806
 21
90.879250
  0
LINE
  8
0
  6
CENTER
 10
46.836777
 20
73.779213
 11
46.836777
 21
80.779213
  0
LINE
  8
0
  6
CENTER
 10
74.036751
 20
80.779213
 11
74.036751
 21
73.779213
  0
LINE
  8
0
 10
311.936768
 20
62.779236
 11
311.936768
 21
91.779236
  0
LINE
  8
0
 10
278.936768
 20
62.779236
 11
278.936768
 21
91.779236
  0
LINE
  8
0
 10
280.936768
 20
60.779236
 11
309.936768
 21
60.779236
  0
LINE
  8
0
 10
280.936768
 20
93.779236
 11
309.936768
 21
93.779236
  0
LINE
  8
0
 10
311.686768
 20
68.529236
 11
311.686768
 21
86.029236
  0
LINE
  8
0
 10
279.186768
 20
68.529236
 11
279.186768
 21
86.029236
  0
LINE
  8
0
 10
286.686768
 20
61.029236
 11
304.186768
 21
61.029236
  0
LINE
  8
0
 10
286.686768
 20
93.529236
 11
304.186768
 21
93.529236
  0
LINE
  8
0
 10
280.186768
 20
67.529236
 11
282.436768
 21
67.529236
  0
LINE
  8
0
 10
280.186768
 20
87.029236
 11
282.436768
 21
87.029236
  0
LINE
  8
0
 10
308.436768
 20
67.529236
 11
310.686768
 21
67.529236
  0
LINE
  8
0
 10
308.436768
 20
87.029236
 11
310.686768
 21
87.029236
  0
LINE
  8
0
 10
305.186768
 20
62.029236
 11
305.186768
 21
64.279236
  0
LINE
  8
0
 10
285.686768
 20
62.029236
 11
285.686768
 21
64.279236
  0
LINE
  8
0
 10
285.686768
 20
90.279236
 11
285.686768
 21
92.529236
  0
LINE
  8
0
 10
305.186768
 20
90.279236
 11
305.186768
 21
92.529236
  0
LINE
  8
0
 10
295.311707
 20
79.275162
 11
293.440857
 21
77.404327
  0
LINE
  8
0
  6
CENTER
 10
285.936768
 20
88.279221
 11
290.936768
 21
88.279221
  0
LINE
  8
0
  6
CENTER
 10
288.436798
 20
90.779236
 11
288.436798
 21
85.779236
  0
LINE
  8
0
  6
CENTER
 10
275.936768
 20
77.279236
 11
314.936768
 21
77.279236
  0
LINE
  8
0
  6
CENTER
 10
295.436768
 20
57.779236
 11
295.436768
 21
96.779236
  0
LINE
  8
0
  6
CENTER
 10
302.436798
 20
63.779240
 11
302.436798
 21
68.779236
  0
LINE
  8
0
  6
CENTER
 10
304.936768
 20
66.279236
 11
299.936768
 21
66.279236
  0
ARC
  8
0
 10
193.565414
 20
78.341843
 40
1.128635
 50
123.845612
 51
236.154388
  0
ARC
  8
0
 10
165.308136
 20
78.341843
 40
1.128635
 50
303.845612
 51
56.154388
  0
CIRCLE
  8
0
 10
171.436783
 20
68.279221
 40
1.750000
  0
CIRCLE
  8
0
 10
171.436783
 20
86.279221
 40
1.750000
  0
CIRCLE
  8
0
 10
183.936798
 20
171.779266
 40
2.500000
  0
CIRCLE
  8
0
 10
171.436798
 20
168.279251
 40
1.750000
  0
CIRCLE
  8
0
 10
171.436798
 20
186.279251
 40
1.750000
  0
ARC
  8
0
 10
193.565430
 20
176.216629
 40
1.128635
 50
123.845612
 51
236.154388
  0
ARC
  8
0
 10
165.308151
 20
176.216629
 40
1.128635
 50
303.845612
 51
56.154388
  0
CIRCLE
  8
0
 10
183.936798
 20
182.779266
 40
2.500000
  0
CIRCLE
  8
0
 10
183.936798
 20
182.779266
 40
2.099999
  0
CIRCLE
  8
0
 10
183.936798
 20
171.779266
 40
2.099999
  0
CIRCLE
  8
0
 10
60.436806
 20
77.279213
 40
1.500000
  0
CIRCLE
  8
0
 62
     3
 10
60.436806
 20
63.679207
 40
1.903589
  0
CIRCLE
  8
0
 10
46.836807
 20
77.279213
 40
2.400000
  0
CIRCLE
  8
0
 62
     3
 10
46.836807
 20
77.279213
 40
1.903589
  0
CIRCLE
  8
0
 10
60.436806
 20
90.879219
 40
2.400000
  0
CIRCLE
  8
0
 62
     3
 10
60.436806
 20
90.879219
 40
1.903589
  0
CIRCLE
  8
0
 62
     3
 10
74.036812
 20
77.279213
 40
1.903589
  0
CIRCLE
  8
0
 10
60.436806
 20
63.679207
 40
2.400000
  0
CIRCLE
  8
0
 10
60.436806
 20
77.279213
 40
2.000000
  0
ARC
  8
0
 10
74.936806
 20
62.779213
 40
2.000000
 50
270.000000
 51
0.000000
  0
ARC
  8
0
 10
45.936813
 20
62.779213
 40
2.000000
 50
180.000000
 51
270.000000
  0
ARC
  8
0
 10
74.936806
 20
91.779213
 40
2.000000
 50
0.000000
 51
90.000000
  0
ARC
  8
0
 10
45.936813
 20
91.779213
 40
2.000000
 50
90.000000
 51
180.000000
  0
CIRCLE
  8
0
 10
74.036812
 20
77.279213
 40
2.400000
  0
ARC
  8
0
 10
282.436768
 20
90.279236
 40
3.250000
 50
270.000000
 51
0.000000
  0
ARC
  8
0
 10
282.436768
 20
64.279236
 40
3.250000
 50
0.000000
 51
90.000000
  0
CIRCLE
  8
0
 10
295.436768
 20
77.279236
 40
1.500000
  0
CIRCLE
  8
0
 10
295.436768
 20
77.279236
 40
2.000000
  0
CIRCLE
  8
0
 10
295.436768
 20
77.279236
 40
10.000000
  0
CIRCLE
  8
0
 10
302.436768
 20
66.279236
 40
1.250000
  0
CIRCLE
  8
0
 10
302.436768
 20
66.279236
 40
1.500000
  0
ARC
  8
0
 10
286.686768
 20
92.529236
 40
1.000000
 50
90.000000
 51
180.000000
  0
ARC
  8
0
 10
308.436768
 20
90.279236
 40
3.250000
 50
180.000000
 51
270.000000
  0
ARC
  8
0
 10
308.436768
 20
64.279236
 40
3.250000
 50
90.000000
 51
180.000000
  0
ARC
  8
0
 10
280.936768
 20
62.779236
 40
2.000000
 50
180.000000
 51
270.000000
  0
ARC
  8
0
 10
309.936768
 20
62.779236
 40
2.000000
 50
270.000000
 51
0.000000
  0
ARC
  8
0
 10
309.936768
 20
91.779236
 40
2.000000
 50
0.000000
 51
90.000000
  0
ARC
  8
0
 10
280.936768
 20
91.779236
 40
2.000000
 50
90.000000
 51
180.000000
  0
ARC
  8
0
 10
310.686768
 20
68.529236
 40
1.000000
 50
270.000000
 51
0.000000
  0
ARC
  8
0
 10
310.686768
 20
86.029236
 40
1.000000
 50
0.000000
 51
90.000000
  0
ARC
  8
0
 10
280.186768
 20
86.029236
 40
1.000000
 50
90.000000
 51
180.000000
  0
ARC
  8
0
 10
280.186768
 20
68.529236
 40
1.000000
 50
180.000000
 51
270.000000
  0
ARC
  8
0
 10
286.686768
 20
62.029236
 40
1.000000
 50
180.000000
 51
270.000000
  0
ARC
  8
0
 10
304.186768
 20
62.029236
 40
1.000000
 50
270.000000
 51
0.000000
  0
ARC
  8
0
 10
304.186768
 20
92.529236
 40
1.000000
 50
0.000000
 51
90.000000
  0
CIRCLE
  8
0
 10
288.436768
 20
88.279236
 40
1.500000
  0
CIRCLE
  8
0
 10
288.436768
 20
88.279236
 40
1.250000
  0
TEXT
  8
0
 10
298.797760
 20
244.589584
 40
4.242641
  1
DATE : FEB ,1992
 50
0.000000
 41
1.052631
 51
0.000000
  7
STANDARD
  0
TEXT
  8
0
 10
2.113382
 20
243.907959
 40
5.000000
  1
ROTARY ACUTUATOR
 50
0.000000
 41
0.937799
 51
0.000000
  7
STANDARD
  0
TEXT
  8
0
 10
37.035717
 20
196.757431
 40
5.000000
  1
MODEL : RAN1-*-2
 50
0.000000
 41
1.052632
 51
0.000000
  7
STANDARD
  0
TEXT
  8
0
 10
302.273193
 20
3.650512
 40
5.000000
  1
KOGANEI,CORP
 50
0.000000
 41
1.052632
 51
0.000000
  7
STANDARD
  0
LINE
  8
0
 10
185.186813
 20
184.944321
 11
198.947891
 21
208.779221
  0
LINE
  8
0
 10
198.947891
 20
208.779221
 11
214.308823
 21
208.779221
  0
LINE
  8
0
 10
185.186813
 20
184.944321
 11
187.308136
 21
187.065643
  0
LINE
  8
0
 10
185.186813
 20
184.944321
 11
185.963272
 21
187.842102
  0
TEXT
  8
0
 10
199.558823
 20
209.779221
 40
3.500000
  1
2-M5
 50
0.000000
 41
1.052632
 51
0.000000
  7
STANDARD
  0
ENDSEC
  0
EOF
