  0
SECTION
  2
HEADER
  0
ENDSEC
  0
SECTION
  2
TABLES
  0
TABLE
  2
LTYPE
 70
     4
  0
LTYPE
  2
CONTINUOUS
 70
    64
  3
Solid line
 72
    65
 73
     0
 40
0.000000
  0
LTYPE
  2
DASHED
 70
    64
  3
__ __ __ __ __ __ __ __ __ __ __ __ __ __ __
 72
    65
 73
     2
 40
3.500000
 49
2.000000
 49
-1.500000
  0
LTYPE
  2
CENTER
 70
    64
  3
____ _ ____ _ ____ _ ____ _ ____ _ ____ _ ____
 72
    65
 73
     4
 40
17.500000
 49
13.000000
 49
-1.500000
 49
1.500000
 49
-1.500000
  0
LTYPE
  2
PHANTOM
 70
    64
  3
_____ _ _ _____ _ _ _____ _ _ _____ _ _ ____  
 72
    65
 73
     6
 40
15.500000
 49
8.000000
 49
-1.500000
 49
1.500000
 49
-1.500000
 49
1.500000
 49
-1.500000
  0
LTYPE
  2
DASHED1
 70
    64
  3
__ __ __ __ __ __ __ __ __ __ __ __ __ __ __
 72
    65
 73
     2
 40
1.500000
 49
1.000000
 49
-0.500000
  0
LTYPE
  2
DASHED2
 70
    64
  3
__ __ __ __ __ __ __ __ __ __ __ __ __ __ __
 72
    65
 73
     2
 40
3.500000
 49
2.500000
 49
-1.000000
  0
LTYPE
  2
DASHED3
 70
    64
  3
__ __ __ __ __ __ __ __ __ __ __ __ __ __ __
 72
    65
 73
     2
 40
6.000000
 49
4.000000
 49
-2.000000
  0
LTYPE
  2
DASHED4
 70
    64
  3
__ __ __ __ __ __ __ __ __ __ __ __ __ __ __
 72
    65
 73
     2
 40
12.000000
 49
10.000000
 49
-2.000000
  0
LTYPE
  2
DASHED5
 70
    64
  3
__ __ __ __ __ __ __ __ __ __ __ __ __ __ __
 72
    65
 73
     2
 40
17.000000
 49
15.000000
 49
-2.000000
  0
LTYPE
  2
DASHED6
 70
    64
  3
__ __ __ __ __ __ __ __ __ __ __ __ __ __ __
 72
    65
 73
     2
 40
29.000000
 49
27.000000
 49
-2.000000
  0
LTYPE
  2
PHANTOM1
 70
    64
  3
_____ _ _ _____ _ _ _____ _ _ _____ _ _ ____  
 72
    65
 73
     6
 40
31.000000
 49
25.000000
 49
-1.500000
 49
1.000000
 49
-1.000000
 49
1.000000
 49
-1.500000
  0
LTYPE
  2
PHANTOM2
 70
    64
  3
_____ _ _ _____ _ _ _____ _ _ _____ _ _ ____  
 72
    65
 73
     6
 40
36.000000
 49
27.000000
 49
-1.500000
 49
2.500000
 49
-1.000000
 49
2.500000
 49
-1.500000
  0
LTYPE
  2
PHANTOM3
 70
    64
  3
_____ _ _ _____ _ _ _____ _ _ _____ _ _ ____  
 72
    65
 73
     6
 40
78.000000
 49
64.000000
 49
-2.000000
 49
4.000000
 49
-2.000000
 49
4.000000
 49
-2.000000
  0
LTYPE
  2
CENTER1
 70
    64
  3
____ _ ____ _ ____ _ ____ _ ____ _ ____ _ ____
 72
    65
 73
     4
 40
19.000000
 49
14.000000
 49
-1.000000
 49
3.000000
 49
-1.000000
  0
LTYPE
  2
CENTER2
 70
    64
  3
____ _ ____ _ ____ _ ____ _ ____ _ ____ _ ____
 72
    65
 73
     4
 40
28.500000
 49
25.000000
 49
-1.000000
 49
1.500000
 49
-1.000000
  0
LTYPE
  2
CENTER3
 70
    64
  3
____ _ ____ _ ____ _ ____ _ ____ _ ____ _ ____
 72
    65
 73
     4
 40
31.500000
 49
27.000000
 49
-1.000000
 49
2.500000
 49
-1.000000
  0
LTYPE
  2
CENTER4
 70
    64
  3
____ _ ____ _ ____ _ ____ _ ____ _ ____ _ ____
 72
    65
 73
     4
 40
50.000000
 49
45.000000
 49
-1.000000
 49
3.000000
 49
-1.000000
  0
LTYPE
  2
CENTER5
 70
    64
  3
____ _ ____ _ ____ _ ____ _ ____ _ ____ _ ____
 72
    65
 73
     4
 40
100.000000
 49
92.000000
 49
-2.000000
 49
4.000000
 49
-2.000000
  0
LTYPE
  2
SBK1
 70
    64
  3
______ _ _ _ ______ _ _ _ ______ _ _ _ _____  
 72
    65
 73
     8
 40
60.500000
 49
45.000000
 49
-2.000000
 49
2.500000
 49
-2.000000
 49
2.500000
 49
-2.000000
 49
2.500000
 49
-2.000000
  0
LTYPE
  2
SBK2
 70
    64
  3
______ _ _ _ ______ _ _ _ ______ _ _ _ _____  
 72
    65
 73
     8
 40
84.000000
 49
64.000000
 49
-2.000000
 49
4.000000
 49
-2.000000
 49
4.000000
 49
-2.000000
 49
4.000000
 49
-2.000000
  0
LTYPE
  2
STCH
 70
    64
  3
__ __ __ __ __ __ __ __ __ __ __ __ __ __ __
 72
    65
 73
     2
 40
3.000000
 49
1.000000
 49
-2.000000
  0
LTYPE
  2
MTCH
 70
    64
  3
_____ _ _ _____ _ _ _____ _ _ _____ _ _ ____  
 72
    65
 73
     6
 40
80.000000
 49
66.000000
 49
-2.000000
 49
4.000000
 49
-2.000000
 49
4.000000
 49
-2.000000
  0
ENDTAB
  0
TABLE
  2
LAYER
 70
     1
  0
LAYER
  2
0
 70
     0
 62
     7
  6
CONTINUOUS
  0
ENDTAB
  0
TABLE
  2
STYLE
 70
     1
  0
STYLE
  2
STANDARD
 70
     0
 40
0.000000
 41
1.000000
 50
0.000000
 71
     0
 42
0.200000
  3
txt
  4
BIGFONT
  0
ENDTAB
  0
TABLE
  2
VIEW
 70
     0
  0
ENDTAB
  0
ENDSEC
  0
SECTION
  2
BLOCKS
  0
ENDSEC
  0
SECTION
  2
ENTITIES
  0
POINT
  8
0
 10
58.936798
 20
72.279228
  0
POINT
  8
0
 10
172.436783
 20
72.279228
  0
POINT
  8
0
 10
172.436783
 20
177.279236
  0
POINT
  8
0
 10
298.936737
 20
72.279236
  0
POINT
  8
0
 10
201.436768
 20
72.279228
  0
POINT
  8
0
 10
201.436768
 20
177.279236
  0
POINT
  8
0
 10
75.436798
 20
72.279228
  0
POINT
  8
0
 10
315.436768
 20
72.279236
  0
POINT
  8
0
 10
40.000000
 20
200.257431
  0
LINE
  8
0
 62
     3
 10
0.000000
 20
0.000000
 11
0.000000
 21
254.558472
  0
LINE
  8
0
 62
     3
 10
370.873566
 20
254.558472
 11
370.873566
 21
0.000000
  0
LINE
  8
0
 62
     3
 10
0.000000
 20
0.000000
 11
370.873566
 21
0.000000
  0
LINE
  8
0
 62
     3
 10
0.000000
 20
254.558472
 11
370.873566
 21
254.558472
  0
LINE
  8
0
 62
     3
 10
0.000000
 20
240.257431
 11
76.272194
 21
240.257431
  0
LINE
  8
0
 62
     3
 10
76.272194
 20
240.257431
 11
76.272194
 21
254.558472
  0
LINE
  8
0
 62
     3
 10
294.601379
 20
14.301025
 11
370.873566
 21
14.301025
  0
LINE
  8
0
 62
     3
 10
294.601379
 20
240.257431
 11
370.873566
 21
240.257431
  0
LINE
  8
0
 62
     3
 10
294.601379
 20
254.558472
 11
294.601379
 21
240.257431
  0
LINE
  8
0
 62
     3
 10
294.601379
 20
14.301025
 11
294.601379
 21
0.000000
  0
LINE
  8
0
 10
160.436783
 20
70.779259
 11
160.936783
 21
70.279259
  0
LINE
  8
0
 10
192.936768
 20
88.529228
 11
192.936768
 21
56.029228
  0
LINE
  8
0
 10
201.436768
 20
74.279228
 11
201.436768
 21
70.779243
  0
LINE
  8
0
 10
160.436783
 20
74.279228
 11
160.436783
 21
70.779228
  0
LINE
  8
0
 10
182.936768
 20
88.779228
 11
175.436768
 21
88.779228
  0
LINE
  8
0
 10
192.936768
 20
88.529228
 11
182.936768
 21
88.529228
  0
LINE
  8
0
 10
192.936768
 20
56.029228
 11
182.936768
 21
56.029228
  0
LINE
  8
0
 10
182.936768
 20
55.779228
 11
175.436768
 21
55.779228
  0
LINE
  8
0
 10
175.436783
 20
88.779228
 11
175.436783
 21
55.779228
  0
LINE
  8
0
 10
192.936768
 20
82.029228
 11
182.936768
 21
82.029228
  0
LINE
  8
0
 10
192.936768
 20
62.529228
 11
182.936768
 21
62.529228
  0
LINE
  8
0
 10
182.936783
 20
88.779228
 11
182.936783
 21
55.779228
  0
LINE
  8
0
 10
172.436783
 20
78.279228
 11
172.436783
 21
66.279228
  0
LINE
  8
0
 10
175.436768
 20
78.279228
 11
172.436768
 21
78.279228
  0
LINE
  8
0
 10
175.436768
 20
66.279228
 11
172.436768
 21
66.279228
  0
LINE
  8
0
 10
194.936768
 20
82.279228
 11
194.936768
 21
62.279228
  0
LINE
  8
0
 10
194.936768
 20
62.279228
 11
192.936768
 21
62.279228
  0
LINE
  8
0
 10
194.936768
 20
82.279228
 11
192.936768
 21
82.279228
  0
LINE
  8
0
 10
201.436768
 20
74.279228
 11
194.936768
 21
74.279228
  0
LINE
  8
0
 10
200.936768
 20
70.279228
 11
194.936768
 21
70.279228
  0
LINE
  8
0
 10
200.936768
 20
72.404488
 11
200.936768
 21
70.279228
  0
LINE
  8
0
 10
172.436768
 20
74.279228
 11
160.436783
 21
74.279228
  0
LINE
  8
0
 10
172.436768
 20
70.279228
 11
160.936783
 21
70.279228
  0
LINE
  8
0
 10
160.936783
 20
72.404488
 11
160.936783
 21
70.279228
  0
LINE
  8
0
 10
160.436783
 20
72.404488
 11
169.436737
 21
72.404488
  0
LINE
  8
0
 10
169.436737
 20
72.404488
 11
169.436737
 21
74.279228
  0
LINE
  8
0
 10
169.436707
 20
74.279297
 11
160.436752
 21
72.404549
  0
LINE
  8
0
 10
169.436752
 20
72.404564
 11
160.436798
 21
74.279312
  0
LINE
  8
0
 10
196.436813
 20
72.404488
 11
196.436813
 21
74.279228
  0
LINE
  8
0
 10
201.436768
 20
72.404488
 11
196.436813
 21
72.404488
  0
LINE
  8
0
 10
200.936676
 20
70.279327
 11
201.436691
 21
70.779320
  0
LINE
  8
0
 10
196.436798
 20
72.404572
 11
201.436752
 21
74.279320
  0
LINE
  8
0
 10
196.436798
 20
74.279243
 11
201.436813
 21
72.404495
  0
LINE
  8
0
  6
CENTER
 10
204.436768
 20
72.279228
 11
157.436768
 21
72.279228
  0
LINE
  8
0
 10
160.436783
 20
178.779221
 11
160.936783
 21
179.279205
  0
LINE
  8
0
 10
196.436752
 20
175.279190
 11
201.436798
 21
177.153946
  0
LINE
  8
0
 10
192.936768
 20
161.029236
 11
192.936768
 21
193.529236
  0
LINE
  8
0
 10
201.436768
 20
175.279236
 11
201.436768
 21
178.779221
  0
LINE
  8
0
 10
160.436783
 20
175.279236
 11
160.436783
 21
178.779236
  0
LINE
  8
0
 10
182.936768
 20
160.779236
 11
175.436768
 21
160.779236
  0
LINE
  8
0
 10
192.936768
 20
161.029236
 11
182.936768
 21
161.029236
  0
LINE
  8
0
 10
192.936768
 20
193.529236
 11
182.936768
 21
193.529236
  0
LINE
  8
0
 10
182.936768
 20
193.779236
 11
175.436768
 21
193.779236
  0
LINE
  8
0
 10
175.436783
 20
160.779236
 11
175.436783
 21
193.779236
  0
LINE
  8
0
 10
192.936768
 20
167.529236
 11
182.936768
 21
167.529236
  0
LINE
  8
0
 10
192.936768
 20
187.029236
 11
182.936768
 21
187.029236
  0
LINE
  8
0
 10
182.936783
 20
160.779236
 11
182.936783
 21
193.779236
  0
LINE
  8
0
 10
172.436783
 20
171.279236
 11
172.436783
 21
183.279236
  0
LINE
  8
0
 10
175.436768
 20
171.279236
 11
172.436768
 21
171.279236
  0
LINE
  8
0
 10
175.436768
 20
183.279236
 11
172.436768
 21
183.279236
  0
LINE
  8
0
 10
194.936768
 20
167.279236
 11
194.936768
 21
187.279236
  0
LINE
  8
0
 10
194.936768
 20
187.279236
 11
192.936768
 21
187.279236
  0
LINE
  8
0
 10
194.936768
 20
167.279236
 11
192.936768
 21
167.279236
  0
LINE
  8
0
 10
201.436768
 20
175.279236
 11
194.936768
 21
175.279236
  0
LINE
  8
0
 10
200.936768
 20
179.279236
 11
194.936768
 21
179.279236
  0
LINE
  8
0
 10
200.936768
 20
177.153976
 11
200.936768
 21
179.279236
  0
LINE
  8
0
 10
172.436768
 20
175.279236
 11
160.436783
 21
175.279236
  0
LINE
  8
0
 10
172.436768
 20
179.279236
 11
160.936783
 21
179.279236
  0
LINE
  8
0
 10
160.936783
 20
177.153976
 11
160.936783
 21
179.279236
  0
LINE
  8
0
 10
196.436768
 20
177.153839
 11
201.436722
 21
175.279099
  0
LINE
  8
0
 10
160.436783
 20
177.153976
 11
169.436737
 21
177.153976
  0
LINE
  8
0
 10
169.436737
 20
177.153976
 11
169.436737
 21
175.279236
  0
LINE
  8
0
 10
169.436722
 20
175.279144
 11
160.436768
 21
177.153900
  0
LINE
  8
0
 10
169.436752
 20
177.153885
 11
160.436798
 21
175.279144
  0
LINE
  8
0
 10
196.436813
 20
177.153976
 11
196.436813
 21
175.279236
  0
LINE
  8
0
 10
201.436768
 20
177.153976
 11
196.436813
 21
177.153976
  0
LINE
  8
0
 10
200.936646
 20
179.279099
 11
201.436646
 21
178.779099
  0
LINE
  8
0
  6
CENTER
 10
204.436768
 20
177.279236
 11
157.436768
 21
177.279236
  0
LINE
  8
0
  6
CENTER
 10
187.436783
 20
168.279236
 11
187.436783
 21
175.279236
  0
LINE
  8
0
  6
CENTER
 10
190.936768
 20
171.779236
 11
183.936768
 21
171.779236
  0
LINE
  8
0
  6
CENTER
 10
187.436783
 20
186.279236
 11
187.436783
 21
179.279236
  0
LINE
  8
0
  6
CENTER
 10
190.936768
 20
182.779236
 11
183.936768
 21
182.779236
  0
LINE
  8
0
  6
CENTER
 10
71.936798
 20
88.279213
 11
71.936798
 21
82.279213
  0
LINE
  8
0
 10
75.436798
 20
86.779213
 11
75.436798
 21
57.779213
  0
LINE
  8
0
 10
42.436798
 20
86.779213
 11
42.436798
 21
57.779213
  0
LINE
  8
0
 10
73.436798
 20
88.779228
 11
44.436798
 21
88.779228
  0
LINE
  8
0
 10
73.436798
 20
55.779228
 11
44.436798
 21
55.779228
  0
LINE
  8
0
 10
60.932808
 20
72.404396
 11
59.061977
 21
74.275223
  0
LINE
  8
0
 62
     3
 10
58.359451
 20
57.679222
 11
59.514145
 21
57.679222
  0
LINE
  8
0
 62
     3
 10
58.359451
 20
59.679222
 11
59.514145
 21
59.679222
  0
LINE
  8
0
 62
     3
 10
58.359058
 20
57.679012
 11
57.781704
 21
58.679016
  0
LINE
  8
0
 62
     3
 10
60.091122
 20
58.679001
 11
59.513775
 21
59.678993
  0
LINE
  8
0
 62
     3
 10
57.782089
 20
58.679214
 11
58.359436
 21
59.679207
  0
LINE
  8
0
 62
     3
 10
59.514156
 20
57.679222
 11
60.091503
 21
58.679214
  0
LINE
  8
0
 62
     3
 10
73.536644
 20
72.856285
 11
72.536644
 21
73.433632
  0
LINE
  8
0
 62
     3
 10
72.536644
 20
71.124146
 11
71.536652
 21
71.701492
  0
LINE
  8
0
 62
     3
 10
73.536789
 20
71.701866
 11
73.536789
 21
72.856560
  0
LINE
  8
0
 62
     3
 10
71.536789
 20
71.701866
 11
71.536789
 21
72.856560
  0
LINE
  8
0
 62
     3
 10
73.536819
 20
71.701889
 11
72.536812
 21
71.124535
  0
LINE
  8
0
 62
     3
 10
72.536774
 20
73.433937
 11
71.536781
 21
72.856590
  0
LINE
  8
0
 62
     3
 10
58.359467
 20
86.879234
 11
57.782120
 21
85.879242
  0
LINE
  8
0
 62
     3
 10
60.091488
 20
85.879219
 11
59.514141
 21
84.879227
  0
LINE
  8
0
 62
     3
 10
59.514145
 20
86.879234
 11
58.359451
 21
86.879234
  0
LINE
  8
0
 62
     3
 10
59.514145
 20
84.879234
 11
58.359451
 21
84.879234
  0
LINE
  8
0
 62
     3
 10
59.514027
 20
86.879150
 11
60.091381
 21
85.879143
  0
LINE
  8
0
 62
     3
 10
57.782021
 20
85.879158
 11
58.359367
 21
84.879158
  0
LINE
  8
0
 62
     3
 10
44.336796
 20
71.701813
 11
45.336777
 21
71.124474
  0
LINE
  8
0
 62
     3
 10
45.336784
 20
73.433907
 11
46.336765
 21
72.856567
  0
LINE
  8
0
 62
     3
 10
44.336792
 20
72.856560
 11
44.336792
 21
71.701866
  0
LINE
  8
0
 62
     3
 10
46.336792
 20
72.856560
 11
46.336792
 21
71.701866
  0
LINE
  8
0
 62
     3
 10
44.336845
 20
72.856491
 11
45.336868
 21
73.433853
  0
LINE
  8
0
 62
     3
 10
45.336864
 20
71.124382
 11
46.336857
 21
71.701729
  0
LINE
  8
0
  6
CENTER
 10
45.936798
 20
88.279213
 11
45.936798
 21
82.279213
  0
LINE
  8
0
  6
CENTER
 10
42.936798
 20
85.279228
 11
48.936798
 21
85.279228
  0
LINE
  8
0
  6
CENTER
 10
45.336792
 20
68.779213
 11
45.336792
 21
75.779213
  0
LINE
  8
0
  6
CENTER
 10
78.436798
 20
72.279228
 11
39.436798
 21
72.279228
  0
LINE
  8
0
  6
CENTER
 10
45.936783
 20
56.279213
 11
45.936783
 21
62.279213
  0
LINE
  8
0
  6
CENTER
 10
42.936798
 20
59.279228
 11
48.936798
 21
59.279228
  0
LINE
  8
0
  6
CENTER
 10
62.436798
 20
58.679222
 11
55.436798
 21
58.679222
  0
LINE
  8
0
  6
CENTER
 10
58.936798
 20
91.779213
 11
58.936798
 21
52.779213
  0
LINE
  8
0
  6
CENTER
 10
72.536789
 20
75.779213
 11
72.536789
 21
68.779213
  0
LINE
  8
0
  6
CENTER
 10
71.936798
 20
56.279213
 11
71.936798
 21
62.279213
  0
LINE
  8
0
  6
CENTER
 10
74.936798
 20
59.279228
 11
68.936798
 21
59.279228
  0
LINE
  8
0
  6
CENTER
 10
55.436798
 20
85.879234
 11
62.436798
 21
85.879234
  0
LINE
  8
0
  6
CENTER
 10
74.936798
 20
85.279228
 11
68.936798
 21
85.279228
  0
LINE
  8
0
 10
315.436768
 20
57.779251
 11
315.436768
 21
86.779251
  0
LINE
  8
0
 10
282.436737
 20
57.779251
 11
282.436737
 21
86.779251
  0
LINE
  8
0
 10
284.436768
 20
55.779236
 11
313.436768
 21
55.779236
  0
LINE
  8
0
 10
284.436768
 20
88.779236
 11
313.436768
 21
88.779236
  0
LINE
  8
0
 10
315.186768
 20
63.529255
 11
315.186768
 21
81.029251
  0
LINE
  8
0
 10
282.686737
 20
63.529255
 11
282.686737
 21
81.029251
  0
LINE
  8
0
 10
290.186768
 20
56.029236
 11
307.686768
 21
56.029236
  0
LINE
  8
0
 10
290.186768
 20
88.529236
 11
307.686768
 21
88.529236
  0
LINE
  8
0
 10
283.686768
 20
62.529236
 11
285.936768
 21
62.529236
  0
LINE
  8
0
 10
283.686768
 20
82.029236
 11
285.936768
 21
82.029236
  0
LINE
  8
0
 10
311.936768
 20
62.529236
 11
314.186768
 21
62.529236
  0
LINE
  8
0
 10
311.936768
 20
82.029236
 11
314.186768
 21
82.029236
  0
LINE
  8
0
 10
308.686737
 20
57.029251
 11
308.686737
 21
59.279251
  0
LINE
  8
0
 10
289.186737
 20
57.029251
 11
289.186737
 21
59.279251
  0
LINE
  8
0
 10
289.186737
 20
85.279251
 11
289.186737
 21
87.529251
  0
LINE
  8
0
 10
308.686737
 20
85.279251
 11
308.686737
 21
87.529251
  0
LINE
  8
0
 10
298.811646
 20
74.275238
 11
296.940826
 21
72.404411
  0
LINE
  8
0
  6
CENTER
 10
314.936768
 20
85.279251
 11
308.936768
 21
85.279251
  0
LINE
  8
0
  6
CENTER
 10
279.436768
 20
72.279236
 11
318.436768
 21
72.279236
  0
LINE
  8
0
  6
CENTER
 10
298.936737
 20
52.779251
 11
298.936737
 21
91.779251
  0
LINE
  8
0
  6
CENTER
 10
311.936737
 20
88.279251
 11
311.936737
 21
82.279251
  0
LINE
  8
0
  6
CENTER
 10
289.436768
 20
83.279221
 11
294.436768
 21
83.279221
  0
LINE
  8
0
  6
CENTER
 10
291.936768
 20
85.779251
 11
291.936768
 21
80.779251
  0
LINE
  8
0
  6
CENTER
 10
285.936737
 20
88.279251
 11
285.936737
 21
82.279251
  0
LINE
  8
0
  6
CENTER
 10
282.936768
 20
85.279236
 11
288.936768
 21
85.279236
  0
LINE
  8
0
  6
CENTER
 10
285.936737
 20
56.279251
 11
285.936737
 21
62.279251
  0
LINE
  8
0
  6
CENTER
 10
282.936768
 20
59.279236
 11
288.936768
 21
59.279236
  0
LINE
  8
0
  6
CENTER
 10
305.936768
 20
58.779251
 11
305.936768
 21
63.779255
  0
LINE
  8
0
  6
CENTER
 10
308.436768
 20
61.279236
 11
303.436768
 21
61.279236
  0
LINE
  8
0
  6
CENTER
 10
311.936737
 20
56.279251
 11
311.936737
 21
62.279251
  0
LINE
  8
0
  6
CENTER
 10
314.936768
 20
59.279251
 11
308.936768
 21
59.279251
  0
ARC
  8
0
 10
168.808136
 20
73.341850
 40
1.128635
 50
303.845612
 51
56.154388
  0
ARC
  8
0
 10
197.065414
 20
73.341850
 40
1.128635
 50
123.845612
 51
236.154388
  0
ARC
  8
0
 10
197.065414
 20
176.216614
 40
1.128635
 50
123.845612
 51
236.154388
  0
ARC
  8
0
 10
168.808136
 20
176.216614
 40
1.128635
 50
303.845612
 51
56.154388
  0
CIRCLE
  8
0
 10
187.436768
 20
171.779236
 40
2.099999
  0
CIRCLE
  8
0
 10
187.436768
 20
171.779236
 40
2.500000
  0
CIRCLE
  8
0
 10
187.436768
 20
182.779236
 40
2.500000
  0
CIRCLE
  8
0
 10
187.436768
 20
182.779236
 40
2.099999
  0
CIRCLE
  8
0
 10
71.936798
 20
59.279213
 40
2.000000
  0
CIRCLE
  8
0
 10
71.936798
 20
59.279213
 40
1.650000
  0
CIRCLE
  8
0
 10
45.336807
 20
72.279213
 40
2.400000
  0
CIRCLE
  8
0
 62
     3
 10
45.336807
 20
72.279213
 40
1.903589
  0
CIRCLE
  8
0
 10
58.936798
 20
85.879219
 40
2.400000
  0
CIRCLE
  8
0
 62
     3
 10
58.936798
 20
85.879219
 40
1.903589
  0
CIRCLE
  8
0
 10
72.536804
 20
72.279213
 40
2.400000
  0
CIRCLE
  8
0
 62
     3
 10
72.536804
 20
72.279213
 40
1.903589
  0
CIRCLE
  8
0
 10
58.936798
 20
58.679207
 40
2.400000
  0
CIRCLE
  8
0
 62
     3
 10
58.936798
 20
58.679207
 40
1.903589
  0
CIRCLE
  8
0
 10
45.936798
 20
59.279213
 40
1.650000
  0
CIRCLE
  8
0
 10
45.936798
 20
59.279213
 40
2.000000
  0
CIRCLE
  8
0
 10
45.936798
 20
85.279213
 40
1.650000
  0
CIRCLE
  8
0
 10
45.936798
 20
85.279213
 40
2.000000
  0
CIRCLE
  8
0
 10
71.936798
 20
85.279213
 40
1.650000
  0
CIRCLE
  8
0
 10
71.936798
 20
85.279213
 40
2.000000
  0
CIRCLE
  8
0
 10
58.936798
 20
72.279213
 40
1.500000
  0
CIRCLE
  8
0
 10
58.936798
 20
72.279213
 40
2.000000
  0
CIRCLE
  8
0
 10
58.936798
 20
72.279213
 40
6.000000
  0
ARC
  8
0
 10
73.436798
 20
86.779213
 40
2.000000
 50
0.000000
 51
90.000000
  0
ARC
  8
0
 10
44.436798
 20
86.779213
 40
2.000000
 50
90.000000
 51
180.000000
  0
ARC
  8
0
 10
44.436798
 20
57.779213
 40
2.000000
 50
180.000000
 51
270.000000
  0
ARC
  8
0
 10
73.436798
 20
57.779213
 40
2.000000
 50
270.000000
 51
0.000000
  0
ARC
  8
0
 10
283.686768
 20
63.529255
 40
1.000000
 50
180.000000
 51
270.000000
  0
ARC
  8
0
 10
290.186768
 20
57.029251
 40
1.000000
 50
180.000000
 51
270.000000
  0
CIRCLE
  8
0
 10
298.936768
 20
72.279251
 40
1.500000
  0
CIRCLE
  8
0
 10
298.936768
 20
72.279251
 40
2.000000
  0
CIRCLE
  8
0
 10
298.936768
 20
72.279251
 40
10.000000
  0
CIRCLE
  8
0
 10
305.936768
 20
61.279251
 40
1.250000
  0
CIRCLE
  8
0
 10
305.936768
 20
61.279251
 40
1.500000
  0
CIRCLE
  8
0
 10
291.936768
 20
83.279251
 40
1.250000
  0
CIRCLE
  8
0
 10
291.936768
 20
83.279251
 40
1.500000
  0
ARC
  8
0
 10
285.936768
 20
85.279251
 40
3.250000
 50
270.000000
 51
0.000000
  0
ARC
  8
0
 10
311.936768
 20
85.279251
 40
3.250000
 50
180.000000
 51
270.000000
  0
ARC
  8
0
 10
311.936768
 20
59.279251
 40
3.250000
 50
90.000000
 51
180.000000
  0
ARC
  8
0
 10
285.936768
 20
59.279251
 40
3.250000
 50
0.000000
 51
90.000000
  0
ARC
  8
0
 10
290.186768
 20
87.529251
 40
1.000000
 50
90.000000
 51
180.000000
  0
ARC
  8
0
 10
307.686768
 20
87.529251
 40
1.000000
 50
0.000000
 51
90.000000
  0
ARC
  8
0
 10
307.686768
 20
57.029251
 40
1.000000
 50
270.000000
 51
0.000000
  0
ARC
  8
0
 10
283.686768
 20
81.029251
 40
1.000000
 50
90.000000
 51
180.000000
  0
ARC
  8
0
 10
314.186768
 20
81.029251
 40
1.000000
 50
0.000000
 51
90.000000
  0
ARC
  8
0
 10
284.436768
 20
57.779251
 40
2.000000
 50
180.000000
 51
270.000000
  0
ARC
  8
0
 10
313.436768
 20
57.779251
 40
2.000000
 50
270.000000
 51
0.000000
  0
ARC
  8
0
 10
313.436768
 20
86.779251
 40
2.000000
 50
0.000000
 51
90.000000
  0
ARC
  8
0
 10
284.436768
 20
86.779251
 40
2.000000
 50
90.000000
 51
180.000000
  0
CIRCLE
  8
0
 10
285.936768
 20
85.279251
 40
1.700000
  0
CIRCLE
  8
0
 10
285.936768
 20
59.279251
 40
1.700000
  0
CIRCLE
  8
0
 10
311.936768
 20
59.279251
 40
1.700000
  0
ARC
  8
0
 10
314.186768
 20
63.529255
 40
1.000000
 50
270.000000
 51
0.000000
  0
CIRCLE
  8
0
 10
311.936768
 20
85.279251
 40
1.700000
  0
TEXT
  8
0
 10
298.797760
 20
244.589584
 40
4.242641
  1
DATE : FEB ,1992
 50
0.000000
 41
1.052631
 51
0.000000
  7
STANDARD
  0
TEXT
  8
0
 10
2.113382
 20
243.907959
 40
5.000000
  1
ROTARY ACUTUATOR
 50
0.000000
 41
0.937799
 51
0.000000
  7
STANDARD
  0
TEXT
  8
0
 10
37.035717
 20
196.757431
 40
5.000000
  1
MODEL : RAN1-*-4
 50
0.000000
 41
1.052632
 51
0.000000
  7
STANDARD
  0
TEXT
  8
0
 10
302.273193
 20
3.650512
 40
5.000000
  1
KOGANEI,CORP
 50
0.000000
 41
1.052632
 51
0.000000
  7
STANDARD
  0
LINE
  8
0
 10
188.686783
 20
184.944275
 11
202.447891
 21
208.779221
  0
LINE
  8
0
 10
202.447891
 20
208.779221
 11
217.931000
 21
208.779221
  0
LINE
  8
0
 10
188.686783
 20
184.944275
 11
190.808105
 21
187.065598
  0
LINE
  8
0
 10
188.686783
 20
184.944275
 11
189.463242
 21
187.842056
  0
TEXT
  8
0
 10
203.181000
 20
209.779221
 40
3.500000
  1
2-M5
 50
0.000000
 41
1.052632
 51
0.000000
  7
STANDARD
  0
ENDSEC
  0
EOF
