  0
SECTION
  2
HEADER
  0
ENDSEC
  0
SECTION
  2
TABLES
  0
TABLE
  2
LTYPE
 70
     4
  0
LTYPE
  2
CONTINUOUS
 70
    64
  3
Solid line
 72
    65
 73
     0
 40
0.000000
  0
LTYPE
  2
DASHED
 70
    64
  3
__ __ __ __ __ __ __ __ __ __ __ __ __ __ __
 72
    65
 73
     2
 40
3.500000
 49
2.000000
 49
-1.500000
  0
LTYPE
  2
CENTER
 70
    64
  3
____ _ ____ _ ____ _ ____ _ ____ _ ____ _ ____
 72
    65
 73
     4
 40
17.500000
 49
13.000000
 49
-1.500000
 49
1.500000
 49
-1.500000
  0
LTYPE
  2
PHANTOM
 70
    64
  3
_____ _ _ _____ _ _ _____ _ _ _____ _ _ ____  
 72
    65
 73
     6
 40
15.500000
 49
8.000000
 49
-1.500000
 49
1.500000
 49
-1.500000
 49
1.500000
 49
-1.500000
  0
LTYPE
  2
DASHED1
 70
    64
  3
__ __ __ __ __ __ __ __ __ __ __ __ __ __ __
 72
    65
 73
     2
 40
1.500000
 49
1.000000
 49
-0.500000
  0
LTYPE
  2
DASHED2
 70
    64
  3
__ __ __ __ __ __ __ __ __ __ __ __ __ __ __
 72
    65
 73
     2
 40
3.500000
 49
2.500000
 49
-1.000000
  0
LTYPE
  2
DASHED3
 70
    64
  3
__ __ __ __ __ __ __ __ __ __ __ __ __ __ __
 72
    65
 73
     2
 40
6.000000
 49
4.000000
 49
-2.000000
  0
LTYPE
  2
DASHED4
 70
    64
  3
__ __ __ __ __ __ __ __ __ __ __ __ __ __ __
 72
    65
 73
     2
 40
12.000000
 49
10.000000
 49
-2.000000
  0
LTYPE
  2
DASHED5
 70
    64
  3
__ __ __ __ __ __ __ __ __ __ __ __ __ __ __
 72
    65
 73
     2
 40
17.000000
 49
15.000000
 49
-2.000000
  0
LTYPE
  2
DASHED6
 70
    64
  3
__ __ __ __ __ __ __ __ __ __ __ __ __ __ __
 72
    65
 73
     2
 40
29.000000
 49
27.000000
 49
-2.000000
  0
LTYPE
  2
PHANTOM1
 70
    64
  3
_____ _ _ _____ _ _ _____ _ _ _____ _ _ ____  
 72
    65
 73
     6
 40
31.000000
 49
25.000000
 49
-1.500000
 49
1.000000
 49
-1.000000
 49
1.000000
 49
-1.500000
  0
LTYPE
  2
PHANTOM2
 70
    64
  3
_____ _ _ _____ _ _ _____ _ _ _____ _ _ ____  
 72
    65
 73
     6
 40
36.000000
 49
27.000000
 49
-1.500000
 49
2.500000
 49
-1.000000
 49
2.500000
 49
-1.500000
  0
LTYPE
  2
PHANTOM3
 70
    64
  3
_____ _ _ _____ _ _ _____ _ _ _____ _ _ ____  
 72
    65
 73
     6
 40
78.000000
 49
64.000000
 49
-2.000000
 49
4.000000
 49
-2.000000
 49
4.000000
 49
-2.000000
  0
LTYPE
  2
CENTER1
 70
    64
  3
____ _ ____ _ ____ _ ____ _ ____ _ ____ _ ____
 72
    65
 73
     4
 40
19.000000
 49
14.000000
 49
-1.000000
 49
3.000000
 49
-1.000000
  0
LTYPE
  2
CENTER2
 70
    64
  3
____ _ ____ _ ____ _ ____ _ ____ _ ____ _ ____
 72
    65
 73
     4
 40
28.500000
 49
25.000000
 49
-1.000000
 49
1.500000
 49
-1.000000
  0
LTYPE
  2
CENTER3
 70
    64
  3
____ _ ____ _ ____ _ ____ _ ____ _ ____ _ ____
 72
    65
 73
     4
 40
31.500000
 49
27.000000
 49
-1.000000
 49
2.500000
 49
-1.000000
  0
LTYPE
  2
CENTER4
 70
    64
  3
____ _ ____ _ ____ _ ____ _ ____ _ ____ _ ____
 72
    65
 73
     4
 40
50.000000
 49
45.000000
 49
-1.000000
 49
3.000000
 49
-1.000000
  0
LTYPE
  2
CENTER5
 70
    64
  3
____ _ ____ _ ____ _ ____ _ ____ _ ____ _ ____
 72
    65
 73
     4
 40
100.000000
 49
92.000000
 49
-2.000000
 49
4.000000
 49
-2.000000
  0
LTYPE
  2
SBK1
 70
    64
  3
______ _ _ _ ______ _ _ _ ______ _ _ _ _____  
 72
    65
 73
     8
 40
60.500000
 49
45.000000
 49
-2.000000
 49
2.500000
 49
-2.000000
 49
2.500000
 49
-2.000000
 49
2.500000
 49
-2.000000
  0
LTYPE
  2
SBK2
 70
    64
  3
______ _ _ _ ______ _ _ _ ______ _ _ _ _____  
 72
    65
 73
     8
 40
84.000000
 49
64.000000
 49
-2.000000
 49
4.000000
 49
-2.000000
 49
4.000000
 49
-2.000000
 49
4.000000
 49
-2.000000
  0
LTYPE
  2
STCH
 70
    64
  3
__ __ __ __ __ __ __ __ __ __ __ __ __ __ __
 72
    65
 73
     2
 40
3.000000
 49
1.000000
 49
-2.000000
  0
LTYPE
  2
MTCH
 70
    64
  3
_____ _ _ _____ _ _ _____ _ _ _____ _ _ ____  
 72
    65
 73
     6
 40
80.000000
 49
66.000000
 49
-2.000000
 49
4.000000
 49
-2.000000
 49
4.000000
 49
-2.000000
  0
ENDTAB
  0
TABLE
  2
LAYER
 70
     1
  0
LAYER
  2
0
 70
     0
 62
     7
  6
CONTINUOUS
  0
ENDTAB
  0
TABLE
  2
STYLE
 70
     1
  0
STYLE
  2
STANDARD
 70
     0
 40
0.000000
 41
1.000000
 50
0.000000
 71
     0
 42
0.200000
  3
txt
  4
BIGFONT
  0
ENDTAB
  0
TABLE
  2
VIEW
 70
     0
  0
ENDTAB
  0
ENDSEC
  0
SECTION
  2
BLOCKS
  0
ENDSEC
  0
SECTION
  2
ENTITIES
  0
POINT
  8
0
 10
55.436768
 20
72.279236
  0
POINT
  8
0
 10
159.436768
 20
72.279228
  0
POINT
  8
0
 10
159.436783
 20
182.279236
  0
POINT
  8
0
 10
295.436768
 20
72.279236
  0
POINT
  8
0
 10
203.436768
 20
72.279228
  0
POINT
  8
0
 10
203.436783
 20
182.279236
  0
POINT
  8
0
 10
77.936768
 20
72.279236
  0
POINT
  8
0
 10
317.936768
 20
72.279236
  0
LINE
  8
0
 62
     3
 10
0.000000
 20
0.000000
 11
0.000000
 21
254.558472
  0
LINE
  8
0
 62
     3
 10
370.873566
 20
254.558472
 11
370.873566
 21
0.000000
  0
LINE
  8
0
 62
     3
 10
0.000000
 20
0.000000
 11
370.873566
 21
0.000000
  0
LINE
  8
0
 62
     3
 10
0.000000
 20
254.558472
 11
370.873566
 21
254.558472
  0
LINE
  8
0
 62
     3
 10
0.000000
 20
240.257431
 11
76.272194
 21
240.257431
  0
LINE
  8
0
 62
     3
 10
76.272194
 20
240.257431
 11
76.272194
 21
254.558472
  0
LINE
  8
0
 62
     3
 10
294.601379
 20
14.301025
 11
370.873566
 21
14.301025
  0
LINE
  8
0
 62
     3
 10
294.601379
 20
240.257431
 11
370.873566
 21
240.257431
  0
LINE
  8
0
 62
     3
 10
294.601379
 20
254.558472
 11
294.601379
 21
240.257431
  0
LINE
  8
0
 62
     3
 10
294.601379
 20
14.301025
 11
294.601379
 21
0.000000
  0
LINE
  8
0
 10
203.436783
 20
72.874374
 11
198.436752
 21
75.279221
  0
LINE
  8
0
 10
198.436752
 20
72.874367
 11
203.436783
 21
75.279205
  0
LINE
  8
0
 10
194.436768
 20
94.779228
 11
194.436768
 21
49.779228
  0
LINE
  8
0
 10
203.436768
 20
75.279228
 11
203.436768
 21
69.779228
  0
LINE
  8
0
 10
164.436768
 20
94.779228
 11
164.436768
 21
49.779228
  0
LINE
  8
0
 10
142.436768
 20
75.279228
 11
142.436768
 21
69.779228
  0
LINE
  8
0
 10
194.436752
 20
94.779228
 11
164.436752
 21
94.779228
  0
LINE
  8
0
 10
194.436752
 20
49.779228
 11
164.436768
 21
49.779228
  0
LINE
  8
0
 10
196.436752
 20
82.279228
 11
194.436752
 21
82.279228
  0
LINE
  8
0
 10
196.436752
 20
62.279228
 11
194.436752
 21
62.279228
  0
LINE
  8
0
 10
203.436768
 20
75.279228
 11
196.436752
 21
75.279228
  0
LINE
  8
0
 10
202.936768
 20
69.279228
 11
196.436752
 21
69.279228
  0
LINE
  8
0
 10
159.436752
 20
75.279228
 11
142.436768
 21
75.279228
  0
LINE
  8
0
 10
159.436752
 20
69.279228
 11
142.936783
 21
69.279228
  0
LINE
  8
0
 10
196.436768
 20
82.279228
 11
196.436768
 21
62.279228
  0
LINE
  8
0
 10
159.436768
 20
80.279228
 11
159.436768
 21
64.279228
  0
LINE
  8
0
 10
164.436752
 20
64.279228
 11
159.436752
 21
64.279228
  0
LINE
  8
0
 10
164.436752
 20
80.279228
 11
159.436752
 21
80.279228
  0
LINE
  8
0
 10
175.436768
 20
94.779228
 11
175.436768
 21
49.779228
  0
LINE
  8
0
 10
194.436752
 20
58.279228
 11
175.436752
 21
58.279228
  0
LINE
  8
0
 10
202.936768
 20
72.874397
 11
202.936768
 21
69.279228
  0
LINE
  8
0
 10
142.936768
 20
72.874397
 11
142.936768
 21
69.279228
  0
LINE
  8
0
 10
194.436752
 20
86.279228
 11
175.436752
 21
86.279228
  0
LINE
  8
0
 10
142.436768
 20
72.874397
 11
153.436752
 21
72.874397
  0
LINE
  8
0
 10
153.436752
 20
72.874397
 11
153.436752
 21
75.279228
  0
LINE
  8
0
 10
142.436783
 20
72.874382
 11
153.436768
 21
75.279221
  0
LINE
  8
0
 10
153.436737
 20
72.874359
 11
142.436752
 21
75.279198
  0
LINE
  8
0
 10
142.436783
 20
69.779251
 11
142.936783
 21
69.279251
  0
LINE
  8
0
 10
203.436768
 20
72.874397
 11
198.436737
 21
72.874397
  0
LINE
  8
0
 10
198.436737
 20
72.874397
 11
198.436737
 21
75.279228
  0
LINE
  8
0
 10
202.936752
 20
69.279243
 11
203.436752
 21
69.779243
  0
LINE
  8
0
  6
CENTER
 10
206.436752
 20
72.279228
 11
139.436768
 21
72.279228
  0
LINE
  8
0
 10
203.436798
 20
181.684097
 11
198.436752
 21
179.279251
  0
LINE
  8
0
 10
198.436752
 20
181.684128
 11
203.436783
 21
179.279282
  0
LINE
  8
0
 10
194.436783
 20
159.779236
 11
194.436783
 21
204.779236
  0
LINE
  8
0
 10
203.436783
 20
179.279236
 11
203.436783
 21
184.779236
  0
LINE
  8
0
 10
164.436783
 20
159.779236
 11
164.436783
 21
204.779236
  0
LINE
  8
0
 10
142.436783
 20
179.279236
 11
142.436783
 21
184.779236
  0
LINE
  8
0
 10
194.436768
 20
159.779236
 11
164.436768
 21
159.779236
  0
LINE
  8
0
 10
194.436768
 20
204.779236
 11
164.436768
 21
204.779236
  0
LINE
  8
0
 10
196.436768
 20
172.279236
 11
194.436768
 21
172.279236
  0
LINE
  8
0
 10
196.436768
 20
192.279236
 11
194.436768
 21
192.279236
  0
LINE
  8
0
 10
203.436783
 20
179.279236
 11
196.436768
 21
179.279236
  0
LINE
  8
0
 10
202.936783
 20
185.279236
 11
196.436768
 21
185.279236
  0
LINE
  8
0
 10
159.436768
 20
179.279236
 11
142.436783
 21
179.279236
  0
LINE
  8
0
 10
159.436768
 20
185.279236
 11
142.936798
 21
185.279236
  0
LINE
  8
0
 10
196.436783
 20
172.279236
 11
196.436783
 21
192.279236
  0
LINE
  8
0
 10
159.436783
 20
174.279236
 11
159.436783
 21
190.279236
  0
LINE
  8
0
 10
164.436768
 20
190.279236
 11
159.436768
 21
190.279236
  0
LINE
  8
0
 10
164.436768
 20
174.279236
 11
159.436768
 21
174.279236
  0
LINE
  8
0
 10
175.436783
 20
159.779236
 11
175.436783
 21
204.779236
  0
LINE
  8
0
 10
194.436768
 20
196.279236
 11
175.436768
 21
196.279236
  0
LINE
  8
0
 10
202.936783
 20
181.684067
 11
202.936783
 21
185.279236
  0
LINE
  8
0
 10
142.936783
 20
181.684067
 11
142.936783
 21
185.279236
  0
LINE
  8
0
 10
194.436768
 20
168.279236
 11
175.436768
 21
168.279236
  0
LINE
  8
0
 10
202.936768
 20
185.279221
 11
203.436768
 21
184.779221
  0
LINE
  8
0
 10
142.436783
 20
181.684067
 11
153.436768
 21
181.684067
  0
LINE
  8
0
 10
153.436768
 20
181.684067
 11
153.436768
 21
179.279236
  0
LINE
  8
0
 10
142.436798
 20
181.684067
 11
153.436783
 21
179.279221
  0
LINE
  8
0
 10
153.436752
 20
181.684052
 11
142.436768
 21
179.279205
  0
LINE
  8
0
 10
142.436798
 20
184.779205
 11
142.936798
 21
185.279205
  0
LINE
  8
0
 10
203.436783
 20
181.684067
 11
198.436752
 21
181.684067
  0
LINE
  8
0
 10
198.436752
 20
181.684067
 11
198.436752
 21
179.279236
  0
LINE
  8
0
  6
CENTER
 10
206.436768
 20
182.279236
 11
139.436783
 21
182.279236
  0
LINE
  8
0
  6
CENTER
 10
188.936768
 20
188.779221
 11
180.936768
 21
188.779221
  0
LINE
  8
0
  6
CENTER
 10
184.936783
 20
192.779236
 11
184.936783
 21
184.779236
  0
LINE
  8
0
  6
CENTER
 10
184.936783
 20
171.779236
 11
184.936783
 21
179.779236
  0
LINE
  8
0
  6
CENTER
 10
188.936768
 20
175.779236
 11
180.936768
 21
175.779236
  0
LINE
  8
0
 10
35.436752
 20
49.779236
 11
75.436760
 21
49.779236
  0
LINE
  8
0
 10
77.936768
 20
52.279236
 11
77.936768
 21
92.279236
  0
LINE
  8
0
 10
32.936783
 20
52.279236
 11
32.936783
 21
92.279236
  0
LINE
  8
0
 10
58.377079
 20
72.874382
 11
56.031872
 21
75.219582
  0
LINE
  8
0
 62
     3
 10
37.686783
 20
84.600922
 11
37.686783
 21
83.157547
  0
LINE
  8
0
 62
     3
 10
40.186783
 20
84.600922
 11
40.186783
 21
83.157547
  0
LINE
  8
0
 62
     3
 10
37.686718
 20
84.601028
 11
38.936729
 21
85.322723
  0
LINE
  8
0
 62
     3
 10
38.936718
 20
82.435936
 11
40.186729
 21
83.157631
  0
LINE
  8
0
 62
     3
 10
38.936848
 20
85.322731
 11
40.186848
 21
84.601044
  0
LINE
  8
0
 62
     3
 10
37.686859
 20
83.157700
 11
38.936859
 21
82.436012
  0
LINE
  8
0
 62
     3
 10
43.115067
 20
54.529236
 11
44.558456
 21
54.529236
  0
LINE
  8
0
 62
     3
 10
43.115067
 20
57.029236
 11
44.558456
 21
57.029236
  0
LINE
  8
0
 62
     3
 10
43.115005
 20
54.529190
 11
42.393311
 21
55.779202
  0
LINE
  8
0
 62
     3
 10
45.280025
 20
55.779175
 11
44.558331
 21
57.029186
  0
LINE
  8
0
 62
     3
 10
42.393375
 20
55.779224
 11
43.115063
 21
57.029224
  0
LINE
  8
0
 62
     3
 10
44.558464
 20
54.529263
 11
45.280144
 21
55.779247
  0
LINE
  8
0
 62
     3
 10
73.186783
 20
59.957550
 11
73.186783
 21
61.400925
  0
LINE
  8
0
 62
     3
 10
70.686783
 20
59.957550
 11
70.686783
 21
61.400925
  0
LINE
  8
0
 62
     3
 10
73.186775
 20
59.957539
 11
71.936760
 21
59.235844
  0
LINE
  8
0
 62
     3
 10
71.936813
 20
62.122631
 11
70.686798
 21
61.400936
  0
LINE
  8
0
 62
     3
 10
71.936760
 20
59.235859
 11
70.686760
 21
59.957546
  0
LINE
  8
0
 62
     3
 10
73.186768
 20
61.400909
 11
71.936768
 21
62.122597
  0
LINE
  8
0
 62
     3
 10
67.758446
 20
90.029236
 11
66.315071
 21
90.029236
  0
LINE
  8
0
 62
     3
 10
67.758446
 20
87.529236
 11
66.315071
 21
87.529236
  0
LINE
  8
0
 62
     3
 10
67.758240
 20
90.029160
 11
68.479935
 21
88.779144
  0
LINE
  8
0
 62
     3
 10
65.593155
 20
88.779160
 11
66.314850
 21
87.529152
  0
LINE
  8
0
 62
     3
 10
68.480179
 20
88.779198
 11
67.758492
 21
87.529205
  0
LINE
  8
0
 62
     3
 10
66.315109
 20
90.029198
 11
65.593422
 21
88.779198
  0
LINE
  8
0
  6
CENTER
 10
55.436768
 20
46.779236
 11
55.436768
 21
97.779236
  0
LINE
  8
0
 10
35.436752
 20
94.779236
 11
75.436760
 21
94.779236
  0
LINE
  8
0
  6
CENTER
 10
29.936752
 20
72.279236
 11
80.936760
 21
72.279236
  0
LINE
  8
0
  6
CENTER
 10
71.536766
 20
88.779236
 11
62.536766
 21
88.779236
  0
LINE
  8
0
  6
CENTER
 10
67.036789
 20
93.279236
 11
67.036789
 21
84.279236
  0
LINE
  8
0
  6
CENTER
 10
73.436798
 20
94.779236
 11
73.436798
 21
85.779236
  0
LINE
  8
0
  6
CENTER
 10
77.936760
 20
90.279236
 11
68.936760
 21
90.279236
  0
LINE
  8
0
  6
CENTER
 10
71.936783
 20
56.179245
 11
71.936783
 21
65.179230
  0
LINE
  8
0
  6
CENTER
 10
76.436760
 20
60.679230
 11
67.436760
 21
60.679230
  0
LINE
  8
0
  6
CENTER
 10
73.436783
 20
49.779236
 11
73.436783
 21
58.779236
  0
LINE
  8
0
  6
CENTER
 10
77.936760
 20
54.279221
 11
68.936760
 21
54.279221
  0
LINE
  8
0
  6
CENTER
 10
43.836777
 20
51.279236
 11
43.836777
 21
60.279236
  0
LINE
  8
0
  6
CENTER
 10
39.336777
 20
55.779236
 11
48.336777
 21
55.779236
  0
LINE
  8
0
  6
CENTER
 10
37.436783
 20
49.779236
 11
37.436783
 21
58.779236
  0
LINE
  8
0
  6
CENTER
 10
32.936752
 20
54.279236
 11
41.936752
 21
54.279236
  0
LINE
  8
0
  6
CENTER
 10
38.936783
 20
88.379242
 11
38.936783
 21
79.379242
  0
LINE
  8
0
  6
CENTER
 10
34.436752
 20
83.879242
 11
43.436752
 21
83.879242
  0
LINE
  8
0
  6
CENTER
 10
37.436783
 20
94.779236
 11
37.436783
 21
85.779236
  0
LINE
  8
0
  6
CENTER
 10
32.936752
 20
90.279251
 11
41.936752
 21
90.279251
  0
LINE
  8
0
 10
317.936768
 20
52.279221
 11
317.936768
 21
92.279221
  0
LINE
  8
0
 10
272.936768
 20
52.279221
 11
272.936768
 21
92.279221
  0
LINE
  8
0
 10
315.436798
 20
94.779236
 11
275.436798
 21
94.779236
  0
LINE
  8
0
 10
315.436798
 20
49.779236
 11
275.436798
 21
49.779236
  0
LINE
  8
0
 10
309.436768
 20
51.279221
 11
309.436768
 21
54.279221
  0
LINE
  8
0
 10
281.436768
 20
51.279221
 11
281.436768
 21
54.279221
  0
LINE
  8
0
 10
316.436798
 20
86.279236
 11
313.436798
 21
86.279236
  0
LINE
  8
0
 10
316.436798
 20
58.279236
 11
313.436798
 21
58.279236
  0
LINE
  8
0
 10
309.436768
 20
90.279221
 11
309.436768
 21
93.279221
  0
LINE
  8
0
 10
281.436768
 20
90.279221
 11
281.436768
 21
93.279221
  0
LINE
  8
0
 10
277.436798
 20
58.279236
 11
274.436798
 21
58.279236
  0
LINE
  8
0
 10
277.436798
 20
86.279236
 11
274.436798
 21
86.279236
  0
LINE
  8
0
 10
294.841705
 20
75.219551
 11
292.496490
 21
72.874344
  0
LINE
  8
0
  6
CENTER
 10
313.436768
 20
94.279221
 11
313.436768
 21
86.279221
  0
LINE
  8
0
  6
CENTER
 10
320.936798
 20
72.279236
 11
269.936798
 21
72.279236
  0
LINE
  8
0
  6
CENTER
 10
295.436768
 20
46.779221
 11
295.436768
 21
97.779221
  0
LINE
  8
0
  6
CENTER
 10
313.436768
 20
50.279221
 11
313.436768
 21
58.279221
  0
LINE
  8
0
  6
CENTER
 10
317.436798
 20
54.279236
 11
309.436798
 21
54.279236
  0
LINE
  8
0
  6
CENTER
 10
302.436768
 20
58.279221
 11
302.436768
 21
64.279221
  0
LINE
  8
0
  6
CENTER
 10
305.436798
 20
61.279236
 11
299.436798
 21
61.279236
  0
LINE
  8
0
  6
CENTER
 10
317.436798
 20
90.279236
 11
309.436798
 21
90.279236
  0
LINE
  8
0
  6
CENTER
 10
288.436768
 20
86.279221
 11
288.436768
 21
80.279221
  0
LINE
  8
0
  6
CENTER
 10
285.436798
 20
83.279205
 11
291.436798
 21
83.279205
  0
LINE
  8
0
  6
CENTER
 10
273.436798
 20
90.279221
 11
281.436798
 21
90.279221
  0
LINE
  8
0
  6
CENTER
 10
277.436768
 20
94.279221
 11
277.436768
 21
86.279221
  0
LINE
  8
0
  6
CENTER
 10
277.436768
 20
50.279221
 11
277.436768
 21
58.279221
  0
LINE
  8
0
  6
CENTER
 10
273.436798
 20
54.279221
 11
281.436798
 21
54.279221
  0
ARC
  8
0
 10
152.240967
 20
74.076805
 40
1.695807
 50
314.841797
 51
45.158215
  0
ARC
  8
0
 10
199.632538
 20
74.076805
 40
1.695807
 50
134.841782
 51
225.158218
  0
ARC
  8
0
 10
199.632553
 20
180.481659
 40
1.695807
 50
134.841782
 51
225.158218
  0
ARC
  8
0
 10
152.240967
 20
180.481659
 40
1.695807
 50
314.841797
 51
45.158215
  0
CIRCLE
  8
0
 10
184.936768
 20
188.779236
 40
2.099999
  0
CIRCLE
  8
0
 10
184.936768
 20
188.779236
 40
2.500000
  0
CIRCLE
  8
0
 10
184.936768
 20
175.779236
 40
2.099999
  0
CIRCLE
  8
0
 10
184.936768
 20
175.779236
 40
2.500000
  0
CIRCLE
  8
0
 62
     3
 10
67.036766
 20
88.779236
 40
2.403589
  0
CIRCLE
  8
0
 10
67.036766
 20
88.779236
 40
2.900000
  0
CIRCLE
  8
0
 10
55.436752
 20
72.279236
 40
3.000000
  0
ARC
  8
0
 10
75.436760
 20
92.279236
 40
2.500000
 50
0.000000
 51
90.000000
  0
ARC
  8
0
 10
35.436752
 20
92.279236
 40
2.500000
 50
90.000000
 51
180.000000
  0
CIRCLE
  8
0
 62
     3
 10
71.936760
 20
60.679230
 40
2.403589
  0
CIRCLE
  8
0
 10
71.936760
 20
60.679230
 40
2.900000
  0
ARC
  8
0
 10
75.436760
 20
52.279236
 40
2.500000
 50
270.000000
 51
0.000000
  0
CIRCLE
  8
0
 10
55.436752
 20
72.279236
 40
2.500000
  0
ARC
  8
0
 10
35.436752
 20
52.279236
 40
2.500000
 50
180.000000
 51
269.999908
  0
CIRCLE
  8
0
 10
37.436752
 20
90.279236
 40
3.000000
  0
CIRCLE
  8
0
 10
37.436752
 20
90.279236
 40
2.500000
  0
CIRCLE
  8
0
 10
37.436752
 20
54.279236
 40
3.000000
  0
CIRCLE
  8
0
 10
37.436752
 20
54.279236
 40
2.500000
  0
CIRCLE
  8
0
 10
73.436760
 20
54.279236
 40
3.000000
  0
CIRCLE
  8
0
 10
73.436760
 20
54.279236
 40
2.500000
  0
CIRCLE
  8
0
 10
73.436760
 20
90.279236
 40
3.000000
  0
CIRCLE
  8
0
 10
73.436760
 20
90.279236
 40
2.500000
  0
CIRCLE
  8
0
 10
38.936752
 20
83.879242
 40
2.900000
  0
CIRCLE
  8
0
 62
     3
 10
38.936752
 20
83.879242
 40
2.403589
  0
CIRCLE
  8
0
 10
43.836777
 20
55.779236
 40
2.900000
  0
CIRCLE
  8
0
 62
     3
 10
43.836777
 20
55.779236
 40
2.403589
  0
CIRCLE
  8
0
 10
55.436752
 20
72.279236
 40
8.000000
  0
ARC
  8
0
 10
282.936798
 20
51.279221
 40
1.500000
 50
180.000000
 51
270.000000
  0
CIRCLE
  8
0
 10
295.436798
 20
72.279221
 40
10.000000
  0
CIRCLE
  8
0
 10
313.436798
 20
54.279221
 40
2.500000
  0
CIRCLE
  8
0
 10
277.436798
 20
54.279221
 40
2.500000
  0
CIRCLE
  8
0
 10
277.436798
 20
90.279221
 40
2.500000
  0
ARC
  8
0
 10
315.436798
 20
92.279221
 40
2.500000
 50
0.000000
 51
90.000000
  0
ARC
  8
0
 10
275.436798
 20
92.279221
 40
2.500000
 50
90.000000
 51
180.000000
  0
ARC
  8
0
 10
275.436798
 20
52.279221
 40
2.500000
 50
180.000000
 51
270.000000
  0
ARC
  8
0
 10
315.436798
 20
52.279221
 40
2.500000
 50
270.000000
 51
359.999908
  0
CIRCLE
  8
0
 10
302.436798
 20
61.279221
 40
1.250000
  0
CIRCLE
  8
0
 10
302.436798
 20
61.279221
 40
1.500000
  0
CIRCLE
  8
0
 10
288.436798
 20
83.279221
 40
1.250000
  0
CIRCLE
  8
0
 10
288.436798
 20
83.279221
 40
1.500000
  0
CIRCLE
  8
0
 10
295.436798
 20
72.279221
 40
2.500000
  0
CIRCLE
  8
0
 10
295.436798
 20
72.279221
 40
3.000000
  0
ARC
  8
0
 10
274.436798
 20
59.779221
 40
1.500000
 50
180.000000
 51
270.000000
  0
ARC
  8
0
 10
274.436798
 20
84.779221
 40
1.500000
 50
90.000000
 51
180.000000
  0
ARC
  8
0
 10
313.436798
 20
54.279221
 40
4.000000
 50
90.000000
 51
180.000000
  0
ARC
  8
0
 10
277.436798
 20
90.279221
 40
4.000000
 50
270.000000
 51
359.999878
  0
ARC
  8
0
 10
277.436798
 20
54.279221
 40
4.000000
 50
0.000000
 51
90.000000
  0
ARC
  8
0
 10
313.436798
 20
90.279221
 40
4.000000
 50
180.000000
 51
270.000000
  0
ARC
  8
0
 10
307.936798
 20
51.279221
 40
1.500000
 50
270.000000
 51
0.000000
  0
ARC
  8
0
 10
316.436798
 20
59.779221
 40
1.500000
 50
270.000000
 51
0.000000
  0
ARC
  8
0
 10
316.436798
 20
84.779221
 40
1.500000
 50
0.000000
 51
90.000000
  0
ARC
  8
0
 10
307.936798
 20
93.279221
 40
1.500000
 50
0.000000
 51
90.000000
  0
ARC
  8
0
 10
282.936798
 20
93.279221
 40
1.500000
 50
90.000000
 51
180.000000
  0
CIRCLE
  8
0
 10
313.436798
 20
90.279221
 40
2.500000
  0
TEXT
  8
0
 10
298.797760
 20
244.589584
 40
4.242641
  1
DATE : FEB ,1992
 50
0.000000
 41
1.052631
 51
0.000000
  7
STANDARD
  0
TEXT
  8
0
 10
2.113382
 20
243.907959
 40
5.000000
  1
ROTARY ACUTUATOR
 50
0.000000
 41
0.937799
 51
0.000000
  7
STANDARD
  0
TEXT
  8
0
 10
32.035717
 20
201.757431
 40
5.000000
  1
MODEL : RAN8-*-4
 50
0.000000
 41
1.052632
 51
0.000000
  7
STANDARD
  0
TEXT
  8
0
 10
302.273193
 20
3.650512
 40
5.000000
  1
KOGANEI,CORP
 50
0.000000
 41
1.052632
 51
0.000000
  7
STANDARD
  0
LINE
  8
0
 10
186.186737
 20
190.944260
 11
202.834595
 21
219.779160
  0
LINE
  8
0
 10
202.834595
 20
219.779160
 11
218.407516
 21
219.779190
  0
LINE
  8
0
 10
186.186737
 20
190.944260
 11
188.308060
 21
193.065582
  0
LINE
  8
0
 10
186.186737
 20
190.944260
 11
186.963196
 21
193.842041
  0
TEXT
  8
0
 10
203.657516
 20
220.779190
 40
3.500000
  1
2-M5
 50
0.000000
 41
1.052632
 51
0.000000
  7
STANDARD
  0
ENDSEC
  0
EOF
