  0
SECTION
  2
HEADER
  0
ENDSEC
  0
SECTION
  2
TABLES
  0
TABLE
  2
LTYPE
 70
     4
  0
LTYPE
  2
CONTINUOUS
 70
    64
  3
Solid line
 72
    65
 73
     0
 40
0.000000
  0
LTYPE
  2
DASHED
 70
    64
  3
__ __ __ __ __ __ __ __ __ __ __ __ __ __ __
 72
    65
 73
     2
 40
3.500000
 49
2.000000
 49
-1.500000
  0
LTYPE
  2
CENTER
 70
    64
  3
____ _ ____ _ ____ _ ____ _ ____ _ ____ _ ____
 72
    65
 73
     4
 40
17.500000
 49
13.000000
 49
-1.500000
 49
1.500000
 49
-1.500000
  0
LTYPE
  2
PHANTOM
 70
    64
  3
_____ _ _ _____ _ _ _____ _ _ _____ _ _ ____  
 72
    65
 73
     6
 40
15.500000
 49
8.000000
 49
-1.500000
 49
1.500000
 49
-1.500000
 49
1.500000
 49
-1.500000
  0
LTYPE
  2
DASHED1
 70
    64
  3
__ __ __ __ __ __ __ __ __ __ __ __ __ __ __
 72
    65
 73
     2
 40
1.500000
 49
1.000000
 49
-0.500000
  0
LTYPE
  2
DASHED2
 70
    64
  3
__ __ __ __ __ __ __ __ __ __ __ __ __ __ __
 72
    65
 73
     2
 40
3.500000
 49
2.500000
 49
-1.000000
  0
LTYPE
  2
DASHED3
 70
    64
  3
__ __ __ __ __ __ __ __ __ __ __ __ __ __ __
 72
    65
 73
     2
 40
6.000000
 49
4.000000
 49
-2.000000
  0
LTYPE
  2
DASHED4
 70
    64
  3
__ __ __ __ __ __ __ __ __ __ __ __ __ __ __
 72
    65
 73
     2
 40
12.000000
 49
10.000000
 49
-2.000000
  0
LTYPE
  2
DASHED5
 70
    64
  3
__ __ __ __ __ __ __ __ __ __ __ __ __ __ __
 72
    65
 73
     2
 40
17.000000
 49
15.000000
 49
-2.000000
  0
LTYPE
  2
DASHED6
 70
    64
  3
__ __ __ __ __ __ __ __ __ __ __ __ __ __ __
 72
    65
 73
     2
 40
29.000000
 49
27.000000
 49
-2.000000
  0
LTYPE
  2
PHANTOM1
 70
    64
  3
_____ _ _ _____ _ _ _____ _ _ _____ _ _ ____  
 72
    65
 73
     6
 40
31.000000
 49
25.000000
 49
-1.500000
 49
1.000000
 49
-1.000000
 49
1.000000
 49
-1.500000
  0
LTYPE
  2
PHANTOM2
 70
    64
  3
_____ _ _ _____ _ _ _____ _ _ _____ _ _ ____  
 72
    65
 73
     6
 40
36.000000
 49
27.000000
 49
-1.500000
 49
2.500000
 49
-1.000000
 49
2.500000
 49
-1.500000
  0
LTYPE
  2
PHANTOM3
 70
    64
  3
_____ _ _ _____ _ _ _____ _ _ _____ _ _ ____  
 72
    65
 73
     6
 40
78.000000
 49
64.000000
 49
-2.000000
 49
4.000000
 49
-2.000000
 49
4.000000
 49
-2.000000
  0
LTYPE
  2
CENTER1
 70
    64
  3
____ _ ____ _ ____ _ ____ _ ____ _ ____ _ ____
 72
    65
 73
     4
 40
19.000000
 49
14.000000
 49
-1.000000
 49
3.000000
 49
-1.000000
  0
LTYPE
  2
CENTER2
 70
    64
  3
____ _ ____ _ ____ _ ____ _ ____ _ ____ _ ____
 72
    65
 73
     4
 40
28.500000
 49
25.000000
 49
-1.000000
 49
1.500000
 49
-1.000000
  0
LTYPE
  2
CENTER3
 70
    64
  3
____ _ ____ _ ____ _ ____ _ ____ _ ____ _ ____
 72
    65
 73
     4
 40
31.500000
 49
27.000000
 49
-1.000000
 49
2.500000
 49
-1.000000
  0
LTYPE
  2
CENTER4
 70
    64
  3
____ _ ____ _ ____ _ ____ _ ____ _ ____ _ ____
 72
    65
 73
     4
 40
50.000000
 49
45.000000
 49
-1.000000
 49
3.000000
 49
-1.000000
  0
LTYPE
  2
CENTER5
 70
    64
  3
____ _ ____ _ ____ _ ____ _ ____ _ ____ _ ____
 72
    65
 73
     4
 40
100.000000
 49
92.000000
 49
-2.000000
 49
4.000000
 49
-2.000000
  0
LTYPE
  2
SBK1
 70
    64
  3
______ _ _ _ ______ _ _ _ ______ _ _ _ _____  
 72
    65
 73
     8
 40
60.500000
 49
45.000000
 49
-2.000000
 49
2.500000
 49
-2.000000
 49
2.500000
 49
-2.000000
 49
2.500000
 49
-2.000000
  0
LTYPE
  2
SBK2
 70
    64
  3
______ _ _ _ ______ _ _ _ ______ _ _ _ _____  
 72
    65
 73
     8
 40
84.000000
 49
64.000000
 49
-2.000000
 49
4.000000
 49
-2.000000
 49
4.000000
 49
-2.000000
 49
4.000000
 49
-2.000000
  0
LTYPE
  2
STCH
 70
    64
  3
__ __ __ __ __ __ __ __ __ __ __ __ __ __ __
 72
    65
 73
     2
 40
3.000000
 49
1.000000
 49
-2.000000
  0
LTYPE
  2
MTCH
 70
    64
  3
_____ _ _ _____ _ _ _____ _ _ _____ _ _ ____  
 72
    65
 73
     6
 40
80.000000
 49
66.000000
 49
-2.000000
 49
4.000000
 49
-2.000000
 49
4.000000
 49
-2.000000
  0
ENDTAB
  0
TABLE
  2
LAYER
 70
     1
  0
LAYER
  2
0
 70
     0
 62
     7
  6
CONTINUOUS
  0
ENDTAB
  0
TABLE
  2
STYLE
 70
     1
  0
STYLE
  2
STANDARD
 70
     0
 40
0.000000
 41
1.000000
 50
0.000000
 71
     0
 42
0.200000
  3
txt
  4
BIGFONT
  0
ENDTAB
  0
TABLE
  2
VIEW
 70
     0
  0
ENDTAB
  0
ENDSEC
  0
SECTION
  2
BLOCKS
  0
ENDSEC
  0
SECTION
  2
ENTITIES
  0
POINT
  8
0
 10
155.436783
 20
172.279236
  0
POINT
  8
0
 10
65.436775
 20
67.279221
  0
POINT
  8
0
 10
155.436783
 20
67.279228
  0
POINT
  8
0
 10
310.436768
 20
67.279236
  0
POINT
  8
0
 10
230.436783
 20
67.279228
  0
POINT
  8
0
 10
230.436768
 20
172.279236
  0
POINT
  8
0
 10
92.436790
 20
67.279221
  0
POINT
  8
0
 10
337.436768
 20
67.279236
  0
LINE
  8
0
 62
     3
 10
0.000000
 20
0.000000
 11
0.000000
 21
254.558472
  0
LINE
  8
0
 62
     3
 10
370.873566
 20
254.558472
 11
370.873566
 21
0.000000
  0
LINE
  8
0
 62
     3
 10
0.000000
 20
0.000000
 11
370.873566
 21
0.000000
  0
LINE
  8
0
 62
     3
 10
0.000000
 20
254.558472
 11
370.873566
 21
254.558472
  0
LINE
  8
0
 62
     3
 10
0.000000
 20
240.257431
 11
76.272194
 21
240.257431
  0
LINE
  8
0
 62
     3
 10
76.272194
 20
240.257431
 11
76.272194
 21
254.558472
  0
LINE
  8
0
 62
     3
 10
294.601379
 20
14.301025
 11
370.873566
 21
14.301025
  0
LINE
  8
0
 62
     3
 10
294.601379
 20
240.257431
 11
370.873566
 21
240.257431
  0
LINE
  8
0
 62
     3
 10
294.601379
 20
254.558472
 11
294.601379
 21
240.257431
  0
LINE
  8
0
 62
     3
 10
294.601379
 20
14.301025
 11
294.601379
 21
0.000000
  0
LINE
  8
0
 10
136.436783
 20
63.779232
 11
136.436783
 21
71.279236
  0
LINE
  8
0
 10
160.436783
 20
40.279236
 11
160.436783
 21
94.279236
  0
LINE
  8
0
 10
155.436783
 20
58.279236
 11
155.436783
 21
76.279236
  0
LINE
  8
0
 10
175.436783
 20
40.279236
 11
175.436783
 21
94.279236
  0
LINE
  8
0
 10
160.436783
 20
40.279236
 11
204.436783
 21
40.279236
  0
LINE
  8
0
 10
160.436783
 20
94.279236
 11
204.436783
 21
94.279236
  0
LINE
  8
0
 10
155.436783
 20
76.279236
 11
160.436783
 21
76.279236
  0
LINE
  8
0
 10
155.436783
 20
58.279236
 11
160.436783
 21
58.279236
  0
LINE
  8
0
 10
136.436783
 20
71.279236
 11
155.436783
 21
71.279236
  0
LINE
  8
0
 10
136.936798
 20
63.279236
 11
155.436783
 21
63.279236
  0
LINE
  8
0
 10
136.436935
 20
63.779427
 11
136.936935
 21
63.279434
  0
LINE
  8
0
 10
136.936798
 20
63.279236
 11
136.936798
 21
67.529724
  0
LINE
  8
0
 10
175.436783
 20
85.279236
 11
204.436783
 21
85.279236
  0
LINE
  8
0
 10
175.436783
 20
49.279236
 11
204.436783
 21
49.279236
  0
LINE
  8
0
 10
136.436783
 20
67.529724
 11
148.436783
 21
67.529724
  0
LINE
  8
0
 10
148.436783
 20
67.529724
 11
148.436783
 21
71.279236
  0
LINE
  8
0
 10
136.436783
 20
67.529747
 11
148.436783
 21
71.279259
  0
LINE
  8
0
 10
148.436783
 20
67.529778
 11
136.436768
 21
71.279289
  0
LINE
  8
0
 10
204.436783
 20
40.279228
 11
204.436783
 21
94.279228
  0
LINE
  8
0
 62
     1
 10
222.736771
 20
88.351067
 11
222.736771
 21
87.836205
  0
LINE
  8
0
 62
     1
 10
217.136765
 20
88.351067
 11
217.136765
 21
87.836205
  0
LINE
  8
0
 62
     1
 10
230.436783
 20
50.829231
 11
230.436783
 21
86.079247
  0
LINE
  8
0
 62
     1
 10
204.736771
 20
51.029236
 11
228.436783
 21
51.029236
  0
LINE
  8
0
 62
     1
 10
204.436783
 20
77.029236
 11
228.436783
 21
77.029236
  0
LINE
  8
0
 62
     1
 10
228.436783
 20
50.829231
 11
228.436783
 21
84.579231
  0
LINE
  8
0
 62
     1
 10
228.436783
 20
50.829239
 11
230.436783
 21
50.829239
  0
LINE
  8
0
 62
     1
 10
204.436783
 20
85.740631
 11
216.336777
 21
85.740631
  0
LINE
  8
0
 62
     1
 10
205.436783
 20
84.579231
 11
205.436783
 21
85.740623
  0
LINE
  8
0
 62
     1
 10
230.725464
 20
82.240631
 11
238.436783
 21
82.240631
  0
LINE
  8
0
 62
     1
 10
230.725464
 20
85.240631
 11
238.161530
 21
85.240631
  0
LINE
  8
0
 62
     1
 10
230.436813
 20
85.740654
 11
230.725494
 21
85.240639
  0
LINE
  8
0
 62
     1
 10
230.436691
 20
81.740173
 11
230.725662
 21
82.240685
  0
LINE
  8
0
 62
     1
 10
230.725464
 20
85.240623
 11
230.725464
 21
82.240105
  0
LINE
  8
0
 62
     1
 10
216.336777
 20
85.153877
 11
216.336777
 21
87.836220
  0
LINE
  8
0
 62
     1
 10
223.536774
 20
85.153877
 11
223.536774
 21
87.836220
  0
LINE
  8
0
 62
     1
 10
216.336777
 20
87.836227
 11
223.536774
 21
87.836227
  0
LINE
  8
0
 62
     1
 10
216.336777
 20
86.341171
 11
223.536774
 21
86.341171
  0
LINE
  8
0
 62
     1
 10
216.336777
 20
85.153885
 11
223.536774
 21
85.153885
  0
LINE
  8
0
 62
     1
 10
204.436783
 20
57.529236
 11
228.436783
 21
57.529236
  0
LINE
  8
0
 62
     1
 10
223.536774
 20
85.740631
 11
230.436783
 21
85.740631
  0
LINE
  8
0
 62
     1
 10
204.436783
 20
86.079254
 11
216.336777
 21
86.079254
  0
LINE
  8
0
 62
     1
 10
223.536774
 20
86.079254
 11
230.436783
 21
86.079254
  0
LINE
  8
0
 62
     1
 10
228.436783
 20
85.740623
 11
228.436783
 21
86.079247
  0
LINE
  8
0
 62
     1
 10
204.436783
 20
84.579239
 11
230.436783
 21
84.579239
  0
LINE
  8
0
  6
CENTER
 10
133.436783
 20
67.279236
 11
233.436783
 21
67.279236
  0
LINE
  8
0
  6
CENTER
 62
     1
 10
219.936783
 20
83.153877
 11
219.936783
 21
91.579231
  0
LINE
  8
0
 10
136.436783
 20
175.779236
 11
136.436783
 21
168.279236
  0
LINE
  8
0
 10
160.436783
 20
199.279236
 11
160.436783
 21
145.279236
  0
LINE
  8
0
 10
155.436783
 20
181.279236
 11
155.436783
 21
163.279236
  0
LINE
  8
0
 10
175.436783
 20
199.279236
 11
175.436783
 21
145.279236
  0
LINE
  8
0
 10
160.436783
 20
199.279236
 11
204.436768
 21
199.279236
  0
LINE
  8
0
 10
160.436783
 20
145.279236
 11
204.436783
 21
145.279236
  0
LINE
  8
0
 10
155.436783
 20
163.279236
 11
160.436783
 21
163.279236
  0
LINE
  8
0
 10
155.436783
 20
181.279236
 11
160.436783
 21
181.279236
  0
LINE
  8
0
 10
136.436783
 20
168.279236
 11
155.436783
 21
168.279236
  0
LINE
  8
0
 10
136.936798
 20
176.279236
 11
155.436783
 21
176.279236
  0
LINE
  8
0
 10
136.436951
 20
175.779007
 11
136.936951
 21
176.279007
  0
LINE
  8
0
 10
136.936798
 20
176.279236
 11
136.936798
 21
172.028748
  0
LINE
  8
0
 10
175.436783
 20
154.279236
 11
204.436783
 21
154.279236
  0
LINE
  8
0
 10
175.436783
 20
190.279236
 11
204.436783
 21
190.279236
  0
LINE
  8
0
 10
204.436783
 20
199.279236
 11
204.436783
 21
145.279236
  0
LINE
  8
0
 62
     1
 10
230.436768
 20
188.729248
 11
230.436768
 21
155.829254
  0
LINE
  8
0
 62
     1
 10
204.736771
 20
156.029236
 11
228.436768
 21
156.029236
  0
LINE
  8
0
 62
     1
 10
204.736771
 20
188.529236
 11
228.436768
 21
188.529236
  0
LINE
  8
0
 62
     1
 10
204.436783
 20
162.529236
 11
228.436768
 21
162.529236
  0
LINE
  8
0
 62
     1
 10
204.436783
 20
182.029236
 11
228.436768
 21
182.029236
  0
LINE
  8
0
 62
     1
 10
226.176758
 20
170.279236
 11
228.576782
 21
170.279236
  0
LINE
  8
0
 62
     1
 10
226.176758
 20
174.279236
 11
228.576782
 21
174.279236
  0
LINE
  8
0
 62
     1
 10
228.876770
 20
173.979248
 11
228.876770
 21
170.579254
  0
LINE
  8
0
 62
     1
 10
225.876770
 20
173.979248
 11
225.876770
 21
170.579254
  0
LINE
  8
0
 62
     1
 10
204.436783
 20
167.889236
 11
216.336777
 21
167.889236
  0
LINE
  8
0
 62
     1
 10
204.436783
 20
176.669235
 11
216.336777
 21
176.669235
  0
LINE
  8
0
 62
     1
 10
223.936768
 20
176.669250
 11
223.936768
 21
167.889252
  0
LINE
  8
0
 62
     1
 10
215.936783
 20
176.669250
 11
215.936783
 21
167.889252
  0
LINE
  8
0
 62
     1
 10
228.436768
 20
188.729248
 11
228.436768
 21
180.669739
  0
LINE
  8
0
 62
     1
 10
228.436768
 20
163.888733
 11
228.436768
 21
155.829254
  0
LINE
  8
0
 62
     1
 10
228.436768
 20
155.829239
 11
230.436768
 21
155.829239
  0
LINE
  8
0
 62
     1
 10
228.436768
 20
188.729233
 11
230.436768
 21
188.729233
  0
LINE
  8
0
 62
     1
 10
204.436783
 20
180.669739
 11
230.436768
 21
180.669739
  0
LINE
  8
0
 62
     1
 10
204.436783
 20
163.888733
 11
230.436768
 21
163.888733
  0
LINE
  8
0
 62
     1
 10
205.436783
 20
180.669739
 11
205.436783
 21
176.669250
  0
LINE
  8
0
 62
     1
 10
205.436783
 20
167.889252
 11
205.436783
 21
163.888733
  0
LINE
  8
0
 62
     1
 10
230.725464
 20
177.169739
 11
238.436768
 21
177.169739
  0
LINE
  8
0
 62
     1
 10
230.725464
 20
180.169739
 11
238.161530
 21
180.169739
  0
LINE
  8
0
 62
     1
 10
230.436691
 20
180.669708
 11
230.725372
 21
180.169693
  0
LINE
  8
0
 62
     1
 10
230.436768
 20
176.669235
 11
230.725739
 21
177.169754
  0
LINE
  8
0
 62
     1
 10
230.725464
 20
180.169739
 11
230.725464
 21
177.169220
  0
LINE
  8
0
 62
     1
 10
230.725464
 20
167.388733
 11
238.436768
 21
167.388733
  0
LINE
  8
0
 62
     1
 10
230.725464
 20
164.388733
 11
238.161530
 21
164.388733
  0
LINE
  8
0
 62
     1
 10
230.436813
 20
163.888763
 11
230.725479
 21
164.388748
  0
LINE
  8
0
 62
     1
 10
230.436707
 20
167.889191
 11
230.725677
 21
167.388687
  0
LINE
  8
0
 62
     1
 10
230.725464
 20
164.388733
 11
230.725464
 21
167.389252
  0
LINE
  8
0
 62
     1
 10
216.336777
 20
179.779236
 11
216.336777
 21
164.779236
  0
LINE
  8
0
 62
     1
 10
223.536774
 20
179.779236
 11
223.536774
 21
164.779236
  0
LINE
  8
0
 62
     1
 10
216.336777
 20
164.779236
 11
223.536774
 21
164.779236
  0
LINE
  8
0
 62
     1
 10
216.336777
 20
179.779236
 11
223.536774
 21
179.779236
  0
LINE
  8
0
 62
     1
 10
223.536774
 20
176.669235
 11
230.436768
 21
176.669235
  0
LINE
  8
0
 62
     1
 10
223.536774
 20
167.889236
 11
230.436768
 21
167.889236
  0
LINE
  8
0
 62
     1
 10
216.336777
 20
175.177979
 11
223.536774
 21
175.177979
  0
LINE
  8
0
 62
     1
 10
216.336777
 20
169.380478
 11
223.536774
 21
169.380478
  0
LINE
  8
0
 62
     1
 10
218.664017
 20
173.127792
 11
219.088287
 21
173.552048
  0
LINE
  8
0
 62
     1
 10
220.785309
 20
171.006439
 11
221.209579
 21
171.430710
  0
LINE
  8
0
 62
     1
 10
218.664017
 20
171.430710
 11
219.088287
 21
171.854980
  0
LINE
  8
0
 62
     1
 10
219.088272
 20
171.006454
 11
219.512543
 21
171.430725
  0
LINE
  8
0
 62
     1
 10
218.664062
 20
171.430756
 11
219.088333
 21
171.006485
  0
LINE
  8
0
 62
     1
 10
220.785385
 20
173.552078
 11
221.209656
 21
173.127808
  0
LINE
  8
0
 62
     1
 10
218.664062
 20
173.127823
 11
219.088318
 21
172.703568
  0
LINE
  8
0
 62
     1
 10
219.088318
 20
173.552078
 11
219.512573
 21
173.127808
  0
LINE
  8
0
 62
     1
 10
220.361069
 20
173.127762
 11
220.785339
 21
173.552032
  0
LINE
  8
0
 62
     1
 10
220.785324
 20
172.703506
 11
221.209595
 21
173.127777
  0
LINE
  8
0
 62
     1
 10
220.361115
 20
171.430771
 11
220.785385
 21
171.006500
  0
LINE
  8
0
 62
     1
 10
220.785370
 20
171.855011
 11
221.209625
 21
171.430756
  0
LINE
  8
0
 10
136.436783
 20
172.028748
 11
148.436783
 21
172.028748
  0
LINE
  8
0
 10
148.436783
 20
172.028748
 11
148.436783
 21
168.279236
  0
LINE
  8
0
 10
136.436752
 20
172.028656
 11
148.436752
 21
168.279144
  0
LINE
  8
0
 10
148.436798
 20
172.028641
 11
136.436798
 21
168.279129
  0
LINE
  8
0
  6
CENTER
 10
133.436783
 20
172.279236
 11
233.436768
 21
172.279236
  0
LINE
  8
0
  6
CENTER
 10
187.436783
 20
179.779236
 11
195.436783
 21
179.779236
  0
LINE
  8
0
  6
CENTER
 10
191.436783
 20
175.779236
 11
191.436783
 21
183.779236
  0
LINE
  8
0
  6
CENTER
 10
191.436783
 20
168.779236
 11
191.436783
 21
160.779236
  0
LINE
  8
0
  6
CENTER
 10
187.436783
 20
164.779236
 11
195.436783
 21
164.779236
  0
LINE
  8
0
  6
CENTER
 62
     1
 10
202.436783
 20
165.888733
 11
240.436768
 21
165.888733
  0
LINE
  8
0
  6
CENTER
 62
     1
 10
202.436783
 20
178.669739
 11
240.436768
 21
178.669739
  0
LINE
  8
0
  6
CENTER
 62
     1
 10
219.936768
 20
175.779236
 11
219.936768
 21
168.779236
  0
LINE
  8
0
  6
CENTER
 10
85.436783
 20
87.279251
 11
75.436783
 21
87.279251
  0
LINE
  8
0
 10
65.687241
 20
71.271339
 11
69.428894
 21
67.529686
  0
LINE
  8
0
 10
38.436783
 20
42.779236
 11
38.436783
 21
91.779236
  0
LINE
  8
0
 10
40.936783
 20
94.279236
 11
89.936783
 21
94.279236
  0
LINE
  8
0
 10
92.436790
 20
42.779221
 11
92.436790
 21
91.779221
  0
LINE
  8
0
 10
40.936768
 20
40.279236
 11
89.936768
 21
40.279236
  0
LINE
  8
0
 62
     3
 10
46.302811
 20
83.779251
 11
44.570755
 21
83.779251
  0
LINE
  8
0
 62
     3
 10
46.302811
 20
80.779251
 11
44.570755
 21
80.779251
  0
LINE
  8
0
 62
     3
 10
46.302616
 20
83.779114
 11
47.168644
 21
82.279114
  0
LINE
  8
0
 62
     3
 10
43.704529
 20
82.279144
 11
44.570557
 21
80.779144
  0
LINE
  8
0
 62
     3
 10
47.168877
 20
82.279236
 11
46.302849
 21
80.779228
  0
LINE
  8
0
 62
     3
 10
44.570786
 20
83.779205
 11
43.704758
 21
82.279205
  0
LINE
  8
0
 62
     3
 10
49.570740
 20
45.779236
 11
51.302795
 21
45.779236
  0
LINE
  8
0
 62
     3
 10
49.570740
 20
48.779236
 11
51.302795
 21
48.779236
  0
LINE
  8
0
 62
     3
 10
49.570629
 20
45.779190
 11
48.704601
 21
47.279194
  0
LINE
  8
0
 62
     3
 10
52.168736
 20
47.279186
 11
51.302708
 21
48.779190
  0
LINE
  8
0
 62
     3
 10
48.704754
 20
47.279213
 11
49.570782
 21
48.779217
  0
LINE
  8
0
 62
     3
 10
51.302803
 20
45.779213
 11
52.168831
 21
47.279217
  0
LINE
  8
0
 62
     3
 10
84.570740
 20
50.779236
 11
86.302795
 21
50.779236
  0
LINE
  8
0
 62
     3
 10
84.570747
 20
53.779236
 11
86.302803
 21
53.779236
  0
LINE
  8
0
 62
     3
 10
84.570686
 20
50.779205
 11
83.704659
 21
52.279209
  0
LINE
  8
0
 62
     3
 10
87.168755
 20
52.279190
 11
86.302734
 21
53.779194
  0
LINE
  8
0
 62
     3
 10
83.704750
 20
52.279213
 11
84.570778
 21
53.779217
  0
LINE
  8
0
 62
     3
 10
86.302803
 20
50.779224
 11
87.168831
 21
52.279228
  0
LINE
  8
0
 62
     3
 10
81.936790
 20
86.413200
 11
81.936790
 21
88.145256
  0
LINE
  8
0
 62
     3
 10
78.936783
 20
86.413200
 11
78.936783
 21
88.145256
  0
LINE
  8
0
 62
     3
 10
81.936790
 20
86.413223
 11
80.436783
 21
85.547195
  0
LINE
  8
0
 62
     3
 10
80.436783
 20
89.011292
 11
78.936783
 21
88.145264
  0
LINE
  8
0
 62
     3
 10
80.436775
 20
85.547157
 11
78.936775
 21
86.413185
  0
LINE
  8
0
 62
     3
 10
81.936783
 20
88.145218
 11
80.436783
 21
89.011246
  0
LINE
  8
0
  6
CENTER
 10
35.436783
 20
67.279236
 11
95.436775
 21
67.279236
  0
LINE
  8
0
  6
CENTER
 10
65.436790
 20
37.279236
 11
65.436790
 21
97.279236
  0
LINE
  8
0
  6
CENTER
 10
85.436790
 20
47.279228
 11
85.436790
 21
57.279228
  0
LINE
  8
0
  6
CENTER
 10
80.436768
 20
52.279236
 11
90.436768
 21
52.279236
  0
LINE
  8
0
  6
CENTER
 10
82.936768
 20
45.279236
 11
91.936768
 21
45.279236
  0
LINE
  8
0
  6
CENTER
 10
87.436775
 20
49.779221
 11
87.436775
 21
40.779221
  0
LINE
  8
0
  6
CENTER
 10
50.436783
 20
52.279236
 11
50.436783
 21
42.279236
  0
LINE
  8
0
  6
CENTER
 10
45.436768
 20
47.279236
 11
55.436768
 21
47.279236
  0
LINE
  8
0
  6
CENTER
 10
43.436783
 20
49.779236
 11
43.436783
 21
40.779236
  0
LINE
  8
0
  6
CENTER
 10
47.936768
 20
45.279251
 11
38.936768
 21
45.279251
  0
LINE
  8
0
  6
CENTER
 10
47.936783
 20
89.279251
 11
38.936783
 21
89.279251
  0
LINE
  8
0
  6
CENTER
 10
43.436783
 20
84.779236
 11
43.436783
 21
93.779236
  0
LINE
  8
0
  6
CENTER
 10
45.436783
 20
87.279236
 11
45.436783
 21
77.279236
  0
LINE
  8
0
  6
CENTER
 10
50.436783
 20
82.279251
 11
40.436783
 21
82.279251
  0
LINE
  8
0
  6
CENTER
 10
80.436783
 20
82.279228
 11
80.436783
 21
92.279228
  0
LINE
  8
0
  6
CENTER
 10
82.936783
 20
89.279236
 11
91.936783
 21
89.279236
  0
LINE
  8
0
  6
CENTER
 10
87.436790
 20
84.779221
 11
87.436790
 21
93.779221
  0
LINE
  8
0
 10
337.436768
 20
91.779236
 11
337.436768
 21
42.779236
  0
LINE
  8
0
 10
283.436798
 20
91.779236
 11
283.436798
 21
42.779236
  0
LINE
  8
0
 10
285.936798
 20
94.279236
 11
334.936798
 21
94.279236
  0
LINE
  8
0
 10
285.936768
 20
40.279236
 11
334.936798
 21
40.279236
  0
LINE
  8
0
 10
328.436768
 20
92.779236
 11
328.436768
 21
89.279236
  0
LINE
  8
0
 10
292.436798
 20
92.779236
 11
292.436798
 21
89.279236
  0
LINE
  8
0
 10
284.936798
 20
85.279236
 11
288.436798
 21
85.279236
  0
LINE
  8
0
 10
284.936798
 20
49.279236
 11
288.436798
 21
49.279236
  0
LINE
  8
0
 10
292.436798
 20
45.279236
 11
292.436798
 21
41.779236
  0
LINE
  8
0
 10
328.436768
 20
45.279236
 11
328.436768
 21
41.779236
  0
LINE
  8
0
 10
332.436798
 20
85.279236
 11
335.936798
 21
85.279236
  0
LINE
  8
0
 10
332.436798
 20
49.279236
 11
335.936798
 21
49.279236
  0
LINE
  8
0
 62
     1
 10
326.686768
 20
76.029236
 11
326.686768
 21
58.529236
  0
LINE
  8
0
 62
     1
 10
294.186798
 20
76.029236
 11
294.186798
 21
58.529236
  0
LINE
  8
0
 62
     1
 10
325.511475
 20
77.044991
 11
325.760773
 21
77.026497
  0
LINE
  8
0
 62
     1
 10
295.362152
 20
77.044975
 11
295.112823
 21
77.026482
  0
LINE
  8
0
 62
     1
 10
325.511475
 20
57.513512
 11
325.760773
 21
57.532005
  0
LINE
  8
0
 62
     1
 10
295.362152
 20
57.513325
 11
295.112823
 21
57.531818
  0
LINE
  8
0
 62
     1
 10
313.936768
 20
56.353973
 11
313.936768
 21
51.779236
  0
LINE
  8
0
 62
     1
 10
306.936768
 20
56.353973
 11
306.936768
 21
51.779236
  0
LINE
  8
0
 62
     1
 10
307.636780
 20
56.353973
 11
307.636780
 21
51.279236
  0
LINE
  8
0
 62
     1
 10
313.236786
 20
56.353973
 11
313.236786
 21
51.279236
  0
LINE
  8
0
 62
     1
 10
306.936798
 20
56.353973
 11
313.936798
 21
56.353973
  0
LINE
  8
0
 62
     1
 10
307.636780
 20
54.204514
 11
313.236816
 21
54.204514
  0
LINE
  8
0
 62
     1
 10
306.046814
 20
86.079239
 11
314.826782
 21
86.079239
  0
LINE
  8
0
 62
     1
 10
303.414337
 20
80.579506
 11
302.046234
 21
84.338287
  0
LINE
  8
0
 62
     1
 10
307.267059
 20
81.981781
 11
305.898956
 21
85.740562
  0
LINE
  8
0
 62
     1
 10
317.459290
 20
80.579491
 11
318.827362
 21
84.338257
  0
LINE
  8
0
 62
     1
 10
313.606567
 20
81.981766
 11
314.974640
 21
85.740532
  0
LINE
  8
0
 62
     1
 10
313.606476
 20
81.981758
 11
317.459259
 21
80.579460
  0
LINE
  8
0
 62
     1
 10
303.414276
 20
80.579628
 11
307.266998
 21
81.981903
  0
LINE
  8
0
 62
     1
 10
314.826782
 20
86.079239
 11
314.826782
 21
85.334457
  0
LINE
  8
0
 62
     1
 10
306.046783
 20
86.079239
 11
306.046783
 21
85.334457
  0
LINE
  8
0
 62
     1
 10
314.974609
 20
85.740524
 11
318.827332
 21
84.338249
  0
LINE
  8
0
 62
     1
 10
302.046234
 20
84.338348
 11
305.898926
 21
85.740623
  0
LINE
  8
0
 62
     1
 10
320.186768
 20
83.831238
 11
320.186768
 21
82.779236
  0
LINE
  8
0
 62
     1
 10
300.686798
 20
83.831238
 11
300.686798
 21
82.779236
  0
LINE
  8
0
 62
     1
 10
307.538055
 20
87.836212
 11
313.335510
 21
87.836212
  0
LINE
  8
0
 62
     1
 10
302.936798
 20
86.341171
 11
302.936798
 21
85.153885
  0
LINE
  8
0
 62
     1
 10
317.936768
 20
86.341171
 11
317.936768
 21
85.153885
  0
LINE
  8
0
 62
     1
 10
302.936798
 20
86.341164
 11
307.538055
 21
87.836205
  0
LINE
  8
0
 62
     1
 10
313.335510
 20
87.836151
 11
317.936768
 21
86.341118
  0
LINE
  8
0
 62
     1
 10
302.936798
 20
85.153885
 11
304.287079
 21
85.153885
  0
LINE
  8
0
 62
     1
 10
316.586487
 20
85.153885
 11
317.936798
 21
85.153885
  0
LINE
  8
0
 62
     1
 10
313.236786
 20
88.351074
 11
313.236786
 21
87.836212
  0
LINE
  8
0
 62
     1
 10
307.636780
 20
88.351074
 11
307.636780
 21
87.836212
  0
LINE
  8
0
 62
     1
 10
301.686798
 20
50.779236
 11
319.186798
 21
50.779236
  0
LINE
  8
0
  6
CENTER
 10
280.436798
 20
67.279236
 11
340.436798
 21
67.279236
  0
LINE
  8
0
  6
CENTER
 10
310.436768
 20
97.279236
 11
310.436768
 21
37.279236
  0
LINE
  8
0
  6
CENTER
 62
     1
 10
306.024750
 20
79.401260
 11
303.288605
 21
86.918808
  0
LINE
  8
0
  6
CENTER
 62
     1
 10
314.848846
 20
79.401253
 11
317.585022
 21
86.918793
  0
LINE
  8
0
  6
CENTER
 10
292.936798
 20
89.279251
 11
283.936798
 21
89.279251
  0
LINE
  8
0
  6
CENTER
 10
288.436798
 20
84.779236
 11
288.436798
 21
93.779236
  0
LINE
  8
0
  6
CENTER
 10
288.436798
 20
49.779236
 11
288.436798
 21
40.779236
  0
LINE
  8
0
  6
CENTER
 10
292.936798
 20
45.279251
 11
283.936798
 21
45.279251
  0
LINE
  8
0
  6
CENTER
 10
327.936798
 20
45.279236
 11
336.936798
 21
45.279236
  0
LINE
  8
0
  6
CENTER
 10
332.436768
 20
49.779236
 11
332.436768
 21
40.779236
  0
LINE
  8
0
  6
CENTER
 10
327.936798
 20
89.279236
 11
336.936798
 21
89.279236
  0
LINE
  8
0
  6
CENTER
 10
332.436798
 20
84.779236
 11
332.436798
 21
93.779236
  0
ARC
  8
0
 62
     1
 10
222.070114
 20
88.351067
 40
0.666672
 50
0.000000
 51
60.508053
  0
ARC
  8
0
 62
     1
 10
238.161530
 20
84.465370
 40
0.775251
 50
290.795349
 51
90.000000
  0
ARC
  8
0
 62
     1
 10
219.936783
 20
84.579231
 40
4.999995
 50
60.507675
 51
119.492325
  0
ARC
  8
0
 62
     1
 10
238.749283
 20
82.990623
 40
0.812500
 50
112.619865
 51
247.380142
  0
ARC
  8
0
 62
     1
 10
238.124283
 20
82.990623
 40
0.812500
 50
292.619873
 51
67.380135
  0
ARC
  8
0
 62
     1
 10
217.803452
 20
88.351067
 40
0.666668
 50
119.491943
 51
180.000000
  0
ARC
  8
0
 10
147.179428
 20
69.404480
 40
2.257355
 50
303.848816
 51
56.151062
  0
ARC
  8
0
 62
     1
 10
228.576782
 20
173.979248
 40
0.300003
 50
0.000000
 51
90.000000
  0
ARC
  8
0
 62
     1
 10
238.161530
 20
179.394501
 40
0.775251
 50
290.795349
 51
90.000000
  0
ARC
  8
0
 10
147.179428
 20
170.153992
 40
2.257355
 50
303.848816
 51
56.151169
  0
ARC
  8
0
 62
     1
 10
219.936768
 20
171.006439
 40
0.600009
 50
45.000000
 51
135.000000
  0
ARC
  8
0
 62
     1
 10
221.209564
 20
172.279236
 40
0.600009
 50
135.000000
 51
225.000000
  0
ARC
  8
0
 62
     1
 10
218.663971
 20
172.279236
 40
0.600009
 50
315.000000
 51
45.000000
  0
ARC
  8
0
 62
     1
 10
219.936768
 20
173.552032
 40
0.600009
 50
225.000000
 51
315.000000
  0
CIRCLE
  8
0
 62
     1
 10
219.936768
 20
172.279236
 40
2.799999
  0
ARC
  8
0
 62
     1
 10
238.124268
 20
166.638733
 40
0.812500
 50
292.619873
 51
67.380135
  0
ARC
  8
0
 62
     1
 10
238.749268
 20
166.638733
 40
0.812500
 50
112.619865
 51
247.380142
  0
ARC
  8
0
 62
     1
 10
238.161530
 20
165.164001
 40
0.775253
 50
270.000000
 51
69.203606
  0
ARC
  8
0
 62
     1
 10
238.749268
 20
177.919739
 40
0.812500
 50
112.619865
 51
247.380142
  0
ARC
  8
0
 62
     1
 10
238.124268
 20
177.919739
 40
0.812500
 50
292.619873
 51
67.380135
  0
ARC
  8
0
 62
     1
 10
228.576782
 20
170.579254
 40
0.300003
 50
270.000000
 51
0.000000
  0
ARC
  8
0
 62
     1
 10
226.176758
 20
170.579254
 40
0.300003
 50
180.000000
 51
270.000000
  0
ARC
  8
0
 62
     1
 10
226.176758
 20
173.979248
 40
0.300003
 50
90.000000
 51
180.000000
  0
CIRCLE
  8
0
 10
191.436783
 20
164.779236
 40
2.500000
  0
CIRCLE
  8
0
 10
191.436783
 20
164.779236
 40
2.099999
  0
CIRCLE
  8
0
 10
191.436783
 20
179.779236
 40
2.500000
  0
CIRCLE
  8
0
 10
191.436783
 20
179.779236
 40
2.099999
  0
ARC
  8
0
 62
     1
 10
204.736771
 20
188.229248
 40
0.300003
 50
90.000000
 51
180.000000
  0
ARC
  8
0
 62
     1
 10
204.736771
 20
156.329254
 40
0.300003
 50
180.000000
 51
270.000000
  0
CIRCLE
  8
0
 10
50.436768
 20
47.279236
 40
3.750000
  0
CIRCLE
  8
0
 10
45.436783
 20
82.279236
 40
3.750000
  0
CIRCLE
  8
0
 10
65.436775
 20
67.279236
 40
9.000000
  0
CIRCLE
  8
0
 10
87.436783
 20
89.279221
 40
2.500000
  0
CIRCLE
  8
0
 10
80.436783
 20
87.279228
 40
3.750000
  0
CIRCLE
  8
0
 10
87.436783
 20
89.279221
 40
3.000000
  0
CIRCLE
  8
0
 62
     3
 10
85.436768
 20
52.279228
 40
3.500000
  0
CIRCLE
  8
0
 10
87.436768
 20
45.279228
 40
2.500000
  0
CIRCLE
  8
0
 10
85.436768
 20
52.279228
 40
3.750000
  0
CIRCLE
  8
0
 10
87.436768
 20
45.279228
 40
3.000000
  0
ARC
  8
0
 10
65.436775
 20
67.279236
 40
3.499997
 50
76.002708
 51
13.997289
  0
CIRCLE
  8
0
 62
     3
 10
50.436768
 20
47.279236
 40
3.500000
  0
CIRCLE
  8
0
 62
     3
 10
45.436783
 20
82.279236
 40
3.500000
  0
CIRCLE
  8
0
 10
43.436783
 20
89.279236
 40
2.500000
  0
CIRCLE
  8
0
 10
43.436768
 20
45.279236
 40
2.500000
  0
ARC
  8
0
 10
89.936768
 20
42.779221
 40
2.500000
 50
270.000000
 51
0.000000
  0
ARC
  8
0
 10
89.936783
 20
91.779221
 40
2.500000
 50
0.000000
 51
90.000000
  0
ARC
  8
0
 10
40.936783
 20
91.779243
 40
2.500000
 50
90.000000
 51
180.000000
  0
ARC
  8
0
 10
40.936768
 20
42.779236
 40
2.500000
 50
180.000000
 51
269.999908
  0
CIRCLE
  8
0
 10
65.436775
 20
67.279236
 40
4.000000
  0
CIRCLE
  8
0
 10
43.436768
 20
45.279236
 40
3.000000
  0
CIRCLE
  8
0
 10
43.436783
 20
89.279236
 40
3.000000
  0
CIRCLE
  8
0
 62
     3
 10
80.436783
 20
87.279228
 40
3.500000
  0
ARC
  8
0
 62
     1
 10
305.936798
 20
51.779236
 40
1.000000
 50
270.000000
 51
0.000000
  0
ARC
  8
0
 62
     1
 10
308.136780
 20
51.279236
 40
0.500000
 50
180.000000
 51
270.000000
  0
CIRCLE
  8
0
 10
332.436798
 20
45.279236
 40
2.500000
  0
CIRCLE
  8
0
 10
288.436798
 20
45.279236
 40
2.500000
  0
CIRCLE
  8
0
 10
288.436798
 20
89.279236
 40
2.500000
  0
CIRCLE
  8
0
 10
332.436798
 20
89.279236
 40
2.500000
  0
ARC
  8
0
 62
     1
 10
301.434814
 20
83.831238
 40
0.747991
 50
20.000082
 51
180.000000
  0
CIRCLE
  8
0
 62
     1
 10
304.656677
 20
83.160034
 40
1.500000
  0
ARC
  8
0
 62
     1
 10
312.570129
 20
88.351074
 40
0.666656
 50
0.000000
 51
60.506912
  0
ARC
  8
0
 62
     1
 10
319.438782
 20
83.831238
 40
0.747986
 50
0.000000
 51
159.999924
  0
ARC
  8
0
 62
     1
 10
310.436798
 20
84.579239
 40
5.000003
 50
60.507523
 51
119.492477
  0
ARC
  8
0
 62
     1
 10
308.303467
 20
88.351074
 40
0.666675
 50
119.493088
 51
180.000000
  0
CIRCLE
  8
0
 62
     1
 10
316.216919
 20
83.160034
 40
1.500000
  0
ARC
  8
0
 62
     1
 10
312.736786
 20
51.279236
 40
0.500000
 50
270.000000
 51
0.000000
  0
ARC
  8
0
 62
     1
 10
314.936798
 20
51.779236
 40
1.000000
 50
180.000000
 51
270.000000
  0
ARC
  8
0
 62
     1
 10
301.686798
 20
51.779236
 40
1.000000
 50
180.000000
 51
270.000000
  0
ARC
  8
0
 10
285.936798
 20
91.779236
 40
2.500000
 50
90.000000
 51
180.000000
  0
ARC
  8
0
 10
334.936798
 20
91.779236
 40
2.500000
 50
0.000000
 51
90.000000
  0
ARC
  8
0
 10
334.936798
 20
42.779236
 40
2.500000
 50
270.000000
 51
0.000000
  0
ARC
  8
0
 10
285.936798
 20
42.779236
 40
2.500000
 50
180.000000
 51
270.000000
  0
ARC
  8
0
 10
288.436798
 20
45.279236
 40
4.000000
 50
0.000000
 51
90.000000
  0
ARC
  8
0
 10
288.436798
 20
89.279236
 40
4.000000
 50
270.000000
 51
0.000000
  0
ARC
  8
0
 10
332.436798
 20
89.279236
 40
4.000000
 50
180.000000
 51
270.000000
  0
ARC
  8
0
 10
332.436798
 20
45.279236
 40
4.000000
 50
90.000000
 51
179.999939
  0
ARC
  8
0
 10
284.936798
 20
50.779236
 40
1.500000
 50
180.000000
 51
270.000000
  0
ARC
  8
0
 10
293.936798
 20
41.779236
 40
1.500000
 50
180.000000
 51
270.000000
  0
ARC
  8
0
 10
326.936798
 20
41.779236
 40
1.500000
 50
270.000000
 51
0.000000
  0
ARC
  8
0
 10
335.936798
 20
50.779236
 40
1.500000
 50
270.000000
 51
0.000000
  0
ARC
  8
0
 10
335.936798
 20
83.779236
 40
1.500000
 50
0.000000
 51
90.000000
  0
ARC
  8
0
 10
326.936798
 20
92.779236
 40
1.500000
 50
0.000000
 51
90.000000
  0
ARC
  8
0
 10
293.936798
 20
92.779236
 40
1.500000
 50
90.000000
 51
180.000000
  0
ARC
  8
0
 10
284.936798
 20
83.779236
 40
1.500000
 50
90.000000
 51
180.000000
  0
ARC
  8
0
 62
     1
 10
325.936798
 20
82.779236
 40
5.750000
 50
180.000000
 51
265.757690
  0
ARC
  8
0
 62
     1
 10
325.686798
 20
76.029236
 40
1.000000
 50
0.000000
 51
85.757698
  0
ARC
  8
0
 62
     1
 10
294.936798
 20
82.779236
 40
5.750000
 50
274.242310
 51
0.000000
  0
ARC
  8
0
 62
     1
 10
295.186798
 20
76.029236
 40
1.000001
 50
94.242302
 51
180.000000
  0
ARC
  8
0
 62
     1
 10
325.936798
 20
51.779236
 40
5.750000
 50
94.242310
 51
179.999969
  0
ARC
  8
0
 62
     1
 10
325.686798
 20
58.529236
 40
1.000001
 50
274.242310
 51
0.000000
  0
ARC
  8
0
 62
     1
 10
319.186798
 20
51.779236
 40
1.000000
 50
270.000000
 51
0.000000
  0
ARC
  8
0
 62
     1
 10
295.186798
 20
58.529236
 40
1.000000
 50
180.000000
 51
265.757690
  0
ARC
  8
0
 62
     1
 10
294.936798
 20
51.779236
 40
5.750000
 50
0.000000
 51
85.757690
  0
TEXT
  8
0
 10
298.797760
 20
244.589584
 40
4.242641
  1
DATE : FEB ,1992
 50
0.000000
 41
1.052631
 51
0.000000
  7
STANDARD
  0
TEXT
  8
0
 10
22.035715
 20
211.757431
 40
5.000000
  1
MODEL : RANS20-*-4
 50
0.000000
 41
1.052632
 51
0.000000
  7
STANDARD
  0
TEXT
  8
0
 10
2.113382
 20
243.907959
 40
5.000000
  1
ROTARY ACUTUATOR
 50
0.000000
 41
0.937799
 51
0.000000
  7
STANDARD
  0
TEXT
  8
0
 10
302.273193
 20
3.650512
 40
5.000000
  1
KOGANEI,CORP
 50
0.000000
 41
1.052632
 51
0.000000
  7
STANDARD
  0
LINE
  8
0
 10
192.686859
 20
181.944366
 11
211.355453
 21
214.279312
  0
LINE
  8
0
 10
211.355453
 20
214.279312
 11
226.789566
 21
214.279297
  0
LINE
  8
0
 10
192.686859
 20
181.944366
 11
194.808182
 21
184.065689
  0
LINE
  8
0
 10
192.686859
 20
181.944366
 11
193.463318
 21
184.842148
  0
TEXT
  8
0
 10
212.039566
 20
215.279297
 40
3.500000
  1
2-M5
 50
0.000000
 41
1.052632
 51
0.000000
  7
STANDARD
  0
ENDSEC
  0
EOF
