  0
SECTION
  2
HEADER
  0
ENDSEC
  0
SECTION
  2
TABLES
  0
TABLE
  2
LTYPE
 70
     4
  0
LTYPE
  2
CONTINUOUS
 70
    64
  3
Solid line
 72
    65
 73
     0
 40
0.000000
  0
LTYPE
  2
DASHED
 70
    64
  3
__ __ __ __ __ __ __ __ __ __ __ __ __ __ __
 72
    65
 73
     2
 40
3.500000
 49
2.000000
 49
-1.500000
  0
LTYPE
  2
CENTER
 70
    64
  3
____ _ ____ _ ____ _ ____ _ ____ _ ____ _ ____
 72
    65
 73
     4
 40
17.500000
 49
13.000000
 49
-1.500000
 49
1.500000
 49
-1.500000
  0
LTYPE
  2
PHANTOM
 70
    64
  3
_____ _ _ _____ _ _ _____ _ _ _____ _ _ ____  
 72
    65
 73
     6
 40
15.500000
 49
8.000000
 49
-1.500000
 49
1.500000
 49
-1.500000
 49
1.500000
 49
-1.500000
  0
LTYPE
  2
DASHED1
 70
    64
  3
__ __ __ __ __ __ __ __ __ __ __ __ __ __ __
 72
    65
 73
     2
 40
1.500000
 49
1.000000
 49
-0.500000
  0
LTYPE
  2
DASHED2
 70
    64
  3
__ __ __ __ __ __ __ __ __ __ __ __ __ __ __
 72
    65
 73
     2
 40
3.500000
 49
2.500000
 49
-1.000000
  0
LTYPE
  2
DASHED3
 70
    64
  3
__ __ __ __ __ __ __ __ __ __ __ __ __ __ __
 72
    65
 73
     2
 40
6.000000
 49
4.000000
 49
-2.000000
  0
LTYPE
  2
DASHED4
 70
    64
  3
__ __ __ __ __ __ __ __ __ __ __ __ __ __ __
 72
    65
 73
     2
 40
12.000000
 49
10.000000
 49
-2.000000
  0
LTYPE
  2
DASHED5
 70
    64
  3
__ __ __ __ __ __ __ __ __ __ __ __ __ __ __
 72
    65
 73
     2
 40
17.000000
 49
15.000000
 49
-2.000000
  0
LTYPE
  2
DASHED6
 70
    64
  3
__ __ __ __ __ __ __ __ __ __ __ __ __ __ __
 72
    65
 73
     2
 40
29.000000
 49
27.000000
 49
-2.000000
  0
LTYPE
  2
PHANTOM1
 70
    64
  3
_____ _ _ _____ _ _ _____ _ _ _____ _ _ ____  
 72
    65
 73
     6
 40
31.000000
 49
25.000000
 49
-1.500000
 49
1.000000
 49
-1.000000
 49
1.000000
 49
-1.500000
  0
LTYPE
  2
PHANTOM2
 70
    64
  3
_____ _ _ _____ _ _ _____ _ _ _____ _ _ ____  
 72
    65
 73
     6
 40
36.000000
 49
27.000000
 49
-1.500000
 49
2.500000
 49
-1.000000
 49
2.500000
 49
-1.500000
  0
LTYPE
  2
PHANTOM3
 70
    64
  3
_____ _ _ _____ _ _ _____ _ _ _____ _ _ ____  
 72
    65
 73
     6
 40
78.000000
 49
64.000000
 49
-2.000000
 49
4.000000
 49
-2.000000
 49
4.000000
 49
-2.000000
  0
LTYPE
  2
CENTER1
 70
    64
  3
____ _ ____ _ ____ _ ____ _ ____ _ ____ _ ____
 72
    65
 73
     4
 40
19.000000
 49
14.000000
 49
-1.000000
 49
3.000000
 49
-1.000000
  0
LTYPE
  2
CENTER2
 70
    64
  3
____ _ ____ _ ____ _ ____ _ ____ _ ____ _ ____
 72
    65
 73
     4
 40
28.500000
 49
25.000000
 49
-1.000000
 49
1.500000
 49
-1.000000
  0
LTYPE
  2
CENTER3
 70
    64
  3
____ _ ____ _ ____ _ ____ _ ____ _ ____ _ ____
 72
    65
 73
     4
 40
31.500000
 49
27.000000
 49
-1.000000
 49
2.500000
 49
-1.000000
  0
LTYPE
  2
CENTER4
 70
    64
  3
____ _ ____ _ ____ _ ____ _ ____ _ ____ _ ____
 72
    65
 73
     4
 40
50.000000
 49
45.000000
 49
-1.000000
 49
3.000000
 49
-1.000000
  0
LTYPE
  2
CENTER5
 70
    64
  3
____ _ ____ _ ____ _ ____ _ ____ _ ____ _ ____
 72
    65
 73
     4
 40
100.000000
 49
92.000000
 49
-2.000000
 49
4.000000
 49
-2.000000
  0
LTYPE
  2
SBK1
 70
    64
  3
______ _ _ _ ______ _ _ _ ______ _ _ _ _____  
 72
    65
 73
     8
 40
60.500000
 49
45.000000
 49
-2.000000
 49
2.500000
 49
-2.000000
 49
2.500000
 49
-2.000000
 49
2.500000
 49
-2.000000
  0
LTYPE
  2
SBK2
 70
    64
  3
______ _ _ _ ______ _ _ _ ______ _ _ _ _____  
 72
    65
 73
     8
 40
84.000000
 49
64.000000
 49
-2.000000
 49
4.000000
 49
-2.000000
 49
4.000000
 49
-2.000000
 49
4.000000
 49
-2.000000
  0
LTYPE
  2
STCH
 70
    64
  3
__ __ __ __ __ __ __ __ __ __ __ __ __ __ __
 72
    65
 73
     2
 40
3.000000
 49
1.000000
 49
-2.000000
  0
LTYPE
  2
MTCH
 70
    64
  3
_____ _ _ _____ _ _ _____ _ _ _____ _ _ ____  
 72
    65
 73
     6
 40
80.000000
 49
66.000000
 49
-2.000000
 49
4.000000
 49
-2.000000
 49
4.000000
 49
-2.000000
  0
ENDTAB
  0
TABLE
  2
LAYER
 70
     1
  0
LAYER
  2
0
 70
     0
 62
     7
  6
CONTINUOUS
  0
ENDTAB
  0
TABLE
  2
STYLE
 70
     1
  0
STYLE
  2
STANDARD
 70
     0
 40
0.000000
 41
1.000000
 50
0.000000
 71
     0
 42
0.200000
  3
txt
  4
BIGFONT
  0
ENDTAB
  0
TABLE
  2
VIEW
 70
     0
  0
ENDTAB
  0
ENDSEC
  0
SECTION
  2
BLOCKS
  0
ENDSEC
  0
SECTION
  2
ENTITIES
  0
POINT
  8
0
 10
111.747223
 20
140.000061
  0
POINT
  8
0
 10
295.747223
 20
270.000031
  0
POINT
  8
0
 10
295.747223
 20
140.000046
  0
POINT
  8
0
 10
260.747223
 20
45.000031
  0
POINT
  8
0
 10
415.247223
 20
140.000046
  0
POINT
  8
0
 10
415.247223
 20
270.000031
  0
POINT
  8
0
 10
161.747223
 20
140.000061
  0
POINT
  8
0
 10
296.747223
 20
45.000031
  0
LINE
  8
0
 62
     3
 10
0.000000
 20
0.000000
 11
0.000000
 21
360.000092
  0
LINE
  8
0
 62
     3
 10
524.494446
 20
360.000092
 11
524.494446
 21
0.000000
  0
LINE
  8
0
 62
     3
 10
0.000000
 20
0.000000
 11
524.494446
 21
0.000000
  0
LINE
  8
0
 62
     3
 10
0.000000
 20
360.000092
 11
524.494446
 21
360.000092
  0
LINE
  8
0
 62
     3
 10
0.000000
 20
339.775330
 11
107.865173
 21
339.775330
  0
LINE
  8
0
 62
     3
 10
107.865173
 20
339.775330
 11
107.865173
 21
360.000092
  0
LINE
  8
0
 62
     3
 10
416.629272
 20
20.224701
 11
524.494446
 21
20.224701
  0
LINE
  8
0
 62
     3
 10
416.629272
 20
339.775330
 11
524.494446
 21
339.775330
  0
LINE
  8
0
 62
     3
 10
416.629272
 20
360.000092
 11
416.629272
 21
339.775330
  0
LINE
  8
0
 62
     3
 10
416.629272
 20
20.224701
 11
416.629272
 21
0.000000
  0
LINE
  8
0
 10
415.247223
 20
167.444061
 11
415.247223
 21
110.000046
  0
LINE
  8
0
 10
413.247223
 20
167.444061
 11
413.247223
 21
110.000046
  0
LINE
  8
0
 10
295.747223
 20
105.000061
 11
300.247223
 21
105.000061
  0
LINE
  8
0
 10
295.747223
 20
175.000061
 11
300.247223
 21
175.000061
  0
LINE
  8
0
 10
295.747223
 20
175.000061
 11
295.747223
 21
105.000061
  0
LINE
  8
0
 10
366.247223
 20
175.000046
 11
366.247223
 21
105.000046
  0
LINE
  8
0
 10
320.247223
 20
175.000046
 11
366.247223
 21
175.000046
  0
LINE
  8
0
 10
320.247223
 20
105.000046
 11
366.247223
 21
105.000046
  0
LINE
  8
0
 10
300.247223
 20
175.000061
 11
300.247223
 21
105.000061
  0
LINE
  8
0
 10
342.247223
 20
175.000046
 11
342.247223
 21
105.000046
  0
LINE
  8
0
 10
301.247223
 20
170.000046
 11
320.247223
 21
170.000046
  0
LINE
  8
0
 10
301.247223
 20
110.000046
 11
320.247223
 21
110.000046
  0
LINE
  8
0
 10
300.247223
 20
169.000046
 11
301.247223
 21
170.000046
  0
LINE
  8
0
 10
300.247192
 20
111.000031
 11
301.247192
 21
110.000023
  0
LINE
  8
0
 10
320.247223
 20
175.000046
 11
320.247223
 21
105.000046
  0
LINE
  8
0
 10
301.247223
 20
110.000046
 11
301.247223
 21
170.000046
  0
LINE
  8
0
 10
260.747223
 20
145.000046
 11
260.747223
 21
135.000046
  0
LINE
  8
0
 10
386.247223
 20
169.000046
 11
386.247223
 21
111.000046
  0
LINE
  8
0
 10
366.247223
 20
110.000046
 11
385.247223
 21
110.000046
  0
LINE
  8
0
 10
366.247223
 20
170.000046
 11
385.247223
 21
170.000046
  0
LINE
  8
0
 10
386.247162
 20
111.000076
 11
385.247162
 21
110.000076
  0
LINE
  8
0
 10
385.247009
 20
169.999847
 11
386.247009
 21
168.999847
  0
LINE
  8
0
 10
385.247223
 20
170.000046
 11
385.247223
 21
110.000046
  0
LINE
  8
0
 10
261.747223
 20
134.000046
 11
295.747223
 21
134.000046
  0
LINE
  8
0
 10
261.747223
 20
146.000046
 11
295.747223
 21
146.000046
  0
LINE
  8
0
 10
260.747223
 20
145.000046
 11
261.747192
 21
146.000031
  0
LINE
  8
0
 10
260.747223
 20
135.000046
 11
261.747223
 21
134.000046
  0
LINE
  8
0
 10
261.747223
 20
146.000046
 11
261.747223
 21
134.000046
  0
LINE
  8
0
 10
413.247223
 20
170.000046
 11
413.247223
 21
169.739929
  0
LINE
  8
0
 10
415.247223
 20
170.000046
 11
415.247223
 21
169.739929
  0
LINE
  8
0
 10
386.247223
 20
170.000046
 11
394.747223
 21
170.000046
  0
LINE
  8
0
 10
386.247223
 20
110.000046
 11
415.247223
 21
110.000046
  0
LINE
  8
0
 10
386.247223
 20
131.275940
 11
415.247223
 21
131.275940
  0
LINE
  8
0
 10
386.247223
 20
119.504150
 11
415.247223
 21
119.504150
  0
LINE
  8
0
 10
386.247223
 20
167.444061
 11
415.247223
 21
167.444061
  0
LINE
  8
0
 10
390.247223
 20
167.444061
 11
390.247223
 21
170.000046
  0
LINE
  8
0
 10
388.747223
 20
167.444061
 11
388.747223
 21
169.598129
  0
LINE
  8
0
 10
390.247131
 20
170.000046
 11
388.747131
 21
169.598129
  0
LINE
  8
0
 10
410.747223
 20
167.444061
 11
410.747223
 21
170.000046
  0
LINE
  8
0
 10
412.222473
 20
167.444061
 11
412.222473
 21
169.739929
  0
LINE
  8
0
 10
410.747284
 20
170.000168
 11
412.222504
 21
169.740051
  0
LINE
  8
0
 10
415.247223
 20
166.739929
 11
427.222473
 21
166.739929
  0
LINE
  8
0
 10
412.222473
 20
169.739929
 11
427.222473
 21
169.739929
  0
LINE
  8
0
 10
394.747223
 20
172.582153
 11
394.747223
 21
168.042084
  0
LINE
  8
0
 10
404.747223
 20
172.582153
 11
404.747223
 21
168.042084
  0
LINE
  8
0
 10
402.747223
 20
173.082153
 11
402.747223
 21
172.582153
  0
LINE
  8
0
 10
396.747223
 20
173.082153
 11
396.747223
 21
172.582153
  0
LINE
  8
0
 10
396.747223
 20
173.082153
 11
402.747223
 21
173.082153
  0
LINE
  8
0
 10
394.747223
 20
172.582153
 11
404.747223
 21
172.582153
  0
LINE
  8
0
 10
404.747223
 20
170.000046
 11
415.247223
 21
170.000046
  0
LINE
  8
0
 10
394.747223
 20
168.042084
 11
404.747223
 21
168.042084
  0
LINE
  8
0
 10
394.747223
 20
169.921478
 11
404.747223
 21
169.921478
  0
LINE
  8
0
 10
394.747223
 20
170.582153
 11
404.747223
 21
170.582153
  0
LINE
  8
0
  6
CENTER
 10
257.747223
 20
140.000046
 11
418.247223
 21
140.000046
  0
LINE
  8
0
  6
CENTER
 10
399.747223
 20
178.082153
 11
399.747223
 21
165.042084
  0
LINE
  8
0
 10
295.747223
 20
320.000061
 11
300.247223
 21
320.000061
  0
LINE
  8
0
 10
295.747223
 20
220.000031
 11
300.247223
 21
220.000031
  0
LINE
  8
0
 10
295.747223
 20
320.000061
 11
295.747223
 21
220.000031
  0
LINE
  8
0
 10
267.747223
 20
268.000031
 11
283.747223
 21
268.000031
  0
LINE
  8
0
 10
267.747223
 20
272.000031
 11
283.747223
 21
272.000031
  0
LINE
  8
0
 10
320.247223
 20
305.000031
 11
366.247223
 21
305.000031
  0
LINE
  8
0
 10
320.247223
 20
235.000031
 11
366.247223
 21
235.000031
  0
LINE
  8
0
 10
300.247223
 20
320.000061
 11
300.247223
 21
220.000031
  0
LINE
  8
0
 10
342.247223
 20
305.000031
 11
342.247223
 21
235.000031
  0
LINE
  8
0
 10
301.247223
 20
300.000031
 11
320.247223
 21
300.000031
  0
LINE
  8
0
 10
301.247223
 20
240.000031
 11
320.247223
 21
240.000031
  0
LINE
  8
0
 10
300.247253
 20
299.000031
 11
301.247253
 21
300.000061
  0
LINE
  8
0
 10
300.247040
 20
240.999893
 11
301.247040
 21
239.999893
  0
LINE
  8
0
 10
320.247223
 20
305.000031
 11
320.247223
 21
235.000031
  0
LINE
  8
0
 10
301.247223
 20
240.000031
 11
301.247223
 21
300.000031
  0
LINE
  8
0
 10
386.247223
 20
299.000031
 11
386.247223
 21
241.000031
  0
LINE
  8
0
 10
366.247223
 20
240.000031
 11
385.247223
 21
240.000031
  0
LINE
  8
0
 10
366.247223
 20
300.000031
 11
385.247223
 21
300.000031
  0
LINE
  8
0
 10
386.247192
 20
241.000031
 11
385.247192
 21
240.000015
  0
LINE
  8
0
 10
385.246826
 20
299.999634
 11
386.246826
 21
298.999634
  0
LINE
  8
0
 10
385.247223
 20
300.000031
 11
385.247223
 21
240.000031
  0
LINE
  8
0
 10
366.247223
 20
305.000031
 11
366.247223
 21
235.000031
  0
LINE
  8
0
 10
261.747223
 20
276.000031
 11
261.747223
 21
264.000031
  0
LINE
  8
0
 10
260.747223
 20
275.000031
 11
260.747223
 21
265.000031
  0
LINE
  8
0
 10
261.747223
 20
264.000031
 11
295.747223
 21
264.000031
  0
LINE
  8
0
 10
261.747223
 20
276.000031
 11
295.747223
 21
276.000031
  0
LINE
  8
0
 10
260.747223
 20
275.000000
 11
261.747223
 21
276.000000
  0
LINE
  8
0
 10
260.747101
 20
264.999939
 11
261.747101
 21
263.999939
  0
LINE
  8
0
 10
413.247223
 20
300.000031
 11
413.247223
 21
282.050903
  0
LINE
  8
0
 10
415.247223
 20
300.000031
 11
415.247223
 21
282.050903
  0
LINE
  8
0
 10
386.247223
 20
300.000031
 11
415.247223
 21
300.000031
  0
LINE
  8
0
 10
386.247223
 20
240.000031
 11
415.247223
 21
240.000031
  0
LINE
  8
0
 10
386.247223
 20
261.209290
 11
394.747223
 21
261.209290
  0
LINE
  8
0
 10
386.247223
 20
257.689026
 11
394.747223
 21
257.689026
  0
LINE
  8
0
 10
386.247223
 20
278.790771
 11
394.747223
 21
278.790771
  0
LINE
  8
0
 10
386.247223
 20
282.311035
 11
394.747223
 21
282.311035
  0
LINE
  8
0
 10
404.747223
 20
283.000031
 11
404.747223
 21
257.000031
  0
LINE
  8
0
 10
394.747223
 20
283.000031
 11
394.747223
 21
257.000031
  0
LINE
  8
0
 10
393.747223
 20
277.500031
 11
393.747223
 21
262.500031
  0
LINE
  8
0
 10
405.747223
 20
277.500031
 11
405.747223
 21
262.500031
  0
LINE
  8
0
 10
393.747223
 20
277.500031
 11
394.747223
 21
277.500031
  0
LINE
  8
0
 10
404.747223
 20
262.500031
 11
405.747223
 21
262.500031
  0
LINE
  8
0
 10
404.747223
 20
277.500031
 11
405.747223
 21
277.500031
  0
LINE
  8
0
 10
394.747223
 20
283.000031
 11
404.747223
 21
283.000031
  0
LINE
  8
0
 10
394.747223
 20
257.000031
 11
404.747223
 21
257.000031
  0
LINE
  8
0
 10
404.747223
 20
282.311035
 11
415.247223
 21
282.311035
  0
LINE
  8
0
 10
404.747223
 20
278.790771
 11
415.247223
 21
278.790771
  0
LINE
  8
0
 10
404.747223
 20
261.209290
 11
415.247223
 21
261.209290
  0
LINE
  8
0
 10
404.747223
 20
257.689026
 11
415.247223
 21
257.689026
  0
LINE
  8
0
 10
394.747223
 20
259.000031
 11
404.747223
 21
259.000031
  0
LINE
  8
0
 10
394.747223
 20
281.000031
 11
404.747223
 21
281.000031
  0
LINE
  8
0
 10
398.686523
 20
268.939331
 11
400.807861
 21
271.060638
  0
LINE
  8
0
 10
398.686646
 20
271.060791
 11
400.807983
 21
268.939484
  0
LINE
  8
0
 10
410.747223
 20
282.311035
 11
410.747223
 21
278.790771
  0
LINE
  8
0
 10
388.747223
 20
281.909119
 11
388.747223
 21
279.192688
  0
LINE
  8
0
 10
390.247223
 20
282.311035
 11
390.247223
 21
278.790771
  0
LINE
  8
0
 10
390.247223
 20
282.310974
 11
388.747223
 21
281.909058
  0
LINE
  8
0
 10
390.247192
 20
278.790741
 11
388.747192
 21
279.192657
  0
LINE
  8
0
 10
412.222473
 20
279.050903
 11
427.222473
 21
279.050903
  0
LINE
  8
0
 10
412.222473
 20
282.050903
 11
427.222473
 21
282.050903
  0
LINE
  8
0
 10
410.747162
 20
282.310913
 11
412.222412
 21
282.050781
  0
LINE
  8
0
 10
410.747192
 20
278.790710
 11
412.222412
 21
279.050842
  0
LINE
  8
0
 10
412.222473
 20
282.050903
 11
412.222473
 21
279.050903
  0
LINE
  8
0
 10
413.247223
 20
257.949158
 11
413.247223
 21
240.000031
  0
LINE
  8
0
 10
413.247223
 20
279.050903
 11
413.247223
 21
260.949158
  0
LINE
  8
0
 10
415.247223
 20
279.050903
 11
415.247223
 21
260.949158
  0
LINE
  8
0
 10
415.247223
 20
257.949158
 11
415.247223
 21
240.000031
  0
LINE
  8
0
 10
386.247223
 20
291.907074
 11
415.247223
 21
291.907074
  0
LINE
  8
0
 10
390.247192
 20
257.688995
 11
388.747192
 21
258.090912
  0
LINE
  8
0
 10
410.747223
 20
257.689026
 11
410.747223
 21
261.209290
  0
LINE
  8
0
 10
412.222473
 20
260.949158
 11
427.222473
 21
260.949158
  0
LINE
  8
0
 10
412.222473
 20
257.949158
 11
412.222473
 21
260.949158
  0
LINE
  8
0
 10
393.747223
 20
262.500031
 11
394.747223
 21
262.500031
  0
LINE
  8
0
 10
410.747284
 20
261.209473
 11
412.222504
 21
260.949341
  0
LINE
  8
0
 10
412.222473
 20
257.949158
 11
427.222473
 21
257.949158
  0
LINE
  8
0
 10
390.247223
 20
257.689026
 11
390.247223
 21
261.209290
  0
LINE
  8
0
 10
390.247192
 20
261.209229
 11
388.747192
 21
260.807312
  0
LINE
  8
0
 10
410.747162
 20
257.688965
 11
412.222412
 21
257.949097
  0
LINE
  8
0
 10
388.747223
 20
258.090942
 11
388.747223
 21
260.807373
  0
LINE
  8
0
  6
CENTER
 10
257.747223
 20
270.000031
 11
418.247223
 21
270.000031
  0
LINE
  8
0
  6
CENTER
 10
323.747223
 20
285.000031
 11
338.747223
 21
285.000031
  0
LINE
  8
0
  6
CENTER
 10
331.247223
 20
292.500031
 11
331.247223
 21
277.500031
  0
LINE
  8
0
  6
CENTER
 10
355.247223
 20
262.500031
 11
355.247223
 21
247.500031
  0
LINE
  8
0
  6
CENTER
 10
347.747223
 20
255.000031
 11
362.747223
 21
255.000031
  0
LINE
  8
0
  6
CENTER
 10
399.747223
 20
275.000031
 11
399.747223
 21
265.000031
  0
LINE
  8
0
 10
65.747238
 20
105.000061
 11
157.747238
 21
105.000061
  0
LINE
  8
0
 10
65.747208
 20
175.000061
 11
157.747208
 21
175.000061
  0
LINE
  8
0
 10
93.477341
 20
153.406036
 11
86.715858
 21
151.594315
  0
LINE
  8
0
 10
89.190483
 20
155.880753
 11
91.002213
 21
149.119278
  0
LINE
  8
0
 10
91.002502
 20
130.880798
 11
89.190773
 21
124.119308
  0
LINE
  8
0
 10
86.715843
 20
128.405945
 11
93.477325
 21
126.594215
  0
LINE
  8
0
 10
109.272385
 20
112.525276
 11
114.222130
 21
117.475021
  0
LINE
  8
0
 10
130.017090
 20
126.594193
 11
136.778564
 21
128.405930
  0
LINE
  8
0
 10
134.303665
 20
124.119324
 11
132.491928
 21
130.880814
  0
LINE
  8
0
 10
132.491943
 20
149.119354
 11
134.303680
 21
155.880829
  0
LINE
  8
0
 10
136.778580
 20
151.594208
 11
130.017105
 21
153.405930
  0
LINE
  8
0
 10
114.222031
 20
162.525131
 11
109.272278
 21
167.474884
  0
LINE
  8
0
 10
114.221977
 20
167.475052
 11
109.272224
 21
162.525299
  0
LINE
  8
0
 10
161.747223
 20
171.000061
 11
161.747223
 21
109.000076
  0
LINE
  8
0
 10
61.747223
 20
171.000046
 11
61.747223
 21
109.000046
  0
LINE
  8
0
  6
CENTER
 10
58.747223
 20
140.000061
 11
164.747223
 21
140.000061
  0
LINE
  8
0
  6
CENTER
 10
111.747223
 20
178.000061
 11
111.747223
 21
102.000061
  0
LINE
  8
0
  6
CENTER
 10
69.747223
 20
172.500046
 11
69.747223
 21
161.500046
  0
LINE
  8
0
  6
CENTER
 10
75.247223
 20
167.000061
 11
64.247223
 21
167.000061
  0
LINE
  8
0
  6
CENTER
 10
69.747223
 20
118.500046
 11
69.747223
 21
107.500046
  0
LINE
  8
0
  6
CENTER
 10
75.247223
 20
113.000061
 11
64.247223
 21
113.000061
  0
LINE
  8
0
  6
CENTER
 10
148.247223
 20
113.000061
 11
159.247223
 21
113.000061
  0
LINE
  8
0
  6
CENTER
 10
153.747223
 20
118.500076
 11
153.747223
 21
107.500076
  0
LINE
  8
0
  6
CENTER
 10
148.247223
 20
167.000061
 11
159.247223
 21
167.000061
  0
LINE
  8
0
  6
CENTER
 10
153.747223
 20
172.500061
 11
153.747223
 21
161.500061
  0
LINE
  8
0
  6
CENTER
 10
126.469681
 20
148.500076
 11
140.326096
 21
156.500076
  0
LINE
  8
0
  6
CENTER
 10
140.326019
 20
123.500061
 11
126.469627
 21
131.500061
  0
LINE
  8
0
  6
CENTER
 10
83.168411
 20
123.500076
 11
97.024803
 21
131.500061
  0
LINE
  8
0
  6
CENTER
 10
83.168350
 20
156.500061
 11
97.024765
 21
148.500061
  0
LINE
  8
0
 10
109.272316
 20
117.474922
 11
114.222069
 21
112.525169
  0
LINE
  8
0
 10
261.747223
 20
51.000031
 11
261.747223
 21
39.000031
  0
LINE
  8
0
 10
260.747253
 20
40.000118
 11
261.747253
 21
39.000114
  0
LINE
  8
0
 10
261.747223
 20
51.000031
 11
296.747223
 21
51.000031
  0
LINE
  8
0
 10
260.747192
 20
50.000031
 11
261.747192
 21
51.000034
  0
LINE
  8
0
 10
260.747223
 20
50.000031
 11
260.747223
 21
40.000031
  0
LINE
  8
0
 10
261.747223
 20
39.000031
 11
296.747223
 21
39.000031
  0
LINE
  8
0
 10
265.747223
 20
52.500031
 11
285.615997
 21
52.500031
  0
LINE
  8
0
 10
285.615997
 20
52.500031
 11
285.615997
 21
51.000031
  0
LINE
  8
0
 10
265.747223
 20
52.500031
 11
265.747223
 21
51.000031
  0
LINE
  8
0
  6
CENTER
 10
257.747223
 20
45.000031
 11
305.247223
 21
45.000031
  0
LINE
  8
0
  6
PHANTOM
 10
296.747223
 20
56.500031
 11
296.747223
 21
33.500031
  0
LINE
  8
0
  6
PHANTOM
 10
297.747223
 20
57.500031
 11
297.747223
 21
32.500031
  0
LINE
  8
0
  6
PHANTOM
 10
297.747223
 20
57.500031
 11
300.247223
 21
57.500031
  0
LINE
  8
0
  6
PHANTOM
 10
296.747192
 20
56.500027
 11
297.747192
 21
57.500031
  0
LINE
  8
0
  6
PHANTOM
 10
297.747253
 20
32.500050
 11
296.747253
 21
33.500053
  0
LINE
  8
0
  6
PHANTOM
 10
297.747223
 20
32.500031
 11
300.247223
 21
32.500031
  0
ARC
  8
0
 10
427.883911
 20
167.489929
 40
1.000000
 50
131.409622
 51
228.590378
  0
ARC
  8
0
 10
399.747223
 20
172.191528
 40
2.890625
 50
17.945253
 51
162.054749
  0
ARC
  8
0
 10
426.561035
 20
168.989929
 40
1.000000
 50
311.409637
 51
48.590370
  0
ARC
  8
0
 10
426.561035
 20
167.489929
 40
1.000000
 50
311.409637
 51
48.590370
  0
CIRCLE
  8
0
 10
355.247223
 20
255.000031
 40
4.283000
  0
CIRCLE
  8
0
 10
331.247223
 20
285.000031
 40
4.864000
  0
CIRCLE
  8
0
 10
399.747223
 20
270.000031
 40
3.000000
  0
CIRCLE
  8
0
 10
399.747223
 20
270.000031
 40
2.750000
  0
ARC
  8
0
 10
426.561035
 20
258.699158
 40
1.000000
 50
311.409637
 51
48.590370
  0
ARC
  8
0
 10
427.883911
 20
258.699158
 40
1.000000
 50
131.409622
 51
228.590378
  0
ARC
  8
0
 10
426.561035
 20
260.199158
 40
1.000000
 50
311.409637
 51
48.590370
  0
ARC
  8
0
 10
426.561035
 20
281.300903
 40
1.000000
 50
311.409637
 51
48.590370
  0
ARC
  8
0
 10
426.561035
 20
279.800903
 40
1.000000
 50
311.409637
 51
48.590370
  0
ARC
  8
0
 10
427.883911
 20
281.300903
 40
1.000000
 50
131.409622
 51
228.590378
  0
CIRCLE
  8
0
 10
355.247223
 20
255.000031
 40
4.864000
  0
CIRCLE
  8
0
 10
331.247223
 20
285.000031
 40
4.283000
  0
ARC
  8
0
 10
283.747223
 20
270.000031
 40
2.000000
 50
270.000000
 51
90.000000
  0
ARC
  8
0
 10
267.747223
 20
270.000031
 40
2.000000
 50
90.000000
 51
270.000000
  0
CIRCLE
  8
0
 10
90.096603
 20
152.500061
 40
5.500000
  0
CIRCLE
  8
0
 10
90.096603
 20
152.500061
 40
6.250000
  0
CIRCLE
  8
0
 10
153.747223
 20
167.000061
 40
3.500000
  0
ARC
  8
0
 10
157.747223
 20
109.000076
 40
4.000000
 50
270.000000
 51
0.000000
  0
ARC
  8
0
 10
157.747223
 20
171.000061
 40
4.000000
 50
0.000000
 51
90.000000
  0
ARC
  8
0
 10
65.747223
 20
171.000046
 40
4.000000
 50
90.000000
 51
180.000000
  0
ARC
  8
0
 10
65.747223
 20
109.000046
 40
4.000000
 50
180.000000
 51
270.000000
  0
ARC
  8
0
  6
CENTER
 10
111.747223
 20
140.000061
 40
25.000000
 50
131.337036
 51
168.662842
  0
CIRCLE
  8
0
 10
111.747238
 20
165.000046
 40
5.500000
  0
CIRCLE
  8
0
 10
90.096588
 20
127.500061
 40
6.250000
  0
CIRCLE
  8
0
 10
111.747238
 20
165.000046
 40
6.250000
  0
CIRCLE
  8
0
 10
133.397858
 20
152.500046
 40
5.500000
  0
CIRCLE
  8
0
 10
111.747208
 20
115.000061
 40
6.250000
  0
CIRCLE
  8
0
 10
133.397858
 20
152.500046
 40
6.250000
  0
CIRCLE
  8
0
 10
133.397842
 20
127.500046
 40
5.500000
  0
CIRCLE
  8
0
 10
90.096588
 20
127.500061
 40
5.500000
  0
CIRCLE
  8
0
 10
133.397842
 20
127.500046
 40
6.250000
  0
ARC
  8
0
  6
CENTER
 10
111.747223
 20
140.000061
 40
24.999998
 50
191.337051
 51
228.662903
  0
CIRCLE
  8
0
 10
111.747223
 20
140.000061
 40
12.500000
  0
CIRCLE
  8
0
 10
111.747223
 20
140.000061
 40
11.500000
  0
CIRCLE
  8
0
 10
69.747223
 20
167.000046
 40
3.500000
  0
CIRCLE
  8
0
 10
153.747223
 20
113.000076
 40
3.500000
  0
CIRCLE
  8
0
 10
69.747223
 20
113.000061
 40
3.500000
  0
CIRCLE
  8
0
 10
111.747223
 20
140.000061
 40
5.000000
  0
CIRCLE
  8
0
 10
111.747223
 20
140.000061
 40
6.000000
  0
CIRCLE
  8
0
 10
111.747208
 20
115.000061
 40
5.500000
  0
ARC
  8
0
  6
CENTER
 10
111.747223
 20
140.000061
 40
25.000000
 50
251.337036
 51
288.662903
  0
ARC
  8
0
  6
CENTER
 10
111.747223
 20
140.000061
 40
24.999994
 50
71.337013
 51
108.662872
  0
ARC
  8
0
  6
CENTER
 10
111.747223
 20
140.000061
 40
24.999994
 50
11.337016
 51
48.662872
  0
ARC
  8
0
  6
CENTER
 10
111.747223
 20
140.000061
 40
25.000000
 50
311.337036
 51
348.662872
  0
TEXT
  8
0
 10
422.460297
 20
345.487762
 40
6.000000
  1
DATE : FEB ,1992
 50
0.000000
 41
1.052631
 51
0.000000
  7
STANDARD
  0
TEXT
  8
0
 10
0.682591
 20
344.587769
 40
7.000000
  1
ROTARY ACTUATOR
 50
0.000000
 41
1.052632
 51
0.000000
  7
STANDARD
  0
TEXT
  8
0
 10
33.750000
 20
299.475342
 40
7.000000
  1
MODEL : RANS50-*-3A
 50
0.000000
 41
1.052632
 51
0.000000
  7
STANDARD
  0
TEXT
  8
0
 10
427.811859
 20
4.812350
 40
7.000000
  1
KOGANEI,CORP
 50
0.000000
 41
1.052632
 51
0.000000
  7
STANDARD
  0
LINE
  8
0
 10
333.679169
 20
289.212341
 11
354.341156
 21
324.999969
  0
LINE
  8
0
 10
354.341156
 20
324.999969
 11
391.431000
 21
324.999969
  0
LINE
  8
0
 10
333.679169
 20
289.212341
 11
335.800476
 21
291.333649
  0
LINE
  8
0
 10
333.679169
 20
289.212341
 11
334.455627
 21
292.110107
  0
TEXT
  8
0
 10
355.252441
 20
325.999969
 40
5.000000
  1
2-Rc1/8
 50
0.000000
 41
1.052632
 51
0.000000
  7
STANDARD
  0
ENDSEC
  0
EOF
