  0
SECTION
  2
HEADER
  9
$ACADVER
  1
AC1006
  9
$INSBASE
 10
0.0
 20
0.0
 30
0.0
  9
$EXTMIN
 10
0.0
 20
0.0
  9
$EXTMAX
 10
370.873566
 20
254.558472
  9
$LIMMIN
 10
0.0
 20
0.0
  9
$LIMMAX
 10
12.0
 20
9.0
  9
$ORTHOMODE
 70
     1
  9
$REGENMODE
 70
     1
  9
$FILLMODE
 70
     1
  9
$QTEXTMODE
 70
     0
  9
$MIRRTEXT
 70
     1
  9
$DRAGMODE
 70
     2
  9
$LTSCALE
 40
1.0
  9
$OSMODE
 70
    32
  9
$ATTMODE
 70
     1
  9
$TEXTSIZE
 40
0.2
  9
$TRACEWID
 40
0.05
  9
$TEXTSTYLE
  7
STANDARD
  9
$CLAYER
  8
0
  9
$CELTYPE
  6
BYLAYER
  9
$CECOLOR
 62
   256
  9
$DIMSCALE
 40
1.0
  9
$DIMASZ
 40
0.18
  9
$DIMEXO
 40
0.0625
  9
$DIMDLI
 40
0.38
  9
$DIMRND
 40
0.0
  9
$DIMDLE
 40
0.0
  9
$DIMEXE
 40
0.18
  9
$DIMTP
 40
0.0
  9
$DIMTM
 40
0.0
  9
$DIMTXT
 40
0.18
  9
$DIMCEN
 40
0.09
  9
$DIMTSZ
 40
0.0
  9
$DIMTOL
 70
     0
  9
$DIMLIM
 70
     0
  9
$DIMTIH
 70
     1
  9
$DIMTOH
 70
     1
  9
$DIMSE1
 70
     0
  9
$DIMSE2
 70
     0
  9
$DIMTAD
 70
     0
  9
$DIMZIN
 70
     0
  9
$DIMBLK
  1

  9
$DIMASO
 70
     1
  9
$DIMSHO
 70
     0
  9
$DIMPOST
  1

  9
$DIMAPOST
  1

  9
$DIMALT
 70
     0
  9
$DIMALTD
 70
     2
  9
$DIMALTF
 40
25.4
  9
$DIMLFAC
 40
1.0
  9
$DIMTOFL
 70
     0
  9
$DIMTVP
 40
0.0
  9
$DIMTIX
 70
     0
  9
$DIMSOXD
 70
     0
  9
$DIMSAH
 70
     0
  9
$DIMBLK1
  1

  9
$DIMBLK2
  1

  9
$LUNITS
 70
     2
  9
$LUPREC
 70
     4
  9
$AXISMODE
 70
     0
  9
$AXISUNIT
 10
0.0
 20
0.0
  9
$SKETCHINC
 40
0.1
  9
$FILLETRAD
 40
0.0
  9
$AUNITS
 70
     0
  9
$AUPREC
 70
     0
  9
$MENU
  1
acad
  9
$ELEVATION
 40
0.0
  9
$THICKNESS
 40
0.0
  9
$LIMCHECK
 70
     0
  9
$BLIPMODE
 70
     1
  9
$CHAMFERA
 40
0.0
  9
$CHAMFERB
 40
0.0
  9
$SKPOLY
 70
     0
  9
$TDCREATE
 40
2448820.6057060184
  9
$TDUPDATE
 40
2448820.6057060184
  9
$TDINDWG
 40
0.0000000000
  9
$TDUSRTIMER
 40
0.0000000000
  9
$USRTIMER
 70
     1
  9
$ANGBASE
 50
0.0
  9
$ANGDIR
 70
     0
  9
$PDMODE
 70
     0
  9
$PDSIZE
 40
0.0
  9
$PLINEWID
 40
0.0
  9
$COORDS
 70
     0
  9
$SPLFRAME
 70
     0
  9
$SPLINETYPE
 70
     6
  9
$SPLINESEGS
 70
     8
  9
$ATTDIA
 70
     0
  9
$ATTREQ
 70
     1
  9
$HANDLING
 70
     0
  9
$HANDSEED
  5
0
  9
$SURFTAB1
 70
     6
  9
$SURFTAB2
 70
     6
  9
$SURFTYPE
 70
     6
  9
$SURFU
 70
     6
  9
$SURFV
 70
     6
  9
$FLATLAND
 70
     0
  9
$UCSNAME
  2

  9
$UCSORG
 10
0.0
 20
0.0
 30
0.0
  9
$UCSXDIR
 10
1.0
 20
0.0
 30
0.0
  9
$UCSYDIR
 10
0.0
 20
1.0
 30
0.0
  9
$USERI1
 70
     0
  9
$USERI2
 70
     0
  9
$USERI3
 70
     0
  9
$USERI4
 70
     0
  9
$USERI5
 70
     0
  9
$USERR1
 40
0.0
  9
$USERR2
 40
0.0
  9
$USERR3
 40
0.0
  9
$USERR4
 40
0.0
  9
$USERR5
 40
0.0
  9
$WORLDVIEW
 70
     1
  0
ENDSEC
  0
SECTION
  2
TABLES
  0
TABLE
  2
VPORT
 70
     3
  0
VPORT
  2
*ACTIVE
 70
     0
 10
0.0
 20
0.0
 11
1.0
 21
1.0
 12
207.983153
 22
127.279236
 13
0.0
 23
0.0
 14
1.0
 24
1.0
 15
0.0
 25
0.0
 16
0.0
 26
0.0
 36
1.0
 17
0.0
 27
0.0
 37
0.0
 40
254.558472
 41
1.63407
 42
50.0
 43
0.0
 44
0.0
 50
0.0
 51
0.0
 71
     0
 72
   100
 73
     1
 74
     1
 75
     0
 76
     0
 77
     0
 78
     0
  0
ENDTAB
  0
TABLE
  2
LTYPE
 70
    22
  0
LTYPE
  2
CONTINUOUS
 70
    64
  3
Solid line
 72
    65
 73
     0
 40
0.0
  0
LTYPE
  2
DASHED
 70
    64
  3
__ __ __ __ __ __ __ __ __ __ __ __ __ __ __
 72
    65
 73
     2
 40
3.5
 49
2.0
 49
-1.5
  0
LTYPE
  2
CENTER
 70
    64
  3
____ _ ____ _ ____ _ ____ _ ____ _ ____ _ ____
 72
    65
 73
     4
 40
17.5
 49
13.0
 49
-1.5
 49
1.5
 49
-1.5
  0
LTYPE
  2
PHANTOM
 70
    64
  3
_____ _ _ _____ _ _ _____ _ _ _____ _ _ ____  
 72
    65
 73
     6
 40
15.5
 49
8.0
 49
-1.5
 49
1.5
 49
-1.5
 49
1.5
 49
-1.5
  0
LTYPE
  2
DASHED1
 70
    64
  3
__ __ __ __ __ __ __ __ __ __ __ __ __ __ __
 72
    65
 73
     2
 40
1.5
 49
1.0
 49
-0.5
  0
LTYPE
  2
DASHED2
 70
    64
  3
__ __ __ __ __ __ __ __ __ __ __ __ __ __ __
 72
    65
 73
     2
 40
3.5
 49
2.5
 49
-1.0
  0
LTYPE
  2
DASHED3
 70
    64
  3
__ __ __ __ __ __ __ __ __ __ __ __ __ __ __
 72
    65
 73
     2
 40
6.0
 49
4.0
 49
-2.0
  0
LTYPE
  2
DASHED4
 70
    64
  3
__ __ __ __ __ __ __ __ __ __ __ __ __ __ __
 72
    65
 73
     2
 40
12.0
 49
10.0
 49
-2.0
  0
LTYPE
  2
DASHED5
 70
    64
  3
__ __ __ __ __ __ __ __ __ __ __ __ __ __ __
 72
    65
 73
     2
 40
17.0
 49
15.0
 49
-2.0
  0
LTYPE
  2
DASHED6
 70
    64
  3
__ __ __ __ __ __ __ __ __ __ __ __ __ __ __
 72
    65
 73
     2
 40
29.0
 49
27.0
 49
-2.0
  0
LTYPE
  2
PHANTOM1
 70
    64
  3
_____ _ _ _____ _ _ _____ _ _ _____ _ _ ____  
 72
    65
 73
     6
 40
31.0
 49
25.0
 49
-1.5
 49
1.0
 49
-1.0
 49
1.0
 49
-1.5
  0
LTYPE
  2
PHANTOM2
 70
    64
  3
_____ _ _ _____ _ _ _____ _ _ _____ _ _ ____  
 72
    65
 73
     6
 40
36.0
 49
27.0
 49
-1.5
 49
2.5
 49
-1.0
 49
2.5
 49
-1.5
  0
LTYPE
  2
PHANTOM3
 70
    64
  3
_____ _ _ _____ _ _ _____ _ _ _____ _ _ ____  
 72
    65
 73
     6
 40
78.0
 49
64.0
 49
-2.0
 49
4.0
 49
-2.0
 49
4.0
 49
-2.0
  0
LTYPE
  2
CENTER1
 70
    64
  3
____ _ ____ _ ____ _ ____ _ ____ _ ____ _ ____
 72
    65
 73
     4
 40
19.0
 49
14.0
 49
-1.0
 49
3.0
 49
-1.0
  0
LTYPE
  2
CENTER2
 70
    64
  3
____ _ ____ _ ____ _ ____ _ ____ _ ____ _ ____
 72
    65
 73
     4
 40
28.5
 49
25.0
 49
-1.0
 49
1.5
 49
-1.0
  0
LTYPE
  2
CENTER3
 70
    64
  3
____ _ ____ _ ____ _ ____ _ ____ _ ____ _ ____
 72
    65
 73
     4
 40
31.5
 49
27.0
 49
-1.0
 49
2.5
 49
-1.0
  0
LTYPE
  2
CENTER4
 70
    64
  3
____ _ ____ _ ____ _ ____ _ ____ _ ____ _ ____
 72
    65
 73
     4
 40
50.0
 49
45.0
 49
-1.0
 49
3.0
 49
-1.0
  0
LTYPE
  2
CENTER5
 70
    64
  3
____ _ ____ _ ____ _ ____ _ ____ _ ____ _ ____
 72
    65
 73
     4
 40
100.0
 49
92.0
 49
-2.0
 49
4.0
 49
-2.0
  0
LTYPE
  2
SBK1
 70
    64
  3
______ _ _ _ ______ _ _ _ ______ _ _ _ _____  
 72
    65
 73
     8
 40
60.5
 49
45.0
 49
-2.0
 49
2.5
 49
-2.0
 49
2.5
 49
-2.0
 49
2.5
 49
-2.0
  0
LTYPE
  2
SBK2
 70
    64
  3
______ _ _ _ ______ _ _ _ ______ _ _ _ _____  
 72
    65
 73
     8
 40
84.0
 49
64.0
 49
-2.0
 49
4.0
 49
-2.0
 49
4.0
 49
-2.0
 49
4.0
 49
-2.0
  0
LTYPE
  2
STCH
 70
    64
  3
__ __ __ __ __ __ __ __ __ __ __ __ __ __ __
 72
    65
 73
     2
 40
3.0
 49
1.0
 49
-2.0
  0
LTYPE
  2
MTCH
 70
    64
  3
_____ _ _ _____ _ _ _____ _ _ _____ _ _ ____  
 72
    65
 73
     6
 40
80.0
 49
66.0
 49
-2.0
 49
4.0
 49
-2.0
 49
4.0
 49
-2.0
  0
ENDTAB
  0
TABLE
  2
LAYER
 70
     1
  0
LAYER
  2
0
 70
     0
 62
     7
  6
CONTINUOUS
  0
ENDTAB
  0
TABLE
  2
STYLE
 70
     1
  0
STYLE
  2
STANDARD
 70
     0
 40
0.0
 41
1.0
 50
0.0
 71
     0
 42
0.2
  3
txt
  4
BIGFONT
  0
ENDTAB
  0
TABLE
  2
VIEW
 70
     0
  0
ENDTAB
  0
TABLE
  2
UCS
 70
     0
  0
ENDTAB
  0
TABLE
  2
DWGMGR
 70
     0
  0
ENDTAB
  0
ENDSEC
  0
SECTION
  2
BLOCKS
  0
ENDSEC
  0
SECTION
  2
ENTITIES
  0
POINT
  8
0
 10
216.436768
 20
62.279236
 30
0.0
  0
POINT
  8
0
 10
216.436768
 20
172.279251
 30
0.0
  0
POINT
  8
0
 10
83.936867
 20
62.279266
 30
0.0
  0
POINT
  8
0
 10
318.936768
 20
62.279243
 30
0.0
  0
POINT
  8
0
 10
155.436768
 20
172.279251
 30
0.0
  0
POINT
  8
0
 10
155.436768
 20
62.279236
 30
0.0
  0
POINT
  8
0
 10
61.436852
 20
62.279327
 30
0.0
  0
POINT
  8
0
 10
296.436737
 20
62.279236
 30
0.0
  0
LINE
  8
0
 62
     3
 10
0.0
 20
0.0
 30
0.0
 11
0.0
 21
254.558472
 31
0.0
  0
LINE
  8
0
 62
     3
 10
370.873566
 20
254.558472
 30
0.0
 11
370.873566
 21
0.0
 31
0.0
  0
LINE
  8
0
 62
     3
 10
0.0
 20
0.0
 30
0.0
 11
370.873566
 21
0.0
 31
0.0
  0
LINE
  8
0
 62
     3
 10
0.0
 20
254.558472
 30
0.0
 11
370.873566
 21
254.558472
 31
0.0
  0
LINE
  8
0
 62
     3
 10
0.0
 20
240.257431
 30
0.0
 11
76.272194
 21
240.257431
 31
0.0
  0
LINE
  8
0
 62
     3
 10
76.272194
 20
240.257431
 30
0.0
 11
76.272194
 21
254.558472
 31
0.0
  0
LINE
  8
0
 62
     3
 10
294.601379
 20
14.301025
 30
0.0
 11
370.873566
 21
14.301025
 31
0.0
  0
LINE
  8
0
 62
     3
 10
294.601379
 20
240.257431
 30
0.0
 11
370.873566
 21
240.257431
 31
0.0
  0
LINE
  8
0
 62
     3
 10
294.601379
 20
254.558472
 30
0.0
 11
294.601379
 21
240.257431
 31
0.0
  0
LINE
  8
0
 62
     3
 10
294.601379
 20
14.301025
 30
0.0
 11
294.601379
 21
0.0
 31
0.0
  0
LINE
  8
0
 10
171.436768
 20
39.779236
 30
0.0
 11
171.436768
 21
84.779236
 31
0.0
  0
LINE
  8
0
 10
138.436768
 20
59.779236
 30
0.0
 11
138.436768
 21
65.279236
 31
0.0
  0
LINE
  8
0
 10
155.436768
 20
54.279236
 30
0.0
 11
155.436768
 21
70.279236
 31
0.0
  0
LINE
  8
0
 10
160.436768
 20
39.779236
 30
0.0
 11
160.436768
 21
84.779236
 31
0.0
  0
LINE
  8
0
 10
155.436768
 20
54.279236
 30
0.0
 11
160.436768
 21
54.279236
 31
0.0
  0
LINE
  8
0
 10
155.436768
 20
70.279236
 30
0.0
 11
160.436768
 21
70.279236
 31
0.0
  0
LINE
  8
0
 10
160.436768
 20
84.779236
 30
0.0
 11
190.436768
 21
84.779236
 31
0.0
  0
LINE
  8
0
 10
160.436768
 20
39.779236
 30
0.0
 11
190.436768
 21
39.779236
 31
0.0
  0
LINE
  8
0
 10
138.936768
 20
59.279236
 30
0.0
 11
155.436768
 21
59.279236
 31
0.0
  0
LINE
  8
0
 10
138.436768
 20
65.279236
 30
0.0
 11
155.436768
 21
65.279236
 31
0.0
  0
LINE
  8
0
 10
138.436783
 20
59.779259
 30
0.0
 11
138.936783
 21
59.279259
 31
0.0
  0
LINE
  8
0
 10
138.936768
 20
59.279236
 30
0.0
 11
138.936768
 21
62.87439
 31
0.0
  0
LINE
  8
0
 10
171.436768
 20
76.279236
 30
0.0
 11
190.436768
 21
76.279236
 31
0.0
  0
LINE
  8
0
 10
171.436768
 20
48.279236
 30
0.0
 11
190.436768
 21
48.279236
 31
0.0
  0
LINE
  8
0
 10
138.436768
 20
62.87439
 30
0.0
 11
149.436768
 21
62.87439
 31
0.0
  0
LINE
  8
0
 10
149.436768
 20
62.87439
 30
0.0
 11
149.436768
 21
65.279236
 31
0.0
  0
LINE
  8
0
 10
138.436768
 20
62.874405
 30
0.0
 11
149.436768
 21
65.279251
 31
0.0
  0
LINE
  8
0
 10
149.436752
 20
62.87439
 30
0.0
 11
138.436768
 21
65.279236
 31
0.0
  0
LINE
  8
0
 10
190.436768
 20
39.779236
 30
0.0
 11
190.436768
 21
84.779236
 31
0.0
  0
LINE
  8
0
 62
     1
 10
208.736771
 20
83.351059
 30
0.0
 11
208.736771
 21
82.836212
 31
0.0
  0
LINE
  8
0
 62
     1
 10
203.136765
 20
83.351059
 30
0.0
 11
203.136765
 21
82.836212
 31
0.0
  0
LINE
  8
0
 62
     1
 10
216.436768
 20
45.829239
 30
0.0
 11
216.436768
 21
81.079239
 31
0.0
  0
LINE
  8
0
 62
     1
 10
190.736755
 20
46.029236
 30
0.0
 11
214.436768
 21
46.029236
 31
0.0
  0
LINE
  8
0
 62
     1
 10
190.436768
 20
72.029236
 30
0.0
 11
214.436768
 21
72.029236
 31
0.0
  0
LINE
  8
0
 62
     1
 10
190.436768
 20
52.529236
 30
0.0
 11
214.436768
 21
52.529236
 31
0.0
  0
LINE
  8
0
 62
     1
 10
214.436768
 20
45.829239
 30
0.0
 11
214.436768
 21
79.579239
 31
0.0
  0
LINE
  8
0
 62
     1
 10
214.436768
 20
45.829239
 30
0.0
 11
216.436768
 21
45.829239
 31
0.0
  0
LINE
  8
0
 62
     1
 10
190.436768
 20
80.740585
 30
0.0
 11
202.336761
 21
80.740585
 31
0.0
  0
LINE
  8
0
 62
     1
 10
191.436768
 20
79.579239
 30
0.0
 11
191.436768
 21
80.740585
 31
0.0
  0
LINE
  8
0
 62
     1
 10
216.725449
 20
77.24057
 30
0.0
 11
224.436768
 21
77.24057
 31
0.0
  0
LINE
  8
0
 62
     1
 10
216.725449
 20
80.24057
 30
0.0
 11
224.161514
 21
80.24057
 31
0.0
  0
LINE
  8
0
 62
     1
 10
216.436768
 20
80.740555
 30
0.0
 11
216.725449
 21
80.240547
 31
0.0
  0
LINE
  8
0
 62
     1
 10
216.436737
 20
76.740089
 30
0.0
 11
216.725708
 21
77.240601
 31
0.0
  0
LINE
  8
0
 62
     1
 10
216.725449
 20
80.24057
 30
0.0
 11
216.725449
 21
77.240067
 31
0.0
  0
LINE
  8
0
 62
     1
 10
202.336761
 20
80.153885
 30
0.0
 11
202.336761
 21
82.836212
 31
0.0
  0
LINE
  8
0
 62
     1
 10
209.536758
 20
80.153885
 30
0.0
 11
209.536758
 21
82.836212
 31
0.0
  0
LINE
  8
0
 62
     1
 10
202.336761
 20
82.836212
 30
0.0
 11
209.536758
 21
82.836212
 31
0.0
  0
LINE
  8
0
 62
     1
 10
202.336761
 20
81.341171
 30
0.0
 11
209.536758
 21
81.341171
 31
0.0
  0
LINE
  8
0
 62
     1
 10
202.336761
 20
80.153885
 30
0.0
 11
209.536758
 21
80.153885
 31
0.0
  0
LINE
  8
0
 62
     1
 10
190.436768
 20
81.079239
 30
0.0
 11
202.336761
 21
81.079239
 31
0.0
  0
LINE
  8
0
 62
     1
 10
209.536758
 20
81.079239
 30
0.0
 11
216.436768
 21
81.079239
 31
0.0
  0
LINE
  8
0
 62
     1
 10
209.536758
 20
80.740585
 30
0.0
 11
216.436768
 21
80.740585
 31
0.0
  0
LINE
  8
0
 62
     1
 10
190.436768
 20
79.579239
 30
0.0
 11
216.436768
 21
79.579239
 31
0.0
  0
LINE
  8
0
 62
     1
 10
214.436768
 20
80.740585
 30
0.0
 11
214.436768
 21
81.079239
 31
0.0
  0
LINE
  8
0
  6
CENTER
 10
135.436768
 20
62.279236
 30
0.0
 11
219.436768
 21
62.279236
 31
0.0
  0
LINE
  8
0
  6
CENTER
 62
     1
 10
205.936768
 20
78.153885
 30
0.0
 11
205.936768
 21
86.579239
 31
0.0
  0
LINE
  8
0
 10
171.436768
 20
194.779251
 30
0.0
 11
171.436768
 21
149.779251
 31
0.0
  0
LINE
  8
0
 10
138.436768
 20
174.779251
 30
0.0
 11
138.436768
 21
169.279251
 31
0.0
  0
LINE
  8
0
 10
155.436768
 20
180.279251
 30
0.0
 11
155.436768
 21
164.279251
 31
0.0
  0
LINE
  8
0
 10
160.436768
 20
194.779251
 30
0.0
 11
160.436768
 21
149.779251
 31
0.0
  0
LINE
  8
0
 10
190.436768
 20
194.779251
 30
0.0
 11
190.436768
 21
149.779251
 31
0.0
  0
LINE
  8
0
 10
155.436768
 20
180.279251
 30
0.0
 11
160.436768
 21
180.279251
 31
0.0
  0
LINE
  8
0
 10
155.436768
 20
164.279251
 30
0.0
 11
160.436768
 21
164.279251
 31
0.0
  0
LINE
  8
0
 10
160.436768
 20
149.779251
 30
0.0
 11
190.436768
 21
149.779251
 31
0.0
  0
LINE
  8
0
 10
160.436768
 20
194.779251
 30
0.0
 11
190.436768
 21
194.779251
 31
0.0
  0
LINE
  8
0
 10
138.936768
 20
175.279251
 30
0.0
 11
155.436768
 21
175.279251
 31
0.0
  0
LINE
  8
0
 10
138.436768
 20
169.279251
 30
0.0
 11
155.436768
 21
169.279251
 31
0.0
  0
LINE
  8
0
 10
138.436798
 20
174.779221
 30
0.0
 11
138.936798
 21
175.279221
 31
0.0
  0
LINE
  8
0
 10
138.936768
 20
175.279251
 30
0.0
 11
138.936768
 21
171.684097
 31
0.0
  0
LINE
  8
0
 10
171.436768
 20
158.279251
 30
0.0
 11
190.436768
 21
158.279251
 31
0.0
  0
LINE
  8
0
 10
171.436768
 20
186.279251
 30
0.0
 11
190.436768
 21
186.279251
 31
0.0
  0
LINE
  8
0
 62
     1
 10
216.436768
 20
188.729248
 30
0.0
 11
216.436768
 21
155.829254
 31
0.0
  0
LINE
  8
0
 62
     1
 10
190.736755
 20
156.029251
 30
0.0
 11
214.436768
 21
156.029251
 31
0.0
  0
LINE
  8
0
 62
     1
 10
190.736755
 20
188.529251
 30
0.0
 11
214.436768
 21
188.529251
 31
0.0
  0
LINE
  8
0
 62
     1
 10
190.436768
 20
162.529251
 30
0.0
 11
214.436768
 21
162.529251
 31
0.0
  0
LINE
  8
0
 62
     1
 10
190.436768
 20
182.029251
 30
0.0
 11
214.436768
 21
182.029251
 31
0.0
  0
LINE
  8
0
 62
     1
 10
212.176758
 20
170.279251
 30
0.0
 11
214.576767
 21
170.279251
 31
0.0
  0
LINE
  8
0
 62
     1
 10
212.176758
 20
174.279251
 30
0.0
 11
214.576767
 21
174.279251
 31
0.0
  0
LINE
  8
0
 62
     1
 10
214.87677
 20
173.979248
 30
0.0
 11
214.87677
 21
170.579254
 31
0.0
  0
LINE
  8
0
 62
     1
 10
211.87677
 20
173.979248
 30
0.0
 11
211.87677
 21
170.579254
 31
0.0
  0
LINE
  8
0
 62
     1
 10
190.436768
 20
167.889252
 30
0.0
 11
202.336761
 21
167.889252
 31
0.0
  0
LINE
  8
0
 62
     1
 10
190.436768
 20
176.66925
 30
0.0
 11
202.336761
 21
176.66925
 31
0.0
  0
LINE
  8
0
 62
     1
 10
209.936768
 20
176.66925
 30
0.0
 11
209.936768
 21
167.889252
 31
0.0
  0
LINE
  8
0
 62
     1
 10
201.936768
 20
176.66925
 30
0.0
 11
201.936768
 21
167.889252
 31
0.0
  0
LINE
  8
0
 62
     1
 10
214.436768
 20
188.729248
 30
0.0
 11
214.436768
 21
180.669754
 31
0.0
  0
LINE
  8
0
 62
     1
 10
214.436768
 20
163.888748
 30
0.0
 11
214.436768
 21
155.829254
 31
0.0
  0
LINE
  8
0
 62
     1
 10
214.436768
 20
155.829254
 30
0.0
 11
216.436768
 21
155.829254
 31
0.0
  0
LINE
  8
0
 62
     1
 10
214.436768
 20
188.729248
 30
0.0
 11
216.436768
 21
188.729248
 31
0.0
  0
LINE
  8
0
 62
     1
 10
190.436768
 20
180.669754
 30
0.0
 11
216.436768
 21
180.669754
 31
0.0
  0
LINE
  8
0
 62
     1
 10
190.436768
 20
163.888748
 30
0.0
 11
216.436768
 21
163.888748
 31
0.0
  0
LINE
  8
0
 62
     1
 10
191.436768
 20
180.669754
 30
0.0
 11
191.436768
 21
176.66925
 31
0.0
  0
LINE
  8
0
 62
     1
 10
191.436768
 20
167.889252
 30
0.0
 11
191.436768
 21
163.888748
 31
0.0
  0
LINE
  8
0
 62
     1
 10
216.725449
 20
177.169754
 30
0.0
 11
224.436768
 21
177.169754
 31
0.0
  0
LINE
  8
0
 62
     1
 10
216.725449
 20
180.169754
 30
0.0
 11
224.16153
 21
180.169754
 31
0.0
  0
LINE
  8
0
 62
     1
 10
216.436737
 20
180.669708
 30
0.0
 11
216.725418
 21
180.169724
 31
0.0
  0
LINE
  8
0
 62
     1
 10
216.436783
 20
176.66925
 30
0.0
 11
216.725754
 21
177.169769
 31
0.0
  0
LINE
  8
0
 62
     1
 10
216.725449
 20
180.169739
 30
0.0
 11
216.725449
 21
177.169235
 31
0.0
  0
LINE
  8
0
 62
     1
 10
216.725449
 20
167.388748
 30
0.0
 11
224.436768
 21
167.388748
 31
0.0
  0
LINE
  8
0
 62
     1
 10
216.725449
 20
164.388748
 30
0.0
 11
224.16153
 21
164.388748
 31
0.0
  0
LINE
  8
0
 62
     1
 10
216.436752
 20
163.888779
 30
0.0
 11
216.725433
 21
164.388779
 31
0.0
  0
LINE
  8
0
 62
     1
 10
216.436737
 20
167.889191
 30
0.0
 11
216.725693
 21
167.388702
 31
0.0
  0
LINE
  8
0
 62
     1
 10
216.725449
 20
164.388748
 30
0.0
 11
216.725449
 21
167.389252
 31
0.0
  0
LINE
  8
0
 62
     1
 10
202.336761
 20
179.779251
 30
0.0
 11
202.336761
 21
164.779251
 31
0.0
  0
LINE
  8
0
 62
     1
 10
209.536758
 20
179.779251
 30
0.0
 11
209.536758
 21
164.779251
 31
0.0
  0
LINE
  8
0
 62
     1
 10
202.336761
 20
164.779251
 30
0.0
 11
209.536758
 21
164.779251
 31
0.0
  0
LINE
  8
0
 62
     1
 10
202.336761
 20
179.779251
 30
0.0
 11
209.536758
 21
179.779251
 31
0.0
  0
LINE
  8
0
 62
     1
 10
209.536758
 20
176.66925
 30
0.0
 11
216.436768
 21
176.66925
 31
0.0
  0
LINE
  8
0
 62
     1
 10
209.536758
 20
167.889252
 30
0.0
 11
216.436768
 21
167.889252
 31
0.0
  0
LINE
  8
0
 62
     1
 10
202.336761
 20
175.177994
 30
0.0
 11
209.536758
 21
175.177994
 31
0.0
  0
LINE
  8
0
 62
     1
 10
202.336761
 20
169.380493
 30
0.0
 11
209.536758
 21
169.380493
 31
0.0
  0
LINE
  8
0
 62
     1
 10
204.663986
 20
173.127808
 30
0.0
 11
205.088257
 21
173.552078
 31
0.0
  0
LINE
  8
0
 62
     1
 10
206.785294
 20
171.0065
 30
0.0
 11
207.209564
 21
171.430756
 31
0.0
  0
LINE
  8
0
 62
     1
 10
204.663971
 20
171.43074
 30
0.0
 11
205.088242
 21
171.855011
 31
0.0
  0
LINE
  8
0
 62
     1
 10
205.088226
 20
171.006485
 30
0.0
 11
205.512497
 21
171.430756
 31
0.0
  0
LINE
  8
0
 62
     1
 10
204.664032
 20
171.430725
 30
0.0
 11
205.088303
 21
171.00647
 31
0.0
  0
LINE
  8
0
 62
     1
 10
206.785324
 20
173.552017
 30
0.0
 11
207.209595
 21
173.127762
 31
0.0
  0
LINE
  8
0
 62
     1
 10
204.664032
 20
173.127762
 30
0.0
 11
205.088287
 21
172.703491
 31
0.0
  0
LINE
  8
0
 62
     1
 10
205.088303
 20
173.552063
 30
0.0
 11
205.512573
 21
173.127792
 31
0.0
  0
LINE
  8
0
 62
     1
 10
206.361023
 20
173.127792
 30
0.0
 11
206.785294
 21
173.552063
 31
0.0
  0
LINE
  8
0
 62
     1
 10
206.785278
 20
172.703537
 30
0.0
 11
207.209549
 21
173.127808
 31
0.0
  0
LINE
  8
0
 62
     1
 10
206.361084
 20
171.430695
 30
0.0
 11
206.785339
 21
171.006439
 31
0.0
  0
LINE
  8
0
 62
     1
 10
206.78537
 20
171.854996
 30
0.0
 11
207.209625
 21
171.43074
 31
0.0
  0
LINE
  8
0
 10
138.436768
 20
171.684097
 30
0.0
 11
149.436768
 21
171.684097
 31
0.0
  0
LINE
  8
0
 10
149.436768
 20
171.684097
 30
0.0
 11
149.436768
 21
169.279251
 31
0.0
  0
LINE
  8
0
 10
138.436783
 20
171.684067
 30
0.0
 11
149.436783
 21
169.279221
 31
0.0
  0
LINE
  8
0
 10
149.436768
 20
171.684052
 30
0.0
 11
138.436783
 21
169.279221
 31
0.0
  0
LINE
  8
0
  6
CENTER
 10
135.436768
 20
172.279251
 30
0.0
 11
219.436768
 21
172.279251
 31
0.0
  0
LINE
  8
0
  6
CENTER
 10
176.509846
 20
178.779251
 30
0.0
 11
185.136765
 21
178.779251
 31
0.0
  0
LINE
  8
0
  6
CENTER
 10
180.936765
 20
182.779251
 30
0.0
 11
180.936765
 21
174.779251
 31
0.0
  0
LINE
  8
0
  6
CENTER
 10
176.936765
 20
165.779251
 30
0.0
 11
184.936765
 21
165.779251
 31
0.0
  0
LINE
  8
0
  6
CENTER
 10
180.936765
 20
161.779251
 30
0.0
 11
180.936765
 21
169.779251
 31
0.0
  0
LINE
  8
0
  6
CENTER
 62
     1
 10
188.436768
 20
178.669754
 30
0.0
 11
226.436768
 21
178.669754
 31
0.0
  0
LINE
  8
0
  6
CENTER
 62
     1
 10
188.436768
 20
165.888748
 30
0.0
 11
226.436768
 21
165.888748
 31
0.0
  0
LINE
  8
0
  6
CENTER
 62
     1
 10
205.936768
 20
175.779251
 30
0.0
 11
205.936768
 21
168.779251
 31
0.0
  0
LINE
  8
0
 62
     3
 10
43.686844
 20
74.600952
 30
0.0
 11
43.686844
 21
73.157578
 31
0.0
  0
LINE
  8
0
 62
     3
 10
46.186844
 20
74.600952
 30
0.0
 11
46.186844
 21
73.157593
 31
0.0
  0
LINE
  8
0
 62
     3
 10
43.686867
 20
74.600975
 30
0.0
 11
44.936852
 21
75.322655
 31
0.0
  0
LINE
  8
0
 62
     3
 10
44.936867
 20
72.435883
 30
0.0
 11
46.186878
 21
73.157578
 31
0.0
  0
LINE
  8
0
 62
     3
 10
44.93663
 20
75.322235
 30
0.0
 11
46.186646
 21
74.60054
 31
0.0
  0
LINE
  8
0
 62
     3
 10
43.686657
 20
73.157234
 30
0.0
 11
44.936668
 21
72.435539
 31
0.0
  0
LINE
  8
0
 62
     3
 10
74.286873
 20
78.057587
 30
0.0
 11
74.286873
 21
79.500946
 31
0.0
  0
LINE
  8
0
 62
     3
 10
71.786873
 20
78.057587
 30
0.0
 11
71.786873
 21
79.500946
 31
0.0
  0
LINE
  8
0
 62
     3
 10
74.286995
 20
78.057449
 30
0.0
 11
73.03698
 21
77.335754
 31
0.0
  0
LINE
  8
0
 62
     3
 10
73.036995
 20
80.222549
 30
0.0
 11
71.78698
 21
79.500854
 31
0.0
  0
LINE
  8
0
 62
     3
 10
73.036865
 20
77.335869
 30
0.0
 11
71.78685
 21
78.057564
 31
0.0
  0
LINE
  8
0
 62
     3
 10
74.286858
 20
79.500938
 30
0.0
 11
73.03685
 21
80.222633
 31
0.0
  0
LINE
  8
0
 10
38.936874
 20
82.279266
 30
0.0
 11
38.936874
 21
42.279266
 31
0.0
  0
LINE
  8
0
  6
CENTER
 10
77.53688
 20
78.779266
 30
0.0
 11
68.53688
 21
78.779266
 31
0.0
  0
LINE
  8
0
 10
83.936867
 20
82.279266
 30
0.0
 11
83.936867
 21
42.279266
 31
0.0
  0
LINE
  8
0
 10
41.436874
 20
84.779282
 30
0.0
 11
81.436867
 21
84.779282
 31
0.0
  0
LINE
  8
0
 10
41.436859
 20
39.779266
 30
0.0
 11
81.436859
 21
39.779266
 31
0.0
  0
LINE
  8
0
 10
62.031956
 20
65.219574
 30
0.0
 11
64.377159
 21
62.874367
 31
0.0
  0
LINE
  8
0
 62
     3
 10
48.586838
 20
46.500946
 30
0.0
 11
48.586838
 21
45.057587
 31
0.0
  0
LINE
  8
0
 62
     3
 10
51.086838
 20
46.500946
 30
0.0
 11
51.086838
 21
45.057587
 31
0.0
  0
LINE
  8
0
 62
     3
 10
48.586937
 20
46.500854
 30
0.0
 11
49.836948
 21
47.222549
 31
0.0
  0
LINE
  8
0
 62
     3
 10
49.836922
 20
44.335815
 30
0.0
 11
51.086933
 21
45.05751
 31
0.0
  0
LINE
  8
0
 62
     3
 10
49.836605
 20
47.222172
 30
0.0
 11
51.08662
 21
46.500477
 31
0.0
  0
LINE
  8
0
 62
     3
 10
48.586582
 20
45.057095
 30
0.0
 11
49.836594
 21
44.3354
 31
0.0
  0
LINE
  8
0
 62
     3
 10
77.215179
 20
49.42926
 30
0.0
 11
78.658554
 21
49.42926
 31
0.0
  0
LINE
  8
0
 62
     3
 10
77.215179
 20
51.92926
 30
0.0
 11
78.658554
 21
51.92926
 31
0.0
  0
LINE
  8
0
 62
     3
 10
77.214836
 20
49.42907
 30
0.0
 11
76.493141
 21
50.679081
 31
0.0
  0
LINE
  8
0
 62
     3
 10
79.379944
 20
50.679062
 30
0.0
 11
78.658249
 21
51.929073
 31
0.0
  0
LINE
  8
0
 62
     3
 10
76.493553
 20
50.679279
 30
0.0
 11
77.215256
 21
51.929302
 31
0.0
  0
LINE
  8
0
 62
     3
 10
78.6586
 20
49.429268
 30
0.0
 11
79.380295
 21
50.679279
 31
0.0
  0
LINE
  8
0
  6
CENTER
 10
49.436874
 20
73.879288
 30
0.0
 11
40.436874
 21
73.879288
 31
0.0
  0
LINE
  8
0
  6
CENTER
 10
44.936844
 20
78.379272
 30
0.0
 11
44.936844
 21
69.379272
 31
0.0
  0
LINE
  8
0
  6
CENTER
 10
47.936859
 20
80.279282
 30
0.0
 11
38.936859
 21
80.279282
 31
0.0
  0
LINE
  8
0
  6
CENTER
 10
43.436874
 20
75.779266
 30
0.0
 11
43.436874
 21
84.779266
 31
0.0
  0
LINE
  8
0
  6
CENTER
 10
35.936874
 20
62.279266
 30
0.0
 11
86.936874
 21
62.279266
 31
0.0
  0
LINE
  8
0
  6
CENTER
 10
61.436852
 20
87.779266
 30
0.0
 11
61.436852
 21
36.779266
 31
0.0
  0
LINE
  8
0
  6
CENTER
 10
45.336853
 20
45.779266
 30
0.0
 11
54.336853
 21
45.779266
 31
0.0
  0
LINE
  8
0
  6
CENTER
 10
49.836868
 20
50.279266
 30
0.0
 11
49.836868
 21
41.279266
 31
0.0
  0
LINE
  8
0
  6
CENTER
 10
43.436844
 20
48.779266
 30
0.0
 11
43.436844
 21
39.779266
 31
0.0
  0
LINE
  8
0
  6
CENTER
 10
47.936859
 20
44.279282
 30
0.0
 11
38.936859
 21
44.279282
 31
0.0
  0
LINE
  8
0
  6
CENTER
 10
74.936874
 20
44.279266
 30
0.0
 11
83.936874
 21
44.279266
 31
0.0
  0
LINE
  8
0
  6
CENTER
 10
79.436852
 20
48.779266
 30
0.0
 11
79.436852
 21
39.779266
 31
0.0
  0
LINE
  8
0
  6
CENTER
 10
77.936867
 20
46.17926
 30
0.0
 11
77.936867
 21
55.17926
 31
0.0
  0
LINE
  8
0
  6
CENTER
 10
73.436859
 20
50.67926
 30
0.0
 11
82.436859
 21
50.67926
 31
0.0
  0
LINE
  8
0
  6
CENTER
 10
73.036873
 20
74.279266
 30
0.0
 11
73.036873
 21
83.279266
 31
0.0
  0
LINE
  8
0
  6
CENTER
 10
79.436867
 20
75.779266
 30
0.0
 11
79.436867
 21
84.779266
 31
0.0
  0
LINE
  8
0
  6
CENTER
 10
74.936859
 20
80.279266
 30
0.0
 11
83.936859
 21
80.279266
 31
0.0
  0
LINE
  8
0
 10
276.436768
 20
39.779236
 30
0.0
 11
316.436768
 21
39.779236
 31
0.0
  0
LINE
  8
0
 10
318.936768
 20
82.279251
 30
0.0
 11
318.936768
 21
42.279251
 31
0.0
  0
LINE
  8
0
 10
273.936737
 20
82.279236
 30
0.0
 11
273.936737
 21
42.279236
 31
0.0
  0
LINE
  8
0
 10
310.436737
 20
83.279236
 30
0.0
 11
310.436737
 21
80.279236
 31
0.0
  0
LINE
  8
0
 10
282.436737
 20
83.279236
 30
0.0
 11
282.436737
 21
80.279236
 31
0.0
  0
LINE
  8
0
 10
275.436768
 20
76.279236
 30
0.0
 11
278.436768
 21
76.279236
 31
0.0
  0
LINE
  8
0
 10
275.436768
 20
48.279236
 30
0.0
 11
278.436768
 21
48.279236
 31
0.0
  0
LINE
  8
0
 10
282.436737
 20
44.279236
 30
0.0
 11
282.436737
 21
41.279236
 31
0.0
  0
LINE
  8
0
 10
310.436737
 20
44.279236
 30
0.0
 11
310.436737
 21
41.279236
 31
0.0
  0
LINE
  8
0
 10
314.436768
 20
76.279236
 30
0.0
 11
317.436768
 21
76.279236
 31
0.0
  0
LINE
  8
0
 10
314.436768
 20
48.279236
 30
0.0
 11
317.436768
 21
48.279236
 31
0.0
  0
LINE
  8
0
 62
     1
 10
312.686737
 20
71.029236
 30
0.0
 11
312.686737
 21
53.529236
 31
0.0
  0
LINE
  8
0
 62
     1
 10
280.186737
 20
71.029236
 30
0.0
 11
280.186737
 21
53.529236
 31
0.0
  0
LINE
  8
0
 62
     1
 10
311.511414
 20
72.044998
 30
0.0
 11
311.760742
 21
72.026505
 31
0.0
  0
LINE
  8
0
 62
     1
 10
281.362122
 20
72.044975
 30
0.0
 11
281.112823
 21
72.026482
 31
0.0
  0
LINE
  8
0
 62
     1
 10
311.511444
 20
52.513496
 30
0.0
 11
311.760742
 21
52.53199
 31
0.0
  0
LINE
  8
0
 62
     1
 10
281.362122
 20
52.513363
 30
0.0
 11
281.112793
 21
52.531857
 31
0.0
  0
LINE
  8
0
 62
     1
 10
299.936737
 20
51.353973
 30
0.0
 11
299.936737
 21
46.779236
 31
0.0
  0
LINE
  8
0
 62
     1
 10
292.936737
 20
51.353973
 30
0.0
 11
292.936737
 21
46.779236
 31
0.0
  0
LINE
  8
0
 62
     1
 10
293.636749
 20
51.353973
 30
0.0
 11
293.636749
 21
46.279236
 31
0.0
  0
LINE
  8
0
 62
     1
 10
299.236755
 20
51.353973
 30
0.0
 11
299.236755
 21
46.279236
 31
0.0
  0
LINE
  8
0
 62
     1
 10
292.936768
 20
51.353973
 30
0.0
 11
299.936768
 21
51.353973
 31
0.0
  0
LINE
  8
0
 62
     1
 10
293.636749
 20
49.204514
 30
0.0
 11
299.236755
 21
49.204514
 31
0.0
  0
LINE
  8
0
 62
     1
 10
292.046753
 20
81.079239
 30
0.0
 11
300.826752
 21
81.079239
 31
0.0
  0
LINE
  8
0
 62
     1
 10
289.414246
 20
75.579514
 30
0.0
 11
288.046173
 21
79.33828
 31
0.0
  0
LINE
  8
0
 62
     1
 10
293.267059
 20
76.981819
 30
0.0
 11
291.898956
 21
80.740585
 31
0.0
  0
LINE
  8
0
 62
     1
 10
303.459229
 20
75.579514
 30
0.0
 11
304.827301
 21
79.33828
 31
0.0
  0
LINE
  8
0
 62
     1
 10
299.606506
 20
76.981789
 30
0.0
 11
300.974579
 21
80.740562
 31
0.0
  0
LINE
  8
0
 62
     1
 10
299.606506
 20
76.981773
 30
0.0
 11
303.459198
 21
75.579498
 31
0.0
  0
LINE
  8
0
 62
     1
 10
289.414246
 20
75.579582
 30
0.0
 11
293.266998
 21
76.981865
 31
0.0
  0
LINE
  8
0
 62
     1
 10
300.826752
 20
81.079239
 30
0.0
 11
300.826752
 21
80.334457
 31
0.0
  0
LINE
  8
0
 62
     1
 10
292.046753
 20
81.079239
 30
0.0
 11
292.046753
 21
80.334457
 31
0.0
  0
LINE
  8
0
 62
     1
 10
300.974548
 20
80.74057
 30
0.0
 11
304.827271
 21
79.338295
 31
0.0
  0
LINE
  8
0
 62
     1
 10
288.046173
 20
79.338333
 30
0.0
 11
291.898895
 21
80.740608
 31
0.0
  0
LINE
  8
0
 62
     1
 10
306.186737
 20
78.831238
 30
0.0
 11
306.186737
 21
77.779236
 31
0.0
  0
LINE
  8
0
 62
     1
 10
286.686737
 20
78.831238
 30
0.0
 11
286.686737
 21
77.779236
 31
0.0
  0
LINE
  8
0
 62
     1
 10
293.538025
 20
82.836212
 30
0.0
 11
299.33548
 21
82.836212
 31
0.0
  0
LINE
  8
0
 62
     1
 10
288.936737
 20
81.341171
 30
0.0
 11
288.936737
 21
80.153885
 31
0.0
  0
LINE
  8
0
 62
     1
 10
303.936737
 20
81.341171
 30
0.0
 11
303.936737
 21
80.153885
 31
0.0
  0
LINE
  8
0
 62
     1
 10
288.936737
 20
81.341171
 30
0.0
 11
293.538025
 21
82.83622
 31
0.0
  0
LINE
  8
0
 62
     1
 10
299.33551
 20
82.836197
 30
0.0
 11
303.936737
 21
81.341164
 31
0.0
  0
LINE
  8
0
 62
     1
 10
288.936768
 20
80.153885
 30
0.0
 11
290.287048
 21
80.153885
 31
0.0
  0
LINE
  8
0
 62
     1
 10
302.586456
 20
80.153885
 30
0.0
 11
303.936768
 21
80.153885
 31
0.0
  0
LINE
  8
0
 62
     1
 10
299.236755
 20
83.351059
 30
0.0
 11
299.236755
 21
82.836212
 31
0.0
  0
LINE
  8
0
 62
     1
 10
293.636749
 20
83.351059
 30
0.0
 11
293.636749
 21
82.836212
 31
0.0
  0
LINE
  8
0
 62
     1
 10
287.686768
 20
45.779236
 30
0.0
 11
305.186768
 21
45.779236
 31
0.0
  0
LINE
  8
0
 10
276.436768
 20
84.779236
 30
0.0
 11
316.436768
 21
84.779236
 31
0.0
  0
LINE
  8
0
  6
CENTER
 10
270.936768
 20
62.279236
 30
0.0
 11
321.936768
 21
62.279236
 31
0.0
  0
LINE
  8
0
  6
CENTER
 10
296.436737
 20
87.779236
 30
0.0
 11
296.436737
 21
36.779236
 31
0.0
  0
LINE
  8
0
  6
CENTER
 10
278.436768
 20
75.779236
 30
0.0
 11
278.436768
 21
84.779236
 31
0.0
  0
LINE
  8
0
  6
CENTER
 10
282.936768
 20
80.279251
 30
0.0
 11
273.936768
 21
80.279251
 31
0.0
  0
LINE
  8
0
  6
CENTER
 10
278.436737
 20
48.779236
 30
0.0
 11
278.436737
 21
39.779236
 31
0.0
  0
LINE
  8
0
  6
CENTER
 10
282.936768
 20
44.279251
 30
0.0
 11
273.936768
 21
44.279251
 31
0.0
  0
LINE
  8
0
  6
CENTER
 62
     1
 10
292.024689
 20
74.401299
 30
0.0
 11
289.288544
 21
81.918839
 31
0.0
  0
LINE
  8
0
  6
CENTER
 62
     1
 10
300.848816
 20
74.401253
 30
0.0
 11
303.584991
 21
81.918793
 31
0.0
  0
LINE
  8
0
  6
CENTER
 10
309.936768
 20
80.279236
 30
0.0
 11
318.936768
 21
80.279236
 31
0.0
  0
LINE
  8
0
  6
CENTER
 10
314.436768
 20
75.779236
 30
0.0
 11
314.436768
 21
84.779236
 31
0.0
  0
LINE
  8
0
  6
CENTER
 10
314.436768
 20
48.779236
 30
0.0
 11
314.436768
 21
39.779236
 31
0.0
  0
LINE
  8
0
  6
CENTER
 10
309.936768
 20
44.279236
 30
0.0
 11
318.936768
 21
44.279236
 31
0.0
  0
ARC
  8
0
 62
     1
 10
203.803436
 20
83.351059
 30
0.0
 40
0.666668
 50
119.491943
 51
180.0
  0
ARC
  8
0
 62
     1
 10
208.070099
 20
83.351059
 30
0.0
 40
0.666672
 50
0.0
 51
60.508053
  0
ARC
  8
0
 62
     1
 10
224.749268
 20
77.99057
 30
0.0
 40
0.8125
 50
112.619865
 51
247.380142
  0
ARC
  8
0
 62
     1
 10
224.124268
 20
77.99057
 30
0.0
 40
0.8125
 50
292.619873
 51
67.380135
  0
ARC
  8
0
 62
     1
 10
205.936768
 20
79.579239
 30
0.0
 40
4.999995
 50
60.507675
 51
119.492325
  0
ARC
  8
0
 62
     1
 10
224.161514
 20
79.465317
 30
0.0
 40
0.775251
 50
290.795349
 51
90.0
  0
ARC
  8
0
 10
148.240936
 20
64.076813
 30
0.0
 40
1.695818
 50
314.842163
 51
45.157299
  0
ARC
  8
0
 62
     1
 10
224.749268
 20
166.638748
 30
0.0
 40
0.8125
 50
112.619865
 51
247.380142
  0
ARC
  8
0
 62
     1
 10
224.124268
 20
166.638748
 30
0.0
 40
0.8125
 50
292.619873
 51
67.380135
  0
CIRCLE
  8
0
 10
180.936765
 20
178.779251
 30
0.0
 40
2.5
  0
CIRCLE
  8
0
 10
180.936765
 20
165.779251
 30
0.0
 40
2.099999
  0
CIRCLE
  8
0
 10
180.936765
 20
165.779251
 30
0.0
 40
2.5
  0
CIRCLE
  8
0
 10
180.936765
 20
178.779251
 30
0.0
 40
2.099999
  0
ARC
  8
0
 10
148.240936
 20
170.481674
 30
0.0
 40
1.695818
 50
314.842163
 51
45.157848
  0
ARC
  8
0
 62
     1
 10
205.936768
 20
171.006454
 30
0.0
 40
0.600009
 50
45.0
 51
135.0
  0
ARC
  8
0
 62
     1
 10
207.209549
 20
172.279251
 30
0.0
 40
0.600009
 50
135.0
 51
225.0
  0
ARC
  8
0
 62
     1
 10
204.663971
 20
172.279251
 30
0.0
 40
0.600009
 50
315.0
 51
45.0
  0
ARC
  8
0
 62
     1
 10
205.936768
 20
173.552032
 30
0.0
 40
0.600009
 50
225.0
 51
315.0
  0
CIRCLE
  8
0
 62
     1
 10
205.936768
 20
172.279251
 30
0.0
 40
2.799999
  0
ARC
  8
0
 62
     1
 10
224.16153
 20
165.164001
 30
0.0
 40
0.775253
 50
270.0
 51
69.203606
  0
ARC
  8
0
 62
     1
 10
224.749268
 20
177.919754
 30
0.0
 40
0.8125
 50
112.619865
 51
247.380142
  0
ARC
  8
0
 62
     1
 10
224.124268
 20
177.919754
 30
0.0
 40
0.8125
 50
292.619873
 51
67.380135
  0
ARC
  8
0
 62
     1
 10
190.736755
 20
188.229248
 30
0.0
 40
0.300003
 50
90.0
 51
180.0
  0
ARC
  8
0
 62
     1
 10
190.736755
 20
156.329254
 30
0.0
 40
0.300003
 50
180.0
 51
270.0
  0
ARC
  8
0
 62
     1
 10
212.176758
 20
173.979248
 30
0.0
 40
0.300003
 50
90.0
 51
180.0
  0
ARC
  8
0
 62
     1
 10
212.176758
 20
170.579254
 30
0.0
 40
0.300003
 50
180.0
 51
270.0
  0
ARC
  8
0
 62
     1
 10
214.576767
 20
170.579254
 30
0.0
 40
0.300003
 50
270.0
 51
0.0
  0
ARC
  8
0
 62
     1
 10
214.576767
 20
173.979248
 30
0.0
 40
0.300003
 50
0.0
 51
90.0
  0
ARC
  8
0
 62
     1
 10
224.16153
 20
179.394501
 30
0.0
 40
0.775251
 50
290.795349
 51
90.0
  0
CIRCLE
  8
0
 10
73.036865
 20
78.779266
 30
0.0
 40
3.0
  0
CIRCLE
  8
0
 62
     3
 10
44.936859
 20
73.879265
 30
0.0
 40
2.75
  0
CIRCLE
  8
0
 10
79.436859
 20
44.279266
 30
0.0
 40
2.5
  0
CIRCLE
  8
0
 62
     3
 10
77.936859
 20
50.67926
 30
0.0
 40
2.75
  0
CIRCLE
  8
0
 10
77.936859
 20
50.67926
 30
0.0
 40
3.0
  0
CIRCLE
  8
0
 10
79.436859
 20
44.279266
 30
0.0
 40
3.0
  0
CIRCLE
  8
0
 10
43.436859
 20
44.279259
 30
0.0
 40
2.5
  0
CIRCLE
  8
0
 62
     3
 10
49.836853
 20
45.779259
 30
0.0
 40
2.75
  0
CIRCLE
  8
0
 10
49.836853
 20
45.779259
 30
0.0
 40
3.0
  0
CIRCLE
  8
0
 10
43.436859
 20
44.279259
 30
0.0
 40
3.0
  0
CIRCLE
  8
0
 10
61.436859
 20
62.279266
 30
0.0
 40
2.5
  0
CIRCLE
  8
0
 10
61.436859
 20
62.279266
 30
0.0
 40
8.0
  0
CIRCLE
  8
0
 10
61.436859
 20
62.279266
 30
0.0
 40
3.0
  0
CIRCLE
  8
0
 10
79.436859
 20
80.279266
 30
0.0
 40
2.5
  0
CIRCLE
  8
0
 10
43.436859
 20
80.279259
 30
0.0
 40
2.5
  0
ARC
  8
0
 10
81.436859
 20
42.279266
 30
0.0
 40
2.5
 50
270.0
 51
0.0
  0
ARC
  8
0
 10
41.436859
 20
42.279259
 30
0.0
 40
2.5
 50
179.999908
 51
270.0
  0
ARC
  8
0
 10
41.436859
 20
82.279259
 30
0.0
 40
2.5
 50
90.0
 51
180.0
  0
ARC
  8
0
 10
81.436859
 20
82.279266
 30
0.0
 40
2.5
 50
0.0
 51
90.0
  0
CIRCLE
  8
0
 10
44.936859
 20
73.879265
 30
0.0
 40
3.0
  0
CIRCLE
  8
0
 10
43.436859
 20
80.279259
 30
0.0
 40
3.0
  0
CIRCLE
  8
0
 62
     3
 10
73.036865
 20
78.779266
 30
0.0
 40
2.75
  0
CIRCLE
  8
0
 10
79.436859
 20
80.279266
 30
0.0
 40
3.0
  0
ARC
  8
0
 62
     1
 10
300.936768
 20
46.779243
 30
0.0
 40
1.0
 50
180.0
 51
270.0
  0
ARC
  8
0
 62
     1
 10
291.936768
 20
46.779236
 30
0.0
 40
1.0
 50
270.0
 51
0.0
  0
CIRCLE
  8
0
 10
314.436768
 20
44.279243
 30
0.0
 40
2.5
  0
CIRCLE
  8
0
 10
278.436768
 20
44.279236
 30
0.0
 40
2.5
  0
CIRCLE
  8
0
 10
278.436768
 20
80.279236
 30
0.0
 40
2.5
  0
CIRCLE
  8
0
 10
314.436768
 20
80.279243
 30
0.0
 40
2.5
  0
ARC
  8
0
 62
     1
 10
296.436768
 20
79.579239
 30
0.0
 40
5.000003
 50
60.507523
 51
119.492477
  0
ARC
  8
0
 62
     1
 10
287.434753
 20
78.831238
 30
0.0
 40
0.747991
 50
20.000082
 51
180.0
  0
CIRCLE
  8
0
 62
     1
 10
290.656616
 20
78.160034
 30
0.0
 40
1.5
  0
ARC
  8
0
 62
     1
 10
298.570099
 20
83.351059
 30
0.0
 40
0.666656
 50
0.0
 51
60.506912
  0
ARC
  8
0
 62
     1
 10
305.438751
 20
78.831245
 30
0.0
 40
0.747986
 50
0.0
 51
159.999924
  0
ARC
  8
0
 62
     1
 10
294.303436
 20
83.351059
 30
0.0
 40
0.666675
 50
119.493088
 51
180.0
  0
CIRCLE
  8
0
 62
     1
 10
302.216888
 20
78.160034
 30
0.0
 40
1.5
  0
ARC
  8
0
 62
     1
 10
298.736755
 20
46.279236
 30
0.0
 40
0.5
 50
270.0
 51
0.0
  0
ARC
  8
0
 62
     1
 10
294.136749
 20
46.279236
 30
0.0
 40
0.5
 50
180.0
 51
270.0
  0
ARC
  8
0
 62
     1
 10
287.686768
 20
46.779236
 30
0.0
 40
1.0
 50
180.0
 51
270.0
  0
ARC
  8
0
 62
     1
 10
280.936768
 20
46.779236
 30
0.0
 40
5.75
 50
0.0
 51
85.75769
  0
ARC
  8
0
 10
276.436768
 20
82.279236
 30
0.0
 40
2.5
 50
90.0
 51
180.0
  0
ARC
  8
0
 10
276.436768
 20
42.279236
 30
0.0
 40
2.5
 50
180.0
 51
270.0
  0
ARC
  8
0
 10
316.436768
 20
42.279243
 30
0.0
 40
2.5
 50
270.0
 51
0.0
  0
ARC
  8
0
 10
316.436768
 20
82.279243
 30
0.0
 40
2.5
 50
0.0
 51
90.0
  0
ARC
  8
0
 10
278.436768
 20
44.279236
 30
0.0
 40
4.0
 50
0.0
 51
90.0
  0
ARC
  8
0
 10
314.436768
 20
44.279243
 30
0.0
 40
4.0
 50
90.0
 51
179.999939
  0
ARC
  8
0
 10
314.436768
 20
80.279243
 30
0.0
 40
4.0
 50
180.0
 51
270.0
  0
ARC
  8
0
 10
278.436768
 20
80.279236
 30
0.0
 40
4.0
 50
270.0
 51
0.0
  0
ARC
  8
0
 10
283.936768
 20
83.279236
 30
0.0
 40
1.5
 50
90.0
 51
180.0
  0
ARC
  8
0
 10
308.936768
 20
83.279243
 30
0.0
 40
1.5
 50
0.0
 51
90.0
  0
ARC
  8
0
 10
275.436768
 20
74.779236
 30
0.0
 40
1.5
 50
90.0
 51
180.0
  0
ARC
  8
0
 10
275.436768
 20
49.779236
 30
0.0
 40
1.5
 50
180.0
 51
270.0
  0
ARC
  8
0
 10
283.936768
 20
41.279236
 30
0.0
 40
1.5
 50
180.0
 51
270.0
  0
ARC
  8
0
 10
308.936768
 20
41.279243
 30
0.0
 40
1.5
 50
270.0
 51
0.0
  0
ARC
  8
0
 10
317.436768
 20
49.779243
 30
0.0
 40
1.5
 50
270.0
 51
0.0
  0
ARC
  8
0
 10
317.436768
 20
74.779243
 30
0.0
 40
1.5
 50
0.0
 51
90.0
  0
ARC
  8
0
 62
     1
 10
311.936768
 20
77.779243
 30
0.0
 40
5.75
 50
180.0
 51
265.75769
  0
ARC
  8
0
 62
     1
 10
311.686768
 20
71.029243
 30
0.0
 40
1.0
 50
0.0
 51
85.757698
  0
ARC
  8
0
 62
     1
 10
280.936768
 20
77.779236
 30
0.0
 40
5.75
 50
274.24231
 51
0.0
  0
ARC
  8
0
 62
     1
 10
281.186768
 20
71.029236
 30
0.0
 40
1.000001
 50
94.242302
 51
180.0
  0
ARC
  8
0
 62
     1
 10
311.936768
 20
46.779243
 30
0.0
 40
5.75
 50
94.24231
 51
179.999969
  0
ARC
  8
0
 62
     1
 10
311.686768
 20
53.529243
 30
0.0
 40
1.000001
 50
274.24231
 51
0.0
  0
ARC
  8
0
 62
     1
 10
305.186768
 20
46.779243
 30
0.0
 40
1.0
 50
270.0
 51
0.0
  0
ARC
  8
0
 62
     1
 10
281.186768
 20
53.529236
 30
0.0
 40
1.0
 50
180.0
 51
265.75769
  0
TEXT
  8
0
 10
298.79776
 20
244.589584
 30
0.0
 40
4.242641
  1
DATE:FEB,1992
 41
1.052631
  0
TEXT
  8
0
 10
27.035715
 20
206.757431
 30
0.0
 40
5.0
  1
MODEL : RANS8-*-4
 41
1.052632
  0
TEXT
  8
0
 10
2.113382
 20
243.907959
 30
0.0
 40
5.0
  1
ROTARY ACUTUATOR
 41
0.937799
  0
TEXT
  8
0
 10
302.273193
 20
3.650512
 30
0.0
 40
5.0
  1
KOGANEI,CORP
 41
1.052632
  0
LINE
  8
0
 10
182.386795
 20
180.944336
 30
0.0
 11
199.034653
 21
209.779251
 31
0.0
  0
LINE
  8
0
 10
199.034653
 20
209.779251
 30
0.0
 11
214.660416
 21
209.779236
 31
0.0
  0
LINE
  8
0
 10
182.386795
 20
180.944336
 30
0.0
 11
184.508118
 21
183.065659
 31
0.0
  0
LINE
  8
0
 10
182.386795
 20
180.944336
 30
0.0
 11
183.163254
 21
183.842117
 31
0.0
  0
TEXT
  8
0
 10
199.910416
 20
210.779236
 30
0.0
 40
3.5
  1
2-M5
 41
1.052632
  0
ENDSEC
  0
EOF
