  0
SECTION
  2
HEADER
  0
ENDSEC
  0
SECTION
  2
TABLES
  0
TABLE
  2
LTYPE
 70
     4
  0
LTYPE
  2
CONTINUOUS
 70
    64
  3
Solid line
 72
    65
 73
     0
 40
0.000000
  0
LTYPE
  2
DASHED
 70
    64
  3
__ __ __ __ __ __ __ __ __ __ __ __ __ __ __
 72
    65
 73
     2
 40
3.500000
 49
2.000000
 49
-1.500000
  0
LTYPE
  2
CENTER
 70
    64
  3
____ _ ____ _ ____ _ ____ _ ____ _ ____ _ ____
 72
    65
 73
     4
 40
17.500000
 49
13.000000
 49
-1.500000
 49
1.500000
 49
-1.500000
  0
LTYPE
  2
PHANTOM
 70
    64
  3
_____ _ _ _____ _ _ _____ _ _ _____ _ _ ____  
 72
    65
 73
     6
 40
15.500000
 49
8.000000
 49
-1.500000
 49
1.500000
 49
-1.500000
 49
1.500000
 49
-1.500000
  0
LTYPE
  2
DASHED1
 70
    64
  3
__ __ __ __ __ __ __ __ __ __ __ __ __ __ __
 72
    65
 73
     2
 40
1.500000
 49
1.000000
 49
-0.500000
  0
LTYPE
  2
DASHED2
 70
    64
  3
__ __ __ __ __ __ __ __ __ __ __ __ __ __ __
 72
    65
 73
     2
 40
3.500000
 49
2.500000
 49
-1.000000
  0
LTYPE
  2
DASHED3
 70
    64
  3
__ __ __ __ __ __ __ __ __ __ __ __ __ __ __
 72
    65
 73
     2
 40
6.000000
 49
4.000000
 49
-2.000000
  0
LTYPE
  2
DASHED4
 70
    64
  3
__ __ __ __ __ __ __ __ __ __ __ __ __ __ __
 72
    65
 73
     2
 40
12.000000
 49
10.000000
 49
-2.000000
  0
LTYPE
  2
DASHED5
 70
    64
  3
__ __ __ __ __ __ __ __ __ __ __ __ __ __ __
 72
    65
 73
     2
 40
17.000000
 49
15.000000
 49
-2.000000
  0
LTYPE
  2
DASHED6
 70
    64
  3
__ __ __ __ __ __ __ __ __ __ __ __ __ __ __
 72
    65
 73
     2
 40
29.000000
 49
27.000000
 49
-2.000000
  0
LTYPE
  2
PHANTOM1
 70
    64
  3
_____ _ _ _____ _ _ _____ _ _ _____ _ _ ____  
 72
    65
 73
     6
 40
31.000000
 49
25.000000
 49
-1.500000
 49
1.000000
 49
-1.000000
 49
1.000000
 49
-1.500000
  0
LTYPE
  2
PHANTOM2
 70
    64
  3
_____ _ _ _____ _ _ _____ _ _ _____ _ _ ____  
 72
    65
 73
     6
 40
36.000000
 49
27.000000
 49
-1.500000
 49
2.500000
 49
-1.000000
 49
2.500000
 49
-1.500000
  0
LTYPE
  2
PHANTOM3
 70
    64
  3
_____ _ _ _____ _ _ _____ _ _ _____ _ _ ____  
 72
    65
 73
     6
 40
78.000000
 49
64.000000
 49
-2.000000
 49
4.000000
 49
-2.000000
 49
4.000000
 49
-2.000000
  0
LTYPE
  2
CENTER1
 70
    64
  3
____ _ ____ _ ____ _ ____ _ ____ _ ____ _ ____
 72
    65
 73
     4
 40
19.000000
 49
14.000000
 49
-1.000000
 49
3.000000
 49
-1.000000
  0
LTYPE
  2
CENTER2
 70
    64
  3
____ _ ____ _ ____ _ ____ _ ____ _ ____ _ ____
 72
    65
 73
     4
 40
28.500000
 49
25.000000
 49
-1.000000
 49
1.500000
 49
-1.000000
  0
LTYPE
  2
CENTER3
 70
    64
  3
____ _ ____ _ ____ _ ____ _ ____ _ ____ _ ____
 72
    65
 73
     4
 40
31.500000
 49
27.000000
 49
-1.000000
 49
2.500000
 49
-1.000000
  0
LTYPE
  2
CENTER4
 70
    64
  3
____ _ ____ _ ____ _ ____ _ ____ _ ____ _ ____
 72
    65
 73
     4
 40
50.000000
 49
45.000000
 49
-1.000000
 49
3.000000
 49
-1.000000
  0
LTYPE
  2
CENTER5
 70
    64
  3
____ _ ____ _ ____ _ ____ _ ____ _ ____ _ ____
 72
    65
 73
     4
 40
100.000000
 49
92.000000
 49
-2.000000
 49
4.000000
 49
-2.000000
  0
LTYPE
  2
SBK1
 70
    64
  3
______ _ _ _ ______ _ _ _ ______ _ _ _ _____  
 72
    65
 73
     8
 40
60.500000
 49
45.000000
 49
-2.000000
 49
2.500000
 49
-2.000000
 49
2.500000
 49
-2.000000
 49
2.500000
 49
-2.000000
  0
LTYPE
  2
SBK2
 70
    64
  3
______ _ _ _ ______ _ _ _ ______ _ _ _ _____  
 72
    65
 73
     8
 40
84.000000
 49
64.000000
 49
-2.000000
 49
4.000000
 49
-2.000000
 49
4.000000
 49
-2.000000
 49
4.000000
 49
-2.000000
  0
LTYPE
  2
STCH
 70
    64
  3
__ __ __ __ __ __ __ __ __ __ __ __ __ __ __
 72
    65
 73
     2
 40
3.000000
 49
1.000000
 49
-2.000000
  0
LTYPE
  2
MTCH
 70
    64
  3
_____ _ _ _____ _ _ _____ _ _ _____ _ _ ____  
 72
    65
 73
     6
 40
80.000000
 49
66.000000
 49
-2.000000
 49
4.000000
 49
-2.000000
 49
4.000000
 49
-2.000000
  0
ENDTAB
  0
TABLE
  2
LAYER
 70
     1
  0
LAYER
  2
0
 70
     0
 62
     7
  6
CONTINUOUS
  0
ENDTAB
  0
TABLE
  2
STYLE
 70
     1
  0
STYLE
  2
STANDARD
 70
     0
 40
0.000000
 41
1.000000
 50
0.000000
 71
     0
 42
0.200000
  3
txt
  4
BIGFONT
  0
ENDTAB
  0
TABLE
  2
VIEW
 70
     0
  0
ENDTAB
  0
ENDSEC
  0
SECTION
  2
BLOCKS
  0
ENDSEC
  0
SECTION
  2
ENTITIES
  0
POINT
  8
0
 10
182.436783
 20
73.779236
  0
POINT
  8
0
 10
219.436798
 20
73.779236
  0
POINT
  8
0
 10
182.436783
 20
173.926117
  0
POINT
  8
0
 10
219.436783
 20
173.926117
  0
POINT
  8
0
 10
182.436783
 20
173.926117
  0
POINT
  8
0
 10
76.166748
 20
73.779236
  0
POINT
  8
0
 10
91.166748
 20
73.779236
  0
POINT
  8
0
 10
297.300262
 20
73.779236
  0
POINT
  8
0
 10
312.300262
 20
73.779236
  0
LINE
  8
0
 62
     3
 10
0.000000
 20
0.000000
 11
0.000000
 21
254.558472
  0
LINE
  8
0
 62
     3
 10
370.873566
 20
254.558472
 11
370.873566
 21
0.000000
  0
LINE
  8
0
 62
     3
 10
0.000000
 20
0.000000
 11
370.873566
 21
0.000000
  0
LINE
  8
0
 62
     3
 10
0.000000
 20
254.558472
 11
370.873566
 21
254.558472
  0
LINE
  8
0
 62
     3
 10
0.000000
 20
240.257431
 11
76.272194
 21
240.257431
  0
LINE
  8
0
 62
     3
 10
76.272194
 20
240.257431
 11
76.272194
 21
254.558472
  0
LINE
  8
0
 62
     3
 10
294.601379
 20
14.301025
 11
370.873566
 21
14.301025
  0
LINE
  8
0
 62
     3
 10
294.601379
 20
240.257431
 11
370.873566
 21
240.257431
  0
LINE
  8
0
 62
     3
 10
294.601379
 20
254.558472
 11
294.601379
 21
240.257431
  0
LINE
  8
0
 62
     3
 10
294.601379
 20
14.301025
 11
294.601379
 21
0.000000
  0
LINE
  8
0
 10
182.436798
 20
173.926086
 11
224.436798
 21
185.179962
  0
LINE
  8
0
 10
182.436768
 20
173.926086
 11
224.436768
 21
162.672211
  0
LINE
  8
0
 10
159.436798
 20
85.279236
 11
219.436798
 21
85.279236
  0
LINE
  8
0
 10
159.436798
 20
62.279236
 11
219.436798
 21
62.279236
  0
LINE
  8
0
 10
212.436798
 20
85.279236
 11
212.436798
 21
75.279236
  0
LINE
  8
0
 10
162.436798
 20
85.279236
 11
162.436798
 21
62.279236
  0
LINE
  8
0
  6
CENTER
 10
156.436798
 20
73.779236
 11
228.186798
 21
73.779236
  0
LINE
  8
0
  6
CENTER
 10
182.436783
 20
104.279236
 11
182.436783
 21
43.279236
  0
LINE
  8
0
  6
CENTER
 10
186.936798
 20
82.279236
 11
190.936798
 21
82.279236
  0
LINE
  8
0
  6
CENTER
 10
184.186798
 20
65.279236
 11
193.686798
 21
65.279236
  0
LINE
  8
0
  6
CENTER
 10
188.936798
 20
77.579239
 11
188.936798
 21
61.529236
  0
LINE
  8
0
  6
CENTER
 10
188.936798
 20
84.279236
 11
188.936798
 21
80.279236
  0
LINE
  8
0
 10
219.436798
 20
85.279236
 11
219.436798
 21
75.279236
  0
LINE
  8
0
 10
159.436798
 20
85.279236
 11
159.436798
 21
62.279236
  0
LINE
  8
0
 10
180.936798
 20
101.279236
 11
184.036789
 21
101.279236
  0
LINE
  8
0
 10
180.436798
 20
100.779251
 11
180.936783
 21
101.279243
  0
LINE
  8
0
 10
180.436798
 20
100.779236
 11
184.036804
 21
100.779236
  0
LINE
  8
0
 10
180.436798
 20
100.779236
 11
180.436798
 21
87.779236
  0
LINE
  8
0
 10
184.436798
 20
93.279236
 11
184.436798
 21
87.779236
  0
LINE
  8
0
 10
180.436798
 20
87.779236
 11
184.436798
 21
87.779236
  0
LINE
  8
0
 10
177.436798
 20
87.279236
 11
187.436798
 21
87.279236
  0
LINE
  8
0
 10
184.436813
 20
87.779228
 11
184.936813
 21
87.279228
  0
LINE
  8
0
 10
180.436783
 20
87.779243
 11
179.936783
 21
87.279243
  0
LINE
  8
0
 10
177.436798
 20
87.279236
 11
177.436798
 21
85.279236
  0
LINE
  8
0
 10
187.436798
 20
87.279236
 11
187.436798
 21
85.279236
  0
LINE
  8
0
 10
187.436798
 20
60.279236
 11
187.436798
 21
62.279236
  0
LINE
  8
0
 10
177.436798
 20
60.279236
 11
187.436798
 21
60.279236
  0
LINE
  8
0
 10
184.436783
 20
59.779266
 11
184.936783
 21
60.279270
  0
LINE
  8
0
 10
180.436798
 20
59.779236
 11
184.436798
 21
59.779236
  0
LINE
  8
0
 10
180.436798
 20
59.779278
 11
179.936798
 21
60.279266
  0
LINE
  8
0
 10
177.436798
 20
60.279236
 11
177.436798
 21
62.279236
  0
LINE
  8
0
  6
PHANTOM
 10
180.436798
 20
46.779236
 11
180.436798
 21
59.779236
  0
LINE
  8
0
  6
PHANTOM
 10
184.436798
 20
54.279236
 11
184.436798
 21
59.779236
  0
LINE
  8
0
  6
PHANTOM
 10
180.436798
 20
46.779236
 11
184.036804
 21
46.779236
  0
LINE
  8
0
  6
PHANTOM
 10
180.936798
 20
46.279236
 11
184.036789
 21
46.279236
  0
LINE
  8
0
  6
PHANTOM
 10
180.436813
 20
46.779247
 11
180.936829
 21
46.279247
  0
LINE
  8
0
 10
184.036789
 20
101.279236
 11
184.036789
 21
93.679245
  0
LINE
  8
0
  6
PHANTOM
 10
184.036789
 20
46.279236
 11
184.036789
 21
53.879242
  0
LINE
  8
0
 10
184.436783
 20
93.279228
 11
184.036789
 21
93.679230
  0
LINE
  8
0
  6
PHANTOM
 10
184.436859
 20
54.279224
 11
184.036850
 21
53.879223
  0
LINE
  8
0
  6
PHANTOM
 10
185.186798
 20
76.579239
 11
192.686798
 21
76.579239
  0
LINE
  8
0
  6
PHANTOM
 10
192.686798
 20
76.579239
 11
192.686798
 21
62.279236
  0
LINE
  8
0
  6
PHANTOM
 10
185.186798
 20
76.579239
 11
185.186798
 21
62.279236
  0
LINE
  8
0
  6
PHANTOM
 10
191.936798
 20
75.779236
 11
191.936798
 21
63.079239
  0
LINE
  8
0
  6
PHANTOM
 10
185.936798
 20
75.779236
 11
185.936798
 21
63.079239
  0
LINE
  8
0
  6
PHANTOM
 10
185.936798
 20
75.779236
 11
191.936798
 21
75.779236
  0
LINE
  8
0
  6
PHANTOM
 10
185.936798
 20
63.079239
 11
187.286789
 21
63.079239
  0
LINE
  8
0
  6
PHANTOM
 10
187.436798
 20
62.579239
 11
188.414780
 21
62.579239
  0
LINE
  8
0
  6
PHANTOM
 10
187.436798
 20
62.974350
 11
187.436798
 21
62.579239
  0
LINE
  8
0
  6
PHANTOM
 10
190.436798
 20
62.974350
 11
190.436798
 21
62.579239
  0
LINE
  8
0
  6
PHANTOM
 10
190.586792
 20
63.079239
 11
191.936798
 21
63.079239
  0
LINE
  8
0
  6
PHANTOM
 10
189.458817
 20
62.579239
 11
190.436798
 21
62.579239
  0
LINE
  8
0
  6
PHANTOM
 10
181.686798
 20
71.779236
 11
185.186798
 21
71.779236
  0
LINE
  8
0
  6
PHANTOM
 10
192.686798
 20
71.779236
 11
202.186798
 21
71.779236
  0
LINE
  8
0
  6
PHANTOM
 10
181.686798
 20
75.779236
 11
185.186798
 21
75.779236
  0
LINE
  8
0
  6
PHANTOM
 10
181.686798
 20
75.779236
 11
181.686798
 21
71.779236
  0
LINE
  8
0
  6
PHANTOM
 10
180.186813
 20
74.913216
 11
181.686798
 21
75.779236
  0
LINE
  8
0
  6
PHANTOM
 10
180.186798
 20
74.913223
 11
180.186798
 21
72.645264
  0
LINE
  8
0
  6
PHANTOM
 10
180.186798
 20
72.645256
 11
181.686798
 21
71.779236
  0
LINE
  8
0
  6
PHANTOM
 10
192.686798
 20
75.779236
 11
202.186798
 21
75.779236
  0
LINE
  8
0
  6
PHANTOM
 10
202.186798
 20
75.779236
 11
202.186798
 21
71.779236
  0
LINE
  8
0
  6
PHANTOM
 10
202.186813
 20
75.779213
 11
204.186813
 21
75.279213
  0
LINE
  8
0
  6
PHANTOM
 10
204.186798
 20
75.279236
 11
204.186798
 21
72.279236
  0
LINE
  8
0
  6
PHANTOM
 10
202.186829
 20
71.779198
 11
204.186829
 21
72.279198
  0
LINE
  8
0
  6
PHANTOM
 10
204.186798
 20
72.279236
 11
225.186798
 21
72.279236
  0
LINE
  8
0
  6
PHANTOM
 10
204.186798
 20
75.279236
 11
225.186798
 21
75.279236
  0
LINE
  8
0
 10
212.436798
 20
72.279236
 11
212.436798
 21
62.279236
  0
LINE
  8
0
 10
219.436798
 20
72.279236
 11
219.436798
 21
62.279236
  0
LINE
  8
0
  6
PHANTOM
 10
187.876129
 20
66.339897
 11
189.997452
 21
64.218567
  0
LINE
  8
0
  6
PHANTOM
 10
187.876129
 20
64.218575
 11
189.997467
 21
66.339912
  0
LINE
  8
0
 10
212.436783
 20
188.926117
 11
212.436783
 21
158.926117
  0
LINE
  8
0
 10
162.436783
 20
188.926117
 11
162.436783
 21
158.926117
  0
LINE
  8
0
 10
159.436783
 20
158.926117
 11
219.436783
 21
158.926117
  0
LINE
  8
0
 10
159.436783
 20
188.926117
 11
219.436783
 21
188.926117
  0
LINE
  8
0
 10
219.436783
 20
188.926117
 11
219.436783
 21
158.926117
  0
LINE
  8
0
 10
159.436783
 20
188.926117
 11
159.436783
 21
158.926117
  0
LINE
  8
0
  6
CENTER
 10
156.436783
 20
173.926117
 11
222.436783
 21
173.926117
  0
LINE
  8
0
  6
CENTER
 10
182.436783
 20
191.926117
 11
182.436783
 21
155.926117
  0
LINE
  8
0
  6
CENTER
 10
172.436783
 20
178.426117
 11
172.436783
 21
169.426117
  0
LINE
  8
0
  6
CENTER
 10
192.436783
 20
178.426117
 11
192.436783
 21
169.426117
  0
LINE
  8
0
  6
CENTER
 10
172.686783
 20
179.926117
 11
180.186783
 21
179.926117
  0
LINE
  8
0
  6
CENTER
 10
184.686783
 20
179.926117
 11
192.186783
 21
179.926117
  0
LINE
  8
0
  6
CENTER
 10
184.686783
 20
167.926117
 11
192.186783
 21
167.926117
  0
LINE
  8
0
  6
CENTER
 10
172.686783
 20
167.926117
 11
180.186783
 21
167.926117
  0
LINE
  8
0
  6
CENTER
 10
176.436783
 20
171.676117
 11
176.436783
 21
164.176117
  0
LINE
  8
0
  6
CENTER
 10
188.436783
 20
171.676117
 11
188.436783
 21
164.176117
  0
LINE
  8
0
  6
CENTER
 10
188.436783
 20
183.676117
 11
188.436783
 21
176.176117
  0
LINE
  8
0
  6
CENTER
 10
176.436783
 20
183.676117
 11
176.436783
 21
176.176117
  0
LINE
  8
0
 10
184.036774
 20
175.126099
 11
184.036774
 21
172.726105
  0
LINE
  8
0
  6
PHANTOM
 10
180.186783
 20
192.060089
 11
180.186783
 21
189.792145
  0
LINE
  8
0
  6
PHANTOM
 10
181.686783
 20
192.926117
 11
181.686783
 21
188.926117
  0
LINE
  8
0
  6
PHANTOM
 10
181.686783
 20
192.926117
 11
185.186783
 21
192.926117
  0
LINE
  8
0
  6
PHANTOM
 10
192.686783
 20
192.926117
 11
202.186783
 21
192.926117
  0
LINE
  8
0
  6
PHANTOM
 10
180.186768
 20
192.060089
 11
181.686768
 21
192.926117
  0
LINE
  8
0
  6
PHANTOM
 10
180.186783
 20
189.792145
 11
181.686768
 21
188.926132
  0
LINE
  8
0
  6
PHANTOM
 10
202.186783
 20
192.926117
 11
202.186783
 21
188.926117
  0
LINE
  8
0
  6
PHANTOM
 10
204.186783
 20
189.426117
 11
225.186783
 21
189.426117
  0
LINE
  8
0
  6
PHANTOM
 10
204.186783
 20
192.426117
 11
225.186783
 21
192.426117
  0
LINE
  8
0
  6
PHANTOM
 10
204.186783
 20
192.426117
 11
204.186783
 21
189.426117
  0
LINE
  8
0
  6
PHANTOM
 10
202.186798
 20
192.926224
 11
204.186813
 21
192.426224
  0
LINE
  8
0
  6
PHANTOM
 10
202.186783
 20
188.926208
 11
204.186783
 21
189.426208
  0
LINE
  8
0
  6
CENTER
 10
228.186783
 20
190.926117
 11
201.186783
 21
190.926117
  0
LINE
  8
0
  6
CENTER
 10
188.936783
 20
197.426117
 11
188.936783
 21
187.926117
  0
LINE
  8
0
  6
PHANTOM
 10
192.686783
 20
194.426117
 11
192.686783
 21
189.426117
  0
LINE
  8
0
  6
PHANTOM
 10
185.186783
 20
194.426117
 11
185.186783
 21
189.426117
  0
LINE
  8
0
  6
PHANTOM
 10
185.186783
 20
189.426117
 11
192.686783
 21
189.426117
  0
LINE
  8
0
  6
PHANTOM
 10
185.186783
 20
194.426117
 11
192.686783
 21
194.426117
  0
LINE
  8
0
  6
PHANTOM
 62
     3
 10
191.686783
 20
195.225769
 11
191.686783
 21
194.426117
  0
LINE
  8
0
  6
PHANTOM
 62
     3
 10
186.186783
 20
195.225769
 11
186.186783
 21
194.426117
  0
LINE
  8
0
  6
PHANTOM
 10
180.186783
 20
155.792145
 11
180.186783
 21
158.060089
  0
LINE
  8
0
  6
PHANTOM
 10
181.686783
 20
154.926117
 11
181.686783
 21
158.926117
  0
LINE
  8
0
  6
PHANTOM
 10
181.686783
 20
154.926117
 11
185.186783
 21
154.926117
  0
LINE
  8
0
  6
PHANTOM
 10
192.686783
 20
154.926117
 11
202.186783
 21
154.926117
  0
LINE
  8
0
  6
PHANTOM
 10
180.186813
 20
155.792191
 11
181.686813
 21
154.926163
  0
LINE
  8
0
  6
PHANTOM
 10
180.186798
 20
158.060043
 11
181.686813
 21
158.926056
  0
LINE
  8
0
  6
PHANTOM
 10
202.186783
 20
154.926117
 11
202.186783
 21
158.926117
  0
LINE
  8
0
  6
PHANTOM
 10
204.186783
 20
158.426117
 11
225.186783
 21
158.426117
  0
LINE
  8
0
  6
PHANTOM
 10
204.186783
 20
155.426117
 11
225.186783
 21
155.426117
  0
LINE
  8
0
  6
PHANTOM
 10
204.186783
 20
155.426117
 11
204.186783
 21
158.426117
  0
LINE
  8
0
  6
PHANTOM
 10
202.186752
 20
154.926102
 11
204.186768
 21
155.426102
  0
LINE
  8
0
  6
PHANTOM
 10
202.186798
 20
158.926071
 11
204.186798
 21
158.426071
  0
LINE
  8
0
  6
CENTER
 10
228.186783
 20
156.926117
 11
201.186783
 21
156.926117
  0
LINE
  8
0
  6
CENTER
 10
188.936783
 20
150.426117
 11
188.936783
 21
159.926117
  0
LINE
  8
0
  6
PHANTOM
 10
192.686783
 20
153.426117
 11
192.686783
 21
158.426117
  0
LINE
  8
0
  6
PHANTOM
 10
185.186783
 20
153.426117
 11
185.186783
 21
158.426117
  0
LINE
  8
0
  6
PHANTOM
 10
185.186783
 20
158.426117
 11
192.686783
 21
158.426117
  0
LINE
  8
0
  6
PHANTOM
 10
185.186783
 20
153.426117
 11
192.686783
 21
153.426117
  0
LINE
  8
0
  6
PHANTOM
 62
     3
 10
191.686783
 20
152.626465
 11
191.686783
 21
153.426117
  0
LINE
  8
0
  6
PHANTOM
 62
     3
 10
186.186783
 20
152.626465
 11
186.186783
 21
153.426117
  0
LINE
  8
0
 10
175.517563
 20
180.845383
 11
177.356049
 21
179.006897
  0
LINE
  8
0
 10
175.517517
 20
179.006882
 11
177.356003
 21
180.845367
  0
LINE
  8
0
 10
189.356033
 20
179.006836
 11
187.517548
 21
180.845337
  0
LINE
  8
0
 10
189.356003
 20
180.845367
 11
187.517502
 21
179.006866
  0
LINE
  8
0
 10
175.517532
 20
168.845367
 11
177.356033
 21
167.006882
  0
LINE
  8
0
 10
175.517548
 20
167.006851
 11
177.356033
 21
168.845337
  0
LINE
  8
0
 10
189.356049
 20
168.845352
 11
187.517548
 21
167.006851
  0
LINE
  8
0
 10
189.355988
 20
167.006836
 11
187.517517
 21
168.845306
  0
LINE
  8
0
 10
62.666748
 20
62.279236
 11
89.666748
 21
62.279236
  0
LINE
  8
0
 10
62.666748
 20
85.279236
 11
89.666748
 21
85.279236
  0
LINE
  8
0
 10
61.166748
 20
83.779236
 11
61.166748
 21
63.779240
  0
LINE
  8
0
 10
91.166748
 20
83.779236
 11
91.166748
 21
63.779240
  0
LINE
  8
0
  6
CENTER
 10
52.666748
 20
73.779236
 11
99.666748
 21
73.779236
  0
LINE
  8
0
  6
CENTER
 10
76.166748
 20
104.279236
 11
76.166748
 21
43.279236
  0
LINE
  8
0
  6
CENTER
 10
64.866745
 20
85.079239
 11
64.866745
 21
78.079239
  0
LINE
  8
0
  6
CENTER
 10
64.866745
 20
69.479248
 11
64.866745
 21
62.479248
  0
LINE
  8
0
  6
CENTER
 10
87.466751
 20
85.079239
 11
87.466751
 21
78.079239
  0
LINE
  8
0
  6
CENTER
 10
87.466751
 20
69.479248
 11
87.466751
 21
62.479248
  0
LINE
  8
0
  6
CENTER
 10
61.366745
 20
65.979233
 11
68.366745
 21
65.979233
  0
LINE
  8
0
  6
CENTER
 10
61.366745
 20
81.579239
 11
68.366745
 21
81.579239
  0
LINE
  8
0
  6
CENTER
 10
83.966751
 20
81.579239
 11
90.966751
 21
81.579239
  0
LINE
  8
0
  6
CENTER
 10
83.966751
 20
65.979233
 11
90.966751
 21
65.979233
  0
LINE
  8
0
  6
PHANTOM
 10
74.166771
 20
46.779301
 11
74.666771
 21
46.279301
  0
LINE
  8
0
 10
74.666748
 20
101.279236
 11
77.666748
 21
101.279236
  0
LINE
  8
0
 10
74.166748
 20
100.779198
 11
74.666733
 21
101.279190
  0
LINE
  8
0
 10
74.166748
 20
100.779236
 11
78.166748
 21
100.779236
  0
LINE
  8
0
 10
74.166748
 20
100.779236
 11
74.166748
 21
87.779236
  0
LINE
  8
0
 10
78.166748
 20
100.779259
 11
77.666748
 21
101.279259
  0
LINE
  8
0
 10
78.166748
 20
100.779236
 11
78.166748
 21
87.779236
  0
LINE
  8
0
 10
74.166748
 20
87.779236
 11
78.166748
 21
87.779236
  0
LINE
  8
0
 10
71.166748
 20
87.279236
 11
81.166748
 21
87.279236
  0
LINE
  8
0
 10
78.166748
 20
87.779243
 11
78.666748
 21
87.279243
  0
LINE
  8
0
 10
74.166756
 20
87.779198
 11
73.666756
 21
87.279198
  0
LINE
  8
0
 10
71.166748
 20
87.279236
 11
71.166748
 21
85.279236
  0
LINE
  8
0
 10
81.166748
 20
87.279236
 11
81.166748
 21
85.279236
  0
LINE
  8
0
 10
81.166748
 20
60.279236
 11
81.166748
 21
62.279236
  0
LINE
  8
0
 10
71.166748
 20
60.279236
 11
81.166748
 21
60.279236
  0
LINE
  8
0
 10
78.166763
 20
59.779251
 11
78.666763
 21
60.279255
  0
LINE
  8
0
 10
74.166748
 20
59.779236
 11
78.166748
 21
59.779236
  0
LINE
  8
0
 10
74.166771
 20
59.779285
 11
73.666771
 21
60.279285
  0
LINE
  8
0
 10
71.166748
 20
60.279236
 11
71.166748
 21
62.279236
  0
LINE
  8
0
  6
PHANTOM
 10
74.166748
 20
46.779236
 11
74.166748
 21
59.779236
  0
LINE
  8
0
  6
PHANTOM
 10
78.166748
 20
46.779236
 11
78.166748
 21
59.779236
  0
LINE
  8
0
  6
PHANTOM
 10
74.166748
 20
46.779236
 11
78.166748
 21
46.779236
  0
LINE
  8
0
  6
PHANTOM
 10
78.166763
 20
46.779205
 11
77.666771
 21
46.279217
  0
LINE
  8
0
  6
PHANTOM
 10
74.666748
 20
46.279236
 11
77.666748
 21
46.279236
  0
LINE
  8
0
  6
PHANTOM
 10
57.166733
 20
75.779236
 11
57.166733
 21
71.779236
  0
LINE
  8
0
  6
PHANTOM
 10
58.032730
 20
72.645264
 11
60.300735
 21
72.645264
  0
LINE
  8
0
  6
PHANTOM
 10
57.166733
 20
71.779236
 11
61.166733
 21
71.779236
  0
LINE
  8
0
  6
PHANTOM
 10
57.166733
 20
75.779236
 11
61.166733
 21
75.779236
  0
LINE
  8
0
  6
PHANTOM
 10
58.032730
 20
74.913208
 11
60.300735
 21
74.913208
  0
LINE
  8
0
  6
PHANTOM
 10
58.032730
 20
74.913208
 11
58.032730
 21
72.645264
  0
LINE
  8
0
  6
PHANTOM
 10
60.300735
 20
74.913208
 11
60.300735
 21
72.645264
  0
LINE
  8
0
  6
PHANTOM
 10
57.166817
 20
75.779388
 11
58.032810
 21
74.913368
  0
LINE
  8
0
  6
PHANTOM
 10
58.032722
 20
72.645210
 11
57.166729
 21
71.779190
  0
LINE
  8
0
  6
PHANTOM
 10
60.300720
 20
72.645294
 11
61.166721
 21
71.779266
  0
LINE
  8
0
  6
PHANTOM
 10
60.300823
 20
74.913147
 11
61.166817
 21
75.779167
  0
LINE
  8
0
  6
PHANTOM
 10
55.666748
 20
62.279236
 11
61.466751
 21
62.279236
  0
LINE
  8
0
  6
PHANTOM
 10
55.666748
 20
76.579239
 11
60.666748
 21
76.579239
  0
LINE
  8
0
  6
PHANTOM
 10
60.666748
 20
76.579239
 11
60.666748
 21
75.779236
  0
LINE
  8
0
  6
PHANTOM
 10
60.666748
 20
71.779236
 11
60.666748
 21
65.279236
  0
LINE
  8
0
  6
PHANTOM
 10
55.666748
 20
76.579239
 11
55.666748
 21
62.279236
  0
LINE
  8
0
  6
PHANTOM
 10
60.666748
 20
65.279236
 11
61.166748
 21
65.279236
  0
LINE
  8
0
  6
CENTER
 10
52.666748
 20
65.279236
 11
62.166748
 21
65.279236
  0
LINE
  8
0
  6
PHANTOM
 62
     3
 10
54.867096
 20
68.029236
 11
55.666748
 21
68.029236
  0
LINE
  8
0
  6
PHANTOM
 62
     3
 10
54.867096
 20
62.529236
 11
55.666748
 21
62.529236
  0
LINE
  8
0
  6
PHANTOM
 62
     1
 10
60.666748
 20
66.779236
 11
61.166748
 21
66.779236
  0
LINE
  8
0
  6
PHANTOM
 62
     1
 10
60.666748
 20
66.508743
 11
61.166748
 21
66.508743
  0
LINE
  8
0
  6
PHANTOM
 10
95.166763
 20
75.779236
 11
91.166763
 21
75.779236
  0
LINE
  8
0
  6
PHANTOM
 10
91.666748
 20
76.579239
 11
91.666748
 21
75.779236
  0
LINE
  8
0
  6
PHANTOM
 10
96.666748
 20
76.579239
 11
91.666748
 21
76.579239
  0
LINE
  8
0
  6
PHANTOM
 10
96.666748
 20
76.579239
 11
96.666748
 21
62.279236
  0
LINE
  8
0
  6
PHANTOM
 10
95.166763
 20
75.779236
 11
95.166763
 21
71.779236
  0
LINE
  8
0
  6
PHANTOM
 10
95.166771
 20
75.779266
 11
94.300766
 21
74.913231
  0
LINE
  8
0
  6
PHANTOM
 10
94.300766
 20
74.913208
 11
94.300766
 21
72.645264
  0
LINE
  8
0
  6
PHANTOM
 10
94.300766
 20
74.913208
 11
92.032761
 21
74.913208
  0
LINE
  8
0
  6
PHANTOM
 10
92.032722
 20
74.913170
 11
91.166718
 21
75.779198
  0
LINE
  8
0
  6
PHANTOM
 10
92.032761
 20
74.913208
 11
92.032761
 21
72.645264
  0
LINE
  8
0
  6
PHANTOM
 10
92.032768
 20
72.645233
 11
91.166779
 21
71.779213
  0
LINE
  8
0
  6
PHANTOM
 10
94.300766
 20
72.645264
 11
92.032761
 21
72.645264
  0
LINE
  8
0
  6
PHANTOM
 10
94.300758
 20
72.645264
 11
95.166748
 21
71.779251
  0
LINE
  8
0
  6
PHANTOM
 10
95.166763
 20
71.779236
 11
91.166763
 21
71.779236
  0
LINE
  8
0
  6
PHANTOM
 62
     3
 10
97.466400
 20
68.029236
 11
96.666748
 21
68.029236
  0
LINE
  8
0
  6
PHANTOM
 62
     3
 10
97.466400
 20
62.529236
 11
96.666748
 21
62.529236
  0
LINE
  8
0
  6
PHANTOM
 10
96.666748
 20
62.279236
 11
90.866745
 21
62.279236
  0
LINE
  8
0
  6
PHANTOM
 10
91.666748
 20
71.779236
 11
91.666748
 21
65.279236
  0
LINE
  8
0
  6
PHANTOM
 10
91.666748
 20
65.279236
 11
91.166748
 21
65.279236
  0
LINE
  8
0
  6
PHANTOM
 62
     1
 10
91.666748
 20
66.779236
 11
91.166748
 21
66.779236
  0
LINE
  8
0
  6
PHANTOM
 62
     1
 10
91.666748
 20
66.508743
 11
91.166748
 21
66.508743
  0
LINE
  8
0
  6
CENTER
 10
99.666748
 20
65.279236
 11
90.166748
 21
65.279236
  0
LINE
  8
0
  6
PHANTOM
 10
61.466751
 20
62.879242
 11
61.466751
 21
62.279236
  0
LINE
  8
0
  6
PHANTOM
 10
90.866745
 20
62.879242
 11
90.866745
 21
62.279236
  0
LINE
  8
0
 10
63.947453
 20
66.898430
 11
65.785942
 21
65.059944
  0
LINE
  8
0
 10
63.947464
 20
65.059975
 11
65.785973
 21
66.898483
  0
LINE
  8
0
 10
88.386055
 20
65.059967
 11
86.547539
 21
66.898483
  0
LINE
  8
0
 10
88.386032
 20
66.898468
 11
86.547546
 21
65.059967
  0
LINE
  8
0
 10
63.947453
 20
82.498512
 11
65.785965
 21
80.660004
  0
LINE
  8
0
 10
63.947445
 20
80.660034
 11
65.785934
 21
82.498535
  0
LINE
  8
0
 10
88.386040
 20
82.498535
 11
86.547523
 21
80.660027
  0
LINE
  8
0
 10
88.386017
 20
80.660004
 11
86.547523
 21
82.498497
  0
LINE
  8
0
 10
282.300262
 20
83.779236
 11
282.300262
 21
63.779240
  0
LINE
  8
0
 10
312.300262
 20
83.779236
 11
312.300262
 21
63.779240
  0
LINE
  8
0
 10
283.800262
 20
85.279236
 11
310.800262
 21
85.279236
  0
LINE
  8
0
 10
283.800262
 20
62.279236
 11
310.800262
 21
62.279236
  0
LINE
  8
0
  6
CENTER
 10
297.300262
 20
104.279236
 11
297.300262
 21
43.279236
  0
LINE
  8
0
  6
CENTER
 10
273.800293
 20
73.779236
 11
320.800293
 21
73.779236
  0
LINE
  8
0
  6
CENTER
 10
291.800262
 20
80.779236
 11
291.800262
 21
73.779236
  0
LINE
  8
0
  6
CENTER
 10
288.300262
 20
77.279236
 11
295.300262
 21
77.279236
  0
LINE
  8
0
  6
CENTER
 10
299.300262
 20
70.279236
 11
306.300262
 21
70.279236
  0
LINE
  8
0
  6
CENTER
 10
302.800262
 20
73.779236
 11
302.800262
 21
66.779236
  0
LINE
  8
0
  6
CENTER
 10
308.600281
 20
69.979248
 11
308.600281
 21
61.979248
  0
LINE
  8
0
  6
CENTER
 10
308.600281
 20
85.579239
 11
308.600281
 21
77.579239
  0
LINE
  8
0
  6
CENTER
 10
286.000275
 20
85.579239
 11
286.000275
 21
77.579239
  0
LINE
  8
0
  6
CENTER
 10
286.000275
 20
69.979248
 11
286.000275
 21
61.979248
  0
LINE
  8
0
  6
CENTER
 10
282.000275
 20
65.979233
 11
290.000275
 21
65.979233
  0
LINE
  8
0
  6
CENTER
 10
304.600281
 20
65.979233
 11
312.600281
 21
65.979233
  0
LINE
  8
0
  6
CENTER
 10
304.600281
 20
81.579239
 11
312.600281
 21
81.579239
  0
LINE
  8
0
  6
CENTER
 10
282.000275
 20
81.579239
 11
290.000275
 21
81.579239
  0
LINE
  8
0
 10
292.300293
 20
87.279236
 11
302.300293
 21
87.279236
  0
LINE
  8
0
 10
295.300293
 20
87.779236
 11
299.300293
 21
87.779236
  0
LINE
  8
0
 10
295.800293
 20
101.279236
 11
298.800293
 21
101.279236
  0
LINE
  8
0
 10
299.300293
 20
100.779236
 11
299.300293
 21
87.779236
  0
LINE
  8
0
 10
295.300293
 20
100.779236
 11
295.300293
 21
87.779236
  0
LINE
  8
0
 10
292.300293
 20
87.279236
 11
292.300293
 21
85.279236
  0
LINE
  8
0
 10
302.300293
 20
87.279236
 11
302.300293
 21
85.279236
  0
LINE
  8
0
 10
295.300262
 20
87.779228
 11
294.800262
 21
87.279243
  0
LINE
  8
0
 10
299.300262
 20
87.779243
 11
299.800262
 21
87.279243
  0
LINE
  8
0
 10
295.300293
 20
100.779236
 11
296.100281
 21
100.779236
  0
LINE
  8
0
 10
299.300262
 20
100.779236
 11
298.800262
 21
101.279236
  0
LINE
  8
0
 10
295.300262
 20
100.779259
 11
295.800262
 21
101.279243
  0
LINE
  8
0
  6
PHANTOM
 10
299.300232
 20
46.779263
 11
298.800232
 21
46.279263
  0
LINE
  8
0
  6
PHANTOM
 10
295.300293
 20
46.779236
 11
296.100281
 21
46.779236
  0
LINE
  8
0
  6
PHANTOM
 10
295.800293
 20
46.279236
 11
298.800293
 21
46.279236
  0
LINE
  8
0
  6
PHANTOM
 10
295.300262
 20
46.779240
 11
295.800262
 21
46.279228
  0
LINE
  8
0
  6
PHANTOM
 10
295.300293
 20
46.779236
 11
295.300293
 21
59.779236
  0
LINE
  8
0
  6
PHANTOM
 10
299.300293
 20
46.779236
 11
299.300293
 21
59.779236
  0
LINE
  8
0
 10
295.300293
 20
59.779236
 11
299.300293
 21
59.779236
  0
LINE
  8
0
 10
299.300262
 20
59.779274
 11
299.800262
 21
60.279274
  0
LINE
  8
0
 10
295.300293
 20
59.779221
 11
294.800293
 21
60.279224
  0
LINE
  8
0
 10
292.300293
 20
60.279236
 11
292.300293
 21
62.279236
  0
LINE
  8
0
 10
292.300293
 20
60.279236
 11
302.300293
 21
60.279236
  0
LINE
  8
0
 10
302.300293
 20
60.279236
 11
302.300293
 21
62.279236
  0
LINE
  8
0
 10
296.100281
 20
93.279236
 11
298.500275
 21
93.279236
  0
LINE
  8
0
 10
298.500275
 20
101.279236
 11
298.500275
 21
93.279236
  0
LINE
  8
0
 10
296.100281
 20
101.279236
 11
296.100281
 21
93.279236
  0
LINE
  8
0
 10
298.500275
 20
100.779236
 11
299.300293
 21
100.779236
  0
LINE
  8
0
 10
296.100281
 20
93.279221
 11
298.500275
 21
101.279213
  0
LINE
  8
0
 10
296.100311
 20
101.279251
 11
298.500305
 21
93.279243
  0
LINE
  8
0
  6
PHANTOM
 10
296.100281
 20
46.279236
 11
296.100281
 21
54.279236
  0
LINE
  8
0
  6
PHANTOM
 10
296.100281
 20
46.279243
 11
298.500275
 21
54.279236
  0
LINE
  8
0
  6
PHANTOM
 10
296.100250
 20
54.279232
 11
298.500244
 21
46.279224
  0
LINE
  8
0
  6
PHANTOM
 10
298.500275
 20
46.279236
 11
298.500275
 21
54.279236
  0
LINE
  8
0
  6
PHANTOM
 10
296.100281
 20
54.279236
 11
298.500275
 21
54.279236
  0
LINE
  8
0
  6
PHANTOM
 10
298.500275
 20
46.779236
 11
299.300293
 21
46.779236
  0
LINE
  8
0
  6
PHANTOM
 10
278.300262
 20
75.779236
 11
278.300262
 21
71.779236
  0
LINE
  8
0
  6
PHANTOM
 10
278.300262
 20
71.779236
 11
282.300262
 21
71.779236
  0
LINE
  8
0
  6
PHANTOM
 10
278.300262
 20
75.779236
 11
282.300262
 21
75.779236
  0
LINE
  8
0
  6
PHANTOM
 10
276.800293
 20
62.279236
 11
282.600281
 21
62.279236
  0
LINE
  8
0
  6
PHANTOM
 10
276.800293
 20
76.579239
 11
281.800293
 21
76.579239
  0
LINE
  8
0
  6
PHANTOM
 10
281.800293
 20
76.579239
 11
281.800293
 21
75.779236
  0
LINE
  8
0
  6
PHANTOM
 10
281.800293
 20
71.779236
 11
281.800293
 21
65.279236
  0
LINE
  8
0
  6
PHANTOM
 10
276.800293
 20
76.579239
 11
276.800293
 21
62.279236
  0
LINE
  8
0
  6
PHANTOM
 10
282.600281
 20
62.879242
 11
282.600281
 21
62.279236
  0
LINE
  8
0
  6
PHANTOM
 10
281.800293
 20
65.279236
 11
282.300293
 21
65.279236
  0
LINE
  8
0
  6
CENTER
 10
273.800293
 20
65.279236
 11
283.300293
 21
65.279236
  0
LINE
  8
0
  6
PHANTOM
 62
     3
 10
276.000641
 20
68.029236
 11
276.800293
 21
68.029236
  0
LINE
  8
0
  6
PHANTOM
 62
     3
 10
276.000641
 20
62.529236
 11
276.800293
 21
62.529236
  0
LINE
  8
0
  6
PHANTOM
 62
     1
 10
281.800293
 20
66.779236
 11
282.300293
 21
66.779236
  0
LINE
  8
0
  6
PHANTOM
 62
     1
 10
281.800293
 20
66.508743
 11
282.300293
 21
66.508743
  0
LINE
  8
0
  6
PHANTOM
 10
316.300293
 20
75.779236
 11
312.300293
 21
75.779236
  0
LINE
  8
0
  6
PHANTOM
 10
312.800293
 20
76.579239
 11
312.800293
 21
75.779236
  0
LINE
  8
0
  6
PHANTOM
 10
317.800293
 20
76.579239
 11
312.800293
 21
76.579239
  0
LINE
  8
0
  6
PHANTOM
 10
317.800293
 20
76.579239
 11
317.800293
 21
62.279236
  0
LINE
  8
0
  6
PHANTOM
 10
316.300293
 20
75.779236
 11
316.300293
 21
71.779236
  0
LINE
  8
0
  6
PHANTOM
 10
316.300293
 20
71.779236
 11
312.300293
 21
71.779236
  0
LINE
  8
0
  6
PHANTOM
 62
     3
 10
318.599915
 20
68.029236
 11
317.800293
 21
68.029236
  0
LINE
  8
0
  6
PHANTOM
 62
     3
 10
318.599915
 20
62.529236
 11
317.800293
 21
62.529236
  0
LINE
  8
0
  6
PHANTOM
 10
317.800293
 20
62.279236
 11
312.000275
 21
62.279236
  0
LINE
  8
0
  6
PHANTOM
 10
312.000275
 20
62.879242
 11
312.000275
 21
62.279236
  0
LINE
  8
0
  6
PHANTOM
 10
312.800293
 20
71.779236
 11
312.800293
 21
65.279236
  0
LINE
  8
0
  6
PHANTOM
 10
312.800293
 20
65.279236
 11
312.300293
 21
65.279236
  0
LINE
  8
0
  6
PHANTOM
 62
     1
 10
312.800293
 20
66.779236
 11
312.300293
 21
66.779236
  0
LINE
  8
0
  6
PHANTOM
 62
     1
 10
312.800293
 20
66.508743
 11
312.300293
 21
66.508743
  0
LINE
  8
0
  6
CENTER
 10
320.800293
 20
65.279236
 11
311.300293
 21
65.279236
  0
LINE
  8
0
  6
CENTER
 10
314.300293
 20
76.779236
 11
314.300293
 21
70.779236
  0
LINE
  8
0
  6
CENTER
 10
280.300262
 20
76.779236
 11
280.300262
 21
70.779236
  0
LINE
  8
0
 62
     3
 10
284.750275
 20
82.300934
 11
284.750275
 21
80.857559
  0
LINE
  8
0
 62
     3
 10
287.250275
 20
82.300934
 11
287.250275
 21
80.857559
  0
LINE
  8
0
 62
     3
 10
284.750275
 20
82.300919
 11
286.000275
 21
83.022614
  0
LINE
  8
0
 62
     3
 10
286.000275
 20
80.135849
 11
287.250275
 21
80.857544
  0
LINE
  8
0
 62
     3
 10
286.000275
 20
83.022614
 11
287.250275
 21
82.300934
  0
LINE
  8
0
 62
     3
 10
284.750275
 20
80.857552
 11
286.000275
 21
80.135872
  0
LINE
  8
0
 62
     3
 10
284.750275
 20
66.700928
 11
284.750275
 21
65.257553
  0
LINE
  8
0
 62
     3
 10
287.250275
 20
66.700928
 11
287.250275
 21
65.257553
  0
LINE
  8
0
 62
     3
 10
284.750244
 20
66.700912
 11
286.000244
 21
67.422592
  0
LINE
  8
0
 62
     3
 10
286.000244
 20
64.535851
 11
287.250244
 21
65.257530
  0
LINE
  8
0
 62
     3
 10
286.000275
 20
67.422623
 11
287.250244
 21
66.700943
  0
LINE
  8
0
 62
     3
 10
284.750275
 20
65.257553
 11
286.000275
 21
64.535858
  0
LINE
  8
0
 62
     3
 10
307.350281
 20
66.700928
 11
307.350281
 21
65.257553
  0
LINE
  8
0
 62
     3
 10
309.850281
 20
66.700928
 11
309.850281
 21
65.257553
  0
LINE
  8
0
 62
     3
 10
307.350281
 20
66.700928
 11
308.600281
 21
67.422607
  0
LINE
  8
0
 62
     3
 10
308.600281
 20
64.535858
 11
309.850281
 21
65.257553
  0
LINE
  8
0
 62
     3
 10
308.600281
 20
67.422607
 11
309.850281
 21
66.700928
  0
LINE
  8
0
 62
     3
 10
307.350281
 20
65.257545
 11
308.600281
 21
64.535866
  0
LINE
  8
0
 62
     3
 10
307.350281
 20
82.300934
 11
307.350281
 21
80.857559
  0
LINE
  8
0
 62
     3
 10
309.850281
 20
82.300934
 11
309.850281
 21
80.857559
  0
LINE
  8
0
 62
     3
 10
307.350281
 20
82.300911
 11
308.600250
 21
83.022591
  0
LINE
  8
0
 62
     3
 10
308.600281
 20
80.135857
 11
309.850281
 21
80.857552
  0
LINE
  8
0
 62
     3
 10
308.600250
 20
83.022621
 11
309.850281
 21
82.300926
  0
LINE
  8
0
 62
     3
 10
307.350281
 20
80.857552
 11
308.600281
 21
80.135857
  0
ARC
  8
0
  6
PHANTOM
 10
224.525360
 20
73.029236
 40
1.000000
 50
311.409637
 51
48.590370
  0
ARC
  8
0
  6
PHANTOM
 10
225.848236
 20
73.029236
 40
1.000000
 50
131.409622
 51
228.590378
  0
CIRCLE
  8
0
 10
188.936798
 20
82.279236
 40
1.299999
  0
CIRCLE
  8
0
 10
188.936798
 20
82.279236
 40
1.056499
  0
CIRCLE
  8
0
  6
PHANTOM
 62
     3
 10
188.936798
 20
65.279236
 40
2.750000
  0
ARC
  8
0
  6
PHANTOM
 10
224.525360
 20
74.529236
 40
1.000000
 50
311.409637
 51
48.590370
  0
ARC
  8
0
  6
PHANTOM
 62
     3
 10
191.020081
 20
152.626465
 40
0.666699
 50
298.735413
 51
0.000000
  0
ARC
  8
0
  6
PHANTOM
 62
     3
 10
188.936783
 20
156.426117
 40
4.999999
 50
241.264633
 51
298.735382
  0
ARC
  8
0
  6
PHANTOM
 10
225.848221
 20
157.676117
 40
1.000000
 50
131.409622
 51
228.590378
  0
ARC
  8
0
  6
PHANTOM
 10
224.525345
 20
157.676117
 40
1.000000
 50
311.409637
 51
48.590370
  0
ARC
  8
0
  6
PHANTOM
 10
224.525345
 20
156.176117
 40
1.000000
 50
311.409637
 51
48.590370
  0
ARC
  8
0
 10
182.436783
 20
173.926117
 40
11.999998
 50
13.429514
 51
166.570419
  0
CIRCLE
  8
0
 10
172.436783
 20
173.926117
 40
1.700000
  0
CIRCLE
  8
0
 10
192.436783
 20
173.926117
 40
1.700000
  0
CIRCLE
  8
0
 10
192.436783
 20
173.926117
 40
3.250000
  0
CIRCLE
  8
0
 10
172.436783
 20
173.926117
 40
3.250000
  0
ARC
  8
0
 10
182.436783
 20
173.926117
 40
12.000002
 50
193.429581
 51
346.570496
  0
CIRCLE
  8
0
 62
     3
 10
176.436783
 20
179.926117
 40
2.599999
  0
CIRCLE
  8
0
 62
     3
 10
188.436783
 20
179.926117
 40
2.599999
  0
CIRCLE
  8
0
 62
     3
 10
188.436783
 20
167.926117
 40
2.599999
  0
CIRCLE
  8
0
 62
     3
 10
176.436783
 20
167.926117
 40
2.599999
  0
CIRCLE
  8
0
 10
182.436783
 20
173.926117
 40
5.000000
  0
CIRCLE
  8
0
 10
182.436783
 20
173.926117
 40
2.000000
  0
CIRCLE
  8
0
 10
182.436783
 20
173.926117
 40
1.500000
  0
ARC
  8
0
  6
PHANTOM
 10
224.525345
 20
190.176117
 40
1.000000
 50
311.409637
 51
48.590370
  0
ARC
  8
0
  6
PHANTOM
 10
224.525345
 20
191.676117
 40
1.000000
 50
311.409637
 51
48.590370
  0
ARC
  8
0
  6
PHANTOM
 10
225.848221
 20
191.676117
 40
1.000000
 50
131.409622
 51
228.590378
  0
ARC
  8
0
  6
PHANTOM
 62
     3
 10
188.936783
 20
191.426117
 40
4.999999
 50
61.264629
 51
118.735367
  0
ARC
  8
0
  6
PHANTOM
 62
     3
 10
191.020081
 20
195.225769
 40
0.666702
 50
0.000000
 51
61.264580
  0
ARC
  8
0
  6
PHANTOM
 62
     3
 10
186.853485
 20
195.225769
 40
0.666699
 50
118.735420
 51
180.000000
  0
ARC
  8
0
  6
PHANTOM
 62
     3
 10
186.853485
 20
152.626465
 40
0.666702
 50
180.000000
 51
241.264587
  0
ARC
  8
0
  6
PHANTOM
 62
     3
 10
97.466400
 20
67.362534
 40
0.666699
 50
28.735418
 51
90.000000
  0
ARC
  8
0
  6
PHANTOM
 62
     3
 10
93.666748
 20
65.279236
 40
5.000001
 50
331.264587
 51
28.735369
  0
ARC
  8
0
 10
62.666748
 20
83.779236
 40
1.500000
 50
90.000000
 51
180.000000
  0
ARC
  8
0
 10
89.666748
 20
83.779236
 40
1.500000
 50
0.000000
 51
90.000000
  0
ARC
  8
0
 10
89.666748
 20
63.779240
 40
1.500000
 50
270.000000
 51
0.000000
  0
ARC
  8
0
 10
62.666748
 20
63.779240
 40
1.500000
 50
180.000000
 51
270.000000
  0
CIRCLE
  8
0
 62
     3
 10
64.866745
 20
81.579239
 40
2.599999
  0
CIRCLE
  8
0
 62
     3
 10
64.866745
 20
65.979233
 40
2.599999
  0
CIRCLE
  8
0
 62
     3
 10
87.466751
 20
65.979233
 40
2.599999
  0
CIRCLE
  8
0
 62
     3
 10
87.466751
 20
81.579239
 40
2.599999
  0
ARC
  8
0
  6
PHANTOM
 62
     3
 10
97.466400
 20
63.195938
 40
0.666698
 50
270.000000
 51
331.264587
  0
ARC
  8
0
  6
PHANTOM
 62
     3
 10
58.666748
 20
65.279236
 40
4.999999
 50
151.264633
 51
208.735306
  0
ARC
  8
0
  6
PHANTOM
 62
     3
 10
54.867096
 20
67.362534
 40
0.666702
 50
90.000000
 51
151.264587
  0
ARC
  8
0
  6
PHANTOM
 62
     3
 10
54.867096
 20
63.195938
 40
0.666699
 50
208.735413
 51
270.000000
  0
CIRCLE
  8
0
 62
     3
 10
308.600281
 20
65.979233
 40
2.403589
  0
CIRCLE
  8
0
 62
     3
 10
308.600281
 20
81.579239
 40
2.750000
  0
CIRCLE
  8
0
 62
     3
 10
308.600281
 20
81.579239
 40
2.403589
  0
ARC
  8
0
 10
283.800262
 20
83.779236
 40
1.500000
 50
90.000000
 51
180.000000
  0
ARC
  8
0
 10
283.800262
 20
63.779240
 40
1.500000
 50
180.000000
 51
270.000000
  0
ARC
  8
0
 10
310.800262
 20
83.779236
 40
1.500000
 50
0.000000
 51
90.000000
  0
ARC
  8
0
 10
310.800262
 20
63.779240
 40
1.500000
 50
270.000000
 51
0.000000
  0
CIRCLE
  8
0
 10
291.800262
 20
77.279236
 40
2.066999
  0
CIRCLE
  8
0
 10
302.800262
 20
70.279236
 40
2.066999
  0
CIRCLE
  8
0
 10
302.800262
 20
70.279236
 40
2.500000
  0
CIRCLE
  8
0
 10
291.800262
 20
77.279236
 40
2.500000
  0
ARC
  8
0
  6
PHANTOM
 62
     3
 10
279.800293
 20
65.279236
 40
4.999999
 50
151.264633
 51
208.735336
  0
ARC
  8
0
  6
PHANTOM
 62
     3
 10
276.000641
 20
67.362534
 40
0.666702
 50
90.000000
 51
151.264587
  0
ARC
  8
0
  6
PHANTOM
 62
     3
 10
276.000641
 20
63.195938
 40
0.666699
 50
208.735413
 51
270.000000
  0
ARC
  8
0
  6
PHANTOM
 62
     3
 10
318.599915
 20
67.362534
 40
0.666699
 50
28.735418
 51
90.000000
  0
ARC
  8
0
  6
PHANTOM
 62
     3
 10
314.800293
 20
65.279236
 40
5.000001
 50
331.264587
 51
28.735369
  0
ARC
  8
0
  6
PHANTOM
 62
     3
 10
318.599915
 20
63.195938
 40
0.666698
 50
270.000000
 51
331.264587
  0
CIRCLE
  8
0
  6
PHANTOM
 10
280.300262
 20
73.779236
 40
1.500000
  0
CIRCLE
  8
0
  6
PHANTOM
 10
314.300293
 20
73.779236
 40
1.500000
  0
CIRCLE
  8
0
 62
     3
 10
286.000275
 20
81.579239
 40
2.750000
  0
CIRCLE
  8
0
 62
     3
 10
286.000275
 20
81.579239
 40
2.403589
  0
CIRCLE
  8
0
 62
     3
 10
286.000275
 20
65.979233
 40
2.750000
  0
CIRCLE
  8
0
 62
     3
 10
286.000275
 20
65.979233
 40
2.403589
  0
CIRCLE
  8
0
 62
     3
 10
308.600281
 20
65.979233
 40
2.750000
  0
TEXT
  8
0
 10
298.797760
 20
244.589584
 40
4.242641
  1
DATE : MAR ,1992
 50
0.000000
 41
1.052631
 51
0.000000
  7
STANDARD
  0
TEXT
  8
0
 10
2.113382
 20
243.907959
 40
5.000000
  1
ROTARY ACUTUATOR
 50
0.000000
 41
0.937799
 51
0.000000
  7
STANDARD
  0
TEXT
  8
0
 10
27.035715
 20
196.757431
 40
5.000000
  1
        RAPS1-190
 50
0.000000
 41
1.052632
 51
0.000000
  7
STANDARD
  0
TEXT
  8
0
 10
2.113382
 20
243.907959
 40
5.000000
  1
ROTARY ACUTUATOR
 50
0.000000
 41
0.937799
 51
0.000000
  7
STANDARD
  0
TEXT
  8
0
 10
231.283813
 20
165.778473
 40
3.500000
  1
üV
 50
90.000000
 41
0.833333
 51
0.000000
  7
STANDARD
  0
TEXT
  8
0
 10
231.283829
 20
178.074036
 40
3.500000
  1
üV
 50
90.000000
 41
0.833333
 51
0.000000
  7
STANDARD
  0
TEXT
  8
0
 10
237.686783
 20
172.331848
 40
3.500000
  1
D
 50
90.000000
 41
0.862813
 51
0.000000
  7
STANDARD
  0
TEXT
  8
0
 10
27.035715
 20
206.757431
 40
5.000000
  1
MODEL : RAPS1-180
 50
0.000000
 41
1.052632
 51
0.000000
  7
STANDARD
  0
TEXT
  8
0
 10
302.273193
 20
3.650512
 40
5.000000
  1
KOGANEI,CORP
 50
0.000000
 41
1.052632
 51
0.000000
  7
STANDARD
  0
LINE
  8
0
 10
304.050415
 20
68.114189
 11
321.852966
 21
37.279247
  0
LINE
  8
0
 10
321.852966
 20
37.279247
 11
337.340454
 21
37.279236
  0
LINE
  8
0
 10
304.050415
 20
68.114189
 11
304.826874
 21
65.216415
  0
LINE
  8
0
 10
304.050415
 20
68.114189
 11
306.171722
 21
65.992867
  0
TEXT
  8
0
 10
322.590454
 20
38.279236
 40
3.500000
  1
2-M5
 50
0.000000
 41
1.052632
 51
0.000000
  7
STANDARD
  0
TEXT
  8
0
 10
229.262878
 20
186.755020
 40
3.200000
  1
    
 50
277.500000
 41
1.052632
 51
0.000000
  7
STANDARD
  0
ARC
  8
0
 10
182.436783
 20
173.926117
 40
47.099991
 50
0.000000
 51
14.999996
  0
LINE
  8
0
 10
229.536774
 20
173.926117
 11
228.668594
 21
176.797211
  0
LINE
  8
0
 10
229.536774
 20
173.926117
 11
230.220459
 21
176.846649
  0
LINE
  8
0
 10
227.931870
 20
186.116486
 11
229.348145
 21
183.472412
  0
LINE
  8
0
 10
227.931870
 20
186.116486
 11
227.836365
 21
183.118515
  0
LINE
  8
0
 10
222.436783
 20
173.926117
 11
231.822769
 21
173.926117
  0
LINE
  8
0
 10
224.436798
 20
185.179977
 11
230.139999
 21
186.708145
  0
TEXT
  8
0
 10
238.524139
 20
166.677856
 40
3.500000
  1
    
 50
89.900002
 41
1.052632
 51
0.000000
  7
STANDARD
  0
ARC
  8
0
 10
182.436798
 20
173.926102
 40
57.099991
 50
345.000000
 51
14.999999
  0
LINE
  8
0
 10
237.591156
 20
159.147537
 11
237.512360
 21
162.146179
  0
LINE
  8
0
 10
237.591156
 20
159.147537
 11
239.022232
 21
161.783829
  0
LINE
  8
0
 10
237.591156
 20
188.704666
 11
239.022232
 21
186.068390
  0
LINE
  8
0
 10
237.591156
 20
188.704666
 11
237.512375
 21
185.706039
  0
LINE
  8
0
 10
224.436798
 20
162.672241
 11
239.799271
 21
158.555878
  0
LINE
  8
0
 10
224.436798
 20
185.179977
 11
239.799255
 21
189.296341
  0
TEXT
  8
0
 10
227.279984
 20
161.358231
 40
3.200000
  1
    
 50
82.500000
 41
1.052632
 51
0.000000
  7
STANDARD
  0
ARC
  8
0
 10
182.436783
 20
173.926117
 40
47.099979
 50
345.000000
 51
0.000000
  0
LINE
  8
0
 10
227.931870
 20
161.735748
 11
227.836365
 21
164.733734
  0
LINE
  8
0
 10
227.931870
 20
161.735748
 11
229.348145
 21
164.379837
  0
LINE
  8
0
 10
229.536774
 20
173.926117
 11
230.220459
 21
171.005585
  0
LINE
  8
0
 10
229.536774
 20
173.926117
 11
228.668594
 21
171.055023
  0
LINE
  8
0
 10
224.436813
 20
162.672287
 11
230.140030
 21
161.144119
  0
LINE
  8
0
 10
231.822769
 20
173.926117
 11
227.250778
 21
173.926117
  0
ENDSEC
  0
EOF
