  0
SECTION
  2
HEADER
  0
ENDSEC
  0
SECTION
  2
TABLES
  0
TABLE
  2
LTYPE
 70
     4
  0
LTYPE
  2
CONTINUOUS
 70
    64
  3
Solid line
 72
    65
 73
     0
 40
0.000000
  0
LTYPE
  2
DASHED
 70
    64
  3
__ __ __ __ __ __ __ __ __ __ __ __ __ __ __
 72
    65
 73
     2
 40
3.500000
 49
2.000000
 49
-1.500000
  0
LTYPE
  2
CENTER
 70
    64
  3
____ _ ____ _ ____ _ ____ _ ____ _ ____ _ ____
 72
    65
 73
     4
 40
17.500000
 49
13.000000
 49
-1.500000
 49
1.500000
 49
-1.500000
  0
LTYPE
  2
PHANTOM
 70
    64
  3
_____ _ _ _____ _ _ _____ _ _ _____ _ _ ____  
 72
    65
 73
     6
 40
15.500000
 49
8.000000
 49
-1.500000
 49
1.500000
 49
-1.500000
 49
1.500000
 49
-1.500000
  0
LTYPE
  2
DASHED1
 70
    64
  3
__ __ __ __ __ __ __ __ __ __ __ __ __ __ __
 72
    65
 73
     2
 40
1.500000
 49
1.000000
 49
-0.500000
  0
LTYPE
  2
DASHED2
 70
    64
  3
__ __ __ __ __ __ __ __ __ __ __ __ __ __ __
 72
    65
 73
     2
 40
3.500000
 49
2.500000
 49
-1.000000
  0
LTYPE
  2
DASHED3
 70
    64
  3
__ __ __ __ __ __ __ __ __ __ __ __ __ __ __
 72
    65
 73
     2
 40
6.000000
 49
4.000000
 49
-2.000000
  0
LTYPE
  2
DASHED4
 70
    64
  3
__ __ __ __ __ __ __ __ __ __ __ __ __ __ __
 72
    65
 73
     2
 40
12.000000
 49
10.000000
 49
-2.000000
  0
LTYPE
  2
DASHED5
 70
    64
  3
__ __ __ __ __ __ __ __ __ __ __ __ __ __ __
 72
    65
 73
     2
 40
17.000000
 49
15.000000
 49
-2.000000
  0
LTYPE
  2
DASHED6
 70
    64
  3
__ __ __ __ __ __ __ __ __ __ __ __ __ __ __
 72
    65
 73
     2
 40
29.000000
 49
27.000000
 49
-2.000000
  0
LTYPE
  2
PHANTOM1
 70
    64
  3
_____ _ _ _____ _ _ _____ _ _ _____ _ _ ____  
 72
    65
 73
     6
 40
31.000000
 49
25.000000
 49
-1.500000
 49
1.000000
 49
-1.000000
 49
1.000000
 49
-1.500000
  0
LTYPE
  2
PHANTOM2
 70
    64
  3
_____ _ _ _____ _ _ _____ _ _ _____ _ _ ____  
 72
    65
 73
     6
 40
36.000000
 49
27.000000
 49
-1.500000
 49
2.500000
 49
-1.000000
 49
2.500000
 49
-1.500000
  0
LTYPE
  2
PHANTOM3
 70
    64
  3
_____ _ _ _____ _ _ _____ _ _ _____ _ _ ____  
 72
    65
 73
     6
 40
78.000000
 49
64.000000
 49
-2.000000
 49
4.000000
 49
-2.000000
 49
4.000000
 49
-2.000000
  0
LTYPE
  2
CENTER1
 70
    64
  3
____ _ ____ _ ____ _ ____ _ ____ _ ____ _ ____
 72
    65
 73
     4
 40
19.000000
 49
14.000000
 49
-1.000000
 49
3.000000
 49
-1.000000
  0
LTYPE
  2
CENTER2
 70
    64
  3
____ _ ____ _ ____ _ ____ _ ____ _ ____ _ ____
 72
    65
 73
     4
 40
28.500000
 49
25.000000
 49
-1.000000
 49
1.500000
 49
-1.000000
  0
LTYPE
  2
CENTER3
 70
    64
  3
____ _ ____ _ ____ _ ____ _ ____ _ ____ _ ____
 72
    65
 73
     4
 40
31.500000
 49
27.000000
 49
-1.000000
 49
2.500000
 49
-1.000000
  0
LTYPE
  2
CENTER4
 70
    64
  3
____ _ ____ _ ____ _ ____ _ ____ _ ____ _ ____
 72
    65
 73
     4
 40
50.000000
 49
45.000000
 49
-1.000000
 49
3.000000
 49
-1.000000
  0
LTYPE
  2
CENTER5
 70
    64
  3
____ _ ____ _ ____ _ ____ _ ____ _ ____ _ ____
 72
    65
 73
     4
 40
100.000000
 49
92.000000
 49
-2.000000
 49
4.000000
 49
-2.000000
  0
LTYPE
  2
SBK1
 70
    64
  3
______ _ _ _ ______ _ _ _ ______ _ _ _ _____  
 72
    65
 73
     8
 40
60.500000
 49
45.000000
 49
-2.000000
 49
2.500000
 49
-2.000000
 49
2.500000
 49
-2.000000
 49
2.500000
 49
-2.000000
  0
LTYPE
  2
SBK2
 70
    64
  3
______ _ _ _ ______ _ _ _ ______ _ _ _ _____  
 72
    65
 73
     8
 40
84.000000
 49
64.000000
 49
-2.000000
 49
4.000000
 49
-2.000000
 49
4.000000
 49
-2.000000
 49
4.000000
 49
-2.000000
  0
LTYPE
  2
STCH
 70
    64
  3
__ __ __ __ __ __ __ __ __ __ __ __ __ __ __
 72
    65
 73
     2
 40
3.000000
 49
1.000000
 49
-2.000000
  0
LTYPE
  2
MTCH
 70
    64
  3
_____ _ _ _____ _ _ _____ _ _ _____ _ _ ____  
 72
    65
 73
     6
 40
80.000000
 49
66.000000
 49
-2.000000
 49
4.000000
 49
-2.000000
 49
4.000000
 49
-2.000000
  0
ENDTAB
  0
TABLE
  2
LAYER
 70
     1
  0
LAYER
  2
0
 70
     0
 62
     7
  6
CONTINUOUS
  0
ENDTAB
  0
TABLE
  2
STYLE
 70
     1
  0
STYLE
  2
STANDARD
 70
     0
 40
0.000000
 41
1.000000
 50
0.000000
 71
     0
 42
0.200000
  3
txt
  4
BIGFONT
  0
ENDTAB
  0
TABLE
  2
VIEW
 70
     0
  0
ENDTAB
  0
ENDSEC
  0
SECTION
  2
BLOCKS
  0
ENDSEC
  0
SECTION
  2
ENTITIES
  0
POINT
  8
0
 10
186.436798
 20
73.779251
  0
POINT
  8
0
 10
237.436798
 20
73.779251
  0
POINT
  8
0
 10
186.436783
 20
173.926102
  0
POINT
  8
0
 10
237.436783
 20
173.926102
  0
POINT
  8
0
 10
186.436783
 20
173.926102
  0
POINT
  8
0
 10
76.166748
 20
73.779236
  0
POINT
  8
0
 10
91.166748
 20
73.779236
  0
POINT
  8
0
 10
312.300262
 20
73.779236
  0
POINT
  8
0
 10
327.300262
 20
73.779236
  0
LINE
  8
0
 62
     3
 10
0.000000
 20
0.000000
 11
0.000000
 21
254.558472
  0
LINE
  8
0
 62
     3
 10
370.873566
 20
254.558472
 11
370.873566
 21
0.000000
  0
LINE
  8
0
 62
     3
 10
0.000000
 20
0.000000
 11
370.873566
 21
0.000000
  0
LINE
  8
0
 62
     3
 10
0.000000
 20
254.558472
 11
370.873566
 21
254.558472
  0
LINE
  8
0
 62
     3
 10
0.000000
 20
240.257431
 11
76.272194
 21
240.257431
  0
LINE
  8
0
 62
     3
 10
76.272194
 20
240.257431
 11
76.272194
 21
254.558472
  0
LINE
  8
0
 62
     3
 10
294.601379
 20
14.301025
 11
370.873566
 21
14.301025
  0
LINE
  8
0
 62
     3
 10
294.601379
 20
240.257431
 11
370.873566
 21
240.257431
  0
LINE
  8
0
 62
     3
 10
294.601379
 20
254.558472
 11
294.601379
 21
240.257431
  0
LINE
  8
0
 62
     3
 10
294.601379
 20
14.301025
 11
294.601379
 21
0.000000
  0
LINE
  8
0
 10
186.436783
 20
173.926086
 11
242.436783
 21
188.931244
  0
LINE
  8
0
 10
186.436783
 20
173.926086
 11
242.436768
 21
158.920929
  0
LINE
  8
0
 10
149.436798
 20
85.279251
 11
237.436798
 21
85.279251
  0
LINE
  8
0
 10
149.436798
 20
62.279251
 11
237.436798
 21
62.279251
  0
LINE
  8
0
 10
230.436798
 20
85.279251
 11
230.436798
 21
75.279251
  0
LINE
  8
0
 10
152.436798
 20
85.279251
 11
152.436798
 21
62.279251
  0
LINE
  8
0
  6
CENTER
 10
146.436798
 20
73.779251
 11
246.186798
 21
73.779251
  0
LINE
  8
0
  6
CENTER
 10
186.436798
 20
104.279251
 11
186.436798
 21
43.279251
  0
LINE
  8
0
  6
CENTER
 10
190.936798
 20
82.279251
 11
194.936798
 21
82.279251
  0
LINE
  8
0
  6
CENTER
 10
188.186798
 20
65.279251
 11
197.686798
 21
65.279251
  0
LINE
  8
0
  6
CENTER
 10
192.936798
 20
77.579254
 11
192.936798
 21
61.529251
  0
LINE
  8
0
  6
CENTER
 10
192.936798
 20
84.279251
 11
192.936798
 21
80.279251
  0
LINE
  8
0
 10
237.436798
 20
85.279251
 11
237.436798
 21
75.279251
  0
LINE
  8
0
 10
149.436798
 20
85.279251
 11
149.436798
 21
62.279251
  0
LINE
  8
0
 10
184.936798
 20
101.279251
 11
188.036804
 21
101.279251
  0
LINE
  8
0
 10
184.436813
 20
100.779266
 11
184.936798
 21
101.279251
  0
LINE
  8
0
 10
184.436798
 20
100.779251
 11
188.036804
 21
100.779251
  0
LINE
  8
0
 10
184.436798
 20
100.779251
 11
184.436798
 21
87.779251
  0
LINE
  8
0
 10
188.436798
 20
93.279251
 11
188.436798
 21
87.779251
  0
LINE
  8
0
 10
184.436798
 20
87.779251
 11
188.436798
 21
87.779251
  0
LINE
  8
0
 10
181.436798
 20
87.279251
 11
191.436798
 21
87.279251
  0
LINE
  8
0
 10
188.436798
 20
87.779243
 11
188.936798
 21
87.279243
  0
LINE
  8
0
 10
184.436798
 20
87.779266
 11
183.936783
 21
87.279266
  0
LINE
  8
0
 10
181.436798
 20
87.279251
 11
181.436798
 21
85.279251
  0
LINE
  8
0
 10
191.436798
 20
87.279251
 11
191.436798
 21
85.279251
  0
LINE
  8
0
 10
191.436798
 20
60.279251
 11
191.436798
 21
62.279251
  0
LINE
  8
0
 10
181.436798
 20
60.279251
 11
191.436798
 21
60.279251
  0
LINE
  8
0
 10
188.436783
 20
59.779285
 11
188.936783
 21
60.279285
  0
LINE
  8
0
 10
184.436798
 20
59.779251
 11
188.436798
 21
59.779251
  0
LINE
  8
0
 10
184.436813
 20
59.779285
 11
183.936813
 21
60.279278
  0
LINE
  8
0
 10
181.436798
 20
60.279251
 11
181.436798
 21
62.279251
  0
LINE
  8
0
  6
PHANTOM
 10
184.436798
 20
46.779251
 11
184.436798
 21
59.779251
  0
LINE
  8
0
  6
PHANTOM
 10
188.436798
 20
54.279251
 11
188.436798
 21
59.779251
  0
LINE
  8
0
  6
PHANTOM
 10
184.436798
 20
46.779251
 11
188.036804
 21
46.779251
  0
LINE
  8
0
  6
PHANTOM
 10
184.936798
 20
46.279251
 11
188.036804
 21
46.279251
  0
LINE
  8
0
  6
PHANTOM
 10
184.436798
 20
46.779263
 11
184.936798
 21
46.279263
  0
LINE
  8
0
 10
188.036804
 20
101.279251
 11
188.036804
 21
93.679253
  0
LINE
  8
0
  6
PHANTOM
 10
188.036804
 20
46.279251
 11
188.036804
 21
53.879257
  0
LINE
  8
0
 10
188.436798
 20
93.279236
 11
188.036804
 21
93.679237
  0
LINE
  8
0
  6
PHANTOM
 10
188.436844
 20
54.279221
 11
188.036850
 21
53.879230
  0
LINE
  8
0
  6
PHANTOM
 10
189.186798
 20
76.579254
 11
196.686798
 21
76.579254
  0
LINE
  8
0
  6
PHANTOM
 10
196.686798
 20
76.579254
 11
196.686798
 21
62.279251
  0
LINE
  8
0
  6
PHANTOM
 10
189.186798
 20
76.579254
 11
189.186798
 21
62.279251
  0
LINE
  8
0
  6
PHANTOM
 10
195.936798
 20
75.779251
 11
195.936798
 21
63.079254
  0
LINE
  8
0
  6
PHANTOM
 10
189.936798
 20
75.779251
 11
189.936798
 21
63.079254
  0
LINE
  8
0
  6
PHANTOM
 10
189.936798
 20
75.779251
 11
195.936798
 21
75.779251
  0
LINE
  8
0
  6
PHANTOM
 10
189.936798
 20
63.079254
 11
191.286804
 21
63.079254
  0
LINE
  8
0
  6
PHANTOM
 10
191.436798
 20
62.579254
 11
192.414780
 21
62.579254
  0
LINE
  8
0
  6
PHANTOM
 10
191.436798
 20
62.974365
 11
191.436798
 21
62.579254
  0
LINE
  8
0
  6
PHANTOM
 10
194.436798
 20
62.974365
 11
194.436798
 21
62.579254
  0
LINE
  8
0
  6
PHANTOM
 10
194.586807
 20
63.079254
 11
195.936798
 21
63.079254
  0
LINE
  8
0
  6
PHANTOM
 10
193.458817
 20
62.579254
 11
194.436798
 21
62.579254
  0
LINE
  8
0
  6
PHANTOM
 10
185.686798
 20
71.779251
 11
189.186798
 21
71.779251
  0
LINE
  8
0
  6
PHANTOM
 10
196.686798
 20
71.779251
 11
206.186798
 21
71.779251
  0
LINE
  8
0
  6
PHANTOM
 10
185.686798
 20
75.779251
 11
189.186798
 21
75.779251
  0
LINE
  8
0
  6
PHANTOM
 10
185.686798
 20
75.779251
 11
185.686798
 21
71.779251
  0
LINE
  8
0
  6
PHANTOM
 10
184.186813
 20
74.913223
 11
185.686798
 21
75.779243
  0
LINE
  8
0
  6
PHANTOM
 10
184.186798
 20
74.913239
 11
184.186798
 21
72.645279
  0
LINE
  8
0
  6
PHANTOM
 10
184.186798
 20
72.645271
 11
185.686798
 21
71.779251
  0
LINE
  8
0
  6
PHANTOM
 10
196.686798
 20
75.779251
 11
206.186798
 21
75.779251
  0
LINE
  8
0
  6
PHANTOM
 10
206.186798
 20
75.779251
 11
206.186798
 21
71.779251
  0
LINE
  8
0
  6
PHANTOM
 10
206.186813
 20
75.779228
 11
208.186813
 21
75.279228
  0
LINE
  8
0
  6
PHANTOM
 10
208.186798
 20
75.279251
 11
208.186798
 21
72.279251
  0
LINE
  8
0
  6
PHANTOM
 10
206.186813
 20
71.779198
 11
208.186813
 21
72.279198
  0
LINE
  8
0
  6
PHANTOM
 10
208.186798
 20
72.279251
 11
243.186798
 21
72.279251
  0
LINE
  8
0
  6
PHANTOM
 10
208.186798
 20
75.279251
 11
243.186798
 21
75.279251
  0
LINE
  8
0
 10
230.436798
 20
72.279251
 11
230.436798
 21
62.279251
  0
LINE
  8
0
 10
237.436798
 20
72.279251
 11
237.436798
 21
62.279251
  0
LINE
  8
0
  6
PHANTOM
 10
191.876129
 20
66.339905
 11
193.997452
 21
64.218575
  0
LINE
  8
0
  6
PHANTOM
 10
191.876160
 20
64.218582
 11
193.997498
 21
66.339912
  0
LINE
  8
0
 10
230.436783
 20
188.926102
 11
230.436783
 21
158.926102
  0
LINE
  8
0
 10
152.436783
 20
188.926102
 11
152.436783
 21
158.926102
  0
LINE
  8
0
 10
149.436783
 20
158.926102
 11
237.436783
 21
158.926102
  0
LINE
  8
0
 10
149.436783
 20
188.926102
 11
237.436783
 21
188.926102
  0
LINE
  8
0
 10
237.436783
 20
188.926102
 11
237.436783
 21
158.926102
  0
LINE
  8
0
 10
149.436783
 20
188.926102
 11
149.436783
 21
158.926102
  0
LINE
  8
0
  6
CENTER
 10
146.436783
 20
173.926102
 11
240.436783
 21
173.926102
  0
LINE
  8
0
  6
CENTER
 10
186.436783
 20
191.926102
 11
186.436783
 21
155.926102
  0
LINE
  8
0
  6
CENTER
 10
176.436783
 20
178.426102
 11
176.436783
 21
169.426102
  0
LINE
  8
0
  6
CENTER
 10
196.436783
 20
178.426102
 11
196.436783
 21
169.426102
  0
LINE
  8
0
  6
CENTER
 10
176.686783
 20
179.926102
 11
184.186783
 21
179.926102
  0
LINE
  8
0
  6
CENTER
 10
188.686783
 20
179.926102
 11
196.186783
 21
179.926102
  0
LINE
  8
0
  6
CENTER
 10
188.686783
 20
167.926102
 11
196.186783
 21
167.926102
  0
LINE
  8
0
  6
CENTER
 10
176.686783
 20
167.926102
 11
184.186783
 21
167.926102
  0
LINE
  8
0
  6
CENTER
 10
180.436783
 20
171.676102
 11
180.436783
 21
164.176102
  0
LINE
  8
0
  6
CENTER
 10
192.436783
 20
171.676102
 11
192.436783
 21
164.176102
  0
LINE
  8
0
  6
CENTER
 10
192.436783
 20
183.676102
 11
192.436783
 21
176.176102
  0
LINE
  8
0
  6
CENTER
 10
180.436783
 20
183.676102
 11
180.436783
 21
176.176102
  0
LINE
  8
0
 10
188.036789
 20
175.126099
 11
188.036789
 21
172.726105
  0
LINE
  8
0
  6
PHANTOM
 10
184.186783
 20
192.060074
 11
184.186783
 21
189.792130
  0
LINE
  8
0
  6
PHANTOM
 10
185.686783
 20
192.926102
 11
185.686783
 21
188.926102
  0
LINE
  8
0
  6
PHANTOM
 10
185.686783
 20
192.926102
 11
189.186783
 21
192.926102
  0
LINE
  8
0
  6
PHANTOM
 10
196.686783
 20
192.926102
 11
206.186783
 21
192.926102
  0
LINE
  8
0
  6
PHANTOM
 10
184.186798
 20
192.060074
 11
185.686798
 21
192.926102
  0
LINE
  8
0
  6
PHANTOM
 10
184.186798
 20
189.792130
 11
185.686783
 21
188.926102
  0
LINE
  8
0
  6
PHANTOM
 10
206.186783
 20
192.926102
 11
206.186783
 21
188.926102
  0
LINE
  8
0
  6
PHANTOM
 10
208.186783
 20
189.426102
 11
243.186783
 21
189.426102
  0
LINE
  8
0
  6
PHANTOM
 10
208.186783
 20
192.426102
 11
243.186783
 21
192.426102
  0
LINE
  8
0
  6
PHANTOM
 10
208.186783
 20
192.426102
 11
208.186783
 21
189.426102
  0
LINE
  8
0
  6
PHANTOM
 10
206.186813
 20
192.926239
 11
208.186813
 21
192.426239
  0
LINE
  8
0
  6
PHANTOM
 10
206.186768
 20
188.926193
 11
208.186768
 21
189.426193
  0
LINE
  8
0
  6
CENTER
 10
246.186783
 20
190.926102
 11
205.186783
 21
190.926102
  0
LINE
  8
0
  6
CENTER
 10
192.936783
 20
197.426102
 11
192.936783
 21
187.926102
  0
LINE
  8
0
  6
PHANTOM
 10
196.686783
 20
194.426102
 11
196.686783
 21
189.426102
  0
LINE
  8
0
  6
PHANTOM
 10
189.186783
 20
194.426102
 11
189.186783
 21
189.426102
  0
LINE
  8
0
  6
PHANTOM
 10
189.186783
 20
189.426102
 11
196.686783
 21
189.426102
  0
LINE
  8
0
  6
PHANTOM
 10
189.186783
 20
194.426102
 11
196.686783
 21
194.426102
  0
LINE
  8
0
  6
PHANTOM
 62
     3
 10
195.686783
 20
195.225754
 11
195.686783
 21
194.426102
  0
LINE
  8
0
  6
PHANTOM
 62
     3
 10
190.186783
 20
195.225754
 11
190.186783
 21
194.426102
  0
LINE
  8
0
  6
PHANTOM
 10
184.186783
 20
155.792130
 11
184.186783
 21
158.060074
  0
LINE
  8
0
  6
PHANTOM
 10
185.686783
 20
154.926102
 11
185.686783
 21
158.926102
  0
LINE
  8
0
  6
PHANTOM
 10
185.686783
 20
154.926102
 11
189.186783
 21
154.926102
  0
LINE
  8
0
  6
PHANTOM
 10
196.686783
 20
154.926102
 11
206.186783
 21
154.926102
  0
LINE
  8
0
  6
PHANTOM
 10
184.186813
 20
155.792191
 11
185.686813
 21
154.926163
  0
LINE
  8
0
  6
PHANTOM
 10
184.186783
 20
158.060028
 11
185.686783
 21
158.926041
  0
LINE
  8
0
  6
PHANTOM
 10
206.186783
 20
154.926102
 11
206.186783
 21
158.926102
  0
LINE
  8
0
  6
PHANTOM
 10
208.186783
 20
158.426102
 11
243.186783
 21
158.426102
  0
LINE
  8
0
  6
PHANTOM
 10
208.186783
 20
155.426102
 11
243.186783
 21
155.426102
  0
LINE
  8
0
  6
PHANTOM
 10
208.186783
 20
155.426102
 11
208.186783
 21
158.426102
  0
LINE
  8
0
  6
PHANTOM
 10
206.186768
 20
154.926102
 11
208.186768
 21
155.426102
  0
LINE
  8
0
  6
PHANTOM
 10
206.186798
 20
158.926071
 11
208.186798
 21
158.426071
  0
LINE
  8
0
  6
CENTER
 10
246.186783
 20
156.926102
 11
205.186783
 21
156.926102
  0
LINE
  8
0
  6
CENTER
 10
192.936783
 20
150.426102
 11
192.936783
 21
159.926102
  0
LINE
  8
0
  6
PHANTOM
 10
196.686783
 20
153.426102
 11
196.686783
 21
158.426102
  0
LINE
  8
0
  6
PHANTOM
 10
189.186783
 20
153.426102
 11
189.186783
 21
158.426102
  0
LINE
  8
0
  6
PHANTOM
 10
189.186783
 20
158.426102
 11
196.686783
 21
158.426102
  0
LINE
  8
0
  6
PHANTOM
 10
189.186783
 20
153.426102
 11
196.686783
 21
153.426102
  0
LINE
  8
0
  6
PHANTOM
 62
     3
 10
195.686783
 20
152.626450
 11
195.686783
 21
153.426102
  0
LINE
  8
0
  6
PHANTOM
 62
     3
 10
190.186783
 20
152.626450
 11
190.186783
 21
153.426102
  0
LINE
  8
0
 10
179.517578
 20
180.845367
 11
181.356049
 21
179.006897
  0
LINE
  8
0
 10
179.517502
 20
179.006866
 11
181.356018
 21
180.845383
  0
LINE
  8
0
 10
193.356049
 20
179.006836
 11
191.517548
 21
180.845337
  0
LINE
  8
0
 10
193.356003
 20
180.845337
 11
191.517517
 21
179.006851
  0
LINE
  8
0
 10
179.517532
 20
168.845367
 11
181.356033
 21
167.006866
  0
LINE
  8
0
 10
179.517548
 20
167.006836
 11
181.356033
 21
168.845322
  0
LINE
  8
0
 10
193.356033
 20
168.845337
 11
191.517548
 21
167.006851
  0
LINE
  8
0
 10
193.356003
 20
167.006821
 11
191.517517
 21
168.845306
  0
LINE
  8
0
 10
62.666748
 20
62.279236
 11
89.666748
 21
62.279236
  0
LINE
  8
0
 10
62.666748
 20
85.279236
 11
89.666748
 21
85.279236
  0
LINE
  8
0
 10
61.166748
 20
83.779236
 11
61.166748
 21
63.779240
  0
LINE
  8
0
 10
91.166748
 20
83.779236
 11
91.166748
 21
63.779240
  0
LINE
  8
0
  6
CENTER
 10
52.666748
 20
73.779236
 11
99.666748
 21
73.779236
  0
LINE
  8
0
  6
CENTER
 10
76.166748
 20
104.279236
 11
76.166748
 21
43.279236
  0
LINE
  8
0
  6
CENTER
 10
64.866745
 20
85.079239
 11
64.866745
 21
78.079239
  0
LINE
  8
0
  6
CENTER
 10
64.866745
 20
69.479248
 11
64.866745
 21
62.479248
  0
LINE
  8
0
  6
CENTER
 10
87.466751
 20
85.079239
 11
87.466751
 21
78.079239
  0
LINE
  8
0
  6
CENTER
 10
87.466751
 20
69.479248
 11
87.466751
 21
62.479248
  0
LINE
  8
0
  6
CENTER
 10
61.366745
 20
65.979233
 11
68.366745
 21
65.979233
  0
LINE
  8
0
  6
CENTER
 10
61.366745
 20
81.579239
 11
68.366745
 21
81.579239
  0
LINE
  8
0
  6
CENTER
 10
83.966751
 20
81.579239
 11
90.966751
 21
81.579239
  0
LINE
  8
0
  6
CENTER
 10
83.966751
 20
65.979233
 11
90.966751
 21
65.979233
  0
LINE
  8
0
  6
PHANTOM
 10
74.166771
 20
46.779301
 11
74.666771
 21
46.279301
  0
LINE
  8
0
 10
74.666748
 20
101.279236
 11
77.666748
 21
101.279236
  0
LINE
  8
0
 10
74.166748
 20
100.779198
 11
74.666733
 21
101.279190
  0
LINE
  8
0
 10
74.166748
 20
100.779236
 11
78.166748
 21
100.779236
  0
LINE
  8
0
 10
74.166748
 20
100.779236
 11
74.166748
 21
87.779236
  0
LINE
  8
0
 10
78.166748
 20
100.779259
 11
77.666748
 21
101.279259
  0
LINE
  8
0
 10
78.166748
 20
100.779236
 11
78.166748
 21
87.779236
  0
LINE
  8
0
 10
74.166748
 20
87.779236
 11
78.166748
 21
87.779236
  0
LINE
  8
0
 10
71.166748
 20
87.279236
 11
81.166748
 21
87.279236
  0
LINE
  8
0
 10
78.166748
 20
87.779243
 11
78.666748
 21
87.279243
  0
LINE
  8
0
 10
74.166756
 20
87.779198
 11
73.666756
 21
87.279198
  0
LINE
  8
0
 10
71.166748
 20
87.279236
 11
71.166748
 21
85.279236
  0
LINE
  8
0
 10
81.166748
 20
87.279236
 11
81.166748
 21
85.279236
  0
LINE
  8
0
 10
81.166748
 20
60.279236
 11
81.166748
 21
62.279236
  0
LINE
  8
0
 10
71.166748
 20
60.279236
 11
81.166748
 21
60.279236
  0
LINE
  8
0
 10
78.166763
 20
59.779251
 11
78.666763
 21
60.279255
  0
LINE
  8
0
 10
74.166748
 20
59.779236
 11
78.166748
 21
59.779236
  0
LINE
  8
0
 10
74.166771
 20
59.779285
 11
73.666771
 21
60.279285
  0
LINE
  8
0
 10
71.166748
 20
60.279236
 11
71.166748
 21
62.279236
  0
LINE
  8
0
  6
PHANTOM
 10
74.166748
 20
46.779236
 11
74.166748
 21
59.779236
  0
LINE
  8
0
  6
PHANTOM
 10
78.166748
 20
46.779236
 11
78.166748
 21
59.779236
  0
LINE
  8
0
  6
PHANTOM
 10
74.166748
 20
46.779236
 11
78.166748
 21
46.779236
  0
LINE
  8
0
  6
PHANTOM
 10
78.166763
 20
46.779205
 11
77.666771
 21
46.279217
  0
LINE
  8
0
  6
PHANTOM
 10
74.666748
 20
46.279236
 11
77.666748
 21
46.279236
  0
LINE
  8
0
  6
PHANTOM
 10
57.166733
 20
75.779236
 11
57.166733
 21
71.779236
  0
LINE
  8
0
  6
PHANTOM
 10
58.032730
 20
72.645264
 11
60.300735
 21
72.645264
  0
LINE
  8
0
  6
PHANTOM
 10
57.166733
 20
71.779236
 11
61.166733
 21
71.779236
  0
LINE
  8
0
  6
PHANTOM
 10
57.166733
 20
75.779236
 11
61.166733
 21
75.779236
  0
LINE
  8
0
  6
PHANTOM
 10
58.032730
 20
74.913208
 11
60.300735
 21
74.913208
  0
LINE
  8
0
  6
PHANTOM
 10
58.032730
 20
74.913208
 11
58.032730
 21
72.645264
  0
LINE
  8
0
  6
PHANTOM
 10
60.300735
 20
74.913208
 11
60.300735
 21
72.645264
  0
LINE
  8
0
  6
PHANTOM
 10
57.166817
 20
75.779388
 11
58.032810
 21
74.913368
  0
LINE
  8
0
  6
PHANTOM
 10
58.032722
 20
72.645210
 11
57.166729
 21
71.779190
  0
LINE
  8
0
  6
PHANTOM
 10
60.300720
 20
72.645294
 11
61.166721
 21
71.779266
  0
LINE
  8
0
  6
PHANTOM
 10
60.300823
 20
74.913147
 11
61.166817
 21
75.779167
  0
LINE
  8
0
  6
PHANTOM
 10
55.666748
 20
62.279236
 11
61.466751
 21
62.279236
  0
LINE
  8
0
  6
PHANTOM
 10
55.666748
 20
76.579239
 11
60.666748
 21
76.579239
  0
LINE
  8
0
  6
PHANTOM
 10
60.666748
 20
76.579239
 11
60.666748
 21
75.779236
  0
LINE
  8
0
  6
PHANTOM
 10
60.666748
 20
71.779236
 11
60.666748
 21
65.279236
  0
LINE
  8
0
  6
PHANTOM
 10
55.666748
 20
76.579239
 11
55.666748
 21
62.279236
  0
LINE
  8
0
  6
PHANTOM
 10
60.666748
 20
65.279236
 11
61.166748
 21
65.279236
  0
LINE
  8
0
  6
CENTER
 10
52.666748
 20
65.279236
 11
62.166748
 21
65.279236
  0
LINE
  8
0
  6
PHANTOM
 62
     3
 10
54.867096
 20
68.029236
 11
55.666748
 21
68.029236
  0
LINE
  8
0
  6
PHANTOM
 62
     3
 10
54.867096
 20
62.529236
 11
55.666748
 21
62.529236
  0
LINE
  8
0
  6
PHANTOM
 62
     1
 10
60.666748
 20
66.779236
 11
61.166748
 21
66.779236
  0
LINE
  8
0
  6
PHANTOM
 62
     1
 10
60.666748
 20
66.508743
 11
61.166748
 21
66.508743
  0
LINE
  8
0
  6
PHANTOM
 10
95.166763
 20
75.779236
 11
91.166763
 21
75.779236
  0
LINE
  8
0
  6
PHANTOM
 10
91.666748
 20
76.579239
 11
91.666748
 21
75.779236
  0
LINE
  8
0
  6
PHANTOM
 10
96.666748
 20
76.579239
 11
91.666748
 21
76.579239
  0
LINE
  8
0
  6
PHANTOM
 10
96.666748
 20
76.579239
 11
96.666748
 21
62.279236
  0
LINE
  8
0
  6
PHANTOM
 10
95.166763
 20
75.779236
 11
95.166763
 21
71.779236
  0
LINE
  8
0
  6
PHANTOM
 10
95.166771
 20
75.779266
 11
94.300766
 21
74.913231
  0
LINE
  8
0
  6
PHANTOM
 10
94.300766
 20
74.913208
 11
94.300766
 21
72.645264
  0
LINE
  8
0
  6
PHANTOM
 10
94.300766
 20
74.913208
 11
92.032761
 21
74.913208
  0
LINE
  8
0
  6
PHANTOM
 10
92.032722
 20
74.913170
 11
91.166718
 21
75.779198
  0
LINE
  8
0
  6
PHANTOM
 10
92.032761
 20
74.913208
 11
92.032761
 21
72.645264
  0
LINE
  8
0
  6
PHANTOM
 10
92.032768
 20
72.645233
 11
91.166779
 21
71.779213
  0
LINE
  8
0
  6
PHANTOM
 10
94.300766
 20
72.645264
 11
92.032761
 21
72.645264
  0
LINE
  8
0
  6
PHANTOM
 10
94.300758
 20
72.645264
 11
95.166748
 21
71.779251
  0
LINE
  8
0
  6
PHANTOM
 10
95.166763
 20
71.779236
 11
91.166763
 21
71.779236
  0
LINE
  8
0
  6
PHANTOM
 62
     3
 10
97.466400
 20
68.029236
 11
96.666748
 21
68.029236
  0
LINE
  8
0
  6
PHANTOM
 62
     3
 10
97.466400
 20
62.529236
 11
96.666748
 21
62.529236
  0
LINE
  8
0
  6
PHANTOM
 10
96.666748
 20
62.279236
 11
90.866745
 21
62.279236
  0
LINE
  8
0
  6
PHANTOM
 10
91.666748
 20
71.779236
 11
91.666748
 21
65.279236
  0
LINE
  8
0
  6
PHANTOM
 10
91.666748
 20
65.279236
 11
91.166748
 21
65.279236
  0
LINE
  8
0
  6
PHANTOM
 62
     1
 10
91.666748
 20
66.779236
 11
91.166748
 21
66.779236
  0
LINE
  8
0
  6
PHANTOM
 62
     1
 10
91.666748
 20
66.508743
 11
91.166748
 21
66.508743
  0
LINE
  8
0
  6
CENTER
 10
99.666748
 20
65.279236
 11
90.166748
 21
65.279236
  0
LINE
  8
0
  6
PHANTOM
 10
61.466751
 20
62.879242
 11
61.466751
 21
62.279236
  0
LINE
  8
0
  6
PHANTOM
 10
90.866745
 20
62.879242
 11
90.866745
 21
62.279236
  0
LINE
  8
0
 10
63.947453
 20
66.898430
 11
65.785942
 21
65.059944
  0
LINE
  8
0
 10
63.947464
 20
65.059975
 11
65.785973
 21
66.898483
  0
LINE
  8
0
 10
88.386055
 20
65.059967
 11
86.547539
 21
66.898483
  0
LINE
  8
0
 10
88.386032
 20
66.898468
 11
86.547546
 21
65.059967
  0
LINE
  8
0
 10
63.947453
 20
82.498512
 11
65.785965
 21
80.660004
  0
LINE
  8
0
 10
63.947445
 20
80.660034
 11
65.785934
 21
82.498535
  0
LINE
  8
0
 10
88.386040
 20
82.498535
 11
86.547523
 21
80.660027
  0
LINE
  8
0
 10
88.386017
 20
80.660004
 11
86.547523
 21
82.498497
  0
LINE
  8
0
 10
297.300262
 20
83.779236
 11
297.300262
 21
63.779236
  0
LINE
  8
0
 10
327.300262
 20
83.779236
 11
327.300262
 21
63.779236
  0
LINE
  8
0
 10
298.800262
 20
85.279236
 11
325.800262
 21
85.279236
  0
LINE
  8
0
 10
298.800262
 20
62.279236
 11
325.800262
 21
62.279236
  0
LINE
  8
0
  6
CENTER
 10
312.300262
 20
104.279236
 11
312.300262
 21
43.279236
  0
LINE
  8
0
  6
CENTER
 10
288.800293
 20
73.779236
 11
335.800293
 21
73.779236
  0
LINE
  8
0
  6
CENTER
 10
306.800262
 20
80.779236
 11
306.800262
 21
73.779236
  0
LINE
  8
0
  6
CENTER
 10
303.300262
 20
77.279236
 11
310.300262
 21
77.279236
  0
LINE
  8
0
  6
CENTER
 10
314.300262
 20
70.279236
 11
321.300262
 21
70.279236
  0
LINE
  8
0
  6
CENTER
 10
317.800262
 20
73.779236
 11
317.800262
 21
66.779236
  0
LINE
  8
0
  6
CENTER
 10
323.600281
 20
69.979248
 11
323.600281
 21
61.979248
  0
LINE
  8
0
  6
CENTER
 10
323.600281
 20
85.579239
 11
323.600281
 21
77.579239
  0
LINE
  8
0
  6
CENTER
 10
301.000244
 20
85.579239
 11
301.000244
 21
77.579239
  0
LINE
  8
0
  6
CENTER
 10
301.000244
 20
69.979248
 11
301.000244
 21
61.979248
  0
LINE
  8
0
  6
CENTER
 10
297.000244
 20
65.979233
 11
305.000244
 21
65.979233
  0
LINE
  8
0
  6
CENTER
 10
319.600281
 20
65.979233
 11
327.600281
 21
65.979233
  0
LINE
  8
0
  6
CENTER
 10
319.600281
 20
81.579239
 11
327.600281
 21
81.579239
  0
LINE
  8
0
  6
CENTER
 10
297.000244
 20
81.579239
 11
305.000244
 21
81.579239
  0
LINE
  8
0
 10
307.300293
 20
87.279236
 11
317.300293
 21
87.279236
  0
LINE
  8
0
 10
310.300293
 20
87.779236
 11
314.300293
 21
87.779236
  0
LINE
  8
0
 10
310.800293
 20
101.279236
 11
313.800293
 21
101.279236
  0
LINE
  8
0
 10
314.300293
 20
100.779236
 11
314.300293
 21
87.779236
  0
LINE
  8
0
 10
310.300293
 20
100.779236
 11
310.300293
 21
87.779236
  0
LINE
  8
0
 10
307.300293
 20
87.279236
 11
307.300293
 21
85.279236
  0
LINE
  8
0
 10
317.300293
 20
87.279236
 11
317.300293
 21
85.279236
  0
LINE
  8
0
 10
310.300262
 20
87.779228
 11
309.800262
 21
87.279243
  0
LINE
  8
0
 10
314.300262
 20
87.779243
 11
314.800262
 21
87.279243
  0
LINE
  8
0
 10
310.300293
 20
100.779236
 11
311.100281
 21
100.779236
  0
LINE
  8
0
 10
314.300262
 20
100.779221
 11
313.800262
 21
101.279221
  0
LINE
  8
0
 10
310.300293
 20
100.779243
 11
310.800262
 21
101.279236
  0
LINE
  8
0
  6
PHANTOM
 10
314.300232
 20
46.779251
 11
313.800232
 21
46.279251
  0
LINE
  8
0
  6
PHANTOM
 10
310.300293
 20
46.779236
 11
311.100281
 21
46.779236
  0
LINE
  8
0
  6
PHANTOM
 10
310.800293
 20
46.279236
 11
313.800293
 21
46.279236
  0
LINE
  8
0
  6
PHANTOM
 10
310.300232
 20
46.779232
 11
310.800262
 21
46.279221
  0
LINE
  8
0
  6
PHANTOM
 10
310.300293
 20
46.779236
 11
310.300293
 21
59.779236
  0
LINE
  8
0
  6
PHANTOM
 10
314.300293
 20
46.779236
 11
314.300293
 21
59.779236
  0
LINE
  8
0
 10
310.300293
 20
59.779236
 11
314.300293
 21
59.779236
  0
LINE
  8
0
 10
314.300232
 20
59.779282
 11
314.800232
 21
60.279274
  0
LINE
  8
0
 10
310.300293
 20
59.779221
 11
309.800293
 21
60.279224
  0
LINE
  8
0
 10
307.300293
 20
60.279236
 11
307.300293
 21
62.279236
  0
LINE
  8
0
 10
307.300293
 20
60.279236
 11
317.300293
 21
60.279236
  0
LINE
  8
0
 10
317.300293
 20
60.279236
 11
317.300293
 21
62.279236
  0
LINE
  8
0
 10
311.100281
 20
93.279236
 11
313.500244
 21
93.279236
  0
LINE
  8
0
 10
313.500244
 20
101.279236
 11
313.500244
 21
93.279236
  0
LINE
  8
0
 10
311.100281
 20
101.279236
 11
311.100281
 21
93.279236
  0
LINE
  8
0
 10
313.500244
 20
100.779236
 11
314.300293
 21
100.779236
  0
LINE
  8
0
 10
311.100250
 20
93.279213
 11
313.500244
 21
101.279221
  0
LINE
  8
0
 10
311.100250
 20
101.279236
 11
313.500244
 21
93.279228
  0
LINE
  8
0
  6
PHANTOM
 10
311.100281
 20
46.279236
 11
311.100281
 21
54.279236
  0
LINE
  8
0
  6
PHANTOM
 10
311.100281
 20
46.279232
 11
313.500275
 21
54.279221
  0
LINE
  8
0
  6
PHANTOM
 10
311.100220
 20
54.279228
 11
313.500214
 21
46.279221
  0
LINE
  8
0
  6
PHANTOM
 10
313.500244
 20
46.279236
 11
313.500244
 21
54.279236
  0
LINE
  8
0
  6
PHANTOM
 10
311.100281
 20
54.279236
 11
313.500244
 21
54.279236
  0
LINE
  8
0
  6
PHANTOM
 10
313.500244
 20
46.779236
 11
314.300293
 21
46.779236
  0
LINE
  8
0
  6
PHANTOM
 10
293.300262
 20
75.779236
 11
293.300262
 21
71.779236
  0
LINE
  8
0
  6
PHANTOM
 10
293.300262
 20
71.779236
 11
297.300262
 21
71.779236
  0
LINE
  8
0
  6
PHANTOM
 10
293.300262
 20
75.779236
 11
297.300262
 21
75.779236
  0
LINE
  8
0
  6
PHANTOM
 10
291.800293
 20
62.279236
 11
297.600281
 21
62.279236
  0
LINE
  8
0
  6
PHANTOM
 10
291.800293
 20
76.579239
 11
296.800293
 21
76.579239
  0
LINE
  8
0
  6
PHANTOM
 10
296.800293
 20
76.579239
 11
296.800293
 21
75.779236
  0
LINE
  8
0
  6
PHANTOM
 10
296.800293
 20
71.779236
 11
296.800293
 21
65.279236
  0
LINE
  8
0
  6
PHANTOM
 10
291.800293
 20
76.579239
 11
291.800293
 21
62.279236
  0
LINE
  8
0
  6
PHANTOM
 10
297.600281
 20
62.879242
 11
297.600281
 21
62.279236
  0
LINE
  8
0
  6
PHANTOM
 10
296.800293
 20
65.279236
 11
297.300293
 21
65.279236
  0
LINE
  8
0
  6
CENTER
 10
288.800293
 20
65.279236
 11
298.300293
 21
65.279236
  0
LINE
  8
0
  6
PHANTOM
 62
     3
 10
291.000610
 20
68.029236
 11
291.800293
 21
68.029236
  0
LINE
  8
0
  6
PHANTOM
 62
     3
 10
291.000610
 20
62.529236
 11
291.800293
 21
62.529236
  0
LINE
  8
0
  6
PHANTOM
 62
     1
 10
296.800293
 20
66.779236
 11
297.300293
 21
66.779236
  0
LINE
  8
0
  6
PHANTOM
 62
     1
 10
296.800293
 20
66.508743
 11
297.300293
 21
66.508743
  0
LINE
  8
0
  6
PHANTOM
 10
331.300293
 20
75.779236
 11
327.300293
 21
75.779236
  0
LINE
  8
0
  6
PHANTOM
 10
327.800293
 20
76.579239
 11
327.800293
 21
75.779236
  0
LINE
  8
0
  6
PHANTOM
 10
332.800293
 20
76.579239
 11
327.800293
 21
76.579239
  0
LINE
  8
0
  6
PHANTOM
 10
332.800293
 20
76.579239
 11
332.800293
 21
62.279236
  0
LINE
  8
0
  6
PHANTOM
 10
331.300293
 20
75.779236
 11
331.300293
 21
71.779236
  0
LINE
  8
0
  6
PHANTOM
 10
331.300293
 20
71.779236
 11
327.300293
 21
71.779236
  0
LINE
  8
0
  6
PHANTOM
 62
     3
 10
333.599915
 20
68.029236
 11
332.800293
 21
68.029236
  0
LINE
  8
0
  6
PHANTOM
 62
     3
 10
333.599915
 20
62.529236
 11
332.800293
 21
62.529236
  0
LINE
  8
0
  6
PHANTOM
 10
332.800293
 20
62.279236
 11
327.000275
 21
62.279236
  0
LINE
  8
0
  6
PHANTOM
 10
327.000275
 20
62.879242
 11
327.000275
 21
62.279236
  0
LINE
  8
0
  6
PHANTOM
 10
327.800293
 20
71.779236
 11
327.800293
 21
65.279236
  0
LINE
  8
0
  6
PHANTOM
 10
327.800293
 20
65.279236
 11
327.300293
 21
65.279236
  0
LINE
  8
0
  6
PHANTOM
 62
     1
 10
327.800293
 20
66.779236
 11
327.300293
 21
66.779236
  0
LINE
  8
0
  6
PHANTOM
 62
     1
 10
327.800293
 20
66.508743
 11
327.300293
 21
66.508743
  0
LINE
  8
0
  6
CENTER
 10
335.800293
 20
65.279236
 11
326.300293
 21
65.279236
  0
LINE
  8
0
  6
CENTER
 10
329.300293
 20
76.779236
 11
329.300293
 21
70.779236
  0
LINE
  8
0
  6
CENTER
 10
295.300262
 20
76.779236
 11
295.300262
 21
70.779236
  0
LINE
  8
0
 62
     3
 10
299.750244
 20
82.300926
 11
299.750244
 21
80.857559
  0
LINE
  8
0
 62
     3
 10
302.250244
 20
82.300926
 11
302.250244
 21
80.857559
  0
LINE
  8
0
 62
     3
 10
299.750275
 20
82.300926
 11
301.000275
 21
83.022606
  0
LINE
  8
0
 62
     3
 10
301.000275
 20
80.135857
 11
302.250275
 21
80.857536
  0
LINE
  8
0
 62
     3
 10
301.000244
 20
83.022629
 11
302.250275
 21
82.300934
  0
LINE
  8
0
 62
     3
 10
299.750275
 20
80.857536
 11
301.000244
 21
80.135857
  0
LINE
  8
0
 62
     3
 10
299.750244
 20
66.700928
 11
299.750244
 21
65.257553
  0
LINE
  8
0
 62
     3
 10
302.250244
 20
66.700928
 11
302.250244
 21
65.257553
  0
LINE
  8
0
 62
     3
 10
299.750244
 20
66.700920
 11
301.000275
 21
67.422615
  0
LINE
  8
0
 62
     3
 10
301.000275
 20
64.535843
 11
302.250275
 21
65.257538
  0
LINE
  8
0
 62
     3
 10
301.000275
 20
67.422615
 11
302.250275
 21
66.700920
  0
LINE
  8
0
 62
     3
 10
299.750275
 20
65.257538
 11
301.000275
 21
64.535843
  0
LINE
  8
0
 62
     3
 10
322.350281
 20
66.700928
 11
322.350281
 21
65.257553
  0
LINE
  8
0
 62
     3
 10
324.850281
 20
66.700928
 11
324.850281
 21
65.257553
  0
LINE
  8
0
 62
     3
 10
322.350281
 20
66.700905
 11
323.600281
 21
67.422600
  0
LINE
  8
0
 62
     3
 10
323.600281
 20
64.535866
 11
324.850281
 21
65.257545
  0
LINE
  8
0
 62
     3
 10
323.600311
 20
67.422607
 11
324.850281
 21
66.700928
  0
LINE
  8
0
 62
     3
 10
322.350281
 20
65.257530
 11
323.600281
 21
64.535851
  0
LINE
  8
0
 62
     3
 10
322.350281
 20
82.300926
 11
322.350281
 21
80.857559
  0
LINE
  8
0
 62
     3
 10
324.850281
 20
82.300926
 11
324.850281
 21
80.857559
  0
LINE
  8
0
 62
     3
 10
322.350250
 20
82.300903
 11
323.600281
 21
83.022598
  0
LINE
  8
0
 62
     3
 10
323.600250
 20
80.135841
 11
324.850281
 21
80.857536
  0
LINE
  8
0
 62
     3
 10
323.600281
 20
83.022598
 11
324.850281
 21
82.300903
  0
LINE
  8
0
 62
     3
 10
322.350281
 20
80.857536
 11
323.600281
 21
80.135841
  0
ARC
  8
0
  6
PHANTOM
 10
242.525360
 20
73.029251
 40
1.000000
 50
311.409637
 51
48.590370
  0
ARC
  8
0
  6
PHANTOM
 10
243.848236
 20
73.029251
 40
1.000000
 50
131.409622
 51
228.590378
  0
CIRCLE
  8
0
 10
192.936798
 20
82.279251
 40
1.299999
  0
CIRCLE
  8
0
 10
192.936798
 20
82.279251
 40
1.056499
  0
CIRCLE
  8
0
  6
PHANTOM
 62
     3
 10
192.936798
 20
65.279251
 40
2.750000
  0
ARC
  8
0
  6
PHANTOM
 10
242.525360
 20
74.529251
 40
1.000000
 50
311.409637
 51
48.590370
  0
ARC
  8
0
  6
PHANTOM
 62
     3
 10
195.020081
 20
152.626450
 40
0.666699
 50
298.735413
 51
0.000000
  0
ARC
  8
0
  6
PHANTOM
 62
     3
 10
192.936783
 20
156.426102
 40
4.999999
 50
241.264633
 51
298.735382
  0
ARC
  8
0
  6
PHANTOM
 10
243.848221
 20
157.676102
 40
1.000000
 50
131.409622
 51
228.590378
  0
ARC
  8
0
  6
PHANTOM
 10
242.525345
 20
157.676102
 40
1.000000
 50
311.409637
 51
48.590370
  0
ARC
  8
0
  6
PHANTOM
 10
242.525345
 20
156.176102
 40
1.000000
 50
311.409637
 51
48.590370
  0
ARC
  8
0
 10
186.436783
 20
173.926102
 40
11.999998
 50
13.429514
 51
166.570419
  0
CIRCLE
  8
0
 10
176.436783
 20
173.926102
 40
1.700000
  0
CIRCLE
  8
0
 10
196.436783
 20
173.926102
 40
1.700000
  0
CIRCLE
  8
0
 10
196.436783
 20
173.926102
 40
3.250000
  0
CIRCLE
  8
0
 10
176.436783
 20
173.926102
 40
3.250000
  0
ARC
  8
0
 10
186.436783
 20
173.926102
 40
12.000002
 50
193.429581
 51
346.570496
  0
CIRCLE
  8
0
 62
     3
 10
180.436783
 20
179.926102
 40
2.599999
  0
CIRCLE
  8
0
 62
     3
 10
192.436783
 20
179.926102
 40
2.599999
  0
CIRCLE
  8
0
 62
     3
 10
192.436783
 20
167.926102
 40
2.599999
  0
CIRCLE
  8
0
 62
     3
 10
180.436783
 20
167.926102
 40
2.599999
  0
CIRCLE
  8
0
 10
186.436783
 20
173.926102
 40
5.000000
  0
CIRCLE
  8
0
 10
186.436783
 20
173.926102
 40
2.000000
  0
CIRCLE
  8
0
 10
186.436783
 20
173.926102
 40
1.500000
  0
ARC
  8
0
  6
PHANTOM
 10
242.525345
 20
190.176102
 40
1.000000
 50
311.409637
 51
48.590370
  0
ARC
  8
0
  6
PHANTOM
 10
242.525345
 20
191.676102
 40
1.000000
 50
311.409637
 51
48.590370
  0
ARC
  8
0
  6
PHANTOM
 10
243.848221
 20
191.676102
 40
1.000000
 50
131.409622
 51
228.590378
  0
ARC
  8
0
  6
PHANTOM
 62
     3
 10
192.936783
 20
191.426102
 40
4.999999
 50
61.264629
 51
118.735367
  0
ARC
  8
0
  6
PHANTOM
 62
     3
 10
195.020081
 20
195.225754
 40
0.666702
 50
0.000000
 51
61.264580
  0
ARC
  8
0
  6
PHANTOM
 62
     3
 10
190.853485
 20
195.225754
 40
0.666699
 50
118.735420
 51
180.000000
  0
ARC
  8
0
  6
PHANTOM
 62
     3
 10
190.853485
 20
152.626450
 40
0.666702
 50
180.000000
 51
241.264587
  0
ARC
  8
0
  6
PHANTOM
 62
     3
 10
97.466400
 20
67.362534
 40
0.666699
 50
28.735418
 51
90.000000
  0
ARC
  8
0
  6
PHANTOM
 62
     3
 10
93.666748
 20
65.279236
 40
5.000001
 50
331.264587
 51
28.735369
  0
ARC
  8
0
 10
62.666748
 20
83.779236
 40
1.500000
 50
90.000000
 51
180.000000
  0
ARC
  8
0
 10
89.666748
 20
83.779236
 40
1.500000
 50
0.000000
 51
90.000000
  0
ARC
  8
0
 10
89.666748
 20
63.779240
 40
1.500000
 50
270.000000
 51
0.000000
  0
ARC
  8
0
 10
62.666748
 20
63.779240
 40
1.500000
 50
180.000000
 51
270.000000
  0
CIRCLE
  8
0
 62
     3
 10
64.866745
 20
81.579239
 40
2.599999
  0
CIRCLE
  8
0
 62
     3
 10
64.866745
 20
65.979233
 40
2.599999
  0
CIRCLE
  8
0
 62
     3
 10
87.466751
 20
65.979233
 40
2.599999
  0
CIRCLE
  8
0
 62
     3
 10
87.466751
 20
81.579239
 40
2.599999
  0
ARC
  8
0
  6
PHANTOM
 62
     3
 10
97.466400
 20
63.195938
 40
0.666698
 50
270.000000
 51
331.264587
  0
ARC
  8
0
  6
PHANTOM
 62
     3
 10
58.666748
 20
65.279236
 40
4.999999
 50
151.264633
 51
208.735306
  0
ARC
  8
0
  6
PHANTOM
 62
     3
 10
54.867096
 20
67.362534
 40
0.666702
 50
90.000000
 51
151.264587
  0
ARC
  8
0
  6
PHANTOM
 62
     3
 10
54.867096
 20
63.195938
 40
0.666699
 50
208.735413
 51
270.000000
  0
CIRCLE
  8
0
 62
     3
 10
323.600281
 20
65.979233
 40
2.403589
  0
CIRCLE
  8
0
 62
     3
 10
323.600281
 20
81.579239
 40
2.750000
  0
CIRCLE
  8
0
 62
     3
 10
323.600281
 20
81.579239
 40
2.403589
  0
ARC
  8
0
 10
298.800262
 20
83.779236
 40
1.500000
 50
90.000000
 51
180.000000
  0
ARC
  8
0
 10
298.800262
 20
63.779236
 40
1.500000
 50
180.000000
 51
270.000000
  0
ARC
  8
0
 10
325.800262
 20
83.779236
 40
1.500000
 50
0.000000
 51
90.000000
  0
ARC
  8
0
 10
325.800262
 20
63.779236
 40
1.500000
 50
270.000000
 51
0.000000
  0
CIRCLE
  8
0
 10
306.800262
 20
77.279236
 40
2.066999
  0
CIRCLE
  8
0
 10
317.800262
 20
70.279236
 40
2.066999
  0
CIRCLE
  8
0
 10
317.800262
 20
70.279236
 40
2.500000
  0
CIRCLE
  8
0
 10
306.800262
 20
77.279236
 40
2.500000
  0
ARC
  8
0
  6
PHANTOM
 62
     3
 10
294.800293
 20
65.279236
 40
4.999999
 50
151.264633
 51
208.735336
  0
ARC
  8
0
  6
PHANTOM
 62
     3
 10
291.000610
 20
67.362534
 40
0.666702
 50
90.000000
 51
151.264587
  0
ARC
  8
0
  6
PHANTOM
 62
     3
 10
291.000610
 20
63.195938
 40
0.666699
 50
208.735413
 51
270.000000
  0
ARC
  8
0
  6
PHANTOM
 62
     3
 10
333.599915
 20
67.362534
 40
0.666699
 50
28.735418
 51
90.000000
  0
ARC
  8
0
  6
PHANTOM
 62
     3
 10
329.800293
 20
65.279236
 40
5.000001
 50
331.264587
 51
28.735369
  0
ARC
  8
0
  6
PHANTOM
 62
     3
 10
333.599915
 20
63.195938
 40
0.666698
 50
270.000000
 51
331.264587
  0
CIRCLE
  8
0
  6
PHANTOM
 10
295.300262
 20
73.779236
 40
1.500000
  0
CIRCLE
  8
0
  6
PHANTOM
 10
329.300293
 20
73.779236
 40
1.500000
  0
CIRCLE
  8
0
 62
     3
 10
301.000244
 20
81.579239
 40
2.750000
  0
CIRCLE
  8
0
 62
     3
 10
301.000244
 20
81.579239
 40
2.403589
  0
CIRCLE
  8
0
 62
     3
 10
301.000244
 20
65.979233
 40
2.750000
  0
CIRCLE
  8
0
 62
     3
 10
301.000244
 20
65.979233
 40
2.403589
  0
CIRCLE
  8
0
 62
     3
 10
323.600281
 20
65.979233
 40
2.750000
  0
TEXT
  8
0
 10
298.797760
 20
244.589584
 40
4.242641
  1
DATE : MAR ,1992
 50
0.000000
 41
1.052631
 51
0.000000
  7
STANDARD
  0
TEXT
  8
0
 10
2.113382
 20
243.907959
 40
5.000000
  1
ROTARY ACUTUATOR
 50
0.000000
 41
0.937799
 51
0.000000
  7
STANDARD
  0
TEXT
  8
0
 10
32.035717
 20
201.757431
 40
5.000000
  1
MODEL : RAPS1-360
 50
0.000000
 41
1.052632
 51
0.000000
  7
STANDARD
  0
TEXT
  8
0
 10
2.113382
 20
243.907959
 40
5.000000
  1
ROTARY ACUTUATOR
 50
0.000000
 41
0.937799
 51
0.000000
  7
STANDARD
  0
TEXT
  8
0
 10
249.164047
 20
163.951111
 40
3.500000
  1
〃
 50
90.000000
 41
0.833333
 51
0.000000
  7
STANDARD
  0
TEXT
  8
0
 10
249.164047
 20
179.901413
 40
3.500000
  1
〃
 50
90.000000
 41
0.833333
 51
0.000000
  7
STANDARD
  0
TEXT
  8
0
 10
255.686798
 20
171.926102
 40
3.500000
  1
D
 50
90.000000
 41
1.052632
 51
0.000000
  7
STANDARD
  0
TEXT
  8
0
 10
302.273193
 20
3.650512
 40
5.000000
  1
KOGANEI,CORP
 50
0.000000
 41
1.052632
 51
0.000000
  7
STANDARD
  0
LINE
  8
0
 10
319.050323
 20
68.114136
 11
336.852875
 21
37.279179
  0
LINE
  8
0
 10
336.852875
 20
37.279179
 11
352.340393
 21
37.279186
  0
LINE
  8
0
 10
319.050323
 20
68.114136
 11
319.826782
 21
65.216354
  0
LINE
  8
0
 10
319.050323
 20
68.114136
 11
321.171631
 21
65.992813
  0
TEXT
  8
0
 10
337.590393
 20
38.279186
 40
3.500000
  1
2-M5
 50
0.000000
 41
1.052632
 51
0.000000
  7
STANDARD
  0
TEXT
  8
0
 10
256.536804
 20
166.676102
 40
3.500000
  1
　　
 50
90.000000
 41
0.833333
 51
0.000000
  7
STANDARD
  0
ARC
  8
0
 10
186.436783
 20
173.926102
 40
71.100006
 50
345.000000
 51
15.000001
  0
LINE
  8
0
 10
255.114120
 20
155.524078
 11
255.050842
 21
158.523193
  0
LINE
  8
0
 10
255.114120
 20
155.524078
 11
256.558868
 21
158.153030
  0
LINE
  8
0
 10
255.114120
 20
192.328140
 11
256.558868
 21
189.699188
  0
LINE
  8
0
 10
255.114120
 20
192.328140
 11
255.050842
 21
189.329025
  0
LINE
  8
0
 10
242.436768
 20
158.920929
 11
257.322205
 21
154.932388
  0
LINE
  8
0
 10
242.436783
 20
188.931244
 11
257.322235
 21
192.919800
  0
TEXT
  8
0
 10
247.143097
 20
188.582397
 40
3.200000
  1
　　
 50
277.500000
 41
0.833333
 51
0.000000
  7
STANDARD
  0
ARC
  8
0
 10
186.436859
 20
173.926117
 40
61.099915
 50
0.000000
 51
15.000004
  0
LINE
  8
0
 10
247.536774
 20
173.926117
 11
246.689499
 21
176.803665
  0
LINE
  8
0
 10
247.536774
 20
173.926117
 11
248.241791
 21
176.841782
  0
LINE
  8
0
 10
245.454849
 20
189.739944
 11
246.890472
 21
187.106094
  0
LINE
  8
0
 10
245.454849
 20
189.739944
 11
245.381210
 21
186.741150
  0
LINE
  8
0
 10
240.436768
 20
173.926086
 11
249.822769
 21
173.926086
  0
LINE
  8
0
 10
242.436798
 20
188.931244
 11
247.662949
 21
190.331604
  0
TEXT
  8
0
 10
245.160217
 20
159.530869
 40
3.200000
  1
　　
 50
82.500000
 41
0.833333
 51
0.000000
  7
STANDARD
  0
ARC
  8
0
 10
186.436722
 20
173.926117
 40
61.100060
 50
345.000000
 51
0.000000
  0
LINE
  8
0
 10
245.454849
 20
158.112259
 11
245.381210
 21
161.111069
  0
LINE
  8
0
 10
245.454849
 20
158.112259
 11
246.890472
 21
160.746124
  0
LINE
  8
0
 10
247.536774
 20
173.926117
 11
248.241791
 21
171.010452
  0
LINE
  8
0
 10
247.536774
 20
173.926117
 11
246.689499
 21
171.048569
  0
LINE
  8
0
 10
242.436783
 20
158.920929
 11
247.662949
 21
157.520584
  0
LINE
  8
0
 10
240.436768
 20
173.926086
 11
249.822769
 21
173.926086
  0
ENDSEC
  0
EOF
