  0
SECTION
  2
HEADER
  0
ENDSEC
  0
SECTION
  2
TABLES
  0
TABLE
  2
LTYPE
 70
     4
  0
LTYPE
  2
CONTINUOUS
 70
    64
  3
Solid line
 72
    65
 73
     0
 40
0.000000
  0
LTYPE
  2
DASHED
 70
    64
  3
__ __ __ __ __ __ __ __ __ __ __ __ __ __ __
 72
    65
 73
     2
 40
3.500000
 49
2.000000
 49
-1.500000
  0
LTYPE
  2
CENTER
 70
    64
  3
____ _ ____ _ ____ _ ____ _ ____ _ ____ _ ____
 72
    65
 73
     4
 40
17.500000
 49
13.000000
 49
-1.500000
 49
1.500000
 49
-1.500000
  0
LTYPE
  2
PHANTOM
 70
    64
  3
_____ _ _ _____ _ _ _____ _ _ _____ _ _ ____  
 72
    65
 73
     6
 40
15.500000
 49
8.000000
 49
-1.500000
 49
1.500000
 49
-1.500000
 49
1.500000
 49
-1.500000
  0
LTYPE
  2
DASHED1
 70
    64
  3
__ __ __ __ __ __ __ __ __ __ __ __ __ __ __
 72
    65
 73
     2
 40
1.500000
 49
1.000000
 49
-0.500000
  0
LTYPE
  2
DASHED2
 70
    64
  3
__ __ __ __ __ __ __ __ __ __ __ __ __ __ __
 72
    65
 73
     2
 40
3.500000
 49
2.500000
 49
-1.000000
  0
LTYPE
  2
DASHED3
 70
    64
  3
__ __ __ __ __ __ __ __ __ __ __ __ __ __ __
 72
    65
 73
     2
 40
6.000000
 49
4.000000
 49
-2.000000
  0
LTYPE
  2
DASHED4
 70
    64
  3
__ __ __ __ __ __ __ __ __ __ __ __ __ __ __
 72
    65
 73
     2
 40
12.000000
 49
10.000000
 49
-2.000000
  0
LTYPE
  2
DASHED5
 70
    64
  3
__ __ __ __ __ __ __ __ __ __ __ __ __ __ __
 72
    65
 73
     2
 40
17.000000
 49
15.000000
 49
-2.000000
  0
LTYPE
  2
DASHED6
 70
    64
  3
__ __ __ __ __ __ __ __ __ __ __ __ __ __ __
 72
    65
 73
     2
 40
29.000000
 49
27.000000
 49
-2.000000
  0
LTYPE
  2
PHANTOM1
 70
    64
  3
_____ _ _ _____ _ _ _____ _ _ _____ _ _ ____  
 72
    65
 73
     6
 40
31.000000
 49
25.000000
 49
-1.500000
 49
1.000000
 49
-1.000000
 49
1.000000
 49
-1.500000
  0
LTYPE
  2
PHANTOM2
 70
    64
  3
_____ _ _ _____ _ _ _____ _ _ _____ _ _ ____  
 72
    65
 73
     6
 40
36.000000
 49
27.000000
 49
-1.500000
 49
2.500000
 49
-1.000000
 49
2.500000
 49
-1.500000
  0
LTYPE
  2
PHANTOM3
 70
    64
  3
_____ _ _ _____ _ _ _____ _ _ _____ _ _ ____  
 72
    65
 73
     6
 40
78.000000
 49
64.000000
 49
-2.000000
 49
4.000000
 49
-2.000000
 49
4.000000
 49
-2.000000
  0
LTYPE
  2
CENTER1
 70
    64
  3
____ _ ____ _ ____ _ ____ _ ____ _ ____ _ ____
 72
    65
 73
     4
 40
19.000000
 49
14.000000
 49
-1.000000
 49
3.000000
 49
-1.000000
  0
LTYPE
  2
CENTER2
 70
    64
  3
____ _ ____ _ ____ _ ____ _ ____ _ ____ _ ____
 72
    65
 73
     4
 40
28.500000
 49
25.000000
 49
-1.000000
 49
1.500000
 49
-1.000000
  0
LTYPE
  2
CENTER3
 70
    64
  3
____ _ ____ _ ____ _ ____ _ ____ _ ____ _ ____
 72
    65
 73
     4
 40
31.500000
 49
27.000000
 49
-1.000000
 49
2.500000
 49
-1.000000
  0
LTYPE
  2
CENTER4
 70
    64
  3
____ _ ____ _ ____ _ ____ _ ____ _ ____ _ ____
 72
    65
 73
     4
 40
50.000000
 49
45.000000
 49
-1.000000
 49
3.000000
 49
-1.000000
  0
LTYPE
  2
CENTER5
 70
    64
  3
____ _ ____ _ ____ _ ____ _ ____ _ ____ _ ____
 72
    65
 73
     4
 40
100.000000
 49
92.000000
 49
-2.000000
 49
4.000000
 49
-2.000000
  0
LTYPE
  2
SBK1
 70
    64
  3
______ _ _ _ ______ _ _ _ ______ _ _ _ _____  
 72
    65
 73
     8
 40
60.500000
 49
45.000000
 49
-2.000000
 49
2.500000
 49
-2.000000
 49
2.500000
 49
-2.000000
 49
2.500000
 49
-2.000000
  0
LTYPE
  2
SBK2
 70
    64
  3
______ _ _ _ ______ _ _ _ ______ _ _ _ _____  
 72
    65
 73
     8
 40
84.000000
 49
64.000000
 49
-2.000000
 49
4.000000
 49
-2.000000
 49
4.000000
 49
-2.000000
 49
4.000000
 49
-2.000000
  0
LTYPE
  2
STCH
 70
    64
  3
__ __ __ __ __ __ __ __ __ __ __ __ __ __ __
 72
    65
 73
     2
 40
3.000000
 49
1.000000
 49
-2.000000
  0
LTYPE
  2
MTCH
 70
    64
  3
_____ _ _ _____ _ _ _____ _ _ _____ _ _ ____  
 72
    65
 73
     6
 40
80.000000
 49
66.000000
 49
-2.000000
 49
4.000000
 49
-2.000000
 49
4.000000
 49
-2.000000
  0
ENDTAB
  0
TABLE
  2
LAYER
 70
     1
  0
LAYER
  2
0
 70
     0
 62
     7
  6
CONTINUOUS
  0
ENDTAB
  0
TABLE
  2
STYLE
 70
     1
  0
STYLE
  2
STANDARD
 70
     0
 40
0.000000
 41
1.000000
 50
0.000000
 71
     0
 42
0.200000
  3
txt
  4
BIGFONT
  0
ENDTAB
  0
TABLE
  2
VIEW
 70
     0
  0
ENDTAB
  0
ENDSEC
  0
SECTION
  2
BLOCKS
  0
ENDSEC
  0
SECTION
  2
ENTITIES
  0
POINT
  8
0
 10
181.436783
 20
173.926117
  0
POINT
  8
0
 10
212.436783
 20
173.926117
  0
POINT
  8
0
 10
181.436783
 20
73.779236
  0
POINT
  8
0
 10
212.436798
 20
73.779236
  0
POINT
  8
0
 10
76.166748
 20
73.779236
  0
POINT
  8
0
 10
91.166748
 20
73.779236
  0
POINT
  8
0
 10
292.300293
 20
73.779243
  0
POINT
  8
0
 10
307.300293
 20
73.779243
  0
LINE
  8
0
 62
     3
 10
0.000000
 20
0.000000
 11
0.000000
 21
254.558472
  0
LINE
  8
0
 62
     3
 10
370.873566
 20
254.558472
 11
370.873566
 21
0.000000
  0
LINE
  8
0
 62
     3
 10
0.000000
 20
0.000000
 11
370.873566
 21
0.000000
  0
LINE
  8
0
 62
     3
 10
0.000000
 20
254.558472
 11
370.873566
 21
254.558472
  0
LINE
  8
0
 62
     3
 10
0.000000
 20
240.257431
 11
76.272194
 21
240.257431
  0
LINE
  8
0
 62
     3
 10
76.272194
 20
240.257431
 11
76.272194
 21
254.558472
  0
LINE
  8
0
 62
     3
 10
294.601379
 20
14.301025
 11
370.873566
 21
14.301025
  0
LINE
  8
0
 62
     3
 10
294.601379
 20
240.257431
 11
370.873566
 21
240.257431
  0
LINE
  8
0
 62
     3
 10
294.601379
 20
254.558472
 11
294.601379
 21
240.257431
  0
LINE
  8
0
 62
     3
 10
294.601379
 20
14.301025
 11
294.601379
 21
0.000000
  0
LINE
  8
0
 10
164.436798
 20
85.279236
 11
212.436798
 21
85.279236
  0
LINE
  8
0
 10
164.436798
 20
62.279236
 11
212.436798
 21
62.279236
  0
LINE
  8
0
 10
205.436798
 20
85.279236
 11
205.436798
 21
75.279236
  0
LINE
  8
0
 10
167.436798
 20
85.279236
 11
167.436798
 21
62.279236
  0
LINE
  8
0
  6
CENTER
 10
161.436798
 20
73.779236
 11
221.186798
 21
73.779236
  0
LINE
  8
0
  6
CENTER
 10
181.436783
 20
104.279236
 11
181.436783
 21
43.279236
  0
LINE
  8
0
  6
CENTER
 10
185.936798
 20
82.279236
 11
189.936798
 21
82.279236
  0
LINE
  8
0
  6
CENTER
 10
183.186798
 20
65.279236
 11
192.686798
 21
65.279236
  0
LINE
  8
0
  6
CENTER
 10
187.936798
 20
77.579239
 11
187.936798
 21
61.529236
  0
LINE
  8
0
  6
CENTER
 10
187.936798
 20
84.279236
 11
187.936798
 21
80.279236
  0
LINE
  8
0
 10
212.436798
 20
85.279236
 11
212.436798
 21
75.279236
  0
LINE
  8
0
 10
164.436798
 20
85.279236
 11
164.436798
 21
62.279236
  0
LINE
  8
0
 10
179.936798
 20
101.279236
 11
183.036789
 21
101.279236
  0
LINE
  8
0
 10
179.436798
 20
100.779251
 11
179.936783
 21
101.279236
  0
LINE
  8
0
 10
179.436798
 20
100.779236
 11
183.036789
 21
100.779236
  0
LINE
  8
0
 10
179.436798
 20
100.779236
 11
179.436798
 21
87.779236
  0
LINE
  8
0
 10
183.436798
 20
93.279236
 11
183.436798
 21
87.779236
  0
LINE
  8
0
 10
179.436798
 20
87.779236
 11
183.436798
 21
87.779236
  0
LINE
  8
0
 10
176.436798
 20
87.279236
 11
186.436798
 21
87.279236
  0
LINE
  8
0
 10
183.436783
 20
87.779228
 11
183.936783
 21
87.279228
  0
LINE
  8
0
 10
179.436783
 20
87.779243
 11
178.936783
 21
87.279243
  0
LINE
  8
0
 10
176.436798
 20
87.279236
 11
176.436798
 21
85.279236
  0
LINE
  8
0
 10
186.436798
 20
87.279236
 11
186.436798
 21
85.279236
  0
LINE
  8
0
 10
186.436798
 20
60.279236
 11
186.436798
 21
62.279236
  0
LINE
  8
0
 10
176.436798
 20
60.279236
 11
186.436798
 21
60.279236
  0
LINE
  8
0
 10
183.436783
 20
59.779266
 11
183.936783
 21
60.279266
  0
LINE
  8
0
 10
179.436798
 20
59.779236
 11
183.436798
 21
59.779236
  0
LINE
  8
0
 10
179.436798
 20
59.779278
 11
178.936798
 21
60.279266
  0
LINE
  8
0
 10
176.436798
 20
60.279236
 11
176.436798
 21
62.279236
  0
LINE
  8
0
  6
PHANTOM
 10
179.436798
 20
46.779236
 11
179.436798
 21
59.779236
  0
LINE
  8
0
  6
PHANTOM
 10
183.436798
 20
54.279236
 11
183.436798
 21
59.779236
  0
LINE
  8
0
  6
PHANTOM
 10
179.436798
 20
46.779236
 11
183.036789
 21
46.779236
  0
LINE
  8
0
  6
PHANTOM
 10
179.936798
 20
46.279236
 11
183.036789
 21
46.279236
  0
LINE
  8
0
  6
PHANTOM
 10
179.436813
 20
46.779251
 11
179.936813
 21
46.279255
  0
LINE
  8
0
 10
183.036789
 20
101.279236
 11
183.036789
 21
93.679245
  0
LINE
  8
0
  6
PHANTOM
 10
183.036789
 20
46.279236
 11
183.036789
 21
53.879242
  0
LINE
  8
0
 10
183.436783
 20
93.279221
 11
183.036789
 21
93.679222
  0
LINE
  8
0
  6
PHANTOM
 10
183.436859
 20
54.279228
 11
183.036850
 21
53.879223
  0
LINE
  8
0
  6
PHANTOM
 10
184.186798
 20
76.579239
 11
191.686798
 21
76.579239
  0
LINE
  8
0
  6
PHANTOM
 10
191.686798
 20
76.579239
 11
191.686798
 21
62.279236
  0
LINE
  8
0
  6
PHANTOM
 10
184.186798
 20
76.579239
 11
184.186798
 21
62.279236
  0
LINE
  8
0
  6
PHANTOM
 10
190.936798
 20
75.779236
 11
190.936798
 21
63.079239
  0
LINE
  8
0
  6
PHANTOM
 10
184.936798
 20
75.779236
 11
184.936798
 21
63.079239
  0
LINE
  8
0
  6
PHANTOM
 10
184.936798
 20
75.779236
 11
190.936798
 21
75.779236
  0
LINE
  8
0
  6
PHANTOM
 10
184.936798
 20
63.079239
 11
186.286789
 21
63.079239
  0
LINE
  8
0
  6
PHANTOM
 10
186.436798
 20
62.579239
 11
187.414780
 21
62.579239
  0
LINE
  8
0
  6
PHANTOM
 10
186.436798
 20
62.974350
 11
186.436798
 21
62.579239
  0
LINE
  8
0
  6
PHANTOM
 10
189.436798
 20
62.974350
 11
189.436798
 21
62.579239
  0
LINE
  8
0
  6
PHANTOM
 10
189.586792
 20
63.079239
 11
190.936798
 21
63.079239
  0
LINE
  8
0
  6
PHANTOM
 10
188.458817
 20
62.579239
 11
189.436798
 21
62.579239
  0
LINE
  8
0
  6
PHANTOM
 10
180.686798
 20
71.779236
 11
184.186798
 21
71.779236
  0
LINE
  8
0
  6
PHANTOM
 10
191.686798
 20
71.779236
 11
201.186798
 21
71.779236
  0
LINE
  8
0
  6
PHANTOM
 10
180.686798
 20
75.779236
 11
184.186798
 21
75.779236
  0
LINE
  8
0
  6
PHANTOM
 10
180.686798
 20
75.779236
 11
180.686798
 21
71.779236
  0
LINE
  8
0
  6
PHANTOM
 10
179.186798
 20
74.913216
 11
180.686813
 21
75.779243
  0
LINE
  8
0
  6
PHANTOM
 10
179.186798
 20
74.913223
 11
179.186798
 21
72.645264
  0
LINE
  8
0
  6
PHANTOM
 10
179.186798
 20
72.645256
 11
180.686798
 21
71.779228
  0
LINE
  8
0
  6
PHANTOM
 10
191.686798
 20
75.779236
 11
201.186798
 21
75.779236
  0
LINE
  8
0
  6
PHANTOM
 10
201.186798
 20
75.779236
 11
201.186798
 21
71.779236
  0
LINE
  8
0
  6
PHANTOM
 10
201.186813
 20
75.779221
 11
203.186813
 21
75.279221
  0
LINE
  8
0
  6
PHANTOM
 10
203.186798
 20
75.279236
 11
203.186798
 21
72.279236
  0
LINE
  8
0
  6
PHANTOM
 10
201.186829
 20
71.779198
 11
203.186829
 21
72.279198
  0
LINE
  8
0
  6
PHANTOM
 10
203.186798
 20
72.279236
 11
218.186798
 21
72.279236
  0
LINE
  8
0
  6
PHANTOM
 10
203.186798
 20
75.279236
 11
218.186798
 21
75.279236
  0
LINE
  8
0
 10
205.436798
 20
72.279236
 11
205.436798
 21
62.279236
  0
LINE
  8
0
 10
212.436798
 20
72.279236
 11
212.436798
 21
62.279236
  0
LINE
  8
0
  6
PHANTOM
 10
186.876114
 20
66.339882
 11
188.997437
 21
64.218559
  0
LINE
  8
0
  6
PHANTOM
 10
186.876144
 20
64.218575
 11
188.997482
 21
66.339905
  0
LINE
  8
0
 10
205.436783
 20
188.926117
 11
205.436783
 21
158.926117
  0
LINE
  8
0
 10
167.436783
 20
188.926117
 11
167.436783
 21
158.926117
  0
LINE
  8
0
 10
164.436783
 20
158.926117
 11
212.436783
 21
158.926117
  0
LINE
  8
0
 10
164.436783
 20
188.926117
 11
212.436783
 21
188.926117
  0
LINE
  8
0
 10
212.436783
 20
188.926117
 11
212.436783
 21
158.926117
  0
LINE
  8
0
 10
164.436783
 20
188.926117
 11
164.436783
 21
158.926117
  0
LINE
  8
0
  6
CENTER
 10
161.436783
 20
173.926117
 11
215.436783
 21
173.926117
  0
LINE
  8
0
  6
CENTER
 10
181.436783
 20
191.926117
 11
181.436783
 21
155.926117
  0
LINE
  8
0
  6
CENTER
 10
171.436783
 20
178.426117
 11
171.436783
 21
169.426117
  0
LINE
  8
0
  6
CENTER
 10
191.436783
 20
178.426117
 11
191.436783
 21
169.426117
  0
LINE
  8
0
  6
CENTER
 10
171.686783
 20
179.926117
 11
179.186783
 21
179.926117
  0
LINE
  8
0
  6
CENTER
 10
183.686783
 20
179.926117
 11
191.186783
 21
179.926117
  0
LINE
  8
0
  6
CENTER
 10
183.686783
 20
167.926117
 11
191.186783
 21
167.926117
  0
LINE
  8
0
  6
CENTER
 10
171.686783
 20
167.926117
 11
179.186783
 21
167.926117
  0
LINE
  8
0
  6
CENTER
 10
175.436783
 20
171.676117
 11
175.436783
 21
164.176117
  0
LINE
  8
0
  6
CENTER
 10
187.436783
 20
171.676117
 11
187.436783
 21
164.176117
  0
LINE
  8
0
  6
CENTER
 10
187.436783
 20
183.676117
 11
187.436783
 21
176.176117
  0
LINE
  8
0
  6
CENTER
 10
175.436783
 20
183.676117
 11
175.436783
 21
176.176117
  0
LINE
  8
0
 10
183.036789
 20
175.126099
 11
183.036789
 21
172.726105
  0
LINE
  8
0
  6
PHANTOM
 10
179.186783
 20
192.060089
 11
179.186783
 21
189.792145
  0
LINE
  8
0
  6
PHANTOM
 10
180.686783
 20
192.926117
 11
180.686783
 21
188.926117
  0
LINE
  8
0
  6
PHANTOM
 10
180.686783
 20
192.926117
 11
184.186783
 21
192.926117
  0
LINE
  8
0
  6
PHANTOM
 10
191.686783
 20
192.926117
 11
201.186783
 21
192.926117
  0
LINE
  8
0
  6
PHANTOM
 10
179.186783
 20
192.060089
 11
180.686783
 21
192.926117
  0
LINE
  8
0
  6
PHANTOM
 10
179.186783
 20
189.792145
 11
180.686783
 21
188.926132
  0
LINE
  8
0
  6
PHANTOM
 10
201.186783
 20
192.926117
 11
201.186783
 21
188.926117
  0
LINE
  8
0
  6
PHANTOM
 10
203.186783
 20
189.426117
 11
218.186783
 21
189.426117
  0
LINE
  8
0
  6
PHANTOM
 10
203.186783
 20
192.426117
 11
218.186783
 21
192.426117
  0
LINE
  8
0
  6
PHANTOM
 10
203.186783
 20
192.426117
 11
203.186783
 21
189.426117
  0
LINE
  8
0
  6
PHANTOM
 10
201.186813
 20
192.926224
 11
203.186813
 21
192.426224
  0
LINE
  8
0
  6
PHANTOM
 10
201.186783
 20
188.926208
 11
203.186783
 21
189.426208
  0
LINE
  8
0
  6
CENTER
 10
221.186783
 20
190.926117
 11
200.186783
 21
190.926117
  0
LINE
  8
0
  6
CENTER
 10
187.936783
 20
197.426117
 11
187.936783
 21
187.926117
  0
LINE
  8
0
  6
PHANTOM
 10
191.686783
 20
194.426117
 11
191.686783
 21
189.426117
  0
LINE
  8
0
  6
PHANTOM
 10
184.186783
 20
194.426117
 11
184.186783
 21
189.426117
  0
LINE
  8
0
  6
PHANTOM
 10
184.186783
 20
189.426117
 11
191.686783
 21
189.426117
  0
LINE
  8
0
  6
PHANTOM
 10
184.186783
 20
194.426117
 11
191.686783
 21
194.426117
  0
LINE
  8
0
  6
PHANTOM
 62
     3
 10
190.686783
 20
195.225769
 11
190.686783
 21
194.426117
  0
LINE
  8
0
  6
PHANTOM
 62
     3
 10
185.186783
 20
195.225769
 11
185.186783
 21
194.426117
  0
LINE
  8
0
  6
PHANTOM
 10
179.186783
 20
155.792145
 11
179.186783
 21
158.060089
  0
LINE
  8
0
  6
PHANTOM
 10
180.686783
 20
154.926117
 11
180.686783
 21
158.926117
  0
LINE
  8
0
  6
PHANTOM
 10
180.686783
 20
154.926117
 11
184.186783
 21
154.926117
  0
LINE
  8
0
  6
PHANTOM
 10
191.686783
 20
154.926117
 11
201.186783
 21
154.926117
  0
LINE
  8
0
  6
PHANTOM
 10
179.186813
 20
155.792191
 11
180.686813
 21
154.926163
  0
LINE
  8
0
  6
PHANTOM
 10
179.186798
 20
158.060043
 11
180.686798
 21
158.926071
  0
LINE
  8
0
  6
PHANTOM
 10
201.186783
 20
154.926117
 11
201.186783
 21
158.926117
  0
LINE
  8
0
  6
PHANTOM
 10
203.186783
 20
158.426117
 11
218.186783
 21
158.426117
  0
LINE
  8
0
  6
PHANTOM
 10
203.186783
 20
155.426117
 11
218.186783
 21
155.426117
  0
LINE
  8
0
  6
PHANTOM
 10
203.186783
 20
155.426117
 11
203.186783
 21
158.426117
  0
LINE
  8
0
  6
PHANTOM
 10
201.186768
 20
154.926117
 11
203.186768
 21
155.426117
  0
LINE
  8
0
  6
PHANTOM
 10
201.186798
 20
158.926086
 11
203.186798
 21
158.426086
  0
LINE
  8
0
  6
CENTER
 10
221.186783
 20
156.926117
 11
200.186783
 21
156.926117
  0
LINE
  8
0
  6
CENTER
 10
187.936783
 20
150.426117
 11
187.936783
 21
159.926117
  0
LINE
  8
0
  6
PHANTOM
 10
191.686783
 20
153.426117
 11
191.686783
 21
158.426117
  0
LINE
  8
0
  6
PHANTOM
 10
184.186783
 20
153.426117
 11
184.186783
 21
158.426117
  0
LINE
  8
0
  6
PHANTOM
 10
184.186783
 20
158.426117
 11
191.686783
 21
158.426117
  0
LINE
  8
0
  6
PHANTOM
 10
184.186783
 20
153.426117
 11
191.686783
 21
153.426117
  0
LINE
  8
0
  6
PHANTOM
 62
     3
 10
190.686783
 20
152.626465
 11
190.686783
 21
153.426117
  0
LINE
  8
0
  6
PHANTOM
 62
     3
 10
185.186783
 20
152.626465
 11
185.186783
 21
153.426117
  0
LINE
  8
0
 10
174.517563
 20
180.845383
 11
176.356049
 21
179.006897
  0
LINE
  8
0
 10
174.517517
 20
179.006882
 11
176.356003
 21
180.845367
  0
LINE
  8
0
 10
188.356049
 20
179.006851
 11
186.517548
 21
180.845352
  0
LINE
  8
0
 10
188.356003
 20
180.845367
 11
186.517517
 21
179.006882
  0
LINE
  8
0
 10
174.517532
 20
168.845367
 11
176.356033
 21
167.006882
  0
LINE
  8
0
 10
174.517563
 20
167.006851
 11
176.356049
 21
168.845337
  0
LINE
  8
0
 10
188.356049
 20
168.845352
 11
186.517548
 21
167.006851
  0
LINE
  8
0
 10
188.355988
 20
167.006836
 11
186.517517
 21
168.845306
  0
LINE
  8
0
 10
62.666748
 20
62.279236
 11
89.666748
 21
62.279236
  0
LINE
  8
0
 10
62.666748
 20
85.279236
 11
89.666748
 21
85.279236
  0
LINE
  8
0
 10
61.166748
 20
83.779236
 11
61.166748
 21
63.779240
  0
LINE
  8
0
 10
91.166748
 20
83.779236
 11
91.166748
 21
63.779240
  0
LINE
  8
0
  6
CENTER
 10
52.666748
 20
73.779236
 11
99.666748
 21
73.779236
  0
LINE
  8
0
  6
CENTER
 10
76.166748
 20
104.279236
 11
76.166748
 21
43.279236
  0
LINE
  8
0
  6
CENTER
 10
64.866745
 20
85.079239
 11
64.866745
 21
78.079239
  0
LINE
  8
0
  6
CENTER
 10
64.866745
 20
69.479248
 11
64.866745
 21
62.479248
  0
LINE
  8
0
  6
CENTER
 10
87.466751
 20
85.079239
 11
87.466751
 21
78.079239
  0
LINE
  8
0
  6
CENTER
 10
87.466751
 20
69.479248
 11
87.466751
 21
62.479248
  0
LINE
  8
0
  6
CENTER
 10
61.366745
 20
65.979233
 11
68.366745
 21
65.979233
  0
LINE
  8
0
  6
CENTER
 10
61.366745
 20
81.579239
 11
68.366745
 21
81.579239
  0
LINE
  8
0
  6
CENTER
 10
83.966751
 20
81.579239
 11
90.966751
 21
81.579239
  0
LINE
  8
0
  6
CENTER
 10
83.966751
 20
65.979233
 11
90.966751
 21
65.979233
  0
LINE
  8
0
  6
PHANTOM
 10
74.166771
 20
46.779301
 11
74.666771
 21
46.279301
  0
LINE
  8
0
 10
74.666748
 20
101.279236
 11
77.666748
 21
101.279236
  0
LINE
  8
0
 10
74.166748
 20
100.779198
 11
74.666733
 21
101.279190
  0
LINE
  8
0
 10
74.166748
 20
100.779236
 11
78.166748
 21
100.779236
  0
LINE
  8
0
 10
74.166748
 20
100.779236
 11
74.166748
 21
87.779236
  0
LINE
  8
0
 10
78.166748
 20
100.779259
 11
77.666748
 21
101.279259
  0
LINE
  8
0
 10
78.166748
 20
100.779236
 11
78.166748
 21
87.779236
  0
LINE
  8
0
 10
74.166748
 20
87.779236
 11
78.166748
 21
87.779236
  0
LINE
  8
0
 10
71.166748
 20
87.279236
 11
81.166748
 21
87.279236
  0
LINE
  8
0
 10
78.166748
 20
87.779243
 11
78.666748
 21
87.279243
  0
LINE
  8
0
 10
74.166756
 20
87.779198
 11
73.666756
 21
87.279198
  0
LINE
  8
0
 10
71.166748
 20
87.279236
 11
71.166748
 21
85.279236
  0
LINE
  8
0
 10
81.166748
 20
87.279236
 11
81.166748
 21
85.279236
  0
LINE
  8
0
 10
81.166748
 20
60.279236
 11
81.166748
 21
62.279236
  0
LINE
  8
0
 10
71.166748
 20
60.279236
 11
81.166748
 21
60.279236
  0
LINE
  8
0
 10
78.166763
 20
59.779251
 11
78.666763
 21
60.279255
  0
LINE
  8
0
 10
74.166748
 20
59.779236
 11
78.166748
 21
59.779236
  0
LINE
  8
0
 10
74.166771
 20
59.779285
 11
73.666771
 21
60.279285
  0
LINE
  8
0
 10
71.166748
 20
60.279236
 11
71.166748
 21
62.279236
  0
LINE
  8
0
  6
PHANTOM
 10
74.166748
 20
46.779236
 11
74.166748
 21
59.779236
  0
LINE
  8
0
  6
PHANTOM
 10
78.166748
 20
46.779236
 11
78.166748
 21
59.779236
  0
LINE
  8
0
  6
PHANTOM
 10
74.166748
 20
46.779236
 11
78.166748
 21
46.779236
  0
LINE
  8
0
  6
PHANTOM
 10
78.166763
 20
46.779205
 11
77.666771
 21
46.279217
  0
LINE
  8
0
  6
PHANTOM
 10
74.666748
 20
46.279236
 11
77.666748
 21
46.279236
  0
LINE
  8
0
  6
PHANTOM
 10
57.166733
 20
75.779236
 11
57.166733
 21
71.779236
  0
LINE
  8
0
  6
PHANTOM
 10
58.032730
 20
72.645264
 11
60.300735
 21
72.645264
  0
LINE
  8
0
  6
PHANTOM
 10
57.166733
 20
71.779236
 11
61.166733
 21
71.779236
  0
LINE
  8
0
  6
PHANTOM
 10
57.166733
 20
75.779236
 11
61.166733
 21
75.779236
  0
LINE
  8
0
  6
PHANTOM
 10
58.032730
 20
74.913208
 11
60.300735
 21
74.913208
  0
LINE
  8
0
  6
PHANTOM
 10
58.032730
 20
74.913208
 11
58.032730
 21
72.645264
  0
LINE
  8
0
  6
PHANTOM
 10
60.300735
 20
74.913208
 11
60.300735
 21
72.645264
  0
LINE
  8
0
  6
PHANTOM
 10
57.166817
 20
75.779388
 11
58.032810
 21
74.913368
  0
LINE
  8
0
  6
PHANTOM
 10
58.032722
 20
72.645210
 11
57.166729
 21
71.779190
  0
LINE
  8
0
  6
PHANTOM
 10
60.300720
 20
72.645294
 11
61.166721
 21
71.779266
  0
LINE
  8
0
  6
PHANTOM
 10
60.300823
 20
74.913147
 11
61.166817
 21
75.779167
  0
LINE
  8
0
  6
PHANTOM
 10
55.666748
 20
62.279236
 11
61.466751
 21
62.279236
  0
LINE
  8
0
  6
PHANTOM
 10
55.666748
 20
76.579239
 11
60.666748
 21
76.579239
  0
LINE
  8
0
  6
PHANTOM
 10
60.666748
 20
76.579239
 11
60.666748
 21
75.779236
  0
LINE
  8
0
  6
PHANTOM
 10
60.666748
 20
71.779236
 11
60.666748
 21
65.279236
  0
LINE
  8
0
  6
PHANTOM
 10
55.666748
 20
76.579239
 11
55.666748
 21
62.279236
  0
LINE
  8
0
  6
PHANTOM
 10
60.666748
 20
65.279236
 11
61.166748
 21
65.279236
  0
LINE
  8
0
  6
CENTER
 10
52.666748
 20
65.279236
 11
62.166748
 21
65.279236
  0
LINE
  8
0
  6
PHANTOM
 62
     3
 10
54.867096
 20
68.029236
 11
55.666748
 21
68.029236
  0
LINE
  8
0
  6
PHANTOM
 62
     3
 10
54.867096
 20
62.529236
 11
55.666748
 21
62.529236
  0
LINE
  8
0
  6
PHANTOM
 62
     1
 10
60.666748
 20
66.779236
 11
61.166748
 21
66.779236
  0
LINE
  8
0
  6
PHANTOM
 62
     1
 10
60.666748
 20
66.508743
 11
61.166748
 21
66.508743
  0
LINE
  8
0
  6
PHANTOM
 10
95.166763
 20
75.779236
 11
91.166763
 21
75.779236
  0
LINE
  8
0
  6
PHANTOM
 10
91.666748
 20
76.579239
 11
91.666748
 21
75.779236
  0
LINE
  8
0
  6
PHANTOM
 10
96.666748
 20
76.579239
 11
91.666748
 21
76.579239
  0
LINE
  8
0
  6
PHANTOM
 10
96.666748
 20
76.579239
 11
96.666748
 21
62.279236
  0
LINE
  8
0
  6
PHANTOM
 10
95.166763
 20
75.779236
 11
95.166763
 21
71.779236
  0
LINE
  8
0
  6
PHANTOM
 10
95.166771
 20
75.779266
 11
94.300766
 21
74.913231
  0
LINE
  8
0
  6
PHANTOM
 10
94.300766
 20
74.913208
 11
94.300766
 21
72.645264
  0
LINE
  8
0
  6
PHANTOM
 10
94.300766
 20
74.913208
 11
92.032761
 21
74.913208
  0
LINE
  8
0
  6
PHANTOM
 10
92.032722
 20
74.913170
 11
91.166718
 21
75.779198
  0
LINE
  8
0
  6
PHANTOM
 10
92.032761
 20
74.913208
 11
92.032761
 21
72.645264
  0
LINE
  8
0
  6
PHANTOM
 10
92.032768
 20
72.645233
 11
91.166779
 21
71.779213
  0
LINE
  8
0
  6
PHANTOM
 10
94.300766
 20
72.645264
 11
92.032761
 21
72.645264
  0
LINE
  8
0
  6
PHANTOM
 10
94.300758
 20
72.645264
 11
95.166748
 21
71.779251
  0
LINE
  8
0
  6
PHANTOM
 10
95.166763
 20
71.779236
 11
91.166763
 21
71.779236
  0
LINE
  8
0
  6
PHANTOM
 62
     3
 10
97.466400
 20
68.029236
 11
96.666748
 21
68.029236
  0
LINE
  8
0
  6
PHANTOM
 62
     3
 10
97.466400
 20
62.529236
 11
96.666748
 21
62.529236
  0
LINE
  8
0
  6
PHANTOM
 10
96.666748
 20
62.279236
 11
90.866745
 21
62.279236
  0
LINE
  8
0
  6
PHANTOM
 10
91.666748
 20
71.779236
 11
91.666748
 21
65.279236
  0
LINE
  8
0
  6
PHANTOM
 10
91.666748
 20
65.279236
 11
91.166748
 21
65.279236
  0
LINE
  8
0
  6
PHANTOM
 62
     1
 10
91.666748
 20
66.779236
 11
91.166748
 21
66.779236
  0
LINE
  8
0
  6
PHANTOM
 62
     1
 10
91.666748
 20
66.508743
 11
91.166748
 21
66.508743
  0
LINE
  8
0
  6
CENTER
 10
99.666748
 20
65.279236
 11
90.166748
 21
65.279236
  0
LINE
  8
0
  6
PHANTOM
 10
61.466751
 20
62.879242
 11
61.466751
 21
62.279236
  0
LINE
  8
0
  6
PHANTOM
 10
90.866745
 20
62.879242
 11
90.866745
 21
62.279236
  0
LINE
  8
0
 10
63.947453
 20
66.898430
 11
65.785942
 21
65.059944
  0
LINE
  8
0
 10
63.947464
 20
65.059975
 11
65.785973
 21
66.898483
  0
LINE
  8
0
 10
88.386055
 20
65.059967
 11
86.547539
 21
66.898483
  0
LINE
  8
0
 10
88.386032
 20
66.898468
 11
86.547546
 21
65.059967
  0
LINE
  8
0
 10
63.947453
 20
82.498512
 11
65.785965
 21
80.660004
  0
LINE
  8
0
 10
63.947445
 20
80.660034
 11
65.785934
 21
82.498535
  0
LINE
  8
0
 10
88.386040
 20
82.498535
 11
86.547523
 21
80.660027
  0
LINE
  8
0
 10
88.386017
 20
80.660004
 11
86.547523
 21
82.498497
  0
LINE
  8
0
 10
277.300293
 20
83.779243
 11
277.300293
 21
63.779243
  0
LINE
  8
0
 10
307.300293
 20
83.779243
 11
307.300293
 21
63.779243
  0
LINE
  8
0
 10
278.800293
 20
85.279243
 11
305.800293
 21
85.279243
  0
LINE
  8
0
 10
278.800293
 20
62.279243
 11
305.800293
 21
62.279243
  0
LINE
  8
0
  6
CENTER
 10
292.300293
 20
104.279243
 11
292.300293
 21
43.279243
  0
LINE
  8
0
  6
CENTER
 10
268.800293
 20
73.779243
 11
315.800293
 21
73.779243
  0
LINE
  8
0
  6
CENTER
 10
286.800293
 20
80.779243
 11
286.800293
 21
73.779243
  0
LINE
  8
0
  6
CENTER
 10
283.300293
 20
77.279243
 11
290.300293
 21
77.279243
  0
LINE
  8
0
  6
CENTER
 10
294.300293
 20
70.279243
 11
301.300293
 21
70.279243
  0
LINE
  8
0
  6
CENTER
 10
297.800293
 20
73.779243
 11
297.800293
 21
66.779243
  0
LINE
  8
0
  6
CENTER
 10
303.600281
 20
69.979256
 11
303.600281
 21
61.979256
  0
LINE
  8
0
  6
CENTER
 10
303.600281
 20
85.579247
 11
303.600281
 21
77.579247
  0
LINE
  8
0
  6
CENTER
 10
281.000275
 20
85.579247
 11
281.000275
 21
77.579247
  0
LINE
  8
0
  6
CENTER
 10
281.000275
 20
69.979256
 11
281.000275
 21
61.979256
  0
LINE
  8
0
  6
CENTER
 10
277.000275
 20
65.979240
 11
285.000275
 21
65.979240
  0
LINE
  8
0
  6
CENTER
 10
299.600281
 20
65.979240
 11
307.600281
 21
65.979240
  0
LINE
  8
0
  6
CENTER
 10
299.600281
 20
81.579247
 11
307.600281
 21
81.579247
  0
LINE
  8
0
  6
CENTER
 10
277.000275
 20
81.579247
 11
285.000275
 21
81.579247
  0
LINE
  8
0
 10
287.300293
 20
87.279243
 11
297.300293
 21
87.279243
  0
LINE
  8
0
 10
290.300293
 20
87.779243
 11
294.300293
 21
87.779243
  0
LINE
  8
0
 10
290.800293
 20
101.279243
 11
293.800293
 21
101.279243
  0
LINE
  8
0
 10
294.300293
 20
100.779243
 11
294.300293
 21
87.779243
  0
LINE
  8
0
 10
290.300293
 20
100.779243
 11
290.300293
 21
87.779243
  0
LINE
  8
0
 10
287.300293
 20
87.279243
 11
287.300293
 21
85.279243
  0
LINE
  8
0
 10
297.300293
 20
87.279243
 11
297.300293
 21
85.279243
  0
LINE
  8
0
 10
290.300262
 20
87.779243
 11
289.800293
 21
87.279251
  0
LINE
  8
0
 10
294.300262
 20
87.779251
 11
294.800262
 21
87.279251
  0
LINE
  8
0
 10
290.300293
 20
100.779243
 11
291.100281
 21
100.779243
  0
LINE
  8
0
 10
294.300262
 20
100.779243
 11
293.800262
 21
101.279243
  0
LINE
  8
0
 10
290.300262
 20
100.779236
 11
290.800262
 21
101.279221
  0
LINE
  8
0
  6
PHANTOM
 10
294.300262
 20
46.779263
 11
293.800262
 21
46.279263
  0
LINE
  8
0
  6
PHANTOM
 10
290.300293
 20
46.779243
 11
291.100281
 21
46.779243
  0
LINE
  8
0
  6
PHANTOM
 10
290.800293
 20
46.279243
 11
293.800293
 21
46.279243
  0
LINE
  8
0
  6
PHANTOM
 10
290.300262
 20
46.779240
 11
290.800293
 21
46.279232
  0
LINE
  8
0
  6
PHANTOM
 10
290.300293
 20
46.779243
 11
290.300293
 21
59.779243
  0
LINE
  8
0
  6
PHANTOM
 10
294.300293
 20
46.779243
 11
294.300293
 21
59.779243
  0
LINE
  8
0
 10
290.300293
 20
59.779243
 11
294.300293
 21
59.779243
  0
LINE
  8
0
 10
294.300232
 20
59.779285
 11
294.800232
 21
60.279285
  0
LINE
  8
0
 10
290.300293
 20
59.779232
 11
289.800293
 21
60.279232
  0
LINE
  8
0
 10
287.300293
 20
60.279243
 11
287.300293
 21
62.279243
  0
LINE
  8
0
 10
287.300293
 20
60.279243
 11
297.300293
 21
60.279243
  0
LINE
  8
0
 10
297.300293
 20
60.279243
 11
297.300293
 21
62.279243
  0
LINE
  8
0
 10
291.100281
 20
93.279243
 11
293.500275
 21
93.279243
  0
LINE
  8
0
 10
293.500275
 20
101.279243
 11
293.500275
 21
93.279243
  0
LINE
  8
0
 10
291.100281
 20
101.279243
 11
291.100281
 21
93.279243
  0
LINE
  8
0
 10
293.500275
 20
100.779243
 11
294.300293
 21
100.779243
  0
LINE
  8
0
 10
291.100311
 20
93.279228
 11
293.500305
 21
101.279236
  0
LINE
  8
0
 10
291.100281
 20
101.279243
 11
293.500275
 21
93.279236
  0
LINE
  8
0
  6
PHANTOM
 10
291.100281
 20
46.279243
 11
291.100281
 21
54.279243
  0
LINE
  8
0
  6
PHANTOM
 10
291.100281
 20
46.279240
 11
293.500275
 21
54.279232
  0
LINE
  8
0
  6
PHANTOM
 10
291.100250
 20
54.279243
 11
293.500244
 21
46.279236
  0
LINE
  8
0
  6
PHANTOM
 10
293.500275
 20
46.279243
 11
293.500275
 21
54.279243
  0
LINE
  8
0
  6
PHANTOM
 10
291.100281
 20
54.279243
 11
293.500275
 21
54.279243
  0
LINE
  8
0
  6
PHANTOM
 10
293.500275
 20
46.779243
 11
294.300293
 21
46.779243
  0
LINE
  8
0
  6
PHANTOM
 10
273.300293
 20
75.779243
 11
273.300293
 21
71.779243
  0
LINE
  8
0
  6
PHANTOM
 10
273.300293
 20
71.779243
 11
277.300293
 21
71.779243
  0
LINE
  8
0
  6
PHANTOM
 10
273.300293
 20
75.779243
 11
277.300293
 21
75.779243
  0
LINE
  8
0
  6
PHANTOM
 10
271.800293
 20
62.279243
 11
277.600281
 21
62.279243
  0
LINE
  8
0
  6
PHANTOM
 10
271.800293
 20
76.579247
 11
276.800293
 21
76.579247
  0
LINE
  8
0
  6
PHANTOM
 10
276.800293
 20
76.579247
 11
276.800293
 21
75.779243
  0
LINE
  8
0
  6
PHANTOM
 10
276.800293
 20
71.779243
 11
276.800293
 21
65.279243
  0
LINE
  8
0
  6
PHANTOM
 10
271.800293
 20
76.579247
 11
271.800293
 21
62.279243
  0
LINE
  8
0
  6
PHANTOM
 10
277.600281
 20
62.879250
 11
277.600281
 21
62.279243
  0
LINE
  8
0
  6
PHANTOM
 10
276.800293
 20
65.279243
 11
277.300293
 21
65.279243
  0
LINE
  8
0
  6
CENTER
 10
268.800293
 20
65.279243
 11
278.300293
 21
65.279243
  0
LINE
  8
0
  6
PHANTOM
 62
     3
 10
271.000641
 20
68.029243
 11
271.800293
 21
68.029243
  0
LINE
  8
0
  6
PHANTOM
 62
     3
 10
271.000641
 20
62.529243
 11
271.800293
 21
62.529243
  0
LINE
  8
0
  6
PHANTOM
 62
     1
 10
276.800293
 20
66.779243
 11
277.300293
 21
66.779243
  0
LINE
  8
0
  6
PHANTOM
 62
     1
 10
276.800293
 20
66.508751
 11
277.300293
 21
66.508751
  0
LINE
  8
0
  6
PHANTOM
 10
311.300293
 20
75.779243
 11
307.300293
 21
75.779243
  0
LINE
  8
0
  6
PHANTOM
 10
307.800293
 20
76.579247
 11
307.800293
 21
75.779243
  0
LINE
  8
0
  6
PHANTOM
 10
312.800293
 20
76.579247
 11
307.800293
 21
76.579247
  0
LINE
  8
0
  6
PHANTOM
 10
312.800293
 20
76.579247
 11
312.800293
 21
62.279243
  0
LINE
  8
0
  6
PHANTOM
 10
311.300293
 20
75.779243
 11
311.300293
 21
71.779243
  0
LINE
  8
0
  6
PHANTOM
 10
311.300293
 20
71.779243
 11
307.300293
 21
71.779243
  0
LINE
  8
0
  6
PHANTOM
 62
     3
 10
313.599945
 20
68.029243
 11
312.800293
 21
68.029243
  0
LINE
  8
0
  6
PHANTOM
 62
     3
 10
313.599945
 20
62.529243
 11
312.800293
 21
62.529243
  0
LINE
  8
0
  6
PHANTOM
 10
312.800293
 20
62.279243
 11
307.000305
 21
62.279243
  0
LINE
  8
0
  6
PHANTOM
 10
307.000305
 20
62.879250
 11
307.000305
 21
62.279243
  0
LINE
  8
0
  6
PHANTOM
 10
307.800293
 20
71.779243
 11
307.800293
 21
65.279243
  0
LINE
  8
0
  6
PHANTOM
 10
307.800293
 20
65.279243
 11
307.300293
 21
65.279243
  0
LINE
  8
0
  6
PHANTOM
 62
     1
 10
307.800293
 20
66.779243
 11
307.300293
 21
66.779243
  0
LINE
  8
0
  6
PHANTOM
 62
     1
 10
307.800293
 20
66.508751
 11
307.300293
 21
66.508751
  0
LINE
  8
0
  6
CENTER
 10
315.800293
 20
65.279243
 11
306.300293
 21
65.279243
  0
LINE
  8
0
  6
CENTER
 10
309.300293
 20
76.779243
 11
309.300293
 21
70.779243
  0
LINE
  8
0
  6
CENTER
 10
275.300293
 20
76.779243
 11
275.300293
 21
70.779243
  0
LINE
  8
0
 62
     3
 10
279.750275
 20
82.300934
 11
279.750275
 21
80.857567
  0
LINE
  8
0
 62
     3
 10
282.250275
 20
82.300934
 11
282.250275
 21
80.857567
  0
LINE
  8
0
 62
     3
 10
279.750275
 20
82.300934
 11
281.000275
 21
83.022614
  0
LINE
  8
0
 62
     3
 10
281.000305
 20
80.135864
 11
282.250275
 21
80.857544
  0
LINE
  8
0
 62
     3
 10
281.000275
 20
83.022621
 11
282.250275
 21
82.300926
  0
LINE
  8
0
 62
     3
 10
279.750275
 20
80.857567
 11
281.000275
 21
80.135872
  0
LINE
  8
0
 62
     3
 10
279.750275
 20
66.700935
 11
279.750275
 21
65.257561
  0
LINE
  8
0
 62
     3
 10
282.250275
 20
66.700935
 11
282.250275
 21
65.257561
  0
LINE
  8
0
 62
     3
 10
279.750244
 20
66.700905
 11
281.000244
 21
67.422600
  0
LINE
  8
0
 62
     3
 10
281.000244
 20
64.535843
 11
282.250244
 21
65.257538
  0
LINE
  8
0
 62
     3
 10
281.000275
 20
67.422623
 11
282.250275
 21
66.700943
  0
LINE
  8
0
 62
     3
 10
279.750275
 20
65.257561
 11
281.000275
 21
64.535873
  0
LINE
  8
0
 62
     3
 10
302.350281
 20
66.700935
 11
302.350281
 21
65.257561
  0
LINE
  8
0
 62
     3
 10
304.850281
 20
66.700935
 11
304.850281
 21
65.257561
  0
LINE
  8
0
 62
     3
 10
302.350281
 20
66.700920
 11
303.600281
 21
67.422615
  0
LINE
  8
0
 62
     3
 10
303.600311
 20
64.535866
 11
304.850281
 21
65.257545
  0
LINE
  8
0
 62
     3
 10
303.600281
 20
67.422615
 11
304.850281
 21
66.700920
  0
LINE
  8
0
 62
     3
 10
302.350281
 20
65.257561
 11
303.600311
 21
64.535866
  0
LINE
  8
0
 62
     3
 10
302.350281
 20
82.300934
 11
302.350281
 21
80.857567
  0
LINE
  8
0
 62
     3
 10
304.850281
 20
82.300934
 11
304.850281
 21
80.857567
  0
LINE
  8
0
 62
     3
 10
302.350281
 20
82.300919
 11
303.600281
 21
83.022598
  0
LINE
  8
0
 62
     3
 10
303.600250
 20
80.135849
 11
304.850281
 21
80.857544
  0
LINE
  8
0
 62
     3
 10
303.600311
 20
83.022621
 11
304.850281
 21
82.300941
  0
LINE
  8
0
 62
     3
 10
302.350311
 20
80.857559
 11
303.600311
 21
80.135872
  0
ARC
  8
0
  6
PHANTOM
 10
217.525360
 20
73.029236
 40
1.000000
 50
311.409637
 51
48.590370
  0
ARC
  8
0
  6
PHANTOM
 10
218.848236
 20
73.029236
 40
1.000000
 50
131.409622
 51
228.590378
  0
CIRCLE
  8
0
 10
187.936798
 20
82.279236
 40
1.299999
  0
CIRCLE
  8
0
 10
187.936798
 20
82.279236
 40
1.056499
  0
CIRCLE
  8
0
  6
PHANTOM
 62
     3
 10
187.936798
 20
65.279236
 40
2.750000
  0
ARC
  8
0
  6
PHANTOM
 10
217.525360
 20
74.529236
 40
1.000000
 50
311.409637
 51
48.590370
  0
ARC
  8
0
  6
PHANTOM
 62
     3
 10
190.020081
 20
152.626465
 40
0.666699
 50
298.735413
 51
0.000000
  0
ARC
  8
0
  6
PHANTOM
 62
     3
 10
187.936783
 20
156.426117
 40
4.999999
 50
241.264633
 51
298.735382
  0
ARC
  8
0
  6
PHANTOM
 10
218.848221
 20
157.676117
 40
1.000000
 50
131.409622
 51
228.590378
  0
ARC
  8
0
  6
PHANTOM
 10
217.525345
 20
157.676117
 40
1.000000
 50
311.409637
 51
48.590370
  0
ARC
  8
0
  6
PHANTOM
 10
217.525345
 20
156.176117
 40
1.000000
 50
311.409637
 51
48.590370
  0
ARC
  8
0
 10
181.436783
 20
173.926117
 40
11.999998
 50
13.429514
 51
166.570419
  0
CIRCLE
  8
0
 10
171.436783
 20
173.926117
 40
1.700000
  0
CIRCLE
  8
0
 10
191.436783
 20
173.926117
 40
1.700000
  0
CIRCLE
  8
0
 10
191.436783
 20
173.926117
 40
3.250000
  0
CIRCLE
  8
0
 10
171.436783
 20
173.926117
 40
3.250000
  0
ARC
  8
0
 10
181.436783
 20
173.926117
 40
12.000002
 50
193.429581
 51
346.570496
  0
CIRCLE
  8
0
 62
     3
 10
175.436783
 20
179.926117
 40
2.599999
  0
CIRCLE
  8
0
 62
     3
 10
187.436783
 20
179.926117
 40
2.599999
  0
CIRCLE
  8
0
 62
     3
 10
187.436783
 20
167.926117
 40
2.599999
  0
CIRCLE
  8
0
 62
     3
 10
175.436783
 20
167.926117
 40
2.599999
  0
CIRCLE
  8
0
 10
181.436783
 20
173.926117
 40
5.000000
  0
CIRCLE
  8
0
 10
181.436783
 20
173.926117
 40
2.000000
  0
CIRCLE
  8
0
 10
181.436783
 20
173.926117
 40
1.500000
  0
ARC
  8
0
  6
PHANTOM
 10
217.525345
 20
190.176117
 40
1.000000
 50
311.409637
 51
48.590370
  0
ARC
  8
0
  6
PHANTOM
 10
217.525345
 20
191.676117
 40
1.000000
 50
311.409637
 51
48.590370
  0
ARC
  8
0
  6
PHANTOM
 10
218.848221
 20
191.676117
 40
1.000000
 50
131.409622
 51
228.590378
  0
ARC
  8
0
  6
PHANTOM
 62
     3
 10
187.936783
 20
191.426117
 40
4.999999
 50
61.264629
 51
118.735367
  0
ARC
  8
0
  6
PHANTOM
 62
     3
 10
190.020081
 20
195.225769
 40
0.666702
 50
0.000000
 51
61.264580
  0
ARC
  8
0
  6
PHANTOM
 62
     3
 10
185.853485
 20
195.225769
 40
0.666699
 50
118.735420
 51
180.000000
  0
ARC
  8
0
  6
PHANTOM
 62
     3
 10
185.853485
 20
152.626465
 40
0.666702
 50
180.000000
 51
241.264587
  0
ARC
  8
0
  6
PHANTOM
 62
     3
 10
97.466400
 20
67.362534
 40
0.666699
 50
28.735418
 51
90.000000
  0
ARC
  8
0
  6
PHANTOM
 62
     3
 10
93.666748
 20
65.279236
 40
5.000001
 50
331.264587
 51
28.735369
  0
ARC
  8
0
 10
62.666748
 20
83.779236
 40
1.500000
 50
90.000000
 51
180.000000
  0
ARC
  8
0
 10
89.666748
 20
83.779236
 40
1.500000
 50
0.000000
 51
90.000000
  0
ARC
  8
0
 10
89.666748
 20
63.779240
 40
1.500000
 50
270.000000
 51
0.000000
  0
ARC
  8
0
 10
62.666748
 20
63.779240
 40
1.500000
 50
180.000000
 51
270.000000
  0
CIRCLE
  8
0
 62
     3
 10
64.866745
 20
81.579239
 40
2.599999
  0
CIRCLE
  8
0
 62
     3
 10
64.866745
 20
65.979233
 40
2.599999
  0
CIRCLE
  8
0
 62
     3
 10
87.466751
 20
65.979233
 40
2.599999
  0
CIRCLE
  8
0
 62
     3
 10
87.466751
 20
81.579239
 40
2.599999
  0
ARC
  8
0
  6
PHANTOM
 62
     3
 10
97.466400
 20
63.195938
 40
0.666698
 50
270.000000
 51
331.264587
  0
ARC
  8
0
  6
PHANTOM
 62
     3
 10
58.666748
 20
65.279236
 40
4.999999
 50
151.264633
 51
208.735306
  0
ARC
  8
0
  6
PHANTOM
 62
     3
 10
54.867096
 20
67.362534
 40
0.666702
 50
90.000000
 51
151.264587
  0
ARC
  8
0
  6
PHANTOM
 62
     3
 10
54.867096
 20
63.195938
 40
0.666699
 50
208.735413
 51
270.000000
  0
CIRCLE
  8
0
 62
     3
 10
303.600281
 20
65.979240
 40
2.403589
  0
CIRCLE
  8
0
 62
     3
 10
303.600281
 20
81.579247
 40
2.750000
  0
CIRCLE
  8
0
 62
     3
 10
303.600281
 20
81.579247
 40
2.403589
  0
ARC
  8
0
 10
278.800293
 20
83.779243
 40
1.500000
 50
90.000000
 51
180.000000
  0
ARC
  8
0
 10
278.800293
 20
63.779243
 40
1.500000
 50
180.000000
 51
270.000000
  0
ARC
  8
0
 10
305.800293
 20
83.779243
 40
1.500000
 50
0.000000
 51
90.000000
  0
ARC
  8
0
 10
305.800293
 20
63.779243
 40
1.500000
 50
270.000000
 51
0.000000
  0
CIRCLE
  8
0
 10
286.800293
 20
77.279243
 40
2.066999
  0
CIRCLE
  8
0
 10
297.800293
 20
70.279243
 40
2.066999
  0
CIRCLE
  8
0
 10
297.800293
 20
70.279243
 40
2.500000
  0
CIRCLE
  8
0
 10
286.800293
 20
77.279243
 40
2.500000
  0
ARC
  8
0
  6
PHANTOM
 62
     3
 10
274.800293
 20
65.279243
 40
4.999999
 50
151.264633
 51
208.735336
  0
ARC
  8
0
  6
PHANTOM
 62
     3
 10
271.000641
 20
67.362541
 40
0.666702
 50
90.000000
 51
151.264587
  0
ARC
  8
0
  6
PHANTOM
 62
     3
 10
271.000641
 20
63.195946
 40
0.666699
 50
208.735413
 51
270.000000
  0
ARC
  8
0
  6
PHANTOM
 62
     3
 10
313.599945
 20
67.362541
 40
0.666699
 50
28.735418
 51
90.000000
  0
ARC
  8
0
  6
PHANTOM
 62
     3
 10
309.800293
 20
65.279243
 40
5.000001
 50
331.264587
 51
28.735369
  0
ARC
  8
0
  6
PHANTOM
 62
     3
 10
313.599945
 20
63.195946
 40
0.666698
 50
270.000000
 51
331.264587
  0
CIRCLE
  8
0
  6
PHANTOM
 10
275.300293
 20
73.779243
 40
1.500000
  0
CIRCLE
  8
0
  6
PHANTOM
 10
309.300293
 20
73.779243
 40
1.500000
  0
CIRCLE
  8
0
 62
     3
 10
281.000275
 20
81.579247
 40
2.750000
  0
CIRCLE
  8
0
 62
     3
 10
281.000275
 20
81.579247
 40
2.403589
  0
CIRCLE
  8
0
 62
     3
 10
281.000275
 20
65.979240
 40
2.750000
  0
CIRCLE
  8
0
 62
     3
 10
281.000275
 20
65.979240
 40
2.403589
  0
CIRCLE
  8
0
 62
     3
 10
303.600281
 20
65.979240
 40
2.750000
  0
TEXT
  8
0
 10
298.797760
 20
244.589584
 40
4.242641
  1
DATE : MAR ,1992
 50
0.000000
 41
1.052631
 51
0.000000
  7
STANDARD
  0
TEXT
  8
0
 10
2.113382
 20
243.907959
 40
5.000000
  1
ROTARY ACUTUATOR
 50
0.000000
 41
0.937799
 51
0.000000
  7
STANDARD
  0
TEXT
  8
0
 10
27.035715
 20
196.757431
 40
5.000000
  1
        RAPS1-100
 50
0.000000
 41
1.052632
 51
0.000000
  7
STANDARD
  0
TEXT
  8
0
 10
2.113382
 20
243.907959
 40
5.000000
  1
ROTARY ACUTUATOR
 50
0.000000
 41
0.937799
 51
0.000000
  7
STANDARD
  0
TEXT
  8
0
 10
224.335144
 20
166.561707
 40
3.500000
  1
〃
 50
90.000000
 41
0.833333
 51
0.000000
  7
STANDARD
  0
TEXT
  8
0
 10
224.335144
 20
177.290909
 40
3.500000
  1
〃
 50
90.000000
 41
0.833333
 51
0.000000
  7
STANDARD
  0
TEXT
  8
0
 10
230.686783
 20
172.553162
 40
3.500000
  1
D
 50
90.000000
 41
0.759275
 51
0.000000
  7
STANDARD
  0
TEXT
  8
0
 10
27.035715
 20
206.757431
 40
5.000000
  1
MODEL : RAPS1-90
 50
0.000000
 41
1.052632
 51
0.000000
  7
STANDARD
  0
TEXT
  8
0
 10
302.273193
 20
3.650512
 40
5.000000
  1
KOGANEI,CORP
 50
0.000000
 41
1.052632
 51
0.000000
  7
STANDARD
  0
TEXT
  8
0
 10
231.536774
 20
152.676117
 40
3.500000
  1
　　　　　　
 50
90.000000
 41
0.833333
 51
0.000000
  7
STANDARD
  0
ARC
  8
0
 10
181.436783
 20
173.926117
 40
51.099998
 50
345.000000
 51
14.999993
  0
LINE
  8
0
 10
230.795593
 20
160.700470
 11
230.707565
 21
163.698746
  0
LINE
  8
0
 10
230.795593
 20
160.700470
 11
232.218491
 21
163.341064
  0
LINE
  8
0
 10
230.795593
 20
187.151764
 11
232.218491
 21
184.511169
  0
LINE
  8
0
 10
230.795593
 20
187.151764
 11
230.707565
 21
184.153488
  0
LINE
  8
0
 10
233.643951
 20
159.937363
 11
181.436829
 21
173.926224
  0
LINE
  8
0
 10
233.473129
 20
187.869247
 11
181.436783
 21
173.926163
  0
TEXT
  8
0
 10
223.726837
 20
159.919098
 40
3.200000
  1
　　　　　　
 50
97.500000
 41
0.833333
 51
0.000000
  7
STANDARD
  0
ARC
  8
0
 10
181.436768
 20
173.926117
 40
41.100006
 50
0.000000
 51
15.000004
  0
LINE
  8
0
 10
222.536774
 20
173.926117
 11
221.655304
 21
176.792984
  0
LINE
  8
0
 10
222.536774
 20
173.926117
 11
223.206833
 21
176.849640
  0
LINE
  8
0
 10
221.136322
 20
184.563583
 11
222.540222
 21
181.913086
  0
LINE
  8
0
 10
221.136322
 20
184.563583
 11
221.026886
 21
181.566238
  0
LINE
  8
0
 10
215.536789
 20
173.926117
 11
224.036774
 21
173.926117
  0
LINE
  8
0
 10
233.473145
 20
187.869232
 11
219.687439
 21
184.175369
  0
LINE
  8
0
 10
299.050262
 20
68.114151
 11
316.852814
 21
37.279217
  0
LINE
  8
0
 10
316.852814
 20
37.279217
 11
332.340393
 21
37.279221
  0
LINE
  8
0
 10
299.050262
 20
68.114151
 11
299.826721
 21
65.216377
  0
LINE
  8
0
 10
299.050262
 20
68.114151
 11
301.171570
 21
65.992828
  0
TEXT
  8
0
 10
317.590393
 20
38.279221
 40
3.500000
  1
2-M5
 50
0.000000
 41
1.052632
 51
0.000000
  7
STANDARD
  0
TEXT
  8
0
 10
220.331360
 20
162.141373
 40
3.200000
  1
    
 50
82.500000
 41
1.052632
 51
0.000000
  7
STANDARD
  0
ARC
  8
0
 10
181.436813
 20
173.926117
 40
41.100002
 50
345.000000
 51
0.000000
  0
LINE
  8
0
 10
221.136368
 20
163.288651
 11
221.026932
 21
166.285980
  0
LINE
  8
0
 10
221.136368
 20
163.288651
 11
222.540253
 21
165.939133
  0
LINE
  8
0
 10
222.536819
 20
173.926117
 11
223.206879
 21
171.002594
  0
LINE
  8
0
 10
222.536819
 20
173.926117
 11
221.655350
 21
171.059250
  0
LINE
  8
0
 10
233.643921
 20
159.937271
 11
219.687485
 21
163.676880
  0
LINE
  8
0
 10
215.536789
 20
173.926117
 11
224.036835
 21
173.926117
  0
ENDSEC
  0
EOF
