  0
SECTION
  2
HEADER
  0
ENDSEC
  0
SECTION
  2
TABLES
  0
TABLE
  2
LTYPE
 70
     4
  0
LTYPE
  2
CONTINUOUS
 70
    64
  3
Solid line
 72
    65
 73
     0
 40
0.000000
  0
LTYPE
  2
DASHED
 70
    64
  3
__ __ __ __ __ __ __ __ __ __ __ __ __ __ __
 72
    65
 73
     2
 40
3.500000
 49
2.000000
 49
-1.500000
  0
LTYPE
  2
CENTER
 70
    64
  3
____ _ ____ _ ____ _ ____ _ ____ _ ____ _ ____
 72
    65
 73
     4
 40
17.500000
 49
13.000000
 49
-1.500000
 49
1.500000
 49
-1.500000
  0
LTYPE
  2
PHANTOM
 70
    64
  3
_____ _ _ _____ _ _ _____ _ _ _____ _ _ ____  
 72
    65
 73
     6
 40
15.500000
 49
8.000000
 49
-1.500000
 49
1.500000
 49
-1.500000
 49
1.500000
 49
-1.500000
  0
LTYPE
  2
DASHED1
 70
    64
  3
__ __ __ __ __ __ __ __ __ __ __ __ __ __ __
 72
    65
 73
     2
 40
1.500000
 49
1.000000
 49
-0.500000
  0
LTYPE
  2
DASHED2
 70
    64
  3
__ __ __ __ __ __ __ __ __ __ __ __ __ __ __
 72
    65
 73
     2
 40
3.500000
 49
2.500000
 49
-1.000000
  0
LTYPE
  2
DASHED3
 70
    64
  3
__ __ __ __ __ __ __ __ __ __ __ __ __ __ __
 72
    65
 73
     2
 40
6.000000
 49
4.000000
 49
-2.000000
  0
LTYPE
  2
DASHED4
 70
    64
  3
__ __ __ __ __ __ __ __ __ __ __ __ __ __ __
 72
    65
 73
     2
 40
12.000000
 49
10.000000
 49
-2.000000
  0
LTYPE
  2
DASHED5
 70
    64
  3
__ __ __ __ __ __ __ __ __ __ __ __ __ __ __
 72
    65
 73
     2
 40
17.000000
 49
15.000000
 49
-2.000000
  0
LTYPE
  2
DASHED6
 70
    64
  3
__ __ __ __ __ __ __ __ __ __ __ __ __ __ __
 72
    65
 73
     2
 40
29.000000
 49
27.000000
 49
-2.000000
  0
LTYPE
  2
PHANTOM1
 70
    64
  3
_____ _ _ _____ _ _ _____ _ _ _____ _ _ ____  
 72
    65
 73
     6
 40
31.000000
 49
25.000000
 49
-1.500000
 49
1.000000
 49
-1.000000
 49
1.000000
 49
-1.500000
  0
LTYPE
  2
PHANTOM2
 70
    64
  3
_____ _ _ _____ _ _ _____ _ _ _____ _ _ ____  
 72
    65
 73
     6
 40
36.000000
 49
27.000000
 49
-1.500000
 49
2.500000
 49
-1.000000
 49
2.500000
 49
-1.500000
  0
LTYPE
  2
PHANTOM3
 70
    64
  3
_____ _ _ _____ _ _ _____ _ _ _____ _ _ ____  
 72
    65
 73
     6
 40
78.000000
 49
64.000000
 49
-2.000000
 49
4.000000
 49
-2.000000
 49
4.000000
 49
-2.000000
  0
LTYPE
  2
CENTER1
 70
    64
  3
____ _ ____ _ ____ _ ____ _ ____ _ ____ _ ____
 72
    65
 73
     4
 40
19.000000
 49
14.000000
 49
-1.000000
 49
3.000000
 49
-1.000000
  0
LTYPE
  2
CENTER2
 70
    64
  3
____ _ ____ _ ____ _ ____ _ ____ _ ____ _ ____
 72
    65
 73
     4
 40
28.500000
 49
25.000000
 49
-1.000000
 49
1.500000
 49
-1.000000
  0
LTYPE
  2
CENTER3
 70
    64
  3
____ _ ____ _ ____ _ ____ _ ____ _ ____ _ ____
 72
    65
 73
     4
 40
31.500000
 49
27.000000
 49
-1.000000
 49
2.500000
 49
-1.000000
  0
LTYPE
  2
CENTER4
 70
    64
  3
____ _ ____ _ ____ _ ____ _ ____ _ ____ _ ____
 72
    65
 73
     4
 40
50.000000
 49
45.000000
 49
-1.000000
 49
3.000000
 49
-1.000000
  0
LTYPE
  2
CENTER5
 70
    64
  3
____ _ ____ _ ____ _ ____ _ ____ _ ____ _ ____
 72
    65
 73
     4
 40
100.000000
 49
92.000000
 49
-2.000000
 49
4.000000
 49
-2.000000
  0
LTYPE
  2
SBK1
 70
    64
  3
______ _ _ _ ______ _ _ _ ______ _ _ _ _____  
 72
    65
 73
     8
 40
60.500000
 49
45.000000
 49
-2.000000
 49
2.500000
 49
-2.000000
 49
2.500000
 49
-2.000000
 49
2.500000
 49
-2.000000
  0
LTYPE
  2
SBK2
 70
    64
  3
______ _ _ _ ______ _ _ _ ______ _ _ _ _____  
 72
    65
 73
     8
 40
84.000000
 49
64.000000
 49
-2.000000
 49
4.000000
 49
-2.000000
 49
4.000000
 49
-2.000000
 49
4.000000
 49
-2.000000
  0
LTYPE
  2
STCH
 70
    64
  3
__ __ __ __ __ __ __ __ __ __ __ __ __ __ __
 72
    65
 73
     2
 40
3.000000
 49
1.000000
 49
-2.000000
  0
LTYPE
  2
MTCH
 70
    64
  3
_____ _ _ _____ _ _ _____ _ _ _____ _ _ ____  
 72
    65
 73
     6
 40
80.000000
 49
66.000000
 49
-2.000000
 49
4.000000
 49
-2.000000
 49
4.000000
 49
-2.000000
  0
ENDTAB
  0
TABLE
  2
LAYER
 70
     1
  0
LAYER
  2
0
 70
     0
 62
     7
  6
CONTINUOUS
  0
ENDTAB
  0
TABLE
  2
STYLE
 70
     1
  0
STYLE
  2
STANDARD
 70
     0
 40
0.000000
 41
1.000000
 50
0.000000
 71
     0
 42
0.200000
  3
txt
  4
BIGFONT
  0
ENDTAB
  0
TABLE
  2
VIEW
 70
     0
  0
ENDTAB
  0
ENDSEC
  0
SECTION
  2
BLOCKS
  0
ENDSEC
  0
SECTION
  2
ENTITIES
  0
POINT
  8
0
 10
267.247223
 20
105.000046
  0
POINT
  8
0
 10
351.247223
 20
105.000046
  0
POINT
  8
0
 10
267.247223
 20
256.646912
  0
POINT
  8
0
 10
351.247253
 20
256.646912
  0
POINT
  8
0
 10
97.077225
 20
105.000061
  0
POINT
  8
0
 10
121.577225
 20
105.000061
  0
POINT
  8
0
 10
434.261963
 20
105.000046
  0
POINT
  8
0
 10
458.761963
 20
105.000046
  0
LINE
  8
0
 62
     3
 10
0.000000
 20
0.000000
 11
0.000000
 21
360.000092
  0
LINE
  8
0
 62
     3
 10
524.494446
 20
360.000092
 11
524.494446
 21
0.000000
  0
LINE
  8
0
 62
     3
 10
0.000000
 20
0.000000
 11
524.494446
 21
0.000000
  0
LINE
  8
0
 62
     3
 10
0.000000
 20
360.000092
 11
524.494446
 21
360.000092
  0
LINE
  8
0
 62
     3
 10
0.000000
 20
339.775330
 11
107.865173
 21
339.775330
  0
LINE
  8
0
 62
     3
 10
107.865173
 20
339.775330
 11
107.865173
 21
360.000092
  0
LINE
  8
0
 62
     3
 10
416.629272
 20
20.224701
 11
524.494446
 21
20.224701
  0
LINE
  8
0
 62
     3
 10
416.629272
 20
339.775330
 11
524.494446
 21
339.775330
  0
LINE
  8
0
 62
     3
 10
416.629272
 20
360.000092
 11
416.629272
 21
339.775330
  0
LINE
  8
0
 62
     3
 10
416.629272
 20
20.224701
 11
416.629272
 21
0.000000
  0
LINE
  8
0
 10
267.247284
 20
256.646820
 11
381.247253
 21
287.193024
  0
LINE
  8
0
 10
267.247162
 20
256.646790
 11
381.247223
 21
226.100555
  0
LINE
  8
0
 10
208.247223
 20
123.000046
 11
351.247253
 21
123.000046
  0
LINE
  8
0
 10
208.247223
 20
87.000046
 11
351.247253
 21
87.000046
  0
LINE
  8
0
 10
340.247223
 20
123.000061
 11
340.247223
 21
106.500046
  0
LINE
  8
0
 10
211.247223
 20
123.000046
 11
211.247223
 21
87.000046
  0
LINE
  8
0
  6
CENTER
 10
205.247223
 20
105.000046
 11
359.997223
 21
105.000046
  0
LINE
  8
0
  6
CENTER
 10
267.247223
 20
151.000000
 11
267.247223
 21
59.000046
  0
LINE
  8
0
  6
CENTER
 10
278.288971
 20
96.500046
 11
287.997223
 21
96.500046
  0
LINE
  8
0
  6
CENTER
 10
283.247223
 20
108.800049
 11
283.247223
 21
85.500061
  0
LINE
  8
0
 10
351.247223
 20
123.000061
 11
351.247223
 21
106.500046
  0
LINE
  8
0
 10
208.247223
 20
123.000046
 11
208.247223
 21
87.000046
  0
LINE
  8
0
  6
PHANTOM
 10
279.497223
 20
107.800049
 11
286.997223
 21
107.800049
  0
LINE
  8
0
  6
PHANTOM
 10
286.997223
 20
107.800049
 11
286.997223
 21
87.500061
  0
LINE
  8
0
  6
PHANTOM
 10
279.497223
 20
107.800049
 11
279.497223
 21
87.500061
  0
LINE
  8
0
  6
PHANTOM
 10
286.247223
 20
107.000046
 11
286.247223
 21
94.300079
  0
LINE
  8
0
  6
PHANTOM
 10
280.247223
 20
107.000046
 11
280.247223
 21
94.300079
  0
LINE
  8
0
  6
PHANTOM
 10
280.247223
 20
107.000046
 11
286.247223
 21
107.000046
  0
LINE
  8
0
  6
PHANTOM
 10
280.247223
 20
94.300079
 11
281.597229
 21
94.300079
  0
LINE
  8
0
  6
PHANTOM
 10
281.747223
 20
93.800079
 11
282.725189
 21
93.800079
  0
LINE
  8
0
  6
PHANTOM
 10
281.747223
 20
94.195190
 11
281.747223
 21
93.800079
  0
LINE
  8
0
  6
PHANTOM
 10
284.747223
 20
94.195190
 11
284.747223
 21
93.800079
  0
LINE
  8
0
  6
PHANTOM
 10
284.897217
 20
94.300079
 11
286.247223
 21
94.300079
  0
LINE
  8
0
  6
PHANTOM
 10
283.769226
 20
93.800079
 11
284.747223
 21
93.800079
  0
LINE
  8
0
  6
PHANTOM
 10
275.997223
 20
103.000046
 11
279.497223
 21
103.000046
  0
LINE
  8
0
  6
PHANTOM
 10
286.997223
 20
103.000046
 11
296.497223
 21
103.000046
  0
LINE
  8
0
  6
PHANTOM
 10
275.997223
 20
107.000046
 11
279.497223
 21
107.000046
  0
LINE
  8
0
  6
PHANTOM
 10
275.997223
 20
107.000046
 11
275.997223
 21
103.000046
  0
LINE
  8
0
  6
PHANTOM
 10
274.497223
 20
106.134010
 11
275.997223
 21
107.000038
  0
LINE
  8
0
  6
PHANTOM
 10
274.497223
 20
106.134033
 11
274.497223
 21
103.866074
  0
LINE
  8
0
  6
PHANTOM
 10
274.497192
 20
103.866066
 11
275.997192
 21
103.000038
  0
LINE
  8
0
  6
PHANTOM
 10
286.997223
 20
107.000046
 11
296.497223
 21
107.000046
  0
LINE
  8
0
  6
PHANTOM
 10
296.497223
 20
107.000046
 11
296.497223
 21
103.000046
  0
LINE
  8
0
  6
PHANTOM
 10
296.497223
 20
107.000015
 11
298.497253
 21
106.500008
  0
LINE
  8
0
  6
PHANTOM
 10
298.497223
 20
106.500046
 11
298.497223
 21
103.500046
  0
LINE
  8
0
  6
PHANTOM
 10
296.497253
 20
102.999954
 11
298.497253
 21
103.499954
  0
LINE
  8
0
  6
PHANTOM
 10
298.497223
 20
103.500046
 11
356.397217
 21
103.500046
  0
LINE
  8
0
  6
PHANTOM
 10
298.497223
 20
106.500046
 11
356.397217
 21
106.500046
  0
LINE
  8
0
  6
CENTER
 10
280.747223
 20
113.500046
 11
285.747223
 21
113.500046
  0
LINE
  8
0
  6
CENTER
 10
283.247223
 20
116.000046
 11
283.247223
 21
111.000046
  0
LINE
  8
0
  6
PHANTOM
 10
279.497223
 20
91.830185
 11
286.997223
 21
91.830185
  0
LINE
  8
0
  6
PHANTOM
 10
279.497223
 20
87.500061
 11
286.997223
 21
87.500061
  0
LINE
  8
0
  6
PHANTOM
 10
263.247223
 20
62.500149
 11
263.747223
 21
62.000149
  0
LINE
  8
0
 10
263.247192
 20
147.499969
 11
263.747192
 21
147.999985
  0
LINE
  8
0
 10
263.247223
 20
147.500046
 11
271.247223
 21
147.500046
  0
LINE
  8
0
 10
263.247223
 20
147.500046
 11
263.247223
 21
125.000046
  0
LINE
  8
0
 10
271.247192
 20
147.500061
 11
270.747192
 21
148.000061
  0
LINE
  8
0
 10
271.247223
 20
147.500046
 11
271.247223
 21
125.000046
  0
LINE
  8
0
 10
259.247223
 20
125.000046
 11
275.247223
 21
125.000046
  0
LINE
  8
0
 10
275.247223
 20
125.000061
 11
275.247223
 21
123.000046
  0
LINE
  8
0
 10
275.247223
 20
85.000046
 11
275.247223
 21
87.000046
  0
LINE
  8
0
 10
259.247223
 20
85.000046
 11
275.247223
 21
85.000046
  0
LINE
  8
0
 10
259.247223
 20
85.000046
 11
259.247223
 21
87.000046
  0
LINE
  8
0
  6
PHANTOM
 10
263.247223
 20
62.500046
 11
263.247223
 21
85.000046
  0
LINE
  8
0
  6
PHANTOM
 10
271.247223
 20
62.500046
 11
271.247223
 21
85.000046
  0
LINE
  8
0
  6
PHANTOM
 10
263.247223
 20
62.500046
 11
271.247223
 21
62.500046
  0
LINE
  8
0
  6
PHANTOM
 10
271.247192
 20
62.500034
 11
270.747192
 21
62.000046
  0
LINE
  8
0
  6
PHANTOM
 10
263.747223
 20
62.000046
 11
272.447205
 21
62.000046
  0
LINE
  8
0
 10
259.247223
 20
125.000046
 11
259.247223
 21
123.000046
  0
LINE
  8
0
 10
263.747192
 20
148.000000
 11
272.447205
 21
148.000000
  0
LINE
  8
0
 10
263.747223
 20
84.500046
 11
270.747223
 21
84.500046
  0
LINE
  8
0
 10
263.247223
 20
85.000069
 11
263.747253
 21
84.500061
  0
LINE
  8
0
 10
271.247162
 20
85.000069
 11
270.747162
 21
84.500069
  0
LINE
  8
0
 10
272.447205
 20
148.000000
 11
272.447205
 21
132.000000
  0
LINE
  8
0
 10
271.247223
 20
132.000000
 11
272.447205
 21
132.000000
  0
LINE
  8
0
  6
PHANTOM
 10
272.447205
 20
62.000046
 11
272.447205
 21
78.000046
  0
LINE
  8
0
  6
PHANTOM
 10
271.247223
 20
78.000046
 11
272.447205
 21
78.000046
  0
LINE
  8
0
 10
340.247223
 20
103.500046
 11
340.247223
 21
87.000046
  0
LINE
  8
0
 10
351.247223
 20
103.500046
 11
351.247223
 21
87.000046
  0
LINE
  8
0
  6
PHANTOM
 10
282.186615
 20
95.439377
 11
284.307922
 21
97.560677
  0
LINE
  8
0
  6
PHANTOM
 10
282.186615
 20
97.560715
 11
284.307922
 21
95.439423
  0
LINE
  8
0
 10
211.247223
 20
281.146912
 11
211.247223
 21
232.146912
  0
LINE
  8
0
 10
208.247223
 20
232.146912
 11
351.247223
 21
232.146912
  0
LINE
  8
0
 10
208.247223
 20
281.146912
 11
351.247223
 21
281.146912
  0
LINE
  8
0
 10
351.247253
 20
281.146912
 11
351.247253
 21
232.146912
  0
LINE
  8
0
 10
208.247223
 20
281.146912
 11
208.247223
 21
232.146912
  0
LINE
  8
0
  6
CENTER
 10
205.247223
 20
256.646912
 11
354.247253
 21
256.646912
  0
LINE
  8
0
  6
CENTER
 10
267.247223
 20
284.146912
 11
267.247223
 21
229.146912
  0
LINE
  8
0
  6
PHANTOM
 10
274.497223
 20
284.280884
 11
274.497223
 21
282.012939
  0
LINE
  8
0
  6
PHANTOM
 10
275.997223
 20
285.146912
 11
275.997223
 21
281.146912
  0
LINE
  8
0
  6
PHANTOM
 10
275.997223
 20
285.146912
 11
279.497223
 21
285.146912
  0
LINE
  8
0
  6
PHANTOM
 10
286.997223
 20
285.146912
 11
296.497223
 21
285.146912
  0
LINE
  8
0
  6
PHANTOM
 10
274.497253
 20
284.280975
 11
275.997223
 21
285.146973
  0
LINE
  8
0
  6
PHANTOM
 10
274.497253
 20
282.013000
 11
275.997253
 21
281.146973
  0
LINE
  8
0
  6
PHANTOM
 10
296.497223
 20
285.146912
 11
296.497223
 21
281.146912
  0
LINE
  8
0
  6
PHANTOM
 10
298.497223
 20
281.646912
 11
350.997223
 21
281.646912
  0
LINE
  8
0
  6
PHANTOM
 10
298.497223
 20
284.646912
 11
350.997223
 21
284.646912
  0
LINE
  8
0
  6
PHANTOM
 10
298.497223
 20
284.646912
 11
298.497223
 21
281.646912
  0
LINE
  8
0
  6
PHANTOM
 10
296.497284
 20
285.147217
 11
298.497284
 21
284.647217
  0
LINE
  8
0
  6
PHANTOM
 10
296.497192
 20
281.147156
 11
298.497192
 21
281.647156
  0
LINE
  8
0
  6
CENTER
 10
353.997223
 20
283.146912
 11
295.497223
 21
283.146912
  0
LINE
  8
0
  6
CENTER
 10
283.247223
 20
290.646912
 11
283.247223
 21
279.146912
  0
LINE
  8
0
  6
PHANTOM
 10
286.997223
 20
286.646912
 11
286.997223
 21
281.646912
  0
LINE
  8
0
  6
PHANTOM
 10
279.497223
 20
286.646912
 11
279.497223
 21
281.646912
  0
LINE
  8
0
  6
PHANTOM
 10
279.497223
 20
281.646912
 11
286.997223
 21
281.646912
  0
LINE
  8
0
  6
PHANTOM
 10
279.497223
 20
286.646912
 11
286.997223
 21
286.646912
  0
LINE
  8
0
  6
PHANTOM
 62
     3
 10
285.997223
 20
287.446564
 11
285.997223
 21
286.646912
  0
LINE
  8
0
  6
PHANTOM
 62
     3
 10
280.497223
 20
287.446564
 11
280.497223
 21
286.646912
  0
LINE
  8
0
  6
PHANTOM
 10
274.497223
 20
229.012939
 11
274.497223
 21
231.280884
  0
LINE
  8
0
  6
PHANTOM
 10
275.997223
 20
228.146912
 11
275.997223
 21
232.146912
  0
LINE
  8
0
  6
PHANTOM
 10
275.997223
 20
228.146912
 11
279.497223
 21
228.146912
  0
LINE
  8
0
  6
PHANTOM
 10
286.997223
 20
228.146912
 11
296.497223
 21
228.146912
  0
LINE
  8
0
  6
PHANTOM
 10
274.497345
 20
229.013077
 11
275.997345
 21
228.147049
  0
LINE
  8
0
  6
PHANTOM
 10
274.497284
 20
231.280807
 11
275.997284
 21
232.146820
  0
LINE
  8
0
  6
PHANTOM
 10
296.497223
 20
228.146912
 11
296.497223
 21
232.146912
  0
LINE
  8
0
  6
PHANTOM
 10
298.497223
 20
231.646912
 11
350.997223
 21
231.646912
  0
LINE
  8
0
  6
PHANTOM
 10
298.497223
 20
228.646912
 11
350.997223
 21
228.646912
  0
LINE
  8
0
  6
PHANTOM
 10
298.497223
 20
228.646912
 11
298.497223
 21
231.646912
  0
LINE
  8
0
  6
PHANTOM
 10
296.497223
 20
228.146912
 11
298.497223
 21
228.646912
  0
LINE
  8
0
  6
PHANTOM
 10
296.497223
 20
232.146927
 11
298.497223
 21
231.646927
  0
LINE
  8
0
  6
CENTER
 10
353.997223
 20
230.146912
 11
295.497223
 21
230.146912
  0
LINE
  8
0
  6
CENTER
 10
283.247223
 20
222.646912
 11
283.247223
 21
234.146912
  0
LINE
  8
0
  6
PHANTOM
 10
286.997223
 20
226.646912
 11
286.997223
 21
231.646912
  0
LINE
  8
0
  6
PHANTOM
 10
279.497223
 20
226.646912
 11
279.497223
 21
231.646912
  0
LINE
  8
0
  6
PHANTOM
 10
279.497223
 20
231.646912
 11
286.997223
 21
231.646912
  0
LINE
  8
0
  6
PHANTOM
 10
279.497223
 20
226.646912
 11
286.997223
 21
226.646912
  0
LINE
  8
0
  6
PHANTOM
 62
     3
 10
285.997223
 20
225.847260
 11
285.997223
 21
226.646912
  0
LINE
  8
0
  6
PHANTOM
 62
     3
 10
280.497223
 20
225.847260
 11
280.497223
 21
226.646912
  0
LINE
  8
0
 10
340.247192
 20
281.146881
 11
340.247192
 21
232.146881
  0
LINE
  8
0
  6
CENTER
 10
264.247223
 20
276.646912
 11
270.247223
 21
276.646912
  0
LINE
  8
0
  6
CENTER
 10
264.247223
 20
236.646912
 11
270.247223
 21
236.646912
  0
LINE
  8
0
  6
CENTER
 10
247.247223
 20
259.646912
 11
247.247223
 21
253.646912
  0
LINE
  8
0
  6
CENTER
 10
287.247223
 20
259.646912
 11
287.247223
 21
253.646912
  0
LINE
  8
0
  6
CENTER
 10
254.747223
 20
260.646912
 11
254.747223
 21
252.646912
  0
LINE
  8
0
  6
CENTER
 10
279.747223
 20
260.646912
 11
279.747223
 21
252.646912
  0
LINE
  8
0
  6
CENTER
 10
263.247223
 20
269.146912
 11
271.247223
 21
269.146912
  0
LINE
  8
0
  6
CENTER
 10
263.247223
 20
244.146912
 11
271.247223
 21
244.146912
  0
LINE
  8
0
 10
272.447205
 20
258.146912
 11
272.447205
 21
255.146912
  0
LINE
  8
0
 10
269.447205
 20
258.146912
 11
269.447205
 21
255.146912
  0
LINE
  8
0
 10
269.447205
 20
258.146912
 11
272.447205
 21
258.146912
  0
LINE
  8
0
 10
269.447205
 20
255.146912
 11
272.447205
 21
255.146912
  0
LINE
  8
0
 10
255.913940
 20
257.813660
 11
253.580490
 21
255.480209
  0
LINE
  8
0
 10
253.580521
 20
257.813660
 11
255.913956
 21
255.480225
  0
LINE
  8
0
 10
266.080505
 20
267.980072
 11
268.413940
 21
270.313507
  0
LINE
  8
0
 10
266.080505
 20
270.313599
 11
268.413940
 21
267.980133
  0
LINE
  8
0
 10
266.080475
 20
242.980209
 11
268.413940
 21
245.313660
  0
LINE
  8
0
 10
266.080536
 20
245.313690
 11
268.414001
 21
242.980240
  0
LINE
  8
0
 10
280.913971
 20
255.480255
 11
278.580536
 21
257.813690
  0
LINE
  8
0
 10
278.580475
 20
255.480225
 11
280.913940
 21
257.813660
  0
LINE
  8
0
 10
76.577194
 20
87.000046
 11
117.577179
 21
87.000046
  0
LINE
  8
0
 10
76.577225
 20
123.000046
 11
117.577209
 21
123.000046
  0
LINE
  8
0
 10
72.577194
 20
119.000061
 11
72.577194
 21
91.000061
  0
LINE
  8
0
 10
121.577194
 20
119.000031
 11
121.577194
 21
91.000031
  0
LINE
  8
0
  6
CENTER
 10
64.077194
 20
105.000046
 11
130.077194
 21
105.000046
  0
LINE
  8
0
  6
CENTER
 10
97.077194
 20
151.000000
 11
97.077194
 21
59.000046
  0
LINE
  8
0
  6
PHANTOM
 10
68.577194
 20
107.000061
 11
68.577194
 21
103.000061
  0
LINE
  8
0
  6
PHANTOM
 10
69.443176
 20
103.866074
 11
71.711182
 21
103.866074
  0
LINE
  8
0
  6
PHANTOM
 10
68.577179
 20
103.000046
 11
72.577179
 21
103.000046
  0
LINE
  8
0
  6
PHANTOM
 10
68.577179
 20
107.000046
 11
72.577179
 21
107.000046
  0
LINE
  8
0
  6
PHANTOM
 10
69.443176
 20
106.134018
 11
71.711182
 21
106.134018
  0
LINE
  8
0
  6
PHANTOM
 10
69.443161
 20
106.134033
 11
69.443161
 21
103.866089
  0
LINE
  8
0
  6
PHANTOM
 10
71.711166
 20
106.134033
 11
71.711166
 21
103.866089
  0
LINE
  8
0
  6
PHANTOM
 10
68.577446
 20
107.000381
 11
69.443443
 21
106.134354
  0
LINE
  8
0
  6
PHANTOM
 10
69.443237
 20
103.866028
 11
68.577240
 21
103.000000
  0
LINE
  8
0
  6
PHANTOM
 10
71.711136
 20
103.866173
 11
72.577141
 21
103.000145
  0
LINE
  8
0
  6
PHANTOM
 10
71.711395
 20
106.133842
 11
72.577393
 21
106.999863
  0
LINE
  8
0
  6
PHANTOM
 10
67.077194
 20
107.800049
 11
72.077194
 21
107.800049
  0
LINE
  8
0
  6
PHANTOM
 10
72.077194
 20
107.800064
 11
72.077194
 21
107.000061
  0
LINE
  8
0
  6
PHANTOM
 10
72.077194
 20
103.000061
 11
72.077194
 21
96.500061
  0
LINE
  8
0
  6
PHANTOM
 10
67.077194
 20
107.800064
 11
67.077194
 21
91.830215
  0
LINE
  8
0
  6
CENTER
 10
64.077194
 20
96.500046
 11
73.577194
 21
96.500046
  0
LINE
  8
0
  6
PHANTOM
 62
     3
 10
66.277542
 20
99.250046
 11
67.077194
 21
99.250046
  0
LINE
  8
0
  6
PHANTOM
 62
     3
 10
66.277542
 20
93.750046
 11
67.077194
 21
93.750046
  0
LINE
  8
0
  6
PHANTOM
 62
     1
 10
72.077194
 20
97.750046
 11
72.577194
 21
97.750046
  0
LINE
  8
0
  6
PHANTOM
 62
     1
 10
72.077194
 20
97.479553
 11
72.577194
 21
97.479553
  0
LINE
  8
0
  6
PHANTOM
 10
69.577194
 20
87.500046
 11
73.577179
 21
87.500046
  0
LINE
  8
0
  6
PHANTOM
 10
73.577194
 20
88.354340
 11
73.577194
 21
87.500076
  0
LINE
  8
0
  6
PHANTOM
 10
125.577209
 20
107.000031
 11
125.577209
 21
103.000031
  0
LINE
  8
0
  6
PHANTOM
 10
124.711212
 20
103.866074
 11
122.443207
 21
103.866074
  0
LINE
  8
0
  6
PHANTOM
 10
125.577209
 20
103.000046
 11
121.577209
 21
103.000046
  0
LINE
  8
0
  6
PHANTOM
 10
125.577209
 20
107.000046
 11
121.577209
 21
107.000046
  0
LINE
  8
0
  6
PHANTOM
 10
124.711212
 20
106.134018
 11
122.443207
 21
106.134018
  0
LINE
  8
0
  6
PHANTOM
 10
124.711212
 20
106.134003
 11
124.711212
 21
103.866058
  0
LINE
  8
0
  6
PHANTOM
 10
122.443207
 20
106.134003
 11
122.443207
 21
103.866058
  0
LINE
  8
0
  6
PHANTOM
 10
125.577087
 20
107.000160
 11
124.711090
 21
106.134148
  0
LINE
  8
0
  6
PHANTOM
 10
124.711174
 20
103.865982
 11
125.577164
 21
102.999962
  0
LINE
  8
0
  6
PHANTOM
 10
122.443192
 20
103.866127
 11
121.577164
 21
103.000084
  0
LINE
  8
0
  6
PHANTOM
 10
122.443214
 20
106.134041
 11
121.577225
 21
107.000053
  0
LINE
  8
0
  6
PHANTOM
 10
127.077194
 20
107.800049
 11
122.077194
 21
107.800049
  0
LINE
  8
0
  6
PHANTOM
 10
122.077194
 20
107.800034
 11
122.077194
 21
107.000031
  0
LINE
  8
0
  6
PHANTOM
 10
122.077194
 20
103.000031
 11
122.077194
 21
96.500031
  0
LINE
  8
0
  6
PHANTOM
 10
127.077194
 20
107.800034
 11
127.077194
 21
91.830170
  0
LINE
  8
0
  6
CENTER
 10
130.077194
 20
96.500046
 11
120.577194
 21
96.500046
  0
LINE
  8
0
  6
PHANTOM
 62
     3
 10
127.876846
 20
99.250046
 11
127.077194
 21
99.250046
  0
LINE
  8
0
  6
PHANTOM
 62
     3
 10
127.876846
 20
93.750046
 11
127.077194
 21
93.750046
  0
LINE
  8
0
  6
PHANTOM
 62
     1
 10
122.077194
 20
97.750046
 11
121.577194
 21
97.750046
  0
LINE
  8
0
  6
PHANTOM
 62
     1
 10
122.077194
 20
97.479553
 11
121.577194
 21
97.479553
  0
LINE
  8
0
  6
PHANTOM
 10
124.577179
 20
87.500046
 11
120.577179
 21
87.500046
  0
LINE
  8
0
  6
PHANTOM
 10
120.577194
 20
88.354309
 11
120.577194
 21
87.500046
  0
LINE
  8
0
  6
CENTER
 10
72.577209
 20
117.500046
 11
82.577209
 21
117.500046
  0
LINE
  8
0
  6
CENTER
 10
72.577179
 20
92.500046
 11
82.577179
 21
92.500046
  0
LINE
  8
0
  6
CENTER
 10
111.577179
 20
92.500046
 11
121.577179
 21
92.500046
  0
LINE
  8
0
  6
CENTER
 10
111.577209
 20
117.500046
 11
121.577209
 21
117.500046
  0
LINE
  8
0
  6
CENTER
 10
77.577194
 20
122.500061
 11
77.577194
 21
112.500061
  0
LINE
  8
0
  6
CENTER
 10
77.577194
 20
97.500061
 11
77.577194
 21
87.500061
  0
LINE
  8
0
  6
CENTER
 10
116.577194
 20
97.500031
 11
116.577194
 21
87.500031
  0
LINE
  8
0
  6
CENTER
 10
116.577194
 20
122.500031
 11
116.577194
 21
112.500031
  0
LINE
  8
0
  6
PHANTOM
 10
69.577278
 20
87.500137
 11
67.077278
 21
91.830261
  0
LINE
  8
0
  6
PHANTOM
 10
124.577202
 20
87.500038
 11
127.077202
 21
91.830162
  0
LINE
  8
0
  6
PHANTOM
 10
93.077164
 20
62.500046
 11
101.077164
 21
62.500046
  0
LINE
  8
0
 10
93.077232
 20
147.499939
 11
93.577232
 21
147.999939
  0
LINE
  8
0
 10
93.077225
 20
147.500046
 11
101.077225
 21
147.500046
  0
LINE
  8
0
 10
93.077194
 20
147.500046
 11
93.077194
 21
125.000046
  0
LINE
  8
0
 10
101.077225
 20
147.500046
 11
100.577225
 21
148.000046
  0
LINE
  8
0
 10
101.077194
 20
147.500046
 11
101.077194
 21
125.000046
  0
LINE
  8
0
 10
89.077209
 20
125.000046
 11
105.077209
 21
125.000046
  0
LINE
  8
0
 10
105.077194
 20
125.000053
 11
105.077194
 21
123.000038
  0
LINE
  8
0
 10
89.077194
 20
125.000053
 11
89.077194
 21
123.000053
  0
LINE
  8
0
 10
93.577194
 20
148.000000
 11
100.577271
 21
148.000000
  0
LINE
  8
0
  6
PHANTOM
 10
93.577164
 20
62.000046
 11
100.577164
 21
62.000046
  0
LINE
  8
0
 10
93.577194
 20
84.500046
 11
100.577179
 21
84.500046
  0
LINE
  8
0
 10
101.077202
 20
85.000038
 11
100.577187
 21
84.500023
  0
LINE
  8
0
  6
PHANTOM
 10
101.077171
 20
62.499981
 11
100.577187
 21
61.999992
  0
LINE
  8
0
 10
93.077225
 20
85.000084
 11
93.577232
 21
84.500092
  0
LINE
  8
0
  6
PHANTOM
 10
93.077209
 20
62.500164
 11
93.577209
 21
62.000168
  0
LINE
  8
0
 10
105.077194
 20
85.000038
 11
105.077194
 21
87.000038
  0
LINE
  8
0
 10
89.077179
 20
85.000046
 11
105.077179
 21
85.000046
  0
LINE
  8
0
 10
89.077194
 20
85.000053
 11
89.077194
 21
87.000053
  0
LINE
  8
0
  6
PHANTOM
 10
93.077194
 20
62.500046
 11
93.077194
 21
85.000046
  0
LINE
  8
0
  6
PHANTOM
 10
101.077194
 20
62.500046
 11
101.077194
 21
85.000046
  0
LINE
  8
0
 10
75.880035
 20
94.196976
 11
79.274101
 21
90.802910
  0
LINE
  8
0
 10
75.880081
 20
90.802994
 11
79.274261
 21
94.197174
  0
LINE
  8
0
 10
118.274338
 20
90.802971
 11
114.880150
 21
94.197151
  0
LINE
  8
0
 10
118.274292
 20
94.197006
 11
114.880219
 21
90.802933
  0
LINE
  8
0
 10
75.880066
 20
119.197159
 11
79.274261
 21
115.802963
  0
LINE
  8
0
 10
75.880096
 20
115.803040
 11
79.274178
 21
119.197121
  0
LINE
  8
0
 10
118.274323
 20
119.197113
 11
114.880142
 21
115.802933
  0
LINE
  8
0
 10
118.274338
 20
115.803055
 11
114.880264
 21
119.197128
  0
LINE
  8
0
 10
413.761963
 20
87.000046
 11
454.761963
 21
87.000046
  0
LINE
  8
0
 10
413.761963
 20
123.000046
 11
454.761963
 21
123.000046
  0
LINE
  8
0
 10
409.761963
 20
119.000046
 11
409.761963
 21
91.000046
  0
LINE
  8
0
 10
458.761963
 20
119.000046
 11
458.761963
 21
91.000046
  0
LINE
  8
0
  6
CENTER
 10
401.261963
 20
105.000046
 11
467.261963
 21
105.000046
  0
LINE
  8
0
  6
CENTER
 10
434.261963
 20
151.000000
 11
434.261963
 21
59.000046
  0
LINE
  8
0
  6
PHANTOM
 10
405.761963
 20
107.000046
 11
405.761963
 21
103.000046
  0
LINE
  8
0
  6
PHANTOM
 10
405.761963
 20
103.000046
 11
409.761963
 21
103.000046
  0
LINE
  8
0
  6
PHANTOM
 10
405.761963
 20
107.000046
 11
409.761963
 21
107.000046
  0
LINE
  8
0
  6
PHANTOM
 10
404.261963
 20
107.800049
 11
409.261963
 21
107.800049
  0
LINE
  8
0
  6
PHANTOM
 10
409.261963
 20
107.800049
 11
409.261963
 21
107.000046
  0
LINE
  8
0
  6
PHANTOM
 10
409.261963
 20
103.000046
 11
409.261963
 21
96.500046
  0
LINE
  8
0
  6
PHANTOM
 10
404.261963
 20
107.800049
 11
404.261963
 21
91.830200
  0
LINE
  8
0
  6
CENTER
 10
401.261963
 20
96.500046
 11
410.761963
 21
96.500046
  0
LINE
  8
0
  6
PHANTOM
 62
     3
 10
403.462311
 20
99.250046
 11
404.261963
 21
99.250046
  0
LINE
  8
0
  6
PHANTOM
 62
     3
 10
403.462311
 20
93.750046
 11
404.261963
 21
93.750046
  0
LINE
  8
0
  6
PHANTOM
 62
     1
 10
409.261963
 20
97.750046
 11
409.761963
 21
97.750046
  0
LINE
  8
0
  6
PHANTOM
 62
     1
 10
409.261963
 20
97.479553
 11
409.761963
 21
97.479553
  0
LINE
  8
0
  6
PHANTOM
 10
406.761963
 20
87.500046
 11
410.761963
 21
87.500046
  0
LINE
  8
0
  6
PHANTOM
 10
410.761963
 20
88.354324
 11
410.761963
 21
87.500061
  0
LINE
  8
0
  6
PHANTOM
 10
462.761963
 20
107.000046
 11
462.761963
 21
103.000046
  0
LINE
  8
0
  6
PHANTOM
 10
462.761963
 20
103.000046
 11
458.761963
 21
103.000046
  0
LINE
  8
0
  6
PHANTOM
 10
462.761963
 20
107.000046
 11
458.761963
 21
107.000046
  0
LINE
  8
0
  6
PHANTOM
 10
464.261963
 20
107.800049
 11
459.261963
 21
107.800049
  0
LINE
  8
0
  6
PHANTOM
 10
459.261963
 20
107.800049
 11
459.261963
 21
107.000046
  0
LINE
  8
0
  6
PHANTOM
 10
459.261963
 20
103.000046
 11
459.261963
 21
96.500046
  0
LINE
  8
0
  6
PHANTOM
 10
464.261963
 20
107.800049
 11
464.261963
 21
91.830185
  0
LINE
  8
0
  6
CENTER
 10
467.261963
 20
96.500046
 11
457.761963
 21
96.500046
  0
LINE
  8
0
  6
PHANTOM
 62
     3
 10
465.061615
 20
99.250046
 11
464.261963
 21
99.250046
  0
LINE
  8
0
  6
PHANTOM
 62
     3
 10
465.061615
 20
93.750046
 11
464.261963
 21
93.750046
  0
LINE
  8
0
  6
PHANTOM
 62
     1
 10
459.261963
 20
97.750046
 11
458.761963
 21
97.750046
  0
LINE
  8
0
  6
PHANTOM
 62
     1
 10
459.261963
 20
97.479553
 11
458.761963
 21
97.479553
  0
LINE
  8
0
  6
PHANTOM
 10
461.761963
 20
87.500046
 11
457.761963
 21
87.500046
  0
LINE
  8
0
  6
PHANTOM
 10
457.761963
 20
88.354324
 11
457.761963
 21
87.500061
  0
LINE
  8
0
  6
PHANTOM
 10
406.761963
 20
87.500023
 11
404.261963
 21
91.830154
  0
LINE
  8
0
  6
PHANTOM
 10
461.761902
 20
87.500084
 11
464.261902
 21
91.830208
  0
LINE
  8
0
  6
PHANTOM
 10
430.261963
 20
62.500046
 11
438.261963
 21
62.500046
  0
LINE
  8
0
 10
430.261902
 20
147.500000
 11
430.761902
 21
148.000000
  0
LINE
  8
0
 10
430.261963
 20
147.500046
 11
432.761963
 21
147.500046
  0
LINE
  8
0
 10
430.261963
 20
147.500046
 11
430.261963
 21
125.000046
  0
LINE
  8
0
 10
438.261932
 20
147.500031
 11
437.761932
 21
148.000015
  0
LINE
  8
0
 10
438.261963
 20
147.500046
 11
438.261963
 21
125.000046
  0
LINE
  8
0
 10
426.261963
 20
125.000046
 11
442.261963
 21
125.000046
  0
LINE
  8
0
 10
442.261963
 20
125.000061
 11
442.261963
 21
123.000046
  0
LINE
  8
0
 10
426.261963
 20
125.000046
 11
426.261963
 21
123.000046
  0
LINE
  8
0
 10
430.761932
 20
148.000000
 11
437.762024
 21
148.000000
  0
LINE
  8
0
  6
PHANTOM
 10
430.761963
 20
62.000046
 11
437.761963
 21
62.000046
  0
LINE
  8
0
 10
430.761963
 20
84.500046
 11
437.761963
 21
84.500046
  0
LINE
  8
0
 10
438.261841
 20
85.000092
 11
437.761871
 21
84.500099
  0
LINE
  8
0
  6
PHANTOM
 10
438.261871
 20
62.500099
 11
437.761871
 21
62.000111
  0
LINE
  8
0
 10
430.261932
 20
85.000061
 11
430.761932
 21
84.500061
  0
LINE
  8
0
  6
PHANTOM
 10
430.261963
 20
62.500069
 11
430.761932
 21
62.000080
  0
LINE
  8
0
 10
442.261963
 20
85.000046
 11
442.261963
 21
87.000046
  0
LINE
  8
0
 10
426.261963
 20
85.000046
 11
442.261963
 21
85.000046
  0
LINE
  8
0
 10
426.261963
 20
85.000046
 11
426.261963
 21
87.000046
  0
LINE
  8
0
  6
PHANTOM
 10
430.261963
 20
62.500046
 11
430.261963
 21
85.000046
  0
LINE
  8
0
  6
PHANTOM
 10
438.261963
 20
62.500046
 11
438.261963
 21
85.000046
  0
LINE
  8
0
  6
CENTER
 10
407.761963
 20
108.500046
 11
407.761963
 21
101.500046
  0
LINE
  8
0
  6
CENTER
 10
460.761963
 20
108.500046
 11
460.761963
 21
101.500046
  0
LINE
  8
0
  6
CENTER
 10
427.261963
 20
118.500046
 11
427.261963
 21
105.500046
  0
LINE
  8
0
  6
CENTER
 10
441.261963
 20
104.500046
 11
441.261963
 21
91.500046
  0
LINE
  8
0
  6
CENTER
 10
420.761963
 20
112.000046
 11
433.761963
 21
112.000046
  0
LINE
  8
0
  6
CENTER
 10
434.761963
 20
98.000046
 11
447.761963
 21
98.000046
  0
LINE
  8
0
 62
     3
 10
413.261963
 20
118.366074
 11
413.261963
 21
116.634033
  0
LINE
  8
0
 62
     3
 10
416.261963
 20
118.366074
 11
416.261963
 21
116.634033
  0
LINE
  8
0
 62
     3
 10
413.261963
 20
118.366013
 11
414.761963
 21
119.232040
  0
LINE
  8
0
 62
     3
 10
414.761963
 20
115.767937
 11
416.261963
 21
116.633965
  0
LINE
  8
0
 62
     3
 10
414.762024
 20
119.232086
 11
416.262024
 21
118.366058
  0
LINE
  8
0
 62
     3
 10
413.261993
 20
116.634026
 11
414.761993
 21
115.767998
  0
LINE
  8
0
 62
     3
 10
413.261963
 20
93.366074
 11
413.261963
 21
91.634033
  0
LINE
  8
0
 62
     3
 10
416.261963
 20
93.366074
 11
416.261963
 21
91.634033
  0
LINE
  8
0
 62
     3
 10
413.262024
 20
93.366066
 11
414.762054
 21
94.232094
  0
LINE
  8
0
 62
     3
 10
414.761993
 20
90.767944
 11
416.261993
 21
91.633972
  0
LINE
  8
0
 62
     3
 10
414.761993
 20
94.232101
 11
416.262024
 21
93.366074
  0
LINE
  8
0
 62
     3
 10
413.261993
 20
91.634026
 11
414.762024
 21
90.767998
  0
LINE
  8
0
 62
     3
 10
452.261963
 20
93.366074
 11
452.261963
 21
91.634033
  0
LINE
  8
0
 62
     3
 10
455.261963
 20
93.366074
 11
455.261963
 21
91.634033
  0
LINE
  8
0
 62
     3
 10
452.261993
 20
93.366043
 11
453.761993
 21
94.232071
  0
LINE
  8
0
 62
     3
 10
453.762024
 20
90.767914
 11
455.262024
 21
91.633942
  0
LINE
  8
0
 62
     3
 10
453.761993
 20
94.232117
 11
455.261993
 21
93.366089
  0
LINE
  8
0
 62
     3
 10
452.261993
 20
91.634026
 11
453.762024
 21
90.767998
  0
LINE
  8
0
 62
     3
 10
452.261963
 20
118.366074
 11
452.261963
 21
116.634033
  0
LINE
  8
0
 62
     3
 10
455.261963
 20
118.366074
 11
455.261963
 21
116.634033
  0
LINE
  8
0
 62
     3
 10
452.261993
 20
118.366035
 11
453.761993
 21
119.232063
  0
LINE
  8
0
 62
     3
 10
453.762024
 20
115.767967
 11
455.262024
 21
116.633995
  0
LINE
  8
0
 62
     3
 10
453.761993
 20
119.232101
 11
455.262024
 21
118.366074
  0
LINE
  8
0
 62
     3
 10
452.261993
 20
116.634026
 11
453.762024
 21
115.767998
  0
LINE
  8
0
  6
CENTER
 10
410.261963
 20
117.500046
 11
419.261963
 21
117.500046
  0
LINE
  8
0
  6
CENTER
 10
449.261963
 20
117.500046
 11
458.261963
 21
117.500046
  0
LINE
  8
0
  6
CENTER
 10
449.261963
 20
92.500046
 11
458.261963
 21
92.500046
  0
LINE
  8
0
  6
CENTER
 10
410.261963
 20
92.500046
 11
419.261963
 21
92.500046
  0
LINE
  8
0
  6
CENTER
 10
414.761963
 20
97.000046
 11
414.761963
 21
88.000046
  0
LINE
  8
0
  6
CENTER
 10
414.761963
 20
122.000046
 11
414.761963
 21
113.000046
  0
LINE
  8
0
  6
CENTER
 10
453.761963
 20
122.000046
 11
453.761963
 21
113.000046
  0
LINE
  8
0
  6
CENTER
 10
453.761963
 20
97.000046
 11
453.761963
 21
88.000046
  0
LINE
  8
0
 10
432.761963
 20
132.000000
 11
435.761963
 21
132.000000
  0
LINE
  8
0
 10
432.761963
 20
148.000000
 11
432.761963
 21
132.000000
  0
LINE
  8
0
 10
435.761963
 20
148.000000
 11
435.761963
 21
132.000000
  0
LINE
  8
0
 10
435.761963
 20
147.500046
 11
438.261963
 21
147.500046
  0
LINE
  8
0
  6
PHANTOM
 10
432.761963
 20
62.000092
 11
432.761963
 21
78.000092
  0
LINE
  8
0
  6
PHANTOM
 10
435.761963
 20
62.000092
 11
435.761963
 21
78.000092
  0
LINE
  8
0
  6
PHANTOM
 10
432.761963
 20
78.000092
 11
435.761963
 21
78.000092
  0
CIRCLE
  8
0
 10
283.247223
 20
113.500046
 40
1.500000
  0
CIRCLE
  8
0
 10
283.247223
 20
113.500046
 40
1.229500
  0
CIRCLE
  8
0
  6
PHANTOM
 62
     3
 10
283.247223
 20
96.500076
 40
2.750000
  0
ARC
  8
0
  6
PHANTOM
 10
355.735779
 20
105.750046
 40
1.000000
 50
311.409637
 51
48.590370
  0
ARC
  8
0
  6
PHANTOM
 10
357.058655
 20
104.250046
 40
1.000000
 50
131.409622
 51
228.590378
  0
ARC
  8
0
  6
PHANTOM
 10
355.735779
 20
104.250046
 40
1.000000
 50
311.409637
 51
48.590370
  0
CIRCLE
  8
0
 10
267.247223
 20
256.646912
 40
8.000000
  0
CIRCLE
  8
0
 62
     3
 10
267.247223
 20
244.146912
 40
3.000000
  0
CIRCLE
  8
0
 62
     3
 10
267.247223
 20
269.146912
 40
3.000000
  0
CIRCLE
  8
0
 62
     3
 10
254.747223
 20
256.646912
 40
3.000000
  0
CIRCLE
  8
0
 62
     3
 10
279.747223
 20
256.646912
 40
3.000000
  0
ARC
  8
0
 10
267.247223
 20
256.646912
 40
4.000000
 50
22.024313
 51
337.975677
  0
ARC
  8
0
  6
PHANTOM
 10
350.335785
 20
282.396912
 40
1.000000
 50
311.409637
 51
48.590370
  0
ARC
  8
0
  6
PHANTOM
 10
350.335785
 20
283.896912
 40
1.000000
 50
311.409637
 51
48.590370
  0
ARC
  8
0
  6
PHANTOM
 10
351.658661
 20
283.896912
 40
1.000000
 50
131.409622
 51
228.590378
  0
ARC
  8
0
  6
PHANTOM
 62
     3
 10
283.247223
 20
283.646912
 40
5.000006
 50
61.264477
 51
118.735214
  0
ARC
  8
0
  6
PHANTOM
 62
     3
 10
285.330505
 20
287.446533
 40
0.666687
 50
0.000000
 51
61.264580
  0
ARC
  8
0
  6
PHANTOM
 62
     3
 10
281.163910
 20
287.446533
 40
0.666699
 50
118.735420
 51
180.000000
  0
ARC
  8
0
  6
PHANTOM
 62
     3
 10
281.163910
 20
225.847260
 40
0.666687
 50
180.000000
 51
241.264587
  0
ARC
  8
0
  6
PHANTOM
 10
350.335785
 20
229.396912
 40
1.000000
 50
311.409637
 51
48.590370
  0
ARC
  8
0
  6
PHANTOM
 10
350.335785
 20
230.896912
 40
1.000000
 50
311.409637
 51
48.590370
  0
ARC
  8
0
  6
PHANTOM
 10
351.658661
 20
230.896912
 40
1.000000
 50
131.409622
 51
228.590378
  0
ARC
  8
0
  6
PHANTOM
 62
     3
 10
283.247223
 20
229.646912
 40
5.000006
 50
241.264481
 51
298.735229
  0
ARC
  8
0
  6
PHANTOM
 62
     3
 10
285.330505
 20
225.847260
 40
0.666699
 50
298.735413
 51
0.000000
  0
CIRCLE
  8
0
 10
267.247223
 20
256.646912
 40
17.000000
  0
CIRCLE
  8
0
 10
247.247223
 20
256.646912
 40
2.000000
  0
CIRCLE
  8
0
 10
267.247223
 20
236.646912
 40
2.000000
  0
CIRCLE
  8
0
 10
287.247223
 20
256.646912
 40
2.000000
  0
CIRCLE
  8
0
 10
267.247223
 20
276.646912
 40
2.000000
  0
CIRCLE
  8
0
 10
247.247223
 20
256.646912
 40
1.620999
  0
CIRCLE
  8
0
 10
267.247223
 20
236.646912
 40
1.620999
  0
CIRCLE
  8
0
 10
287.247223
 20
256.646912
 40
1.620999
  0
CIRCLE
  8
0
 10
267.247223
 20
276.646912
 40
1.620999
  0
ARC
  8
0
 10
267.247192
 20
256.646912
 40
3.500013
 50
25.376829
 51
334.623169
  0
ARC
  8
0
  6
PHANTOM
 62
     3
 10
66.277512
 20
94.416763
 40
0.666699
 50
208.735413
 51
270.000000
  0
CIRCLE
  8
0
 62
     3
 10
77.577209
 20
117.500061
 40
4.000000
  0
CIRCLE
  8
0
 62
     3
 10
77.577179
 20
92.500061
 40
4.000000
  0
CIRCLE
  8
0
 62
     3
 10
116.577179
 20
92.500031
 40
4.000000
  0
CIRCLE
  8
0
 62
     3
 10
116.577209
 20
117.500031
 40
4.000000
  0
ARC
  8
0
 10
76.577209
 20
119.000061
 40
4.000000
 50
90.000000
 51
180.000000
  0
ARC
  8
0
  6
PHANTOM
 62
     3
 10
127.876846
 20
98.583328
 40
0.666699
 50
28.735418
 51
90.000000
  0
ARC
  8
0
  6
PHANTOM
 62
     3
 10
127.876846
 20
94.416733
 40
0.666702
 50
270.000000
 51
331.264587
  0
ARC
  8
0
 10
117.577209
 20
119.000031
 40
4.000000
 50
0.000000
 51
90.000000
  0
ARC
  8
0
 10
117.577179
 20
91.000031
 40
4.000000
 50
270.000000
 51
0.000000
  0
ARC
  8
0
 10
76.577179
 20
91.000061
 40
4.000000
 50
180.000000
 51
270.000000
  0
ARC
  8
0
  6
PHANTOM
 62
     3
 10
124.077194
 20
96.500031
 40
4.999999
 50
331.264618
 51
28.735369
  0
ARC
  8
0
  6
PHANTOM
 62
     3
 10
70.077194
 20
96.500061
 40
4.999999
 50
151.264633
 51
208.735367
  0
ARC
  8
0
  6
PHANTOM
 62
     3
 10
66.277512
 20
98.583359
 40
0.666702
 50
90.000000
 51
151.264587
  0
ARC
  8
0
 10
434.261963
 20
132.000000
 40
1.500000
 50
180.000000
 51
0.000000
  0
ARC
  8
0
  6
PHANTOM
 10
434.261963
 20
78.000092
 40
1.500000
 50
0.000000
 51
180.000000
  0
CIRCLE
  8
0
 62
     3
 10
453.761963
 20
117.500046
 40
2.980385
  0
ARC
  8
0
 10
413.761963
 20
119.000046
 40
4.000000
 50
90.000000
 51
180.000000
  0
ARC
  8
0
  6
PHANTOM
 62
     3
 10
465.061615
 20
98.583344
 40
0.666699
 50
28.735418
 51
90.000000
  0
ARC
  8
0
  6
PHANTOM
 62
     3
 10
465.061615
 20
94.416748
 40
0.666702
 50
270.000000
 51
331.264587
  0
ARC
  8
0
 10
454.761963
 20
119.000046
 40
4.000000
 50
0.000000
 51
90.000000
  0
ARC
  8
0
 10
454.761963
 20
91.000046
 40
4.000000
 50
270.000000
 51
0.000000
  0
ARC
  8
0
 10
413.761963
 20
91.000046
 40
4.000000
 50
180.000000
 51
270.000000
  0
ARC
  8
0
  6
PHANTOM
 62
     3
 10
461.261963
 20
96.500046
 40
4.999999
 50
331.264618
 51
28.735369
  0
ARC
  8
0
  6
PHANTOM
 62
     3
 10
407.261963
 20
96.500046
 40
4.999999
 50
151.264633
 51
208.735367
  0
ARC
  8
0
  6
PHANTOM
 62
     3
 10
403.462280
 20
98.583344
 40
0.666702
 50
90.000000
 51
151.264587
  0
ARC
  8
0
  6
PHANTOM
 62
     3
 10
403.462280
 20
94.416748
 40
0.666699
 50
208.735413
 51
270.000000
  0
CIRCLE
  8
0
  6
PHANTOM
 10
407.761963
 20
105.000046
 40
1.500000
  0
CIRCLE
  8
0
  6
PHANTOM
 10
460.761963
 20
105.000046
 40
1.500000
  0
CIRCLE
  8
0
 10
427.261963
 20
112.000046
 40
4.863999
  0
CIRCLE
  8
0
 10
441.261963
 20
98.000046
 40
4.863999
  0
CIRCLE
  8
0
 10
427.261963
 20
112.000046
 40
4.283000
  0
CIRCLE
  8
0
 10
441.261963
 20
98.000046
 40
4.283000
  0
CIRCLE
  8
0
 62
     3
 10
414.761963
 20
117.500046
 40
3.500000
  0
CIRCLE
  8
0
 62
     3
 10
414.761963
 20
117.500046
 40
2.980385
  0
CIRCLE
  8
0
 62
     3
 10
414.761963
 20
92.500046
 40
3.500000
  0
CIRCLE
  8
0
 62
     3
 10
414.761963
 20
92.500046
 40
2.980385
  0
CIRCLE
  8
0
 62
     3
 10
453.761963
 20
92.500046
 40
3.500000
  0
CIRCLE
  8
0
 62
     3
 10
453.761963
 20
92.500046
 40
2.980385
  0
CIRCLE
  8
0
 62
     3
 10
453.761963
 20
117.500046
 40
3.500000
  0
TEXT
  8
0
 10
422.460297
 20
345.487762
 40
6.000000
  1
DATE : MAR ,1992
 50
0.000000
 41
1.052631
 51
0.000000
  7
STANDARD
  0
TEXT
  8
0
 10
35.750000
 20
294.475342
 40
7.000000
  1
MODEL : RAPS10-360
 50
0.000000
 41
1.052632
 51
0.000000
  7
STANDARD
  0
TEXT
  8
0
 10
2.364407
 20
344.587708
 40
7.000000
  1
ROTARY ACUTUATOR
 50
0.000000
 41
0.956938
 51
0.000000
  7
STANDARD
  0
TEXT
  8
0
 10
368.900299
 20
240.760696
 40
5.000000
  1
〃
 50
90.000000
 41
0.833333
 51
0.000000
  7
STANDARD
  0
TEXT
  8
0
 10
368.900299
 20
266.604919
 40
5.000000
  1
〃
 50
90.000000
 41
0.833333
 51
0.000000
  7
STANDARD
  0
TEXT
  8
0
 10
378.747253
 20
253.682602
 40
5.000000
  1
D
 50
90.000000
 41
1.052632
 51
0.000000
  7
STANDARD
  0
TEXT
  8
0
 10
427.811859
 20
4.812350
 40
7.000000
  1
KOGANEI,CORP
 50
0.000000
 41
1.052632
 51
0.000000
  7
STANDARD
  0
LINE
  8
0
 10
443.693939
 20
93.787674
 11
467.820038
 21
52.000061
  0
LINE
  8
0
 10
467.820038
 20
52.000061
 11
505.255951
 21
52.000050
  0
LINE
  8
0
 10
443.693939
 20
93.787674
 11
444.470398
 21
90.889900
  0
LINE
  8
0
 10
443.693939
 20
93.787674
 11
445.815247
 21
91.666351
  0
TEXT
  8
0
 10
469.077393
 20
53.000050
 40
5.000000
  1
2-Rc1/8
 50
0.000000
 41
1.052632
 51
0.000000
  7
STANDARD
  0
TEXT
  8
0
 10
364.902832
 20
281.009033
 40
3.200000
  1
       
 50
277.500000
 41
1.052632
 51
0.000000
  7
STANDARD
  0
ARC
  8
0
 10
267.247528
 20
256.646912
 40
98.999725
 50
0.000000
 51
14.999999
  0
LINE
  8
0
 10
366.247253
 20
256.646912
 11
365.427032
 21
259.532501
  0
LINE
  8
0
 10
366.247253
 20
256.646912
 11
366.979706
 21
259.556000
  0
LINE
  8
0
 10
362.873932
 20
282.269928
 11
364.334351
 21
279.649536
  0
LINE
  8
0
 10
362.873932
 20
282.269928
 11
362.828491
 21
279.270386
  0
LINE
  8
0
 10
354.247253
 20
256.646912
 11
368.533264
 21
256.646912
  0
LINE
  8
0
 10
381.247253
 20
287.193085
 11
360.665833
 21
281.678314
  0
TEXT
  8
0
 10
380.247253
 20
241.182602
 40
5.000000
  1
　　　
 50
90.000000
 41
0.833333
 51
0.000000
  7
STANDARD
  0
ARC
  8
0
 10
267.247192
 20
256.646851
 40
114.000053
 50
345.000000
 51
15.000008
  0
LINE
  8
0
 10
377.362793
 20
227.141479
 11
377.323334
 21
230.141144
  0
LINE
  8
0
 10
377.362793
 20
227.141479
 11
378.828461
 21
229.759003
  0
LINE
  8
0
 10
377.362793
 20
286.152252
 11
378.828430
 21
283.534760
  0
LINE
  8
0
 10
377.362793
 20
286.152252
 11
377.323334
 21
283.152588
  0
LINE
  8
0
 10
333.517029
 20
238.889877
 11
379.570831
 21
226.549744
  0
LINE
  8
0
 10
333.483856
 20
274.394867
 11
379.570923
 21
286.743866
  0
TEXT
  8
0
 10
363.128754
 20
234.132050
 40
3.200000
  1
　　　
 50
82.500000
 41
0.833333
 51
0.000000
  7
STANDARD
  0
ARC
  8
0
 10
267.246887
 20
256.646912
 40
99.000374
 50
345.000000
 51
0.000000
  0
LINE
  8
0
 10
362.873901
 20
231.023727
 11
362.828430
 21
234.023239
  0
LINE
  8
0
 10
362.873901
 20
231.023727
 11
364.334290
 21
233.644104
  0
LINE
  8
0
 10
366.247253
 20
256.646912
 11
366.979706
 21
253.737808
  0
LINE
  8
0
 10
366.247253
 20
256.646912
 11
365.427032
 21
253.761337
  0
LINE
  8
0
 10
381.247253
 20
226.100662
 11
360.665833
 21
231.615448
  0
LINE
  8
0
 10
354.247253
 20
256.646912
 11
368.533264
 21
256.646912
  0
ENDSEC
  0
EOF
