  0
SECTION
  2
HEADER
  0
ENDSEC
  0
SECTION
  2
TABLES
  0
TABLE
  2
LTYPE
 70
     4
  0
LTYPE
  2
CONTINUOUS
 70
    64
  3
Solid line
 72
    65
 73
     0
 40
0.000000
  0
LTYPE
  2
DASHED
 70
    64
  3
__ __ __ __ __ __ __ __ __ __ __ __ __ __ __
 72
    65
 73
     2
 40
3.500000
 49
2.000000
 49
-1.500000
  0
LTYPE
  2
CENTER
 70
    64
  3
____ _ ____ _ ____ _ ____ _ ____ _ ____ _ ____
 72
    65
 73
     4
 40
17.500000
 49
13.000000
 49
-1.500000
 49
1.500000
 49
-1.500000
  0
LTYPE
  2
PHANTOM
 70
    64
  3
_____ _ _ _____ _ _ _____ _ _ _____ _ _ ____  
 72
    65
 73
     6
 40
15.500000
 49
8.000000
 49
-1.500000
 49
1.500000
 49
-1.500000
 49
1.500000
 49
-1.500000
  0
LTYPE
  2
DASHED1
 70
    64
  3
__ __ __ __ __ __ __ __ __ __ __ __ __ __ __
 72
    65
 73
     2
 40
1.500000
 49
1.000000
 49
-0.500000
  0
LTYPE
  2
DASHED2
 70
    64
  3
__ __ __ __ __ __ __ __ __ __ __ __ __ __ __
 72
    65
 73
     2
 40
3.500000
 49
2.500000
 49
-1.000000
  0
LTYPE
  2
DASHED3
 70
    64
  3
__ __ __ __ __ __ __ __ __ __ __ __ __ __ __
 72
    65
 73
     2
 40
6.000000
 49
4.000000
 49
-2.000000
  0
LTYPE
  2
DASHED4
 70
    64
  3
__ __ __ __ __ __ __ __ __ __ __ __ __ __ __
 72
    65
 73
     2
 40
12.000000
 49
10.000000
 49
-2.000000
  0
LTYPE
  2
DASHED5
 70
    64
  3
__ __ __ __ __ __ __ __ __ __ __ __ __ __ __
 72
    65
 73
     2
 40
17.000000
 49
15.000000
 49
-2.000000
  0
LTYPE
  2
DASHED6
 70
    64
  3
__ __ __ __ __ __ __ __ __ __ __ __ __ __ __
 72
    65
 73
     2
 40
29.000000
 49
27.000000
 49
-2.000000
  0
LTYPE
  2
PHANTOM1
 70
    64
  3
_____ _ _ _____ _ _ _____ _ _ _____ _ _ ____  
 72
    65
 73
     6
 40
31.000000
 49
25.000000
 49
-1.500000
 49
1.000000
 49
-1.000000
 49
1.000000
 49
-1.500000
  0
LTYPE
  2
PHANTOM2
 70
    64
  3
_____ _ _ _____ _ _ _____ _ _ _____ _ _ ____  
 72
    65
 73
     6
 40
36.000000
 49
27.000000
 49
-1.500000
 49
2.500000
 49
-1.000000
 49
2.500000
 49
-1.500000
  0
LTYPE
  2
PHANTOM3
 70
    64
  3
_____ _ _ _____ _ _ _____ _ _ _____ _ _ ____  
 72
    65
 73
     6
 40
78.000000
 49
64.000000
 49
-2.000000
 49
4.000000
 49
-2.000000
 49
4.000000
 49
-2.000000
  0
LTYPE
  2
CENTER1
 70
    64
  3
____ _ ____ _ ____ _ ____ _ ____ _ ____ _ ____
 72
    65
 73
     4
 40
19.000000
 49
14.000000
 49
-1.000000
 49
3.000000
 49
-1.000000
  0
LTYPE
  2
CENTER2
 70
    64
  3
____ _ ____ _ ____ _ ____ _ ____ _ ____ _ ____
 72
    65
 73
     4
 40
28.500000
 49
25.000000
 49
-1.000000
 49
1.500000
 49
-1.000000
  0
LTYPE
  2
CENTER3
 70
    64
  3
____ _ ____ _ ____ _ ____ _ ____ _ ____ _ ____
 72
    65
 73
     4
 40
31.500000
 49
27.000000
 49
-1.000000
 49
2.500000
 49
-1.000000
  0
LTYPE
  2
CENTER4
 70
    64
  3
____ _ ____ _ ____ _ ____ _ ____ _ ____ _ ____
 72
    65
 73
     4
 40
50.000000
 49
45.000000
 49
-1.000000
 49
3.000000
 49
-1.000000
  0
LTYPE
  2
CENTER5
 70
    64
  3
____ _ ____ _ ____ _ ____ _ ____ _ ____ _ ____
 72
    65
 73
     4
 40
100.000000
 49
92.000000
 49
-2.000000
 49
4.000000
 49
-2.000000
  0
LTYPE
  2
SBK1
 70
    64
  3
______ _ _ _ ______ _ _ _ ______ _ _ _ _____  
 72
    65
 73
     8
 40
60.500000
 49
45.000000
 49
-2.000000
 49
2.500000
 49
-2.000000
 49
2.500000
 49
-2.000000
 49
2.500000
 49
-2.000000
  0
LTYPE
  2
SBK2
 70
    64
  3
______ _ _ _ ______ _ _ _ ______ _ _ _ _____  
 72
    65
 73
     8
 40
84.000000
 49
64.000000
 49
-2.000000
 49
4.000000
 49
-2.000000
 49
4.000000
 49
-2.000000
 49
4.000000
 49
-2.000000
  0
LTYPE
  2
STCH
 70
    64
  3
__ __ __ __ __ __ __ __ __ __ __ __ __ __ __
 72
    65
 73
     2
 40
3.000000
 49
1.000000
 49
-2.000000
  0
LTYPE
  2
MTCH
 70
    64
  3
_____ _ _ _____ _ _ _____ _ _ _____ _ _ ____  
 72
    65
 73
     6
 40
80.000000
 49
66.000000
 49
-2.000000
 49
4.000000
 49
-2.000000
 49
4.000000
 49
-2.000000
  0
ENDTAB
  0
TABLE
  2
LAYER
 70
     1
  0
LAYER
  2
0
 70
     0
 62
     7
  6
CONTINUOUS
  0
ENDTAB
  0
TABLE
  2
STYLE
 70
     1
  0
STYLE
  2
STANDARD
 70
     0
 40
0.000000
 41
1.000000
 50
0.000000
 71
     0
 42
0.200000
  3
txt
  4
BIGFONT
  0
ENDTAB
  0
TABLE
  2
VIEW
 70
     0
  0
ENDTAB
  0
ENDSEC
  0
SECTION
  2
BLOCKS
  0
ENDSEC
  0
SECTION
  2
ENTITIES
  0
POINT
  8
0
 10
257.247223
 20
105.000046
  0
POINT
  8
0
 10
303.747223
 20
105.000046
  0
POINT
  8
0
 10
257.247223
 20
256.646912
  0
POINT
  8
0
 10
303.747253
 20
256.646912
  0
POINT
  8
0
 10
97.077225
 20
105.000061
  0
POINT
  8
0
 10
121.577225
 20
105.000061
  0
POINT
  8
0
 10
419.261963
 20
105.000046
  0
POINT
  8
0
 10
443.761963
 20
105.000046
  0
LINE
  8
0
 62
     3
 10
0.000000
 20
0.000000
 11
0.000000
 21
360.000092
  0
LINE
  8
0
 62
     3
 10
524.494446
 20
360.000092
 11
524.494446
 21
0.000000
  0
LINE
  8
0
 62
     3
 10
0.000000
 20
0.000000
 11
524.494446
 21
0.000000
  0
LINE
  8
0
 62
     3
 10
0.000000
 20
360.000092
 11
524.494446
 21
360.000092
  0
LINE
  8
0
 62
     3
 10
0.000000
 20
339.775330
 11
107.865173
 21
339.775330
  0
LINE
  8
0
 62
     3
 10
107.865173
 20
339.775330
 11
107.865173
 21
360.000092
  0
LINE
  8
0
 62
     3
 10
416.629272
 20
20.224701
 11
524.494446
 21
20.224701
  0
LINE
  8
0
 62
     3
 10
416.629272
 20
339.775330
 11
524.494446
 21
339.775330
  0
LINE
  8
0
 62
     3
 10
416.629272
 20
360.000092
 11
416.629272
 21
339.775330
  0
LINE
  8
0
 62
     3
 10
416.629272
 20
20.224701
 11
416.629272
 21
0.000000
  0
LINE
  8
0
 10
257.247253
 20
256.646820
 11
333.747253
 21
277.144928
  0
LINE
  8
0
 10
257.247192
 20
256.646790
 11
333.747223
 21
236.148682
  0
LINE
  8
0
 10
230.747223
 20
123.000046
 11
303.747223
 21
123.000046
  0
LINE
  8
0
 10
230.747223
 20
87.000046
 11
303.747223
 21
87.000046
  0
LINE
  8
0
 10
292.747223
 20
123.000061
 11
292.747223
 21
106.500046
  0
LINE
  8
0
 10
233.747223
 20
123.000046
 11
233.747223
 21
87.000046
  0
LINE
  8
0
  6
CENTER
 10
227.747223
 20
105.000046
 11
312.497223
 21
105.000046
  0
LINE
  8
0
  6
CENTER
 10
257.247223
 20
151.000000
 11
257.247223
 21
59.000046
  0
LINE
  8
0
  6
CENTER
 10
268.288971
 20
96.500046
 11
277.997223
 21
96.500046
  0
LINE
  8
0
  6
CENTER
 10
273.247223
 20
108.800049
 11
273.247223
 21
85.500061
  0
LINE
  8
0
 10
303.747223
 20
123.000061
 11
303.747223
 21
106.500046
  0
LINE
  8
0
 10
230.747223
 20
123.000046
 11
230.747223
 21
87.000046
  0
LINE
  8
0
  6
PHANTOM
 10
269.497223
 20
107.800049
 11
276.997223
 21
107.800049
  0
LINE
  8
0
  6
PHANTOM
 10
276.997223
 20
107.800049
 11
276.997223
 21
87.500061
  0
LINE
  8
0
  6
PHANTOM
 10
269.497223
 20
107.800049
 11
269.497223
 21
87.500061
  0
LINE
  8
0
  6
PHANTOM
 10
276.247223
 20
107.000046
 11
276.247223
 21
94.300079
  0
LINE
  8
0
  6
PHANTOM
 10
270.247223
 20
107.000046
 11
270.247223
 21
94.300079
  0
LINE
  8
0
  6
PHANTOM
 10
270.247223
 20
107.000046
 11
276.247223
 21
107.000046
  0
LINE
  8
0
  6
PHANTOM
 10
270.247223
 20
94.300079
 11
271.597229
 21
94.300079
  0
LINE
  8
0
  6
PHANTOM
 10
271.747223
 20
93.800079
 11
272.725189
 21
93.800079
  0
LINE
  8
0
  6
PHANTOM
 10
271.747223
 20
94.195190
 11
271.747223
 21
93.800079
  0
LINE
  8
0
  6
PHANTOM
 10
274.747223
 20
94.195190
 11
274.747223
 21
93.800079
  0
LINE
  8
0
  6
PHANTOM
 10
274.897217
 20
94.300079
 11
276.247223
 21
94.300079
  0
LINE
  8
0
  6
PHANTOM
 10
273.769226
 20
93.800079
 11
274.747223
 21
93.800079
  0
LINE
  8
0
  6
PHANTOM
 10
265.997223
 20
103.000046
 11
269.497223
 21
103.000046
  0
LINE
  8
0
  6
PHANTOM
 10
276.997223
 20
103.000046
 11
286.497223
 21
103.000046
  0
LINE
  8
0
  6
PHANTOM
 10
265.997223
 20
107.000046
 11
269.497223
 21
107.000046
  0
LINE
  8
0
  6
PHANTOM
 10
265.997223
 20
107.000046
 11
265.997223
 21
103.000046
  0
LINE
  8
0
  6
PHANTOM
 10
264.497192
 20
106.134003
 11
265.997192
 21
107.000031
  0
LINE
  8
0
  6
PHANTOM
 10
264.497223
 20
106.134033
 11
264.497223
 21
103.866074
  0
LINE
  8
0
  6
PHANTOM
 10
264.497223
 20
103.866074
 11
265.997223
 21
103.000046
  0
LINE
  8
0
  6
PHANTOM
 10
276.997223
 20
107.000046
 11
286.497223
 21
107.000046
  0
LINE
  8
0
  6
PHANTOM
 10
286.497223
 20
107.000046
 11
286.497223
 21
103.000046
  0
LINE
  8
0
  6
PHANTOM
 10
286.497253
 20
107.000000
 11
288.497253
 21
106.500000
  0
LINE
  8
0
  6
PHANTOM
 10
288.497223
 20
106.500046
 11
288.497223
 21
103.500046
  0
LINE
  8
0
  6
PHANTOM
 10
286.497223
 20
102.999939
 11
288.497223
 21
103.499939
  0
LINE
  8
0
  6
PHANTOM
 10
288.497223
 20
103.500046
 11
308.897217
 21
103.500046
  0
LINE
  8
0
  6
PHANTOM
 10
288.497223
 20
106.500046
 11
308.897217
 21
106.500046
  0
LINE
  8
0
  6
CENTER
 10
270.747223
 20
113.500046
 11
275.747223
 21
113.500046
  0
LINE
  8
0
  6
CENTER
 10
273.247223
 20
116.000046
 11
273.247223
 21
111.000046
  0
LINE
  8
0
  6
PHANTOM
 10
269.497223
 20
91.830185
 11
276.997223
 21
91.830185
  0
LINE
  8
0
  6
PHANTOM
 10
269.497223
 20
87.500061
 11
276.997223
 21
87.500061
  0
LINE
  8
0
  6
PHANTOM
 10
253.247238
 20
62.500141
 11
253.747238
 21
62.000145
  0
LINE
  8
0
 10
253.247223
 20
147.499985
 11
253.747208
 21
147.999969
  0
LINE
  8
0
 10
253.247223
 20
147.500046
 11
261.247223
 21
147.500046
  0
LINE
  8
0
 10
253.247223
 20
147.500046
 11
253.247223
 21
125.000046
  0
LINE
  8
0
 10
261.247192
 20
147.500061
 11
260.747192
 21
148.000061
  0
LINE
  8
0
 10
261.247223
 20
147.500046
 11
261.247223
 21
125.000046
  0
LINE
  8
0
 10
249.247223
 20
125.000046
 11
265.247223
 21
125.000046
  0
LINE
  8
0
 10
265.247223
 20
125.000061
 11
265.247223
 21
123.000046
  0
LINE
  8
0
 10
265.247223
 20
85.000046
 11
265.247223
 21
87.000046
  0
LINE
  8
0
 10
249.247223
 20
85.000046
 11
265.247223
 21
85.000046
  0
LINE
  8
0
 10
249.247223
 20
85.000046
 11
249.247223
 21
87.000046
  0
LINE
  8
0
  6
PHANTOM
 10
253.247223
 20
62.500046
 11
253.247223
 21
85.000046
  0
LINE
  8
0
  6
PHANTOM
 10
261.247223
 20
62.500046
 11
261.247223
 21
85.000046
  0
LINE
  8
0
  6
PHANTOM
 10
253.247223
 20
62.500046
 11
261.247223
 21
62.500046
  0
LINE
  8
0
  6
PHANTOM
 10
261.247162
 20
62.500046
 11
260.747192
 21
62.000053
  0
LINE
  8
0
  6
PHANTOM
 10
253.747223
 20
62.000046
 11
262.447205
 21
62.000046
  0
LINE
  8
0
 10
249.247223
 20
125.000046
 11
249.247223
 21
123.000046
  0
LINE
  8
0
 10
253.747192
 20
148.000000
 11
262.447205
 21
148.000000
  0
LINE
  8
0
 10
253.747238
 20
84.500046
 11
260.747223
 21
84.500046
  0
LINE
  8
0
 10
253.247223
 20
85.000069
 11
253.747238
 21
84.500069
  0
LINE
  8
0
 10
261.247162
 20
85.000061
 11
260.747162
 21
84.500061
  0
LINE
  8
0
 10
262.447205
 20
148.000000
 11
262.447205
 21
132.000000
  0
LINE
  8
0
 10
261.247223
 20
132.000000
 11
262.447205
 21
132.000000
  0
LINE
  8
0
  6
PHANTOM
 10
262.447205
 20
62.000046
 11
262.447205
 21
78.000046
  0
LINE
  8
0
  6
PHANTOM
 10
261.247223
 20
78.000046
 11
262.447205
 21
78.000046
  0
LINE
  8
0
 10
292.747223
 20
103.500046
 11
292.747223
 21
87.000046
  0
LINE
  8
0
 10
303.747223
 20
103.500046
 11
303.747223
 21
87.000046
  0
LINE
  8
0
  6
PHANTOM
 10
272.186646
 20
95.439400
 11
274.307953
 21
97.560699
  0
LINE
  8
0
  6
PHANTOM
 10
272.186584
 20
97.560684
 11
274.307892
 21
95.439400
  0
LINE
  8
0
 10
233.747223
 20
281.146912
 11
233.747223
 21
232.146927
  0
LINE
  8
0
 10
230.747223
 20
232.146927
 11
303.747223
 21
232.146927
  0
LINE
  8
0
 10
230.747223
 20
281.146942
 11
303.747223
 21
281.146942
  0
LINE
  8
0
 10
303.747253
 20
281.146912
 11
303.747253
 21
232.146927
  0
LINE
  8
0
 10
230.747223
 20
281.146912
 11
230.747223
 21
232.146927
  0
LINE
  8
0
  6
CENTER
 10
227.747223
 20
256.646912
 11
306.747253
 21
256.646912
  0
LINE
  8
0
  6
CENTER
 10
257.247223
 20
284.146912
 11
257.247223
 21
229.146927
  0
LINE
  8
0
  6
PHANTOM
 10
264.497223
 20
284.280884
 11
264.497223
 21
282.012939
  0
LINE
  8
0
  6
PHANTOM
 10
265.997223
 20
285.146912
 11
265.997223
 21
281.146912
  0
LINE
  8
0
  6
PHANTOM
 10
265.997223
 20
285.146942
 11
269.497223
 21
285.146942
  0
LINE
  8
0
  6
PHANTOM
 10
276.997223
 20
285.146942
 11
286.497223
 21
285.146942
  0
LINE
  8
0
  6
PHANTOM
 10
264.497223
 20
284.280945
 11
265.997223
 21
285.146973
  0
LINE
  8
0
  6
PHANTOM
 10
264.497284
 20
282.013031
 11
265.997253
 21
281.147003
  0
LINE
  8
0
  6
PHANTOM
 10
286.497223
 20
285.146912
 11
286.497223
 21
281.146912
  0
LINE
  8
0
  6
PHANTOM
 10
288.497223
 20
281.646942
 11
303.497223
 21
281.646942
  0
LINE
  8
0
  6
PHANTOM
 10
288.497223
 20
284.646942
 11
303.497223
 21
284.646942
  0
LINE
  8
0
  6
PHANTOM
 10
288.497223
 20
284.646912
 11
288.497223
 21
281.646912
  0
LINE
  8
0
  6
PHANTOM
 10
286.497284
 20
285.147156
 11
288.497284
 21
284.647156
  0
LINE
  8
0
  6
PHANTOM
 10
286.497192
 20
281.147125
 11
288.497192
 21
281.647125
  0
LINE
  8
0
  6
CENTER
 10
306.497253
 20
283.146942
 11
285.497223
 21
283.146942
  0
LINE
  8
0
  6
CENTER
 10
273.247223
 20
290.646912
 11
273.247223
 21
279.146912
  0
LINE
  8
0
  6
PHANTOM
 10
276.997223
 20
286.646912
 11
276.997223
 21
281.646912
  0
LINE
  8
0
  6
PHANTOM
 10
269.497223
 20
286.646912
 11
269.497223
 21
281.646912
  0
LINE
  8
0
  6
PHANTOM
 10
269.497223
 20
281.646942
 11
276.997223
 21
281.646942
  0
LINE
  8
0
  6
PHANTOM
 10
269.497223
 20
286.646942
 11
276.997223
 21
286.646942
  0
LINE
  8
0
  6
PHANTOM
 62
     3
 10
275.997223
 20
287.446594
 11
275.997223
 21
286.646912
  0
LINE
  8
0
  6
PHANTOM
 62
     3
 10
270.497223
 20
287.446594
 11
270.497223
 21
286.646912
  0
LINE
  8
0
  6
PHANTOM
 10
264.497223
 20
229.012955
 11
264.497223
 21
231.280899
  0
LINE
  8
0
  6
PHANTOM
 10
265.997223
 20
228.146927
 11
265.997223
 21
232.146927
  0
LINE
  8
0
  6
PHANTOM
 10
265.997223
 20
228.146927
 11
269.497223
 21
228.146927
  0
LINE
  8
0
  6
PHANTOM
 10
276.997223
 20
228.146927
 11
286.497223
 21
228.146927
  0
LINE
  8
0
  6
PHANTOM
 10
264.497314
 20
229.013092
 11
265.997314
 21
228.147079
  0
LINE
  8
0
  6
PHANTOM
 10
264.497253
 20
231.280807
 11
265.997253
 21
232.146820
  0
LINE
  8
0
  6
PHANTOM
 10
286.497223
 20
228.146927
 11
286.497223
 21
232.146927
  0
LINE
  8
0
  6
PHANTOM
 10
288.497223
 20
231.646927
 11
303.497223
 21
231.646927
  0
LINE
  8
0
  6
PHANTOM
 10
288.497223
 20
228.646927
 11
303.497223
 21
228.646927
  0
LINE
  8
0
  6
PHANTOM
 10
288.497223
 20
228.646927
 11
288.497223
 21
231.646927
  0
LINE
  8
0
  6
PHANTOM
 10
286.497223
 20
228.146927
 11
288.497223
 21
228.646927
  0
LINE
  8
0
  6
PHANTOM
 10
286.497223
 20
232.146927
 11
288.497223
 21
231.646927
  0
LINE
  8
0
  6
CENTER
 10
306.497253
 20
230.146927
 11
285.497223
 21
230.146927
  0
LINE
  8
0
  6
CENTER
 10
273.247223
 20
222.646927
 11
273.247223
 21
234.146927
  0
LINE
  8
0
  6
PHANTOM
 10
276.997223
 20
226.646927
 11
276.997223
 21
231.646927
  0
LINE
  8
0
  6
PHANTOM
 10
269.497223
 20
226.646927
 11
269.497223
 21
231.646927
  0
LINE
  8
0
  6
PHANTOM
 10
269.497223
 20
231.646927
 11
276.997223
 21
231.646927
  0
LINE
  8
0
  6
PHANTOM
 10
269.497223
 20
226.646927
 11
276.997223
 21
226.646927
  0
LINE
  8
0
  6
PHANTOM
 62
     3
 10
275.997223
 20
225.847275
 11
275.997223
 21
226.646927
  0
LINE
  8
0
  6
PHANTOM
 62
     3
 10
270.497223
 20
225.847275
 11
270.497223
 21
226.646927
  0
LINE
  8
0
 10
292.747192
 20
281.146912
 11
292.747192
 21
232.146896
  0
LINE
  8
0
  6
CENTER
 10
254.247223
 20
276.646912
 11
260.247223
 21
276.646912
  0
LINE
  8
0
  6
CENTER
 10
254.247223
 20
236.646927
 11
260.247223
 21
236.646927
  0
LINE
  8
0
  6
CENTER
 10
237.247238
 20
259.646912
 11
237.247238
 21
253.646927
  0
LINE
  8
0
  6
CENTER
 10
277.247223
 20
259.646912
 11
277.247223
 21
253.646927
  0
LINE
  8
0
  6
CENTER
 10
244.747238
 20
260.646912
 11
244.747238
 21
252.646927
  0
LINE
  8
0
  6
CENTER
 10
269.747223
 20
260.646912
 11
269.747223
 21
252.646927
  0
LINE
  8
0
  6
CENTER
 10
253.247223
 20
269.146912
 11
261.247223
 21
269.146912
  0
LINE
  8
0
  6
CENTER
 10
253.247223
 20
244.146927
 11
261.247223
 21
244.146927
  0
LINE
  8
0
 10
262.447235
 20
258.146912
 11
262.447235
 21
255.146927
  0
LINE
  8
0
 10
259.447235
 20
258.146912
 11
259.447235
 21
255.146927
  0
LINE
  8
0
 10
259.447235
 20
258.146912
 11
262.447235
 21
258.146912
  0
LINE
  8
0
 10
259.447235
 20
255.146927
 11
262.447235
 21
255.146927
  0
LINE
  8
0
 10
245.913956
 20
257.813660
 11
243.580505
 21
255.480225
  0
LINE
  8
0
 10
243.580521
 20
257.813660
 11
245.913956
 21
255.480240
  0
LINE
  8
0
 10
256.080505
 20
267.980103
 11
258.413971
 21
270.313538
  0
LINE
  8
0
 10
256.080475
 20
270.313599
 11
258.413910
 21
267.980164
  0
LINE
  8
0
 10
256.080536
 20
242.980255
 11
258.413971
 21
245.313705
  0
LINE
  8
0
 10
256.080536
 20
245.313690
 11
258.413971
 21
242.980240
  0
LINE
  8
0
 10
270.913971
 20
255.480255
 11
268.580536
 21
257.813690
  0
LINE
  8
0
 10
268.580505
 20
255.480240
 11
270.913940
 21
257.813690
  0
LINE
  8
0
 10
76.577194
 20
87.000046
 11
117.577179
 21
87.000046
  0
LINE
  8
0
 10
76.577225
 20
123.000046
 11
117.577209
 21
123.000046
  0
LINE
  8
0
 10
72.577194
 20
119.000061
 11
72.577194
 21
91.000061
  0
LINE
  8
0
 10
121.577194
 20
119.000031
 11
121.577194
 21
91.000031
  0
LINE
  8
0
  6
CENTER
 10
64.077194
 20
105.000046
 11
130.077194
 21
105.000046
  0
LINE
  8
0
  6
CENTER
 10
97.077194
 20
151.000000
 11
97.077194
 21
59.000046
  0
LINE
  8
0
  6
PHANTOM
 10
68.577194
 20
107.000061
 11
68.577194
 21
103.000061
  0
LINE
  8
0
  6
PHANTOM
 10
69.443176
 20
103.866074
 11
71.711182
 21
103.866074
  0
LINE
  8
0
  6
PHANTOM
 10
68.577179
 20
103.000046
 11
72.577179
 21
103.000046
  0
LINE
  8
0
  6
PHANTOM
 10
68.577179
 20
107.000046
 11
72.577179
 21
107.000046
  0
LINE
  8
0
  6
PHANTOM
 10
69.443176
 20
106.134018
 11
71.711182
 21
106.134018
  0
LINE
  8
0
  6
PHANTOM
 10
69.443161
 20
106.134033
 11
69.443161
 21
103.866089
  0
LINE
  8
0
  6
PHANTOM
 10
71.711166
 20
106.134033
 11
71.711166
 21
103.866089
  0
LINE
  8
0
  6
PHANTOM
 10
68.577446
 20
107.000381
 11
69.443443
 21
106.134354
  0
LINE
  8
0
  6
PHANTOM
 10
69.443237
 20
103.866028
 11
68.577240
 21
103.000000
  0
LINE
  8
0
  6
PHANTOM
 10
71.711136
 20
103.866173
 11
72.577141
 21
103.000145
  0
LINE
  8
0
  6
PHANTOM
 10
71.711395
 20
106.133842
 11
72.577393
 21
106.999863
  0
LINE
  8
0
  6
PHANTOM
 10
67.077194
 20
107.800049
 11
72.077194
 21
107.800049
  0
LINE
  8
0
  6
PHANTOM
 10
72.077194
 20
107.800064
 11
72.077194
 21
107.000061
  0
LINE
  8
0
  6
PHANTOM
 10
72.077194
 20
103.000061
 11
72.077194
 21
96.500061
  0
LINE
  8
0
  6
PHANTOM
 10
67.077194
 20
107.800064
 11
67.077194
 21
91.830215
  0
LINE
  8
0
  6
CENTER
 10
64.077194
 20
96.500046
 11
73.577194
 21
96.500046
  0
LINE
  8
0
  6
PHANTOM
 62
     3
 10
66.277542
 20
99.250046
 11
67.077194
 21
99.250046
  0
LINE
  8
0
  6
PHANTOM
 62
     3
 10
66.277542
 20
93.750046
 11
67.077194
 21
93.750046
  0
LINE
  8
0
  6
PHANTOM
 62
     1
 10
72.077194
 20
97.750046
 11
72.577194
 21
97.750046
  0
LINE
  8
0
  6
PHANTOM
 62
     1
 10
72.077194
 20
97.479553
 11
72.577194
 21
97.479553
  0
LINE
  8
0
  6
PHANTOM
 10
69.577194
 20
87.500046
 11
73.577179
 21
87.500046
  0
LINE
  8
0
  6
PHANTOM
 10
73.577194
 20
88.354340
 11
73.577194
 21
87.500076
  0
LINE
  8
0
  6
PHANTOM
 10
125.577209
 20
107.000031
 11
125.577209
 21
103.000031
  0
LINE
  8
0
  6
PHANTOM
 10
124.711212
 20
103.866074
 11
122.443207
 21
103.866074
  0
LINE
  8
0
  6
PHANTOM
 10
125.577209
 20
103.000046
 11
121.577209
 21
103.000046
  0
LINE
  8
0
  6
PHANTOM
 10
125.577209
 20
107.000046
 11
121.577209
 21
107.000046
  0
LINE
  8
0
  6
PHANTOM
 10
124.711212
 20
106.134018
 11
122.443207
 21
106.134018
  0
LINE
  8
0
  6
PHANTOM
 10
124.711212
 20
106.134003
 11
124.711212
 21
103.866058
  0
LINE
  8
0
  6
PHANTOM
 10
122.443207
 20
106.134003
 11
122.443207
 21
103.866058
  0
LINE
  8
0
  6
PHANTOM
 10
125.577087
 20
107.000160
 11
124.711090
 21
106.134148
  0
LINE
  8
0
  6
PHANTOM
 10
124.711174
 20
103.865982
 11
125.577164
 21
102.999962
  0
LINE
  8
0
  6
PHANTOM
 10
122.443192
 20
103.866127
 11
121.577164
 21
103.000084
  0
LINE
  8
0
  6
PHANTOM
 10
122.443214
 20
106.134041
 11
121.577225
 21
107.000053
  0
LINE
  8
0
  6
PHANTOM
 10
127.077194
 20
107.800049
 11
122.077194
 21
107.800049
  0
LINE
  8
0
  6
PHANTOM
 10
122.077194
 20
107.800034
 11
122.077194
 21
107.000031
  0
LINE
  8
0
  6
PHANTOM
 10
122.077194
 20
103.000031
 11
122.077194
 21
96.500031
  0
LINE
  8
0
  6
PHANTOM
 10
127.077194
 20
107.800034
 11
127.077194
 21
91.830170
  0
LINE
  8
0
  6
CENTER
 10
130.077194
 20
96.500046
 11
120.577194
 21
96.500046
  0
LINE
  8
0
  6
PHANTOM
 62
     3
 10
127.876846
 20
99.250046
 11
127.077194
 21
99.250046
  0
LINE
  8
0
  6
PHANTOM
 62
     3
 10
127.876846
 20
93.750046
 11
127.077194
 21
93.750046
  0
LINE
  8
0
  6
PHANTOM
 62
     1
 10
122.077194
 20
97.750046
 11
121.577194
 21
97.750046
  0
LINE
  8
0
  6
PHANTOM
 62
     1
 10
122.077194
 20
97.479553
 11
121.577194
 21
97.479553
  0
LINE
  8
0
  6
PHANTOM
 10
124.577179
 20
87.500046
 11
120.577179
 21
87.500046
  0
LINE
  8
0
  6
PHANTOM
 10
120.577194
 20
88.354309
 11
120.577194
 21
87.500046
  0
LINE
  8
0
  6
CENTER
 10
72.577209
 20
117.500046
 11
82.577209
 21
117.500046
  0
LINE
  8
0
  6
CENTER
 10
72.577179
 20
92.500046
 11
82.577179
 21
92.500046
  0
LINE
  8
0
  6
CENTER
 10
111.577179
 20
92.500046
 11
121.577179
 21
92.500046
  0
LINE
  8
0
  6
CENTER
 10
111.577209
 20
117.500046
 11
121.577209
 21
117.500046
  0
LINE
  8
0
  6
CENTER
 10
77.577194
 20
122.500061
 11
77.577194
 21
112.500061
  0
LINE
  8
0
  6
CENTER
 10
77.577194
 20
97.500061
 11
77.577194
 21
87.500061
  0
LINE
  8
0
  6
CENTER
 10
116.577194
 20
97.500031
 11
116.577194
 21
87.500031
  0
LINE
  8
0
  6
CENTER
 10
116.577194
 20
122.500031
 11
116.577194
 21
112.500031
  0
LINE
  8
0
  6
PHANTOM
 10
69.577278
 20
87.500137
 11
67.077278
 21
91.830261
  0
LINE
  8
0
  6
PHANTOM
 10
124.577202
 20
87.500038
 11
127.077202
 21
91.830162
  0
LINE
  8
0
  6
PHANTOM
 10
93.077164
 20
62.500046
 11
101.077164
 21
62.500046
  0
LINE
  8
0
 10
93.077232
 20
147.499939
 11
93.577232
 21
147.999939
  0
LINE
  8
0
 10
93.077225
 20
147.500046
 11
101.077225
 21
147.500046
  0
LINE
  8
0
 10
93.077194
 20
147.500046
 11
93.077194
 21
125.000046
  0
LINE
  8
0
 10
101.077225
 20
147.500046
 11
100.577225
 21
148.000046
  0
LINE
  8
0
 10
101.077194
 20
147.500046
 11
101.077194
 21
125.000046
  0
LINE
  8
0
 10
89.077209
 20
125.000046
 11
105.077209
 21
125.000046
  0
LINE
  8
0
 10
105.077194
 20
125.000053
 11
105.077194
 21
123.000038
  0
LINE
  8
0
 10
89.077194
 20
125.000053
 11
89.077194
 21
123.000053
  0
LINE
  8
0
 10
93.577194
 20
148.000000
 11
100.577271
 21
148.000000
  0
LINE
  8
0
  6
PHANTOM
 10
93.577164
 20
62.000046
 11
100.577164
 21
62.000046
  0
LINE
  8
0
 10
93.577194
 20
84.500046
 11
100.577179
 21
84.500046
  0
LINE
  8
0
 10
101.077202
 20
85.000038
 11
100.577187
 21
84.500023
  0
LINE
  8
0
  6
PHANTOM
 10
101.077171
 20
62.499981
 11
100.577187
 21
61.999992
  0
LINE
  8
0
 10
93.077225
 20
85.000084
 11
93.577232
 21
84.500092
  0
LINE
  8
0
  6
PHANTOM
 10
93.077209
 20
62.500164
 11
93.577209
 21
62.000168
  0
LINE
  8
0
 10
105.077194
 20
85.000038
 11
105.077194
 21
87.000038
  0
LINE
  8
0
 10
89.077179
 20
85.000046
 11
105.077179
 21
85.000046
  0
LINE
  8
0
 10
89.077194
 20
85.000053
 11
89.077194
 21
87.000053
  0
LINE
  8
0
  6
PHANTOM
 10
93.077194
 20
62.500046
 11
93.077194
 21
85.000046
  0
LINE
  8
0
  6
PHANTOM
 10
101.077194
 20
62.500046
 11
101.077194
 21
85.000046
  0
LINE
  8
0
 10
75.880035
 20
94.196976
 11
79.274101
 21
90.802910
  0
LINE
  8
0
 10
75.880081
 20
90.802994
 11
79.274261
 21
94.197174
  0
LINE
  8
0
 10
118.274338
 20
90.802971
 11
114.880150
 21
94.197151
  0
LINE
  8
0
 10
118.274292
 20
94.197006
 11
114.880219
 21
90.802933
  0
LINE
  8
0
 10
75.880066
 20
119.197159
 11
79.274261
 21
115.802963
  0
LINE
  8
0
 10
75.880096
 20
115.803040
 11
79.274178
 21
119.197121
  0
LINE
  8
0
 10
118.274323
 20
119.197113
 11
114.880142
 21
115.802933
  0
LINE
  8
0
 10
118.274338
 20
115.803055
 11
114.880264
 21
119.197128
  0
LINE
  8
0
 10
398.761963
 20
87.000046
 11
439.761963
 21
87.000046
  0
LINE
  8
0
 10
398.761963
 20
123.000046
 11
439.761963
 21
123.000046
  0
LINE
  8
0
 10
394.761963
 20
119.000046
 11
394.761963
 21
91.000046
  0
LINE
  8
0
 10
443.761963
 20
119.000046
 11
443.761963
 21
91.000046
  0
LINE
  8
0
  6
CENTER
 10
386.261963
 20
105.000046
 11
452.261963
 21
105.000046
  0
LINE
  8
0
  6
CENTER
 10
419.261963
 20
151.000000
 11
419.261963
 21
59.000046
  0
LINE
  8
0
  6
PHANTOM
 10
390.761932
 20
107.000046
 11
390.761932
 21
103.000046
  0
LINE
  8
0
  6
PHANTOM
 10
390.761932
 20
103.000046
 11
394.761932
 21
103.000046
  0
LINE
  8
0
  6
PHANTOM
 10
390.761932
 20
107.000046
 11
394.761932
 21
107.000046
  0
LINE
  8
0
  6
PHANTOM
 10
389.261963
 20
107.800049
 11
394.261963
 21
107.800049
  0
LINE
  8
0
  6
PHANTOM
 10
394.261963
 20
107.800049
 11
394.261963
 21
107.000046
  0
LINE
  8
0
  6
PHANTOM
 10
394.261963
 20
103.000046
 11
394.261963
 21
96.500046
  0
LINE
  8
0
  6
PHANTOM
 10
389.261963
 20
107.800049
 11
389.261963
 21
91.830200
  0
LINE
  8
0
  6
CENTER
 10
386.261963
 20
96.500046
 11
395.761963
 21
96.500046
  0
LINE
  8
0
  6
PHANTOM
 62
     3
 10
388.462280
 20
99.250046
 11
389.261963
 21
99.250046
  0
LINE
  8
0
  6
PHANTOM
 62
     3
 10
388.462280
 20
93.750046
 11
389.261963
 21
93.750046
  0
LINE
  8
0
  6
PHANTOM
 62
     1
 10
394.261963
 20
97.750046
 11
394.761963
 21
97.750046
  0
LINE
  8
0
  6
PHANTOM
 62
     1
 10
394.261963
 20
97.479553
 11
394.761963
 21
97.479553
  0
LINE
  8
0
  6
PHANTOM
 10
391.761963
 20
87.500046
 11
395.761963
 21
87.500046
  0
LINE
  8
0
  6
PHANTOM
 10
395.761963
 20
88.354324
 11
395.761963
 21
87.500061
  0
LINE
  8
0
  6
PHANTOM
 10
447.761963
 20
107.000046
 11
447.761963
 21
103.000046
  0
LINE
  8
0
  6
PHANTOM
 10
447.761963
 20
103.000046
 11
443.761963
 21
103.000046
  0
LINE
  8
0
  6
PHANTOM
 10
447.761963
 20
107.000046
 11
443.761963
 21
107.000046
  0
LINE
  8
0
  6
PHANTOM
 10
449.261963
 20
107.800049
 11
444.261963
 21
107.800049
  0
LINE
  8
0
  6
PHANTOM
 10
444.261963
 20
107.800049
 11
444.261963
 21
107.000046
  0
LINE
  8
0
  6
PHANTOM
 10
444.261963
 20
103.000046
 11
444.261963
 21
96.500046
  0
LINE
  8
0
  6
PHANTOM
 10
449.261963
 20
107.800049
 11
449.261963
 21
91.830185
  0
LINE
  8
0
  6
CENTER
 10
452.261963
 20
96.500046
 11
442.761963
 21
96.500046
  0
LINE
  8
0
  6
PHANTOM
 62
     3
 10
450.061584
 20
99.250046
 11
449.261963
 21
99.250046
  0
LINE
  8
0
  6
PHANTOM
 62
     3
 10
450.061584
 20
93.750046
 11
449.261963
 21
93.750046
  0
LINE
  8
0
  6
PHANTOM
 62
     1
 10
444.261963
 20
97.750046
 11
443.761963
 21
97.750046
  0
LINE
  8
0
  6
PHANTOM
 62
     1
 10
444.261963
 20
97.479553
 11
443.761963
 21
97.479553
  0
LINE
  8
0
  6
PHANTOM
 10
446.761963
 20
87.500046
 11
442.761963
 21
87.500046
  0
LINE
  8
0
  6
PHANTOM
 10
442.761963
 20
88.354324
 11
442.761963
 21
87.500061
  0
LINE
  8
0
  6
PHANTOM
 10
391.761902
 20
87.500031
 11
389.261932
 21
91.830154
  0
LINE
  8
0
  6
PHANTOM
 10
446.761902
 20
87.500076
 11
449.261902
 21
91.830208
  0
LINE
  8
0
  6
PHANTOM
 10
415.261963
 20
62.500046
 11
423.261963
 21
62.500046
  0
LINE
  8
0
 10
415.261871
 20
147.500000
 11
415.761902
 21
148.000031
  0
LINE
  8
0
 10
415.261963
 20
147.500046
 11
417.761963
 21
147.500046
  0
LINE
  8
0
 10
415.261963
 20
147.500046
 11
415.261963
 21
125.000046
  0
LINE
  8
0
 10
423.261871
 20
147.500031
 11
422.761902
 21
148.000031
  0
LINE
  8
0
 10
423.261963
 20
147.500046
 11
423.261963
 21
125.000046
  0
LINE
  8
0
 10
411.261963
 20
125.000046
 11
427.261963
 21
125.000046
  0
LINE
  8
0
 10
427.261963
 20
125.000061
 11
427.261963
 21
123.000046
  0
LINE
  8
0
 10
411.261963
 20
125.000046
 11
411.261963
 21
123.000046
  0
LINE
  8
0
 10
415.761902
 20
148.000000
 11
422.761993
 21
148.000000
  0
LINE
  8
0
  6
PHANTOM
 10
415.761963
 20
62.000046
 11
422.761963
 21
62.000046
  0
LINE
  8
0
 10
415.761963
 20
84.500046
 11
422.761963
 21
84.500046
  0
LINE
  8
0
 10
423.261841
 20
85.000099
 11
422.761871
 21
84.500114
  0
LINE
  8
0
  6
PHANTOM
 10
423.261871
 20
62.500065
 11
422.761871
 21
62.000076
  0
LINE
  8
0
 10
415.261932
 20
85.000038
 11
415.761963
 21
84.500038
  0
LINE
  8
0
  6
PHANTOM
 10
415.261932
 20
62.500076
 11
415.761932
 21
62.000080
  0
LINE
  8
0
 10
427.261963
 20
85.000046
 11
427.261963
 21
87.000046
  0
LINE
  8
0
 10
411.261963
 20
85.000046
 11
427.261963
 21
85.000046
  0
LINE
  8
0
 10
411.261963
 20
85.000046
 11
411.261963
 21
87.000046
  0
LINE
  8
0
  6
PHANTOM
 10
415.261963
 20
62.500046
 11
415.261963
 21
85.000046
  0
LINE
  8
0
  6
PHANTOM
 10
423.261963
 20
62.500046
 11
423.261963
 21
85.000046
  0
LINE
  8
0
  6
CENTER
 10
392.761963
 20
108.500046
 11
392.761963
 21
101.500046
  0
LINE
  8
0
  6
CENTER
 10
445.761963
 20
108.500046
 11
445.761963
 21
101.500046
  0
LINE
  8
0
  6
CENTER
 10
412.261963
 20
118.500046
 11
412.261963
 21
105.500046
  0
LINE
  8
0
  6
CENTER
 10
426.261963
 20
104.500046
 11
426.261963
 21
91.500046
  0
LINE
  8
0
  6
CENTER
 10
405.761963
 20
112.000046
 11
418.761963
 21
112.000046
  0
LINE
  8
0
  6
CENTER
 10
419.761963
 20
98.000046
 11
432.761963
 21
98.000046
  0
LINE
  8
0
 62
     3
 10
398.261963
 20
118.366074
 11
398.261963
 21
116.634033
  0
LINE
  8
0
 62
     3
 10
401.261963
 20
118.366074
 11
401.261963
 21
116.634033
  0
LINE
  8
0
 62
     3
 10
398.261963
 20
118.366013
 11
399.761963
 21
119.232040
  0
LINE
  8
0
 62
     3
 10
399.761993
 20
115.767952
 11
401.261993
 21
116.633980
  0
LINE
  8
0
 62
     3
 10
399.761993
 20
119.232109
 11
401.261993
 21
118.366081
  0
LINE
  8
0
 62
     3
 10
398.261993
 20
116.634026
 11
399.761993
 21
115.767998
  0
LINE
  8
0
 62
     3
 10
398.261963
 20
93.366074
 11
398.261963
 21
91.634033
  0
LINE
  8
0
 62
     3
 10
401.261963
 20
93.366074
 11
401.261963
 21
91.634033
  0
LINE
  8
0
 62
     3
 10
398.261993
 20
93.366028
 11
399.761993
 21
94.232056
  0
LINE
  8
0
 62
     3
 10
399.761993
 20
90.767944
 11
401.261993
 21
91.633972
  0
LINE
  8
0
 62
     3
 10
399.761993
 20
94.232079
 11
401.261993
 21
93.366051
  0
LINE
  8
0
 62
     3
 10
398.261993
 20
91.634026
 11
399.761993
 21
90.767998
  0
LINE
  8
0
 62
     3
 10
437.261963
 20
93.366074
 11
437.261963
 21
91.634033
  0
LINE
  8
0
 62
     3
 10
440.261963
 20
93.366074
 11
440.261963
 21
91.634033
  0
LINE
  8
0
 62
     3
 10
437.261963
 20
93.366058
 11
438.761963
 21
94.232086
  0
LINE
  8
0
 62
     3
 10
438.761963
 20
90.767937
 11
440.261963
 21
91.633965
  0
LINE
  8
0
 62
     3
 10
438.761963
 20
94.232124
 11
440.261993
 21
93.366096
  0
LINE
  8
0
 62
     3
 10
437.261963
 20
91.634048
 11
438.761993
 21
90.768021
  0
LINE
  8
0
 62
     3
 10
437.261963
 20
118.366074
 11
437.261963
 21
116.634033
  0
LINE
  8
0
 62
     3
 10
440.261963
 20
118.366074
 11
440.261963
 21
116.634033
  0
LINE
  8
0
 62
     3
 10
437.261963
 20
118.366051
 11
438.761963
 21
119.232079
  0
LINE
  8
0
 62
     3
 10
438.761993
 20
115.767990
 11
440.261993
 21
116.634018
  0
LINE
  8
0
 62
     3
 10
438.761963
 20
119.232124
 11
440.261993
 21
118.366096
  0
LINE
  8
0
 62
     3
 10
437.261963
 20
116.634048
 11
438.761993
 21
115.768021
  0
LINE
  8
0
  6
CENTER
 10
395.261963
 20
117.500046
 11
404.261963
 21
117.500046
  0
LINE
  8
0
  6
CENTER
 10
434.261963
 20
117.500046
 11
443.261963
 21
117.500046
  0
LINE
  8
0
  6
CENTER
 10
434.261963
 20
92.500046
 11
443.261963
 21
92.500046
  0
LINE
  8
0
  6
CENTER
 10
395.261963
 20
92.500046
 11
404.261963
 21
92.500046
  0
LINE
  8
0
  6
CENTER
 10
399.761963
 20
97.000046
 11
399.761963
 21
88.000046
  0
LINE
  8
0
  6
CENTER
 10
399.761963
 20
122.000046
 11
399.761963
 21
113.000046
  0
LINE
  8
0
  6
CENTER
 10
438.761963
 20
122.000046
 11
438.761963
 21
113.000046
  0
LINE
  8
0
  6
CENTER
 10
438.761963
 20
97.000046
 11
438.761963
 21
88.000046
  0
LINE
  8
0
 10
417.761963
 20
132.000000
 11
420.761963
 21
132.000000
  0
LINE
  8
0
 10
417.761963
 20
148.000000
 11
417.761963
 21
132.000000
  0
LINE
  8
0
 10
420.761963
 20
148.000000
 11
420.761963
 21
132.000000
  0
LINE
  8
0
 10
420.761963
 20
147.500046
 11
423.261963
 21
147.500046
  0
LINE
  8
0
  6
PHANTOM
 10
417.761963
 20
62.000092
 11
417.761963
 21
78.000092
  0
LINE
  8
0
  6
PHANTOM
 10
420.761963
 20
62.000092
 11
420.761963
 21
78.000092
  0
LINE
  8
0
  6
PHANTOM
 10
417.761963
 20
78.000092
 11
420.761963
 21
78.000092
  0
CIRCLE
  8
0
 10
273.247223
 20
113.500046
 40
1.500000
  0
CIRCLE
  8
0
 10
273.247223
 20
113.500046
 40
1.229500
  0
CIRCLE
  8
0
  6
PHANTOM
 62
     3
 10
273.247223
 20
96.500076
 40
2.750000
  0
ARC
  8
0
  6
PHANTOM
 10
308.235779
 20
105.750046
 40
1.000000
 50
311.409637
 51
48.590370
  0
ARC
  8
0
  6
PHANTOM
 10
309.558655
 20
104.250046
 40
1.000000
 50
131.409622
 51
228.590378
  0
ARC
  8
0
  6
PHANTOM
 10
308.235779
 20
104.250046
 40
1.000000
 50
311.409637
 51
48.590370
  0
CIRCLE
  8
0
 10
257.247223
 20
256.646912
 40
8.000000
  0
CIRCLE
  8
0
 62
     3
 10
257.247223
 20
244.146927
 40
3.000000
  0
CIRCLE
  8
0
 62
     3
 10
257.247223
 20
269.146912
 40
3.000000
  0
CIRCLE
  8
0
 62
     3
 10
244.747238
 20
256.646912
 40
3.000000
  0
CIRCLE
  8
0
 62
     3
 10
269.747223
 20
256.646912
 40
3.000000
  0
ARC
  8
0
 10
257.247223
 20
256.646912
 40
4.000000
 50
22.024313
 51
337.975677
  0
ARC
  8
0
  6
PHANTOM
 10
302.835815
 20
282.396942
 40
1.000000
 50
311.409637
 51
48.590370
  0
ARC
  8
0
  6
PHANTOM
 10
302.835815
 20
283.896942
 40
1.000000
 50
311.409637
 51
48.590370
  0
ARC
  8
0
  6
PHANTOM
 10
304.158691
 20
283.896942
 40
1.000000
 50
131.409622
 51
228.590378
  0
ARC
  8
0
  6
PHANTOM
 62
     3
 10
273.247223
 20
283.646942
 40
5.000006
 50
61.264477
 51
118.735214
  0
ARC
  8
0
  6
PHANTOM
 62
     3
 10
275.330536
 20
287.446564
 40
0.666687
 50
0.000000
 51
61.264580
  0
ARC
  8
0
  6
PHANTOM
 62
     3
 10
271.163940
 20
287.446564
 40
0.666699
 50
118.735420
 51
180.000000
  0
ARC
  8
0
  6
PHANTOM
 62
     3
 10
271.163940
 20
225.847275
 40
0.666687
 50
180.000000
 51
241.264587
  0
ARC
  8
0
  6
PHANTOM
 10
302.835815
 20
229.396927
 40
1.000000
 50
311.409637
 51
48.590370
  0
ARC
  8
0
  6
PHANTOM
 10
302.835815
 20
230.896927
 40
1.000000
 50
311.409637
 51
48.590370
  0
ARC
  8
0
  6
PHANTOM
 10
304.158691
 20
230.896927
 40
1.000000
 50
131.409622
 51
228.590378
  0
ARC
  8
0
  6
PHANTOM
 62
     3
 10
273.247223
 20
229.646927
 40
5.000006
 50
241.264481
 51
298.735229
  0
ARC
  8
0
  6
PHANTOM
 62
     3
 10
275.330536
 20
225.847275
 40
0.666699
 50
298.735413
 51
0.000000
  0
CIRCLE
  8
0
 10
257.247223
 20
256.646912
 40
17.000000
  0
CIRCLE
  8
0
 10
237.247238
 20
256.646912
 40
2.000000
  0
CIRCLE
  8
0
 10
257.247223
 20
236.646927
 40
2.000000
  0
CIRCLE
  8
0
 10
277.247223
 20
256.646912
 40
2.000000
  0
CIRCLE
  8
0
 10
257.247223
 20
276.646912
 40
2.000000
  0
CIRCLE
  8
0
 10
237.247238
 20
256.646912
 40
1.620999
  0
CIRCLE
  8
0
 10
257.247223
 20
236.646927
 40
1.620999
  0
CIRCLE
  8
0
 10
277.247223
 20
256.646912
 40
1.620999
  0
CIRCLE
  8
0
 10
257.247223
 20
276.646912
 40
1.620999
  0
ARC
  8
0
 10
257.247192
 20
256.646912
 40
3.500013
 50
25.376829
 51
334.623169
  0
ARC
  8
0
  6
PHANTOM
 62
     3
 10
66.277512
 20
94.416763
 40
0.666699
 50
208.735413
 51
270.000000
  0
CIRCLE
  8
0
 62
     3
 10
77.577209
 20
117.500061
 40
4.000000
  0
CIRCLE
  8
0
 62
     3
 10
77.577179
 20
92.500061
 40
4.000000
  0
CIRCLE
  8
0
 62
     3
 10
116.577179
 20
92.500031
 40
4.000000
  0
CIRCLE
  8
0
 62
     3
 10
116.577209
 20
117.500031
 40
4.000000
  0
ARC
  8
0
 10
76.577209
 20
119.000061
 40
4.000000
 50
90.000000
 51
180.000000
  0
ARC
  8
0
  6
PHANTOM
 62
     3
 10
127.876846
 20
98.583328
 40
0.666699
 50
28.735418
 51
90.000000
  0
ARC
  8
0
  6
PHANTOM
 62
     3
 10
127.876846
 20
94.416733
 40
0.666702
 50
270.000000
 51
331.264587
  0
ARC
  8
0
 10
117.577209
 20
119.000031
 40
4.000000
 50
0.000000
 51
90.000000
  0
ARC
  8
0
 10
117.577179
 20
91.000031
 40
4.000000
 50
270.000000
 51
0.000000
  0
ARC
  8
0
 10
76.577179
 20
91.000061
 40
4.000000
 50
180.000000
 51
270.000000
  0
ARC
  8
0
  6
PHANTOM
 62
     3
 10
124.077194
 20
96.500031
 40
4.999999
 50
331.264618
 51
28.735369
  0
ARC
  8
0
  6
PHANTOM
 62
     3
 10
70.077194
 20
96.500061
 40
4.999999
 50
151.264633
 51
208.735367
  0
ARC
  8
0
  6
PHANTOM
 62
     3
 10
66.277512
 20
98.583359
 40
0.666702
 50
90.000000
 51
151.264587
  0
ARC
  8
0
 10
419.261963
 20
132.000000
 40
1.500000
 50
180.000000
 51
0.000000
  0
ARC
  8
0
  6
PHANTOM
 10
419.261963
 20
78.000092
 40
1.500000
 50
0.000000
 51
180.000000
  0
CIRCLE
  8
0
 62
     3
 10
438.761963
 20
117.500046
 40
2.980385
  0
ARC
  8
0
 10
398.761963
 20
119.000046
 40
4.000000
 50
90.000000
 51
180.000000
  0
ARC
  8
0
  6
PHANTOM
 62
     3
 10
450.061584
 20
98.583344
 40
0.666699
 50
28.735418
 51
90.000000
  0
ARC
  8
0
  6
PHANTOM
 62
     3
 10
450.061584
 20
94.416748
 40
0.666702
 50
270.000000
 51
331.264587
  0
ARC
  8
0
 10
439.761963
 20
119.000046
 40
4.000000
 50
0.000000
 51
90.000000
  0
ARC
  8
0
 10
439.761963
 20
91.000046
 40
4.000000
 50
270.000000
 51
0.000000
  0
ARC
  8
0
 10
398.761963
 20
91.000046
 40
4.000000
 50
180.000000
 51
270.000000
  0
ARC
  8
0
  6
PHANTOM
 62
     3
 10
446.261963
 20
96.500046
 40
4.999999
 50
331.264618
 51
28.735369
  0
ARC
  8
0
  6
PHANTOM
 62
     3
 10
392.261963
 20
96.500046
 40
4.999999
 50
151.264633
 51
208.735367
  0
ARC
  8
0
  6
PHANTOM
 62
     3
 10
388.462280
 20
98.583344
 40
0.666702
 50
90.000000
 51
151.264587
  0
ARC
  8
0
  6
PHANTOM
 62
     3
 10
388.462280
 20
94.416748
 40
0.666699
 50
208.735413
 51
270.000000
  0
CIRCLE
  8
0
  6
PHANTOM
 10
392.761963
 20
105.000046
 40
1.500000
  0
CIRCLE
  8
0
  6
PHANTOM
 10
445.761963
 20
105.000046
 40
1.500000
  0
CIRCLE
  8
0
 10
412.261963
 20
112.000046
 40
4.863999
  0
CIRCLE
  8
0
 10
426.261963
 20
98.000046
 40
4.863999
  0
CIRCLE
  8
0
 10
412.261963
 20
112.000046
 40
4.283000
  0
CIRCLE
  8
0
 10
426.261963
 20
98.000046
 40
4.283000
  0
CIRCLE
  8
0
 62
     3
 10
399.761963
 20
117.500046
 40
3.500000
  0
CIRCLE
  8
0
 62
     3
 10
399.761963
 20
117.500046
 40
2.980385
  0
CIRCLE
  8
0
 62
     3
 10
399.761963
 20
92.500046
 40
3.500000
  0
CIRCLE
  8
0
 62
     3
 10
399.761963
 20
92.500046
 40
2.980385
  0
CIRCLE
  8
0
 62
     3
 10
438.761963
 20
92.500046
 40
3.500000
  0
CIRCLE
  8
0
 62
     3
 10
438.761963
 20
92.500046
 40
2.980385
  0
CIRCLE
  8
0
 62
     3
 10
438.761963
 20
117.500046
 40
3.500000
  0
TEXT
  8
0
 10
422.460297
 20
345.487762
 40
6.000000
  1
DATE : MAR ,1992
 50
0.000000
 41
1.052631
 51
0.000000
  7
STANDARD
  0
TEXT
  8
0
 10
35.750000
 20
284.475342
 40
7.000000
  1
        RAPS10-100
 50
0.000000
 41
1.052632
 51
0.000000
  7
STANDARD
  0
TEXT
  8
0
 10
2.364407
 20
344.587708
 40
7.000000
  1
ROTARY ACUTUATOR
 50
0.000000
 41
0.956938
 51
0.000000
  7
STANDARD
  0
TEXT
  8
0
 10
321.721130
 20
245.655533
 40
5.000000
  1
〃
 50
90.000000
 41
0.833333
 51
0.000000
  7
STANDARD
  0
TEXT
  8
0
 10
321.721130
 20
261.710205
 40
5.000000
  1
〃
 50
90.000000
 41
0.833333
 51
0.000000
  7
STANDARD
  0
TEXT
  8
0
 10
331.247253
 20
254.314911
 40
5.000000
  1
D
 50
90.000000
 41
0.845556
 51
0.000000
  7
STANDARD
  0
TEXT
  8
0
 10
35.750000
 20
294.475342
 40
7.000000
  1
MODEL : RAPS10-90
 50
0.000000
 41
1.052632
 51
0.000000
  7
STANDARD
  0
TEXT
  8
0
 10
427.811859
 20
4.812350
 40
7.000000
  1
KOGANEI,CORP
 50
0.000000
 41
1.052632
 51
0.000000
  7
STANDARD
  0
TEXT
  8
0
 10
316.679443
 20
284.045898
 40
3.200000
  1
            
 50
277.500000
 41
1.052632
 51
0.000000
  7
STANDARD
  0
ARC
  8
0
 10
257.247528
 20
256.646912
 40
61.499725
 50
0.000000
 51
14.999997
  0
LINE
  8
0
 10
318.747253
 20
256.646912
 11
317.900452
 21
259.524597
  0
LINE
  8
0
 10
318.747253
 20
256.646912
 11
319.452759
 21
259.562469
  0
LINE
  8
0
 10
316.651703
 20
272.564209
 11
318.087738
 21
269.930573
  0
LINE
  8
0
 10
316.651703
 20
272.564209
 11
316.578552
 21
269.565399
  0
LINE
  8
0
 10
306.747253
 20
256.646912
 11
321.033264
 21
256.646912
  0
LINE
  8
0
 10
333.747253
 20
277.144958
 11
314.443604
 21
271.972595
  0
LINE
  8
0
 10
428.693909
 20
93.787674
 11
452.820007
 21
52.000046
  0
LINE
  8
0
 10
452.820007
 20
52.000046
 11
490.255951
 21
52.000046
  0
LINE
  8
0
 10
428.693909
 20
93.787674
 11
429.470367
 21
90.889900
  0
LINE
  8
0
 10
428.693909
 20
93.787674
 11
430.815216
 21
91.666351
  0
TEXT
  8
0
 10
454.077393
 20
53.000046
 40
5.000000
  1
2-Rc1/8
 50
0.000000
 41
1.052632
 51
0.000000
  7
STANDARD
  0
TEXT
  8
0
 10
317.727325
 20
245.241531
 40
3.200000
  1
       
 50
89.900002
 41
1.052632
 51
0.000000
  7
STANDARD
  0
ARC
  8
0
 10
257.246948
 20
256.646912
 40
61.500294
 50
345.000000
 51
0.000000
  0
LINE
  8
0
 10
316.651672
 20
240.729477
 11
316.578522
 21
243.728287
  0
LINE
  8
0
 10
316.651672
 20
240.729477
 11
318.087708
 21
243.363098
  0
LINE
  8
0
 10
318.747253
 20
256.646912
 11
319.452759
 21
253.731354
  0
LINE
  8
0
 10
318.747253
 20
256.646912
 11
317.900452
 21
253.769211
  0
LINE
  8
0
 10
323.517090
 20
238.889938
 11
314.443604
 21
241.321198
  0
LINE
  8
0
 10
315.354187
 20
256.646912
 11
321.033264
 21
256.646912
  0
TEXT
  8
0
 10
332.747253
 20
241.182602
 40
5.000000
  1
　　　
 50
90.000000
 41
0.833333
 51
0.000000
  7
STANDARD
  0
ARC
  8
0
 10
257.247192
 20
256.646851
 40
76.500076
 50
345.000000
 51
15.000010
  0
LINE
  8
0
 10
331.140594
 20
236.847183
 11
331.081787
 21
239.846420
  0
LINE
  8
0
 10
331.140594
 20
236.847183
 11
332.589294
 21
239.473999
  0
LINE
  8
0
 10
331.140564
 20
276.446533
 11
332.589264
 21
273.819702
  0
LINE
  8
0
 10
331.140564
 20
276.446533
 11
331.081757
 21
273.447296
  0
LINE
  8
0
 10
323.517090
 20
238.889954
 11
333.348724
 21
236.255569
  0
LINE
  8
0
 10
323.483917
 20
274.394989
 11
333.348694
 21
277.038269
  0
ENDSEC
  0
EOF
